999
DXF file: E:\BT Custom\CADOUTPUT\_TOP.dxf
999
Pro/ENGINEER 2018400 by Parametric Technology Corporation
  0
SECTION
  2
HEADER
  9
$ACADVER
  1
AC1018
  9
$DWGCODEPAGE
  3
ANSI_1252
  9
$EXTMAX
 10
22.0
 20
17.0
 30
0.0
  9
$EXTMIN
 10
0.0
 20
0.0
 30
0.0
  9
$LIMMIN
 10
0.0
 20
0.0
  9
$LIMMAX
 10
22.0
 20
17.0
  9
$VIEWCTR
 10
11.0
 20
8.5
  9
$VIEWSIZE
 40
17.0
  9
$CLAYER
  8
0
  9
$LTSCALE
 40
1.21
  9
$CELTYPE
  6
BYLAYER
  9
$DIMSCALE
 40
1.0
  9
$DIMASZ
 40
0.1
  9
$DIMEXO
 40
0.0625
  9
$DIMDLI
 40
0.836
  9
$DIMEXE
 40
0.125
  9
$DIMCEN
 40
0.198
  9
$DIMLFAC
 40
1.0
  9
$DIMBLK
  1
_FILLED
  9
$DIMALT
 70
1
  9
$DIMALTD
 70
2
  9
$DIMALTTD
 70
2
  9
$DIMALTF
 40
25.4
  9
$DIMTXT
 40
0.08
  9
$DIMTOL
 70
1
  9
$DIMLIM
 70
0
  9
$DIMTFAC
 40
1.0
  9
$DIMTP
 40
0.001
  9
$DIMTM
 40
0.001
  9
$DIMGAP
 40
0.09
  9
$DIMDSEP
 70
46
  9
$AUNITS
 70
0
  9
$PDMODE
 70
3
  9
$PDSIZE
 40
0.06
  9
$HANDSEED
  5
2CC
  9
$TILEMODE
 70
1
  9
$MEASUREMENT
 70
0
  9
$INSUNITS
 70
1
  0
ENDSEC
  0
SECTION
  2
CLASSES
  0
CLASS
  1
ACDBDICTIONARYWDFLT
  2
AcDbDictionaryWithDefault
  3
AutoCAD 2000
 90
0
 91
1
280
0
281
0
  0
CLASS
  1
ACDBPLACEHOLDER
  2
AcDbPlaceHolder
  3
AutoCAD 2000
 90
0
 91
1
280
0
281
0
  0
CLASS
  1
LAYOUT
  2
AcDbLayout
  3
AutoCAD 2000
 90
0
 91
0
280
0
281
0
  0
ENDSEC
  0
SECTION
  2
TABLES
  0
TABLE
  2
VPORT
  5
8
100
AcDbSymbolTable
 70
2
  0
VPORT
  5
1F4
100
AcDbSymbolTableRecord
100
AcDbViewportTableRecord
  2
*ACTIVE
 70
0
 10
0.0
 20
0.0
 11
1.0
 21
1.0
 12
11.0
 22
8.5
 13
0.0
 23
0.0
 14
1.0
 24
1.0
 15
0.0
 25
0.0
 16
0.0
 26
0.0
 36
1.0
 17
0.0
 27
0.0
 37
0.0
 40
17.0
 41
1.2941176471
 42
50.0
 43
0.0
 44
0.0
 50
0.0
 51
0.0
 71
0
 72
100
 73
1
 74
1
 75
0
 76
0
 77
0
 78
0
  0
ENDTAB
  0
TABLE
  2
LTYPE
  5
5
100
AcDbSymbolTable
 70
6
  0
LTYPE
  5
14
100
AcDbSymbolTableRecord
100
AcDbLinetypeTableRecord
  2
BYBLOCK
 70
0
  3

 72
65
 73
0
 40
0.0
  0
LTYPE
  5
15
100
AcDbSymbolTableRecord
100
AcDbLinetypeTableRecord
  2
BYLAYER
 70
0
  3

 72
65
 73
0
 40
0.0
  0
LTYPE
  5
16
100
AcDbSymbolTableRecord
100
AcDbLinetypeTableRecord
  2
CONTINUOUS
 70
64
  3
Solid line
 72
65
 73
0
 40
0.0
  0
LTYPE
  5
1F5
100
AcDbSymbolTableRecord
100
AcDbLinetypeTableRecord
  2
CENTER
 70
64
  3
____ _ ____ _ ____ _ ____ _ ____ _ ____ _ ____
 72
65
 73
4
 40
0.6
 49
0.375
 74
0
 49
-0.075
 74
0
 49
0.075
 74
0
 49
-0.075
 74
0
  0
LTYPE
  5
1F6
100
AcDbSymbolTableRecord
100
AcDbLinetypeTableRecord
  2
HIDDEN
 70
64
  3
- - - - - - - - - - - - - - - - - - - -
 72
65
 73
2
 40
0.2
 49
0.1
 74
0
 49
-0.1
 74
0
  0
LTYPE
  5
1F7
100
AcDbSymbolTableRecord
100
AcDbLinetypeTableRecord
  2
PHANTOM
 70
64
  3
_____ _ _ _____ _ _ _____ _ _ _____
 72
65
 73
6
 40
0.8
 49
0.45
 74
0
 49
-0.05
 74
0
 49
0.1
 74
0
 49
-0.05
 74
0
 49
0.1
 74
0
 49
-0.05
 74
0
  0
LTYPE
  5
1F8
100
AcDbSymbolTableRecord
100
AcDbLinetypeTableRecord
  2
DOT
 70
64
  3
. . . . . . . . . . . . . . . . . . . .
 72
65
 73
2
 40
0.2
 49
0.1
 74
0
 49
-0.1
 74
0
  0
LTYPE
  5
1F9
100
AcDbSymbolTableRecord
100
AcDbLinetypeTableRecord
  2
DASHED
 70
64
  3
- - - - - - - - - - - - - - - - - - - -
 72
65
 73
2
 40
0.2
 49
0.1
 74
0
 49
-0.1
 74
0
  0
ENDTAB
  0
TABLE
  2
LAYER
  5
2
100
AcDbSymbolTable
 70
36
  0
LAYER
  5
10
100
AcDbSymbolTableRecord
100
AcDbLayerTableRecord
  2
0
 70
0
 62
7
  6
CONTINUOUS
370
-3
390
F
  0
LAYER
  5
1FA
100
AcDbSymbolTableRecord
100
AcDbLayerTableRecord
  2
DEFAULT_1
 70
0
 62
7
  6
CENTER
370
-3
390
F
  0
LAYER
  5
1FB
100
AcDbSymbolTableRecord
100
AcDbLayerTableRecord
  2
DEFAULT_2
 70
0
 62
8
  6
HIDDEN
370
-3
390
F
  0
LAYER
  5
1FC
100
AcDbSymbolTableRecord
100
AcDbLayerTableRecord
  2
DEFAULT_3
 70
0
 62
7
  6
PHANTOM
370
-3
390
F
  0
LAYER
  5
1FD
100
AcDbSymbolTableRecord
100
AcDbLayerTableRecord
  2
ALL_FEATURES
 70
0
 62
7
  6
CONTINUOUS
370
-3
390
F
  0
LAYER
  5
1FE
100
AcDbSymbolTableRecord
100
AcDbLayerTableRecord
  2
AXES_FEATURES
 70
0
 62
7
  6
CONTINUOUS
370
-3
390
F
  0
LAYER
  5
1FF
100
AcDbSymbolTableRecord
100
AcDbLayerTableRecord
  2
DEFAULT_COORDINATE_SYSTEM
 70
0
 62
7
  6
CONTINUOUS
370
-3
390
F
  0
LAYER
  5
200
100
AcDbSymbolTableRecord
100
AcDbLayerTableRecord
  2
DEFAULT_DATUM_AXES
 70
0
 62
7
  6
CONTINUOUS
370
-3
390
F
  0
LAYER
  5
201
100
AcDbSymbolTableRecord
100
AcDbLayerTableRecord
  2
DEFAULT_DATUM_PLANES
 70
0
 62
7
  6
CONTINUOUS
370
-3
390
F
  0
LAYER
  5
202
100
AcDbSymbolTableRecord
100
AcDbLayerTableRecord
  2
DIMENSIONS
 70
0
 62
7
  6
CONTINUOUS
370
-3
390
F
  0
ENDTAB
  0
TABLE
  2
STYLE
  5
3
100
AcDbSymbolTable
 70
1
  0
STYLE
  5
11
100
AcDbSymbolTableRecord
100
AcDbTextStyleTableRecord
  2
STANDARD
 70
0
 40
0.0
 41
0.8
 50
0.0
 71
0
 42
0.2
  3
txt
  4

  0
STYLE
  5
203
100
AcDbSymbolTableRecord
100
AcDbTextStyleTableRecord
  2
TEXTSTYLE_1
 70
0
 40
0.0
 41
0.8
 50
0.0
 71
0
 42
0.2
  3
gdt
  4

  0
ENDTAB
  0
TABLE
  2
VIEW
  5
6
100
AcDbSymbolTable
 70
0
  0
ENDTAB
  0
TABLE
  2
UCS
  5
7
100
AcDbSymbolTable
 70
0
  0
ENDTAB
  0
TABLE
  2
APPID
  5
9
100
AcDbSymbolTable
 70
1
  0
APPID
  5
204
100
AcDbSymbolTableRecord
100
AcDbRegAppTableRecord
  2
ACAD
 70
0
  0
ENDTAB
  0
TABLE
  2
BLOCK_RECORD
  5
1
100
AcDbSymbolTable
 70
0
  0
BLOCK_RECORD
  5
205
100
AcDbSymbolTableRecord
100
AcDbBlockTableRecord
  2
*Model_Space
  0
BLOCK_RECORD
  5
206
100
AcDbSymbolTableRecord
100
AcDbBlockTableRecord
  2
*Paper_Space
  0
BLOCK_RECORD
  5
207
100
AcDbSymbolTableRecord
100
AcDbBlockTableRecord
  2
_FILLED
  0
ENDTAB
  0
TABLE
  2
DIMSTYLE
  5
A
100
AcDbSymbolTable
 70
1
100
AcDbDimStyleTable
 71
0
  0
DIMSTYLE
105
208
100
AcDbSymbolTableRecord
100
AcDbDimStyleTableRecord
  2
STANDARD
 70
0
  3

  4

 40
1.0
 41
0.1
 42
0.0625
 43
0.38
 44
0.125
 45
0.0
 46
0.0
 47
0.001
 48
0.001
140
0.08
141
0.09
142
0.0
143
25.4
144
1.0
145
0.0
146
1.0
147
0.09
 71
1.0
 72
0.0
 73
1
 74
1
 75
0
 76
0
 77
0
 78
4
 79
1
170
1
171
2
172
0
173
0
174
0
175
0
176
0
177
0
178
0
270
2
179
3
271
3
272
3
273
2
274
2
275
0
280
0
281
0
282
0
283
1
284
4
285
0
286
0
287
3
288
0
340
11
278
46
341
207
342
207
343
207
344
207
  0
ENDTAB
  0
ENDSEC
  0
SECTION
  2
BLOCKS
  0
BLOCK
  5
20
100
AcDbEntity
  8
0
100
AcDbBlockBegin
  2
*Model_Space
 70
0
 10
0.0
 20
0.0
 30
0.0
  3
*Model_Space
  1

  0
ENDBLK
  5
21
100
AcDbEntity
  8
0
100
AcDbBlockEnd
  0
BLOCK
  5
1C
100
AcDbEntity
  8
0
100
AcDbBlockBegin
  2
*Paper_Space
 70
0
 10
0.0
 20
0.0
 30
0.0
  3
*Paper_Space
  1

  0
ENDBLK
  5
1D
100
AcDbEntity
  8
0
100
AcDbBlockEnd
  0
BLOCK
  5
209
100
AcDbEntity
  8
0
100
AcDbBlockBegin
  2
_FILLED
 70
64
 10
0.0
 20
0.0
  3
_FILLED
  1

  0
SOLID
  5
20A
100
AcDbEntity
  8
0
  6
BYBLOCK
 62
0
100
AcDbTrace
 10
0.0
 20
0.0
 11
-1.0
 21
0.2
 12
-1.0
 22
-0.2
 13
-1.0
 23
-0.2
  0
ENDBLK
  5
20B
100
AcDbEntity
  8
0
  6
BYBLOCK
 62
0
100
AcDbBlockEnd
  0
ENDSEC
  0
SECTION
  2
ENTITIES
  0
LINE
  5
20C
100
AcDbEntity
  8
0
100
AcDbLine
 62
7
  6
CONTINUOUS
 10
10.6765926116
 20
-3.0421857622
 11
10.7052817543
 21
-3.0509569134
  0
LINE
  5
20D
100
AcDbEntity
  8
0
100
AcDbLine
 62
7
  6
CONTINUOUS
 10
11.3890396548
 20
-3.2600026822
 11
11.4177287975
 21
-3.2687738334
  0
LINE
  5
20E
100
AcDbEntity
  8
0
100
AcDbLine
 62
7
  6
CONTINUOUS
 10
11.3893028968
 20
-3.3374000284
 11
11.362814469
 21
-3.3233158815
  0
LINE
  5
20F
100
AcDbEntity
  8
0
100
AcDbLine
 62
7
  6
CONTINUOUS
 10
10.7050185123
 20
-2.9735595672
 11
10.7315069401
 21
-2.9876437141
  0
LINE
  5
210
100
AcDbEntity
  8
0
100
AcDbLine
 62
7
  6
CONTINUOUS
 10
10.8596606652
 20
-0.2574797978
 11
11.2346607439
 21
-0.2574797978
  0
LINE
  5
211
100
AcDbEntity
  8
0
100
AcDbLine
 62
7
  6
CONTINUOUS
 10
10.8596607045
 20
0.4560326076
 11
11.2346607045
 21
0.4560326076
  0
LINE
  5
212
100
AcDbEntity
  8
0
100
AcDbLine
 62
7
  6
CONTINUOUS
 10
6.0547654163
 20
9.1470607737
 11
6.0551337869
 21
9.1478425439
  0
LWPOLYLINE
  5
213
100
AcDbEntity
  8
0
100
AcDbPolyline
 62
7
  6
CONTINUOUS
 90
24
 70
0
 10
6.0551337869
 20
9.1478425439
 10
6.0557925307
 20
9.1490852662
 10
6.0568093563
 20
9.1507851286
 10
6.0582604621
 20
9.1529233071
 10
6.0602540898
 20
9.1554917957
 10
6.0628957963
 20
9.1584379008
 10
6.0662579066
 20
9.1616449181
 10
6.0703481989
 20
9.1649350616
 10
6.0750994462
 20
9.1681024886
 10
6.0803678619
 20
9.1709477556
 10
6.0859724553
 20
9.1733226827
 10
6.0916888155
 20
9.1751337583
 10
6.0972818316
 20
9.1763565308
 10
6.1025865322
 20
9.1770369677
 10
6.1074962075
 20
9.1772548836
 10
6.1119531849
 20
9.177100647
 10
6.1159322305
 20
9.1766628001
 10
6.1194015863
 20
9.1760282417
 10
6.1223338953
 20
9.1752843069
 10
6.1246882745
 20
9.1745253305
 10
6.1264149942
 20
9.1738542172
 10
6.1275578703
 20
9.1733376539
 10
6.128184245
 20
9.1730171064
 10
6.1283392649
 20
9.1729304322
  0
LINE
  5
214
100
AcDbEntity
  8
0
100
AcDbLine
 62
7
  6
CONTINUOUS
 10
6.2889547171
 20
9.5526881365
 11
6.2889918882
 21
9.5527387089
  0
LINE
  5
215
100
AcDbEntity
  8
0
100
AcDbLine
 62
7
  6
CONTINUOUS
 10
10.865240474
 20
-2.8133376056
 11
10.8793246208
 21
-2.8398260334
  0
LINE
  5
216
100
AcDbEntity
  8
0
100
AcDbLine
 62
7
  6
CONTINUOUS
 10
11.2149967882
 20
-3.4711335623
 11
11.2290809351
 21
-3.49762199
  0
LINE
  5
217
100
AcDbEntity
  8
0
100
AcDbLine
 62
7
  6
CONTINUOUS
 10
6.8721607045
 20
7.8846162352
 11
6.8721607045
 21
8.4624180915
  0
LWPOLYLINE
  5
218
100
AcDbEntity
  8
0
100
AcDbPolyline
 62
7
  6
CONTINUOUS
 90
25
 70
0
 10
6.8721614899
 20
7.8845999109
 10
6.8721591221
 20
7.8844259125
 10
6.8721241056
 20
7.8837290498
 10
6.8720013147
 20
7.882485752
 10
6.8717214742
 20
7.8806589812
 10
6.8712092758
 20
7.8782614936
 10
6.8704045457
 20
7.8753927649
 10
6.8692398057
 20
7.8721056059
 10
6.8676519399
 20
7.8684659965
 10
6.865581271
 20
7.8645460268
 10
6.8629658282
 20
7.86041596
 10
6.8597725237
 20
7.8561907284
 10
6.855978184
 20
7.8519856463
 10
6.8516149757
 20
7.8479538345
 10
6.8468043586
 20
7.8442768044
 10
6.8417209522
 20
7.8411001059
 10
6.8365768044
 20
7.8385162305
 10
6.8316318837
 20
7.8365676781
 10
6.8271133923
 20
7.8352189351
 10
6.8231874537
 20
7.834377368
 10
6.8199225275
 20
7.8339188975
 10
6.8173077232
 20
7.833722103
 10
6.8152942483
 20
7.8336870604
 10
6.8138639389
 20
7.8337366807
 10
6.8129807089
 20
7.8338093172
  0
LINE
  5
219
100
AcDbEntity
  8
0
100
AcDbLine
 62
7
  6
CONTINUOUS
 10
7.2221607045
 20
7.8846171948
 11
7.2221607045
 21
8.4624233694
  0
LWPOLYLINE
  5
21A
100
AcDbEntity
  8
0
100
AcDbPolyline
 62
7
  6
CONTINUOUS
 90
13
 70
0
 10
7.2221607631
 20
8.4624187283
 10
7.2223564131
 20
8.468352092
 10
7.223140555
 20
8.4756649072
 10
7.2245188762
 20
8.4828879998
 10
7.2264823096
 20
8.4899746098
 10
7.2290183349
 20
8.4968787462
 10
7.2321110457
 20
8.5035554576
 10
7.2357398327
 20
8.5099588145
 10
7.2398763577
 20
8.5160397369
 10
7.2444871884
 20
8.5217530604
 10
7.2495414663
 20
8.5270648825
 10
7.2550016
 20
8.5319396207
 10
7.2605209571
 20
8.5361188317
  0
LWPOLYLINE
  5
21B
100
AcDbEntity
  8
0
100
AcDbPolyline
 62
7
  6
CONTINUOUS
 90
13
 70
0
 10
7.420881678
 20
8.8135811421
 10
7.4217928926
 20
8.8208698824
 10
7.4232846902
 20
8.8280173332
 10
7.4253596339
 20
8.8350458934
 10
7.42800608
 20
8.8418974461
 10
7.4312050874
 20
8.8485154451
 10
7.4349345653
 20
8.8548520226
 10
7.439168456
 20
8.8608625687
 10
7.4438780263
 20
8.866506664
 10
7.4490320385
 20
8.8717472059
 10
7.4545964527
 20
8.8765496957
 10
7.4605346028
 20
8.8808824133
 10
7.4655695298
 20
8.8840149066
  0
LINE
  5
21C
100
AcDbEntity
  8
0
100
AcDbLine
 62
7
  6
CONTINUOUS
 10
7.7909613978
 20
9.4760263269
 11
7.2905672179
 21
9.1871236124
  0
LWPOLYLINE
  5
21D
100
AcDbEntity
  8
0
100
AcDbPolyline
 62
7
  6
CONTINUOUS
 90
13
 70
0
 10
7.2905697383
 20
9.1871255367
 10
7.2853466409
 20
9.184334829
 10
7.2786337305
 20
9.1813610994
 10
7.2717007784
 20
9.1789444292
 10
7.2645939209
 20
9.1771008994
 10
7.2573604492
 20
9.175842777
 10
7.2500484993
 20
9.1751784349
 10
7.2427067426
 20
9.1751122944
 10
7.2353840436
 20
9.1756447932
 10
7.2281292118
 20
9.1767723686
 10
7.220991233
 20
9.1784872927
 10
7.2140182609
 20
9.1807776922
 10
7.2072502688
 20
9.1836309193
  0
LINE
  5
21E
100
AcDbEntity
  8
0
100
AcDbLine
 62
7
  6
CONTINUOUS
 10
7.9659617084
 20
9.1729176149
 11
7.4655694944
 21
8.8840160355
  0
LWPOLYLINE
  5
21F
100
AcDbEntity
  8
0
100
AcDbPolyline
 62
7
  6
CONTINUOUS
 90
25
 70
0
 10
7.9659764822
 20
9.1729269142
 10
7.9661305444
 20
9.1730130766
 10
7.9667552574
 20
9.1733329482
 10
7.9678968622
 20
9.1738494265
 10
7.9696222196
 20
9.1745209629
 10
7.9719658669
 20
9.1752782371
 10
7.9748702888
 20
9.1760178211
 10
7.9783158541
 20
9.1766522385
 10
7.9822762658
 20
9.1770938002
 10
7.9867194886
 20
9.1772549352
 10
7.9916177387
 20
9.1770466723
 10
7.9968967578
 20
9.1763810987
 10
8.0024598199
 20
9.1751797703
 10
8.0081514786
 20
9.1733953753
 10
8.0137460765
 20
9.1710471047
 10
8.0190254092
 20
9.1682204117
 10
8.0238059681
 20
9.1650576699
 10
8.0279314366
 20
9.1617610065
 10
8.0313259576
 20
9.1585413207
 10
8.0339922799
 20
9.1555824718
 10
8.0360055643
 20
9.1530002467
 10
8.0374749937
 20
9.1508435994
 10
8.0385088344
 20
9.1491206917
 10
8.0391785269
 20
9.1478602954
 10
8.0395543364
 20
9.1470642647
  0
LWPOLYLINE
  5
220
100
AcDbEntity
  8
0
100
AcDbPolyline
 62
7
  6
CONTINUOUS
 90
13
 70
0
 10
6.8851855414
 20
9.1828339629
 10
6.8802476936
 20
9.1807562928
 10
6.8732823987
 20
9.1784732646
 10
6.8661499323
 20
9.1767637205
 10
6.8588995755
 20
9.1756403424
 10
6.8515814114
 20
9.1751112305
 10
6.844244357
 20
9.1751799803
 10
6.8369372683
 20
9.1758461459
 10
6.8297087515
 20
9.1771052917
 10
6.8226068274
 20
9.1789490457
 10
6.8156786705
 20
9.1813651592
 10
6.8089703082
 20
9.1843375853
 10
6.8037518108
 20
9.187126048
  0
LINE
  5
221
100
AcDbEntity
  8
0
100
AcDbLine
 62
7
  6
CONTINUOUS
 10
11.1604547401
 20
-3.5260478907
 11
11.151683589
 21
-3.4973587481
  0
LINE
  5
222
100
AcDbEntity
  8
0
100
AcDbLine
 62
7
  6
CONTINUOUS
 10
10.933866669
 20
-2.7849117049
 11
10.9426378201
 21
-2.8136008476
  0
LWPOLYLINE
  5
223
100
AcDbEntity
  8
0
100
AcDbPolyline
 62
7
  6
CONTINUOUS
 90
13
 70
0
 10
6.8334492804
 20
8.5363768539
 10
6.8393084875
 20
8.531948574
 10
6.8447550044
 20
8.5270884307
 10
6.8498107736
 20
8.5217789219
 10
6.8544292549
 20
8.5160598465
 10
6.858569355
 20
8.5099769189
 10
6.8621998834
 20
8.5035738799
 10
6.8652947704
 20
8.4968962685
 10
6.8678332789
 20
8.4899894587
 10
6.8697989187
 20
8.4828990893
 10
6.8711788334
 20
8.4756719071
 10
6.8719638589
 20
8.4683555403
 10
6.8721598119
 20
8.4624210139
  0
LWPOLYLINE
  5
224
100
AcDbEntity
  8
0
100
AcDbPolyline
 62
7
  6
CONTINUOUS
 90
24
 70
0
 10
7.8058577263
 20
9.5519814824
 10
7.806603727
 20
9.5507913019
 10
7.8075664912
 20
9.5490630821
 10
7.8086916853
 20
9.5467404476
 10
7.8099183971
 20
9.5437338973
 10
7.8111484504
 20
9.5399786126
 10
7.8122450597
 20
9.535470024
 10
7.8130508177
 20
9.5302891369
 10
7.8134211105
 20
9.524595392
 10
7.8132545131
 20
9.5186115399
 10
7.8125122578
 20
9.5125683561
 10
7.8112248499
 20
9.5067079277
 10
7.8094884292
 20
9.5012473956
 10
7.8074255064
 20
9.4963077855
 10
7.8051589116
 20
9.4919421595
 10
7.8027965448
 20
9.4881562599
 10
7.8004279506
 20
9.4849274375
 10
7.7981443417
 20
9.4822394257
 10
7.7960350779
 20
9.4800720112
 10
7.7941991234
 20
9.4784104512
 10
7.7927513499
 20
9.477247589
 10
7.7917284484
 20
9.4765129511
 10
7.7911331559
 20
9.4761277985
 10
7.7909777844
 20
9.4760352191
  0
LINE
  5
225
100
AcDbEntity
  8
0
100
AcDbLine
 62
7
  6
CONTINUOUS
 10
8.0395543364
 20
9.1470642647
 11
8.0395794917
 21
9.1470069317
  0
LINE
  5
226
100
AcDbEntity
  8
0
100
AcDbLine
 62
7
  6
CONTINUOUS
 10
6.1283596921
 20
9.1729176198
 11
6.6287615449
 21
8.8840104754
  0
LWPOLYLINE
  5
227
100
AcDbEntity
  8
0
100
AcDbPolyline
 62
7
  6
CONTINUOUS
 90
13
 70
0
 10
6.6287457081
 20
8.8840182834
 10
6.6337984997
 20
8.8808745215
 10
6.6397475989
 20
8.8765318109
 10
6.6453192696
 20
8.8717194957
 10
6.6504792554
 20
8.866467639
 10
6.6551951872
 20
8.8608084103
 10
6.6594366993
 20
8.8547759954
 10
6.6631722616
 20
8.8484126247
 10
6.6663682826
 20
8.8417779218
 10
6.669000485
 20
8.8349357607
 10
6.6710581662
 20
8.8279377643
 10
6.6725334468
 20
8.8208498971
 10
6.6732412544
 20
8.8152565342
  0
LINE
  5
228
100
AcDbEntity
  8
0
100
AcDbLine
 62
7
  6
CONTINUOUS
 10
7.8053660562
 20
9.5526895624
 11
7.8058577263
 21
9.5519814824
  0
LINE
  5
229
100
AcDbEntity
  8
0
100
AcDbLine
 62
7
  6
CONTINUOUS
 10
10.8596607045
 20
0.4560326076
 11
10.8596607045
 21
-0.2574797978
  0
LWPOLYLINE
  5
22A
100
AcDbEntity
  8
0
100
AcDbPolyline
 62
7
  6
CONTINUOUS
 90
13
 70
0
 10
14.8851809141
 20
9.1828320159
 10
14.8802476978
 20
9.1807562944
 10
14.8732824074
 20
9.178473267
 10
14.8661499454
 20
9.1767637231
 10
14.8588995933
 20
9.1756403444
 10
14.8515814338
 20
9.1751112312
 10
14.8442443839
 20
9.1751799789
 10
14.8369372995
 20
9.1758461418
 10
14.8297087868
 20
9.1771052841
 10
14.8226068662
 20
9.1789490339
 10
14.8156787124
 20
9.1813651426
 10
14.8089703527
 20
9.1843375634
 10
14.8037518108
 20
9.187126048
  0
LINE
  5
22B
100
AcDbEntity
  8
0
100
AcDbLine
 62
7
  6
CONTINUOUS
 10
15.2813538349
 20
7.8338112303
 11
15.2805216657
 21
7.8337407594
  0
LINE
  5
22C
100
AcDbEntity
  8
0
100
AcDbLine
 62
7
  6
CONTINUOUS
 10
6.8129807089
 20
7.8338093172
 11
6.812917909
 21
7.8338162362
  0
LINE
  5
22D
100
AcDbEntity
  8
0
100
AcDbLine
 62
7
  6
CONTINUOUS
 10
6.3033594395
 20
9.476026657
 11
6.8037544452
 21
9.1871234658
  0
LWPOLYLINE
  5
22E
100
AcDbEntity
  8
0
100
AcDbPolyline
 62
7
  6
CONTINUOUS
 90
25
 70
0
 10
6.3033430265
 20
9.4760351048
 10
6.3031935555
 20
9.4761241432
 10
6.3026072204
 20
9.4765031887
 10
6.3015908244
 20
9.4772321648
 10
6.3001467001
 20
9.4783900473
 10
6.2983199651
 20
9.4800394494
 10
6.296230284
 20
9.482180629
 10
6.2939610366
 20
9.4848419648
 10
6.2916009452
 20
9.4880446594
 10
6.2892416412
 20
9.4918047395
 10
6.2869737581
 20
9.496142723
 10
6.2849090999
 20
9.5010413429
 10
6.2831655644
 20
9.5064524301
 10
6.2818612935
 20
9.5122662694
 10
6.2810924765
 20
9.5182791109
 10
6.2808946564
 20
9.5242607046
 10
6.2812372502
 20
9.5299828197
 10
6.2820247331
 20
9.5352105094
 10
6.283111847
 20
9.5397653095
 10
6.2843373265
 20
9.5435566446
 10
6.2855653473
 20
9.5465974181
 10
6.2867021989
 20
9.5489624531
 10
6.2876865277
 20
9.5507383243
 10
6.2884511328
 20
9.5519616997
 10
6.2889547171
 20
9.5526881365
  0
LINE
  5
22F
100
AcDbEntity
  8
0
100
AcDbLine
 62
7
  6
CONTINUOUS
 10
11.2346607045
 20
0.4560326076
 11
11.2346607045
 21
-0.2574797978
  0
LINE
  5
230
100
AcDbEntity
  8
0
100
AcDbLine
 62
7
  6
CONTINUOUS
 10
15.7909613978
 20
9.4760263269
 11
15.2905672179
 21
9.1871236124
  0
LWPOLYLINE
  5
231
100
AcDbEntity
  8
0
100
AcDbPolyline
 62
7
  6
CONTINUOUS
 90
25
 70
0
 10
15.9659764823
 20
9.1729269142
 10
15.9661305131
 20
9.1730130595
 10
15.9667551928
 20
9.1733329168
 10
15.9678967636
 20
9.1738493848
 10
15.9696220877
 20
9.1745209157
 10
15.9719657068
 20
9.1752781906
 10
15.974870107
 20
9.176017781
 10
15.9783156545
 20
9.1766522088
 10
15.9822760533
 20
9.1770937842
 10
15.9867192673
 20
9.1772549355
 10
15.9916175135
 20
9.177046691
 10
15.996896537
 20
9.1763811361
 10
16.0024596101
 20
9.1751798256
 10
16.0081512878
 20
9.173395445
 10
16.0137459105
 20
9.1710471838
 10
16.0190252708
 20
9.1682204945
 10
16.0238058573
 20
9.1650577508
 10
16.0279313521
 20
9.1617610804
 10
16.0313258957
 20
9.1585413844
 10
16.0339922366
 20
9.1555825237
 10
16.0360055354
 20
9.1530002864
 10
16.0374749757
 20
9.1508436276
 10
16.0385088244
 20
9.1491207095
 10
16.0391785221
 20
9.1478603049
 10
16.0395543347
 20
9.1470642686
  0
LWPOLYLINE
  5
232
100
AcDbEntity
  8
0
100
AcDbPolyline
 62
7
  6
CONTINUOUS
 90
13
 70
0
 10
15.2905697383
 20
9.1871255367
 10
15.2853466544
 20
9.1843348357
 10
15.2786337433
 20
9.1813611044
 10
15.2717007902
 20
9.1789444328
 10
15.2645939316
 20
9.1771009017
 10
15.2573604587
 20
9.1758427783
 10
15.2500485075
 20
9.1751784353
 10
15.2427067494
 20
9.1751122942
 10
15.235384049
 20
9.1756447926
 10
15.2281292159
 20
9.1767723678
 10
15.2209912357
 20
9.178487292
 10
15.2140182621
 20
9.1807776917
 10
15.2072502688
 20
9.1836309193
  0
LINE
  5
233
100
AcDbEntity
  8
0
100
AcDbLine
 62
7
  6
CONTINUOUS
 10
7.2813538349
 20
7.8338112303
 11
7.2805216648
 21
7.8337407593
  0
LWPOLYLINE
  5
234
100
AcDbEntity
  8
0
100
AcDbPolyline
 62
7
  6
CONTINUOUS
 90
24
 70
0
 10
15.2805216657
 20
7.8337407594
 10
15.2791332309
 20
7.8336884244
 10
15.2771739582
 20
7.8337153679
 10
15.2746352897
 20
7.8338947789
 10
15.2714738178
 20
7.8343196237
 10
15.2676819021
 20
7.8351016182
 10
15.2633133788
 20
7.8363578796
 10
15.258497049
 20
7.8381872444
 10
15.2534258194
 20
7.8406448155
 10
15.248320535
 20
7.8437294956
 10
15.2434057269
 20
7.8473739912
 10
15.2388985888
 20
7.8514304054
 10
15.2349614905
 20
7.8556961376
 10
15.2316583034
 20
7.8599811906
 10
15.2289704702
 20
7.8641496197
 10
15.2268386714
 20
7.8681162721
 10
15.2251964349
 20
7.8718180836
 10
15.2239836651
 20
7.8751862803
 10
15.2231405999
 20
7.878147043
 10
15.2226136347
 20
7.8805776458
 10
15.2223268059
 20
7.8824220431
 10
15.2221998689
 20
7.8836861918
 10
15.2221629729
 20
7.8844069935
 10
15.2221603431
 20
7.8845956426
  0
LWPOLYLINE
  5
235
100
AcDbEntity
  8
0
100
AcDbPolyline
 62
7
  6
CONTINUOUS
 90
24
 70
0
 10
7.2805216648
 20
7.8337407593
 10
7.2791332294
 20
7.8336884243
 10
7.277173956
 20
7.833715368
 10
7.2746352863
 20
7.8338947793
 10
7.2714738128
 20
7.8343196245
 10
7.2676818951
 20
7.8351016199
 10
7.2633133699
 20
7.8363578826
 10
7.2584970383
 20
7.838187249
 10
7.2534258075
 20
7.840644822
 10
7.2483205222
 20
7.8437295041
 10
7.2434057142
 20
7.8473740017
 10
7.2388985768
 20
7.8514304172
 10
7.23496148
 20
7.85569615
 10
7.2316582945
 20
7.8599812032
 10
7.2289704628
 20
7.8641496324
 10
7.2268386653
 20
7.8681162845
 10
7.22519643
 20
7.8718180958
 10
7.2239836614
 20
7.8751862918
 10
7.2231405973
 20
7.8781470536
 10
7.222613633
 20
7.8805776547
 10
7.2223268051
 20
7.88242205
 10
7.2221998685
 20
7.8836861965
 10
7.2221629728
 20
7.884406996
 10
7.2221603431
 20
7.8845956426
  0
LINE
  5
236
100
AcDbEntity
  8
0
100
AcDbLine
 62
7
  6
CONTINUOUS
 10
14.8129807127
 20
7.8338093168
 11
14.8129179123
 21
7.8338162358
  0
LINE
  5
237
100
AcDbEntity
  8
0
100
AcDbLine
 62
7
  6
CONTINUOUS
 10
14.2889547154
 20
9.5526881341
 11
14.2889918866
 21
9.5527387069
  0
LINE
  5
238
100
AcDbEntity
  8
0
100
AcDbLine
 62
7
  6
CONTINUOUS
 10
15.9659617084
 20
9.1729176149
 11
15.4655694944
 21
8.8840160355
  0
LINE
  5
239
100
AcDbEntity
  8
0
100
AcDbLine
 62
7
  6
CONTINUOUS
 10
14.0547654163
 20
9.1470607735
 11
14.0551337853
 21
9.1478425407
  0
LWPOLYLINE
  5
23A
100
AcDbEntity
  8
0
100
AcDbPolyline
 62
7
  6
CONTINUOUS
 90
24
 70
0
 10
14.0551337853
 20
9.1478425407
 10
14.0557925275
 20
9.1490852604
 10
14.0568093506
 20
9.1507851196
 10
14.0582604528
 20
9.1529232942
 10
14.0602540753
 20
9.1554917782
 10
14.062895775
 20
9.1584378788
 10
14.0662578773
 20
9.1616448923
 10
14.0703481605
 20
9.1649350334
 10
14.0750993986
 20
9.1681024599
 10
14.0803678052
 20
9.1709477283
 10
14.0859723908
 20
9.1733226589
 10
14.0916887454
 20
9.1751337396
 10
14.0972817591
 20
9.1763565183
 10
14.1025864594
 20
9.1770369615
 10
14.1074961365
 20
9.1772548833
 10
14.1119531169
 20
9.177100652
 10
14.1159321666
 20
9.1766628095
 10
14.1194015279
 20
9.1760282545
 10
14.1223338436
 20
9.1752843219
 10
14.1246882322
 20
9.1745253457
 10
14.1264149625
 20
9.1738542306
 10
14.1275578495
 20
9.173337664
 10
14.1281842349
 20
9.173017112
 10
14.1283392649
 20
9.1729304322
  0
LINE
  5
23B
100
AcDbEntity
  8
0
100
AcDbLine
 62
7
  6
CONTINUOUS
 10
10.933866669
 20
-3.5260478907
 11
10.9426378201
 21
-3.4973587481
  0
LINE
  5
23C
100
AcDbEntity
  8
0
100
AcDbLine
 62
7
  6
CONTINUOUS
 10
11.151683589
 20
-2.8136008476
 11
11.1604547401
 21
-2.7849117049
  0
LINE
  5
23D
100
AcDbEntity
  8
0
100
AcDbLine
 62
7
  6
CONTINUOUS
 10
14.1283596921
 20
9.1729176198
 11
14.6287615449
 21
8.8840104754
  0
LINE
  5
23E
100
AcDbEntity
  8
0
100
AcDbLine
 62
7
  6
CONTINUOUS
 10
14.3033594395
 20
9.476026657
 11
14.8037544452
 21
9.1871234658
  0
LWPOLYLINE
  5
23F
100
AcDbEntity
  8
0
100
AcDbPolyline
 62
7
  6
CONTINUOUS
 90
25
 70
0
 10
14.3033430265
 20
9.4760351049
 10
14.3031935771
 20
9.47612413
 10
14.3026072628
 20
9.47650316
 10
14.3015908854
 20
9.4772321187
 10
14.3001467766
 20
9.4783899825
 10
14.298320051
 20
9.4800393671
 10
14.2962303736
 20
9.482180531
 10
14.2939611261
 20
9.4848418522
 10
14.2916010309
 20
9.488044534
 10
14.2892417198
 20
9.491804603
 10
14.2869738267
 20
9.4961425778
 10
14.2849091554
 20
9.5010411938
 10
14.283165605
 20
9.5064522819
 10
14.2818613184
 20
9.5122661282
 10
14.2810924869
 20
9.5182789818
 10
14.2808946548
 20
9.5242605913
 10
14.2812372401
 20
9.529982724
 10
14.2820247179
 20
9.535210432
 10
14.28311183
 20
9.5397652494
 10
14.2843373101
 20
9.5435565998
 10
14.2855653332
 20
9.5465973864
 10
14.2867021879
 20
9.5489624321
 10
14.2876865203
 20
9.5507383117
 10
14.2884511286
 20
9.5519616934
 10
14.2889547154
 20
9.5526881341
  0
LWPOLYLINE
  5
240
100
AcDbEntity
  8
0
100
AcDbPolyline
 62
7
  6
CONTINUOUS
 90
13
 70
0
 10
14.6287457081
 20
8.8840182834
 10
14.6337984998
 20
8.8808745214
 10
14.6397475991
 20
8.8765318107
 10
14.6453192699
 20
8.8717194955
 10
14.6504792557
 20
8.8664676386
 10
14.6551951876
 20
8.8608084098
 10
14.6594366997
 20
8.8547759947
 10
14.6631722621
 20
8.8484126239
 10
14.666368283
 20
8.8417779208
 10
14.6690004854
 20
8.8349357596
 10
14.6710581664
 20
8.8279377635
 10
14.6725334469
 20
8.8208498967
 10
14.6732588381
 20
8.8151175817
  0
LWPOLYLINE
  5
241
100
AcDbEntity
  8
0
100
AcDbPolyline
 62
7
  6
CONTINUOUS
 90
13
 70
0
 10
14.8334492803
 20
8.536376854
 10
14.8393084877
 20
8.5319485738
 10
14.8447550044
 20
8.5270884307
 10
14.8498107735
 20
8.5217789221
 10
14.8544292547
 20
8.5160598467
 10
14.8585693549
 20
8.5099769191
 10
14.8621998833
 20
8.50357388
 10
14.8652947703
 20
8.4968962686
 10
14.8678332789
 20
8.4899894588
 10
14.8697989187
 20
8.4828990894
 10
14.8711788334
 20
8.4756719072
 10
14.8719638589
 20
8.4683555403
 10
14.8721598119
 20
8.4624210139
  0
LINE
  5
242
100
AcDbEntity
  8
0
100
AcDbLine
 62
7
  6
CONTINUOUS
 10
14.8721607045
 20
7.8846162352
 11
14.8721607045
 21
8.4624180915
  0
LINE
  5
243
100
AcDbEntity
  8
0
100
AcDbLine
 62
7
  6
CONTINUOUS
 10
15.2221607045
 20
7.8846171948
 11
15.2221607045
 21
8.4624233694
  0
LWPOLYLINE
  5
244
100
AcDbEntity
  8
0
100
AcDbPolyline
 62
7
  6
CONTINUOUS
 90
25
 70
0
 10
14.8721614899
 20
7.8845999109
 10
14.8721591229
 20
7.8844259448
 10
14.8721241102
 20
7.8837291151
 10
14.8720013267
 20
7.8824858491
 10
14.871721497
 20
7.8806591073
 10
14.8712093119
 20
7.8782616409
 10
14.8704045967
 20
7.8753929265
 10
14.869239873
 20
7.872105777
 10
14.867652024
 20
7.8684661717
 10
14.865581372
 20
7.8645462016
 10
14.8629659451
 20
7.8604161292
 10
14.8597726533
 20
7.8561908856
 10
14.8559783224
 20
7.8519857867
 10
14.8516151168
 20
7.8479539534
 10
14.8468044959
 20
7.8442768994
 10
14.84172108
 20
7.8411001776
 10
14.8365769181
 20
7.8385162811
 10
14.83163198
 20
7.8365677112
 10
14.8271134704
 20
7.835218955
 10
14.8231875143
 20
7.8343773786
 10
14.8199225721
 20
7.8339189022
 10
14.8173077537
 20
7.8337221043
 10
14.8152942669
 20
7.8336870602
 10
14.8138639486
 20
7.8337366801
 10
14.8129807127
 20
7.8338093168
  0
LWPOLYLINE
  5
245
100
AcDbEntity
  8
0
100
AcDbPolyline
 62
7
  6
CONTINUOUS
 90
13
 70
0
 10
15.2221607631
 20
8.4624187283
 10
15.2223564021
 20
8.468351926
 10
15.2231405327
 20
8.4756647571
 10
15.224518845
 20
8.4828878663
 10
15.2264822721
 20
8.4899744933
 10
15.2290182936
 20
8.4968786466
 10
15.2321110031
 20
8.5035553747
 10
15.235739791
 20
8.5099587475
 10
15.2398763194
 20
8.5160396853
 10
15.2444871558
 20
8.5217530233
 10
15.249541442
 20
8.5270648589
 10
15.2550015864
 20
8.5319396095
 10
15.2605209438
 20
8.5361188216
  0
LWPOLYLINE
  5
246
100
AcDbEntity
  8
0
100
AcDbPolyline
 62
7
  6
CONTINUOUS
 90
13
 70
0
 10
15.420881678
 20
8.8135811415
 10
15.4217928926
 20
8.8208698823
 10
15.4232846903
 20
8.8280173335
 10
15.4253596341
 20
8.8350458938
 10
15.4280060802
 20
8.8418974465
 10
15.4312050876
 20
8.8485154455
 10
15.4349345654
 20
8.8548520229
 10
15.4391684562
 20
8.8608625689
 10
15.4438780264
 20
8.8665066641
 10
15.4490320386
 20
8.8717472061
 10
15.4545964528
 20
8.8765496958
 10
15.4605346028
 20
8.8808824134
 10
15.4655695298
 20
8.8840149066
  0
LINE
  5
247
100
AcDbEntity
  8
0
100
AcDbLine
 62
7
  6
CONTINUOUS
 10
11.2290809351
 20
-2.8133376056
 11
11.2149967882
 21
-2.8398260334
  0
LINE
  5
248
100
AcDbEntity
  8
0
100
AcDbLine
 62
7
  6
CONTINUOUS
 10
10.865240474
 20
-3.49762199
 11
10.8793246208
 21
-3.4711335623
  0
LINE
  5
249
100
AcDbEntity
  8
0
100
AcDbLine
 62
7
  6
CONTINUOUS
 10
15.8053660561
 20
9.5526895624
 11
15.8058577259
 21
9.5519814831
  0
LWPOLYLINE
  5
24A
100
AcDbEntity
  8
0
100
AcDbPolyline
 62
7
  6
CONTINUOUS
 90
24
 70
0
 10
15.8058577259
 20
9.5519814831
 10
15.8066037264
 20
9.550791303
 10
15.8075664904
 20
9.5490630838
 10
15.808691684
 20
9.5467404503
 10
15.8099183955
 20
9.5437339018
 10
15.8111484485
 20
9.5399786191
 10
15.8122450579
 20
9.5354700328
 10
15.8130508165
 20
9.5302891476
 10
15.8134211103
 20
9.5245954043
 10
15.8132545141
 20
9.5186115535
 10
15.8125122603
 20
9.5125683703
 10
15.8112248537
 20
9.5067079417
 10
15.809488434
 20
9.5012474087
 10
15.807425512
 20
9.4963077975
 10
15.8051589178
 20
9.4919421703
 10
15.8027965515
 20
9.4881562697
 10
15.8004279575
 20
9.4849274463
 10
15.7981443487
 20
9.4822394333
 10
15.7960350847
 20
9.4800720177
 10
15.7941991295
 20
9.4784104563
 10
15.7927513548
 20
9.4772475927
 10
15.7917284518
 20
9.4765129534
 10
15.7911331577
 20
9.4761277996
 10
15.7909777844
 20
9.4760352191
  0
LINE
  5
24B
100
AcDbEntity
  8
0
100
AcDbLine
 62
7
  6
CONTINUOUS
 10
16.0395543347
 20
9.1470642686
 11
16.0395794902
 21
9.147006935
  0
LINE
  5
24C
100
AcDbEntity
  8
0
100
AcDbLine
 62
7
  6
CONTINUOUS
 10
10.7050185123
 20
-3.3374000284
 11
10.7315069401
 21
-3.3233158815
  0
LINE
  5
24D
100
AcDbEntity
  8
0
100
AcDbLine
 62
7
  6
CONTINUOUS
 10
11.362814469
 20
-2.9876437141
 11
11.3893028968
 21
-2.9735595672
  0
LINE
  5
24E
100
AcDbEntity
  8
0
100
AcDbLine
 62
7
  6
CONTINUOUS
 10
11.4177287975
 20
-3.0421857622
 11
11.3890396548
 21
-3.0509569134
  0
LINE
  5
24F
100
AcDbEntity
  8
0
100
AcDbLine
 62
7
  6
CONTINUOUS
 10
10.6765926116
 20
-3.2687738334
 11
10.7052817543
 21
-3.2600026822
  0
CIRCLE
  5
250
100
AcDbEntity
  8
0
100
AcDbCircle
 62
7
  6
CONTINUOUS
 10
7.0471607045
 20
8.8445202022
 40
1.4375
  0
ARC
  5
251
100
AcDbEntity
  8
0
100
AcDbCircle
 62
7
  6
CONTINUOUS
 10
7.0471607045
 20
8.8445202022
 40
1.0375
100
AcDbArc
 50
283.013704627
 51
16.986295373
  0
ARC
  5
252
100
AcDbEntity
  8
0
100
AcDbCircle
 62
7
  6
CONTINUOUS
 10
7.0471607045
 20
8.8445202022
 40
1.0375
100
AcDbArc
 50
163.013704627
 51
256.986295373
  0
ARC
  5
253
100
AcDbEntity
  8
0
100
AcDbCircle
 62
7
  6
CONTINUOUS
 10
7.0471607045
 20
8.8445202022
 40
1.0375
100
AcDbArc
 50
43.013704627
 51
136.986295373
  0
ARC
  5
254
100
AcDbEntity
  8
0
100
AcDbCircle
 62
7
  6
CONTINUOUS
 10
7.0471607045
 20
8.8445202022
 40
0.65625
100
AcDbArc
 50
165.4661225958
 51
254.5294047532
  0
ARC
  5
255
100
AcDbEntity
  8
0
100
AcDbCircle
 62
7
  6
CONTINUOUS
 10
7.0471607045
 20
8.8445202022
 40
0.65625
100
AcDbArc
 50
285.4705952223
 51
14.5338774443
  0
ARC
  5
256
100
AcDbEntity
  8
0
100
AcDbCircle
 62
7
  6
CONTINUOUS
 10
7.0471607045
 20
8.8445202022
 40
0.65625
100
AcDbArc
 50
45.4706333397
 51
134.5293657961
  0
CIRCLE
  5
257
100
AcDbEntity
  8
0
100
AcDbCircle
 62
7
  6
CONTINUOUS
 10
7.0471607045
 20
8.8445202022
 40
0.375
  0
ARC
  5
258
100
AcDbEntity
  8
0
100
AcDbCircle
 62
7
  6
CONTINUOUS
 10
9.8471607045
 20
17.8445202022
 40
0.21
100
AcDbArc
 50
309.870833936
 51
50.129166064
  0
ARC
  5
259
100
AcDbEntity
  8
0
100
AcDbCircle
 62
7
  6
CONTINUOUS
 10
10.1986325671
 20
16.9959920648
 40
0.21
100
AcDbArc
 50
354.870833936
 51
95.129166064
  0
ARC
  5
25A
100
AcDbEntity
  8
0
100
AcDbCircle
 62
7
  6
CONTINUOUS
 10
10.1986325671
 20
18.6930483396
 40
0.21
100
AcDbArc
 50
264.870833936
 51
5.129166064
  0
CIRCLE
  5
25B
100
AcDbEntity
  8
0
100
AcDbCircle
 62
7
  6
CONTINUOUS
 10
11.0471607045
 20
-3.1554797978
 40
0.79
  0
CIRCLE
  5
25C
100
AcDbEntity
  8
0
100
AcDbCircle
 62
7
  6
CONTINUOUS
 10
11.0471607045
 20
0.3445202022
 40
0.656
  0
ARC
  5
25D
100
AcDbEntity
  8
0
100
AcDbCircle
 62
7
  6
CONTINUOUS
 10
11.0471607045
 20
-0.0074797978
 40
0.5
100
AcDbArc
 50
67.975687163
 51
112.024312837
  0
CIRCLE
  5
25E
100
AcDbEntity
  8
0
100
AcDbCircle
 62
7
  6
CONTINUOUS
 10
11.0471607045
 20
-3.1554797978
 40
0.495
  0
CIRCLE
  5
25F
100
AcDbEntity
  8
0
100
AcDbCircle
 62
9
  6
CONTINUOUS
 10
11.0471607045
 20
-3.1554797978
 40
0.49
  0
ARC
  5
260
100
AcDbEntity
  8
0
100
AcDbCircle
 62
9
  6
CONTINUOUS
 10
11.0471607045
 20
0.3445202022
 40
0.4795772124
100
AcDbArc
 50
293.0329521046
 51
246.9670478954
  0
CIRCLE
  5
261
100
AcDbEntity
  8
0
100
AcDbCircle
 62
7
  6
CONTINUOUS
 10
11.0471607045
 20
-3.1554797978
 40
0.47
  0
ARC
  5
262
100
AcDbEntity
  8
0
100
AcDbCircle
 62
7
  6
CONTINUOUS
 10
11.0471607045
 20
0.3445202022
 40
0.46875
100
AcDbArc
 50
293.5869720576
 51
246.4130279424
  0
CIRCLE
  5
263
100
AcDbEntity
  8
0
100
AcDbCircle
 62
7
  6
CONTINUOUS
 10
11.0471607045
 20
-3.1554797978
 40
0.4625
  0
CIRCLE
  5
264
100
AcDbEntity
  8
0
100
AcDbCircle
 62
9
  6
CONTINUOUS
 10
11.0471607045
 20
-3.1554797978
 40
0.4272880871
  0
CIRCLE
  5
265
100
AcDbEntity
  8
0
100
AcDbCircle
 62
9
  6
CONTINUOUS
 10
11.0471607045
 20
-3.1554797978
 40
0.4181683849
  0
CIRCLE
  5
266
100
AcDbEntity
  8
0
100
AcDbCircle
 62
7
  6
CONTINUOUS
 10
11.0471607045
 20
-3.1554797978
 40
0.396
  0
CIRCLE
  5
267
100
AcDbEntity
  8
0
100
AcDbCircle
 62
7
  6
CONTINUOUS
 10
11.0471607045
 20
-3.1554797978
 40
0.395
  0
CIRCLE
  5
268
100
AcDbEntity
  8
0
100
AcDbCircle
 62
7
  6
CONTINUOUS
 10
11.0471607045
 20
-3.1554797978
 40
0.3875
  0
ARC
  5
269
100
AcDbEntity
  8
0
100
AcDbCircle
 62
7
  6
CONTINUOUS
 10
11.0471607045
 20
-3.1554797978
 40
0.375
100
AcDbArc
 50
332.0
 51
343.0
  0
ARC
  5
26A
100
AcDbEntity
  8
0
100
AcDbCircle
 62
7
  6
CONTINUOUS
 10
11.0471607045
 20
-3.1554797978
 40
0.375
100
AcDbArc
 50
287.0
 51
298.0
  0
ARC
  5
26B
100
AcDbEntity
  8
0
100
AcDbCircle
 62
7
  6
CONTINUOUS
 10
11.0471607045
 20
-3.1554797978
 40
0.375
100
AcDbArc
 50
242.0
 51
253.0
  0
ARC
  5
26C
100
AcDbEntity
  8
0
100
AcDbCircle
 62
7
  6
CONTINUOUS
 10
11.0471607045
 20
-3.1554797978
 40
0.375
100
AcDbArc
 50
197.0
 51
208.0
  0
ARC
  5
26D
100
AcDbEntity
  8
0
100
AcDbCircle
 62
7
  6
CONTINUOUS
 10
11.0471607045
 20
-3.1554797978
 40
0.375
100
AcDbArc
 50
152.0
 51
163.0
  0
ARC
  5
26E
100
AcDbEntity
  8
0
100
AcDbCircle
 62
7
  6
CONTINUOUS
 10
11.0471607045
 20
-3.1554797978
 40
0.375
100
AcDbArc
 50
107.0
 51
118.0
  0
ARC
  5
26F
100
AcDbEntity
  8
0
100
AcDbCircle
 62
7
  6
CONTINUOUS
 10
11.0471607045
 20
-3.1554797978
 40
0.375
100
AcDbArc
 50
62.0
 51
73.0
  0
ARC
  5
270
100
AcDbEntity
  8
0
100
AcDbCircle
 62
7
  6
CONTINUOUS
 10
11.0471607045
 20
-3.1554797978
 40
0.375
100
AcDbArc
 50
17.0
 51
28.0
  0
ARC
  5
271
100
AcDbEntity
  8
0
100
AcDbCircle
 62
7
  6
CONTINUOUS
 10
11.0471607045
 20
-3.1554797978
 40
0.3575
100
AcDbArc
 50
343.0
 51
17.0
  0
ARC
  5
272
100
AcDbEntity
  8
0
100
AcDbCircle
 62
7
  6
CONTINUOUS
 10
11.0471607045
 20
-3.1554797978
 40
0.3575
100
AcDbArc
 50
298.0
 51
332.0
  0
ARC
  5
273
100
AcDbEntity
  8
0
100
AcDbCircle
 62
7
  6
CONTINUOUS
 10
11.0471607045
 20
-3.1554797978
 40
0.3575
100
AcDbArc
 50
253.0
 51
287.0
  0
ARC
  5
274
100
AcDbEntity
  8
0
100
AcDbCircle
 62
7
  6
CONTINUOUS
 10
11.0471607045
 20
-3.1554797978
 40
0.3575
100
AcDbArc
 50
208.0
 51
242.0
  0
ARC
  5
275
100
AcDbEntity
  8
0
100
AcDbCircle
 62
7
  6
CONTINUOUS
 10
11.0471607045
 20
-3.1554797978
 40
0.3575
100
AcDbArc
 50
163.0
 51
197.0
  0
ARC
  5
276
100
AcDbEntity
  8
0
100
AcDbCircle
 62
7
  6
CONTINUOUS
 10
11.0471607045
 20
-3.1554797978
 40
0.3575
100
AcDbArc
 50
118.0
 51
152.0
  0
ARC
  5
277
100
AcDbEntity
  8
0
100
AcDbCircle
 62
7
  6
CONTINUOUS
 10
11.0471607045
 20
-3.1554797978
 40
0.3575
100
AcDbArc
 50
73.0
 51
107.0
  0
ARC
  5
278
100
AcDbEntity
  8
0
100
AcDbCircle
 62
7
  6
CONTINUOUS
 10
11.0471607045
 20
-3.1554797978
 40
0.3575
100
AcDbArc
 50
28.0
 51
62.0
  0
CIRCLE
  5
279
100
AcDbEntity
  8
0
100
AcDbCircle
 62
7
  6
CONTINUOUS
 10
11.0471607045
 20
-3.1554797978
 40
0.3125
  0
ARC
  5
27A
100
AcDbEntity
  8
0
100
AcDbCircle
 62
9
  6
CONTINUOUS
 10
11.0471607045
 20
0.3445202022
 40
0.2923272124
100
AcDbArc
 50
309.9590305717
 51
230.0409694283
  0
ARC
  5
27B
100
AcDbEntity
  8
0
100
AcDbCircle
 62
7
  6
CONTINUOUS
 10
11.0471607045
 20
17.8445202022
 40
1.0775
100
AcDbArc
 50
278.6026297634
 51
306.3973702366
  0
ARC
  5
27C
100
AcDbEntity
  8
0
100
AcDbCircle
 62
7
  6
CONTINUOUS
 10
11.0471607045
 20
17.8445202022
 40
1.0775
100
AcDbArc
 50
233.6026297634
 51
261.3973702366
  0
ARC
  5
27D
100
AcDbEntity
  8
0
100
AcDbCircle
 62
7
  6
CONTINUOUS
 10
11.0471607045
 20
17.8445202022
 40
1.0775
100
AcDbArc
 50
188.6026297634
 51
216.3973702366
  0
ARC
  5
27E
100
AcDbEntity
  8
0
100
AcDbCircle
 62
7
  6
CONTINUOUS
 10
11.0471607045
 20
17.8445202022
 40
1.0775
100
AcDbArc
 50
323.6026297634
 51
351.3973702366
  0
ARC
  5
27F
100
AcDbEntity
  8
0
100
AcDbCircle
 62
7
  6
CONTINUOUS
 10
11.0471607045
 20
17.8445202022
 40
1.0775
100
AcDbArc
 50
143.6026297634
 51
171.3973702366
  0
ARC
  5
280
100
AcDbEntity
  8
0
100
AcDbCircle
 62
7
  6
CONTINUOUS
 10
11.0471607045
 20
17.8445202022
 40
1.0775
100
AcDbArc
 50
98.6026297634
 51
126.3973702366
  0
ARC
  5
281
100
AcDbEntity
  8
0
100
AcDbCircle
 62
7
  6
CONTINUOUS
 10
11.0471607045
 20
17.8445202022
 40
1.0775
100
AcDbArc
 50
53.6026297634
 51
81.3973702366
  0
ARC
  5
282
100
AcDbEntity
  8
0
100
AcDbCircle
 62
7
  6
CONTINUOUS
 10
11.0471607045
 20
17.8445202022
 40
1.0775
100
AcDbArc
 50
8.6026297634
 51
36.3973702366
  0
ARC
  5
283
100
AcDbEntity
  8
0
100
AcDbCircle
 62
7
  6
CONTINUOUS
 10
11.0471607045
 20
17.8445202022
 40
1.0125
100
AcDbArc
 50
310.1124271424
 51
319.8875680354
  0
ARC
  5
284
100
AcDbEntity
  8
0
100
AcDbCircle
 62
7
  6
CONTINUOUS
 10
11.0471607045
 20
17.8445202022
 40
1.0125
100
AcDbArc
 50
265.1123663032
 51
274.8876448296
  0
ARC
  5
285
100
AcDbEntity
  8
0
100
AcDbCircle
 62
7
  6
CONTINUOUS
 10
11.0471607045
 20
17.8445202022
 40
1.0125
100
AcDbArc
 50
220.1124300034
 51
229.8875716451
  0
ARC
  5
286
100
AcDbEntity
  8
0
100
AcDbCircle
 62
7
  6
CONTINUOUS
 10
11.0471607045
 20
17.8445202022
 40
1.0125
100
AcDbArc
 50
355.1133029909
 51
4.8864329757
  0
ARC
  5
287
100
AcDbEntity
  8
0
100
AcDbCircle
 62
7
  6
CONTINUOUS
 10
11.0471607045
 20
17.8445202022
 40
1.0125
100
AcDbArc
 50
40.1124300034
 51
49.8875716451
  0
ARC
  5
288
100
AcDbEntity
  8
0
100
AcDbCircle
 62
7
  6
CONTINUOUS
 10
11.0471607045
 20
17.8445202022
 40
1.0125
100
AcDbArc
 50
85.1123663032
 51
94.8876448296
  0
ARC
  5
289
100
AcDbEntity
  8
0
100
AcDbCircle
 62
7
  6
CONTINUOUS
 10
11.0471607045
 20
17.8445202022
 40
1.0125
100
AcDbArc
 50
130.1124271424
 51
139.8875680354
  0
ARC
  5
28A
100
AcDbEntity
  8
0
100
AcDbCircle
 62
7
  6
CONTINUOUS
 10
11.0471607045
 20
17.8445202022
 40
1.0125
100
AcDbArc
 50
175.1133029909
 51
184.8864329757
  0
CIRCLE
  5
28B
100
AcDbEntity
  8
0
100
AcDbCircle
 62
7
  6
CONTINUOUS
 10
11.0471607045
 20
17.8445202022
 40
0.935
  0
CIRCLE
  5
28C
100
AcDbEntity
  8
0
100
AcDbCircle
 62
9
  6
CONTINUOUS
 10
11.0471607045
 20
17.8445202022
 40
0.909136433
  0
ARC
  5
28D
100
AcDbEntity
  8
0
100
AcDbCircle
 62
7
  6
CONTINUOUS
 10
11.0471607045
 20
16.6445202022
 40
0.21
100
AcDbArc
 50
39.870833936
 51
140.129166064
  0
ARC
  5
28E
100
AcDbEntity
  8
0
100
AcDbCircle
 62
7
  6
CONTINUOUS
 10
12.2471607045
 20
17.8445202022
 40
0.21
100
AcDbArc
 50
129.870833936
 51
230.129166064
  0
ARC
  5
28F
100
AcDbEntity
  8
0
100
AcDbCircle
 62
7
  6
CONTINUOUS
 10
11.0471607045
 20
19.0445202022
 40
0.21
100
AcDbArc
 50
219.870833936
 51
320.129166064
  0
ARC
  5
290
100
AcDbEntity
  8
0
100
AcDbCircle
 62
7
  6
CONTINUOUS
 10
11.895688842
 20
16.9959920648
 40
0.21
100
AcDbArc
 50
84.870833936
 51
185.129166064
  0
ARC
  5
291
100
AcDbEntity
  8
0
100
AcDbCircle
 62
7
  6
CONTINUOUS
 10
11.895688842
 20
18.6930483396
 40
0.21
100
AcDbArc
 50
174.870833936
 51
275.129166064
  0
CIRCLE
  5
292
100
AcDbEntity
  8
0
100
AcDbCircle
 62
7
  6
CONTINUOUS
 10
15.0471607045
 20
8.8445202022
 40
1.4375
  0
ARC
  5
293
100
AcDbEntity
  8
0
100
AcDbCircle
 62
7
  6
CONTINUOUS
 10
15.0471607045
 20
8.8445202022
 40
1.0375
100
AcDbArc
 50
163.013704627
 51
256.986295373
  0
ARC
  5
294
100
AcDbEntity
  8
0
100
AcDbCircle
 62
7
  6
CONTINUOUS
 10
15.0471607045
 20
8.8445202022
 40
1.0375
100
AcDbArc
 50
283.013704627
 51
16.986295373
  0
ARC
  5
295
100
AcDbEntity
  8
0
100
AcDbCircle
 62
7
  6
CONTINUOUS
 10
15.0471607045
 20
8.8445202022
 40
1.0375
100
AcDbArc
 50
43.013704627
 51
136.986295373
  0
ARC
  5
296
100
AcDbEntity
  8
0
100
AcDbCircle
 62
7
  6
CONTINUOUS
 10
15.0471607045
 20
8.8445202022
 40
0.65625
100
AcDbArc
 50
165.471034191
 51
254.5300252874
  0
ARC
  5
297
100
AcDbEntity
  8
0
100
AcDbCircle
 62
7
  6
CONTINUOUS
 10
15.0471607045
 20
8.8445202022
 40
0.65625
100
AcDbArc
 50
285.469974678
 51
14.5289659552
  0
ARC
  5
298
100
AcDbEntity
  8
0
100
AcDbCircle
 62
7
  6
CONTINUOUS
 10
15.0471607045
 20
8.8445202022
 40
0.65625
100
AcDbArc
 50
45.4677883644
 51
134.5322112753
  0
CIRCLE
  5
299
100
AcDbEntity
  8
0
100
AcDbCircle
 62
7
  6
CONTINUOUS
 10
15.0471607045
 20
8.8445202022
 40
0.375
  0
SPLINE
  5
29A
100
AcDbEntity
  8
0
100
AcDbSpline
 62
9
  6
CONTINUOUS
 70
0
 71
3
 72
30
 73
26
 74
0
 42
0.0000001
 43
0.0000001
 44
0.0000000001
 40
0.0
 40
0.0
 40
0.0
 40
0.0
 40
0.0451287523
 40
0.0878575768
 40
0.1281417635
 40
0.1659633018
 40
0.2013382828
 40
0.2343472637
 40
0.2651218571
 40
0.2938606154
 40
0.3461419624
 40
0.370345189
 40
0.3936750841
 40
0.4164934905
 40
0.439173025
 40
0.4620479274
 40
0.48539856
 40
0.5343213448
 40
0.5872220865
 40
0.6446850277
 40
0.7068778327
 40
0.773722669
 40
0.8450261898
 40
0.9205422197
 40
1.0
 40
1.0
 40
1.0
 40
1.0
 10
14.3033580766
 20
9.4760274407
 30
0.0
 10
14.3040184493
 20
9.4756461813
 30
0.0
 10
14.3052909466
 20
9.4748808015
 30
0.0
 10
14.3070994237
 20
9.4736890412
 30
0.0
 10
14.3087507555
 20
9.4724869132
 30
0.0
 10
14.3102401343
 20
9.4712776858
 30
0.0
 10
14.3115635831
 20
9.4700638823
 30
0.0
 10
14.3127189791
 20
9.4688486013
 30
0.0
 10
14.3137056149
 20
9.4676332193
 30
0.0
 10
14.3147635148
 20
9.4660666944
 30
0.0
 10
14.3155441139
 20
9.4644502813
 30
0.0
 10
14.3159882104
 20
9.4628192528
 30
0.0
 10
14.3161534749
 20
9.4616386463
 30
0.0
 10
14.3161626875
 20
9.4604724161
 30
0.0
 10
14.3160229839
 20
9.4593225456
 30
0.0
 10
14.3157418025
 20
9.4581899065
 30
0.0
 10
14.3151790637
 20
9.4566807682
 30
0.0
 10
14.3141323793
 20
9.4548271612
 30
0.0
 10
14.3124392481
 20
9.4527240462
 30
0.0
 10
14.3103359393
 20
9.450696222
 30
0.0
 10
14.3078638413
 20
9.4487360965
 30
0.0
 10
14.3050611873
 20
9.446833384
 30
0.0
 10
14.3019593794
 20
9.4449828516
 30
0.0
 10
14.2985860428
 20
9.4431808599
 30
0.0
 10
14.2962298703
 20
9.4420369623
 30
0.0
 10
14.2950131583
 20
9.441469399
 30
0.0
  0
SPLINE
  5
29B
100
AcDbEntity
  8
0
100
AcDbSpline
 62
9
  6
CONTINUOUS
 70
0
 71
3
 72
29
 73
25
 74
0
 42
0.0000001
 43
0.0000001
 44
0.0000000001
 40
0.0
 40
0.0
 40
0.0
 40
0.0
 40
0.0878395814
 40
0.1281228508
 40
0.1659439104
 40
0.2013190351
 40
0.234323873
 40
0.2651006291
 40
0.2938438298
 40
0.3461392515
 40
0.3703343626
 40
0.3936544618
 40
0.4164716043
 40
0.4391529315
 40
0.4620311351
 40
0.485384852
 40
0.5343092509
 40
0.5872112466
 40
0.6446758191
 40
0.7068697801
 40
0.7737165424
 40
0.8450205998
 40
0.9205389126
 40
1.0
 40
1.0
 40
1.0
 40
1.0
 10
6.8721607214
 20
7.8846151639
 30
0.0
 10
6.8721607256
 20
7.8860993258
 30
0.0
 10
6.8722349668
 20
7.8882662432
 30
0.0
 10
6.8725305082
 20
7.8910554284
 30
0.0
 10
6.8728331772
 20
7.8929498175
 30
0.0
 10
6.8732225024
 20
7.8947027552
 30
0.0
 10
6.873697441
 20
7.8963108655
 30
0.0
 10
6.8742565797
 20
7.8977730442
 30
0.0
 10
6.8750844223
 20
7.8994727119
 30
0.0
 10
6.876093476
 20
7.9009574732
 30
0.0
 10
6.8772842556
 20
7.9021571863
 30
0.0
 10
6.8782242729
 20
7.9028897326
 30
0.0
 10
6.8792294766
 20
7.9034806979
 30
0.0
 10
6.8802951251
 20
7.9039347752
 30
0.0
 10
6.8814166167
 20
7.904257903
 30
0.0
 10
6.8830049241
 20
7.904525795
 30
0.0
 10
6.8851336478
 20
7.9045460754
 30
0.0
 10
6.8878014597
 20
7.904130731
 30
0.0
 10
6.8906091782
 20
7.90332295
 30
0.0
 10
6.8935427741
 20
7.9021622099
 30
0.0
 10
6.8965919043
 20
7.9006864951
 30
0.0
 10
6.8997456086
 20
7.8989259024
 30
0.0
 10
6.902992806
 20
7.8969054271
 30
0.0
 10
6.9051614568
 20
7.8954367161
 30
0.0
 10
6.9062613084
 20
7.8946667213
 30
0.0
  0
SPLINE
  5
29C
100
AcDbEntity
  8
0
100
AcDbSpline
 62
9
  6
CONTINUOUS
 70
0
 71
3
 72
30
 73
26
 74
0
 42
0.0000001
 43
0.0000001
 44
0.0000000001
 40
0.0
 40
0.0
 40
0.0
 40
0.0
 40
0.0451274863
 40
0.0878535018
 40
0.1281353089
 40
0.165956243
 40
0.2013328693
 40
0.2343442323
 40
0.2651204688
 40
0.293860294
 40
0.3461410859
 40
0.3703415908
 40
0.3936692963
 40
0.4164871976
 40
0.4391674738
 40
0.4620437671
 40
0.4853955549
 40
0.5343188139
 40
0.5872196917
 40
0.644683138
 40
0.7068762259
 40
0.7737209937
 40
0.8450244305
 40
0.9205411722
 40
1.0
 40
1.0
 40
1.0
 40
1.0
 10
15.965962944
 20
9.1729183318
 30
0.0
 10
15.9653026004
 20
9.1725370759
 30
0.0
 10
15.9640035828
 20
9.17181779
 30
0.0
 10
15.962067355
 20
9.1708475511
 30
0.0
 10
15.9602007111
 20
9.1700185829
 30
0.0
 10
15.9584088289
 20
9.1693333844
 30
0.0
 10
15.9566958814
 20
9.1687941213
 30
0.0
 10
15.955065646
 20
9.1684011077
 30
0.0
 10
15.9535197053
 20
9.168154311
 30
0.0
 10
15.951634087
 20
9.1680213868
 30
0.0
 10
15.9498439652
 20
9.1681535307
 30
0.0
 10
15.948209551
 20
9.1685846119
 30
0.0
 10
15.9471046379
 20
9.1690318979
 30
0.0
 10
15.9460901099
 20
9.1696070519
 30
0.0
 10
15.9451641011
 20
9.170302941
 30
0.0
 10
15.944323659
 20
9.1711126903
 30
0.0
 10
15.9432978646
 20
9.1723544863
 30
0.0
 10
15.9422159339
 20
9.1741877913
 30
0.0
 10
15.9412414468
 20
9.1767057599
 30
0.0
 10
15.9405371795
 20
9.1795412312
 30
0.0
 10
15.9400756599
 20
9.1826621682
 30
0.0
 10
15.9398289755
 20
9.1860406543
 30
0.0
 10
15.9397770555
 20
9.1896521479
 30
0.0
 10
15.9399032095
 20
9.1934745411
 30
0.0
 10
15.9400907645
 20
9.1960869976
 30
0.0
 10
15.9402076469
 20
9.1974244862
 30
0.0
  0
SPLINE
  5
29D
100
AcDbEntity
  8
0
100
AcDbSpline
 62
9
  6
CONTINUOUS
 70
0
 71
3
 72
30
 73
26
 74
0
 42
0.0000001
 43
0.0000001
 44
0.0000000001
 40
0.0
 40
0.0
 40
0.0
 40
0.0
 40
0.045129846
 40
0.0878587723
 40
0.1281417698
 40
0.165960866
 40
0.2013325833
 40
0.2343399797
 40
0.2651167004
 40
0.2938605476
 40
0.3461476161
 40
0.3703444985
 40
0.3936681387
 40
0.416484424
 40
0.4391649463
 40
0.4620424237
 40
0.485395311
 40
0.5343190525
 40
0.5872198803
 40
0.6446834196
 40
0.7068764841
 40
0.7737210271
 40
0.8450241821
 40
0.9205409675
 40
1.0
 40
1.0
 40
1.0
 40
1.0
 10
14.8721607076
 20
7.8846151035
 30
0.0
 10
14.8721607045
 20
7.8853776444
 30
0.0
 10
14.8721872988
 20
7.8868623563
 30
0.0
 10
14.8723151628
 20
7.8890244041
 30
0.0
 10
14.8725305766
 20
7.8910554847
 30
0.0
 10
14.8728331154
 20
7.8929498024
 30
0.0
 10
14.8732225947
 20
7.8947026984
 30
0.0
 10
14.8736973897
 20
7.8963108673
 30
0.0
 10
14.8742566297
 20
7.8977730955
 30
0.0
 10
14.8750843048
 20
7.8994727464
 30
0.0
 10
14.8760936245
 20
7.9009572554
 30
0.0
 10
14.877284332
 20
7.9021569723
 30
0.0
 10
14.8782241928
 20
7.9028898923
 30
0.0
 10
14.8792295257
 20
7.9034807718
 30
0.0
 10
14.8802951681
 20
7.9039347941
 30
0.0
 10
14.8814166469
 20
7.9042579179
 30
0.0
 10
14.8830049735
 20
7.90452565
 30
0.0
 10
14.8851336722
 20
7.9045460427
 30
0.0
 10
14.887801521
 20
7.904130817
 30
0.0
 10
14.8906091994
 20
7.9033228699
 30
0.0
 10
14.8935427612
 20
7.9021620967
 30
0.0
 10
14.8965919835
 20
7.9006865755
 30
0.0
 10
14.8997456248
 20
7.8989258822
 30
0.0
 10
14.9029928189
 20
7.8969054122
 30
0.0
 10
14.9051614643
 20
7.8954367108
 30
0.0
 10
14.9062613084
 20
7.8946667213
 30
0.0
  0
SPLINE
  5
29E
100
AcDbEntity
  8
0
100
AcDbSpline
 62
9
  6
CONTINUOUS
 70
0
 71
3
 72
42
 73
38
 74
0
 42
0.0000001
 43
0.0000001
 44
0.0000000001
 40
0.0
 40
0.0
 40
0.0
 40
0.0
 40
0.0052120092
 40
0.0108839801
 40
0.01702017
 40
0.0236161106
 40
0.0306618795
 40
0.0381464586
 40
0.0460566627
 40
0.0543775517
 40
0.0721921206
 40
0.0914729378
 40
0.1121177467
 40
0.1340341269
 40
0.157143018
 40
0.1813731437
 40
0.2066713258
 40
0.2329924162
 40
0.2603052702
 40
0.28858665
 40
0.3480153669
 40
0.4113174665
 40
0.4787070066
 40
0.5506023304
 40
0.6276521862
 40
0.6683878088
 40
0.7107512445
 40
0.7548547263
 40
0.7775885803
 40
0.8007812684
 40
0.8244273301
 40
0.84851348
 40
0.8730173094
 40
0.8979031521
 40
0.9231182222
 40
0.9485945197
 40
1.0
 40
1.0
 40
1.0
 40
1.0
 10
7.2905700805
 20
9.1871253007
 30
0.0
 10
7.2909162774
 20
9.1873251153
 30
0.0
 10
7.2916608583
 20
9.187705342
 30
0.0
 10
7.2928673376
 20
9.1882061349
 30
0.0
 10
7.2942037539
 20
9.1886628013
 30
0.0
 10
7.2956636608
 20
9.1890765296
 30
0.0
 10
7.2972410544
 20
9.1894486228
 30
0.0
 10
7.2989302876
 20
9.1897797434
 30
0.0
 10
7.3007259745
 20
9.1900707031
 30
0.0
 10
7.303314665
 20
9.1904139415
 30
0.0
 10
7.3067842619
 20
9.1907360478
 30
0.0
 10
7.3112078513
 20
9.1909603498
 30
0.0
 10
7.3159511001
 20
9.1910292049
 30
0.0
 10
7.3209875228
 20
9.1909415625
 30
0.0
 10
7.3262937727
 20
9.1906922365
 30
0.0
 10
7.3318496267
 20
9.1902759397
 30
0.0
 10
7.3376373137
 20
9.1896850074
 30
0.0
 10
7.3436419334
 20
9.1889117903
 30
0.0
 10
7.3498502274
 20
9.1879453382
 30
0.0
 10
7.3585284704
 20
9.1863577332
 30
0.0
 10
7.3698315847
 20
9.1838039398
 30
0.0
 10
7.3838532139
 20
9.1797733844
 30
0.0
 10
7.3984941783
 20
9.1745386345
 30
0.0
 10
7.4136960383
 20
9.167854696
 30
0.0
 10
7.4265116459
 20
9.1609282622
 30
0.0
 10
7.4368908238
 20
9.1543533132
 30
0.0
 10
7.4448605044
 20
9.1487193398
 30
0.0
 10
7.4514279017
 20
9.1435143133
 30
0.0
 10
7.4566435944
 20
9.1389884765
 30
0.0
 10
7.460564093
 20
9.1353678287
 30
0.0
 10
7.4644419125
 20
9.1315520865
 30
0.0
 10
7.4682619516
 20
9.1275383631
 30
0.0
 10
7.4720059516
 20
9.1233253489
 30
0.0
 10
7.4756511147
 20
9.1189135567
 30
0.0
 10
7.4791793293
 20
9.1143131176
 30
0.0
 10
7.4837155175
 20
9.1079295065
 30
0.0
 10
7.4868622328
 20
9.1029343135
 30
0.0
 10
7.4888336605
 20
9.0995202022
 30
0.0
  0
SPLINE
  5
29F
100
AcDbEntity
  8
0
100
AcDbSpline
 62
9
  6
CONTINUOUS
 70
0
 71
3
 72
29
 73
25
 74
0
 42
0.0000001
 43
0.0000001
 44
0.0000000001
 40
0.0
 40
0.0
 40
0.0
 40
0.0
 40
0.087838132
 40
0.1281229241
 40
0.1659470604
 40
0.2013248501
 40
0.2343306857
 40
0.2651056175
 40
0.2938445044
 40
0.3461323704
 40
0.3703327768
 40
0.3936604528
 40
0.4164807133
 40
0.4391610808
 40
0.4620365775
 40
0.4853877849
 40
0.5343111882
 40
0.5872131772
 40
0.6446772254
 40
0.7068710172
 40
0.7737181261
 40
0.8450224834
 40
0.9205400809
 40
1.0
 40
1.0
 40
1.0
 40
1.0
 10
6.3033581281
 20
9.4760273948
 30
0.0
 10
6.3046434405
 20
9.4752853223
 30
0.0
 10
6.3064829428
 20
9.4741375612
 30
0.0
 10
6.3087507488
 20
9.4724869922
 30
0.0
 10
6.3102401356
 20
9.4712776223
 30
0.0
 10
6.3115636833
 20
9.4700639312
 30
0.0
 10
6.3127189375
 20
9.4688485595
 30
0.0
 10
6.3137055867
 20
9.4676332858
 30
0.0
 10
6.3147634373
 20
9.46606664
 30
0.0
 10
6.3155443585
 20
9.4644503429
 30
0.0
 10
6.3159882822
 20
9.4628192516
 30
0.0
 10
6.3161532508
 20
9.4616386963
 30
0.0
 10
6.3161626949
 20
9.4604724922
 30
0.0
 10
6.3160230138
 20
9.459322575
 30
0.0
 10
6.3157418165
 20
9.4581899333
 30
0.0
 10
6.3151791707
 20
9.4566807599
 30
0.0
 10
6.3141323575
 20
9.4548272147
 30
0.0
 10
6.3124392394
 20
9.4527241123
 30
0.0
 10
6.3103360227
 20
9.4506961919
 30
0.0
 10
6.3078639089
 20
9.4487360564
 30
0.0
 10
6.3050611389
 20
9.4468335161
 30
0.0
 10
6.3019594108
 20
9.4449828424
 30
0.0
 10
6.2985860651
 20
9.4431808582
 30
0.0
 10
6.2962298789
 20
9.4420369663
 30
0.0
 10
6.2950131583
 20
9.441469399
 30
0.0
  0
SPLINE
  5
2A0
100
AcDbEntity
  8
0
100
AcDbSpline
 62
9
  6
CONTINUOUS
 70
0
 71
3
 72
47
 73
43
 74
0
 42
0.0000001
 43
0.0000001
 44
0.0000000001
 40
0.0
 40
0.0
 40
0.0
 40
0.0
 40
0.0052133687
 40
0.0108841143
 40
0.0170179975
 40
0.0236134899
 40
0.0306625622
 40
0.0381523612
 40
0.054387978
 40
0.0722000341
 40
0.0914768724
 40
0.1121216407
 40
0.1340437477
 40
0.1571566369
 40
0.1813829672
 40
0.2066763021
 40
0.2329982994
 40
0.2603133344
 40
0.2885921088
 40
0.3178269754
 40
0.3480210159
 40
0.3791821271
 40
0.4113270721
 40
0.4444911131
 40
0.4787210086
 40
0.514073924
 40
0.5506236398
 40
0.5884591072
 40
0.6276849224
 40
0.6478569281
 40
0.6684208606
 40
0.7107802576
 40
0.7548798176
 40
0.7776114972
 40
0.8008018263
 40
0.8244454918
 40
0.8485292705
 40
0.873030742
 40
0.8979141955
 40
0.9231266539
 40
0.9486001407
 40
1.0
 40
1.0
 40
1.0
 40
1.0
 10
14.6287444431
 20
8.884020295
 30
0.0
 10
14.6283983139
 20
8.8842204517
 30
0.0
 10
14.6276969345
 20
8.8846755161
 30
0.0
 10
14.6266605094
 20
8.8854704046
 30
0.0
 10
14.6255975138
 20
8.8863998183
 30
0.0
 10
14.6245096362
 20
8.8874577502
 30
0.0
 10
14.6233983445
 20
8.8886383313
 30
0.0
 10
14.621846791
 20
8.890417517
 30
0.0
 10
14.6198749135
 20
8.8929221751
 30
0.0
 10
14.6175114048
 20
8.8962613403
 30
0.0
 10
14.6151069948
 20
8.8999808349
 30
0.0
 10
14.6126763074
 20
8.9040547181
 30
0.0
 10
14.6102322434
 20
8.9084601992
 30
0.0
 10
14.6077937025
 20
8.9131801765
 30
0.0
 10
14.6053782696
 20
8.9182005423
 30
0.0
 10
14.602998419
 20
8.9235087466
 30
0.0
 10
14.60066459
 20
8.9290950017
 30
0.0
 10
14.5983956346
 20
8.9349542353
 30
0.0
 10
14.596210771
 20
8.9410831156
 30
0.0
 10
14.5941255882
 20
8.9474793044
 30
0.0
 10
14.5921528392
 20
8.9541420102
 30
0.0
 10
14.5903157253
 20
8.9610747068
 30
0.0
 10
14.5886408166
 20
8.9682825796
 30
0.0
 10
14.5871500567
 20
8.9757709885
 30
0.0
 10
14.5858644241
 20
8.9835470381
 30
0.0
 10
14.5848260813
 20
8.9916222139
 30
0.0
 10
14.5840739087
 20
9.0000069337
 30
0.0
 10
14.5836386908
 20
9.008711789
 30
0.0
 10
14.5835948756
 20
9.0161717668
 30
0.0
 10
14.58377463
 20
9.0223022475
 30
0.0
 10
14.5841152939
 20
9.0286666149
 30
0.0
 10
14.584867017
 20
9.0368441119
 30
0.0
 10
14.5860915685
 20
9.0451334288
 30
0.0
 10
14.5874031185
 20
9.0519127714
 30
0.0
 10
14.5885782746
 20
9.0571179511
 30
0.0
 10
14.5899437359
 20
9.0623837056
 30
0.0
 10
14.5915097012
 20
9.0676983694
 30
0.0
 10
14.5932864505
 20
9.0730467683
 30
0.0
 10
14.5952849156
 20
9.0784088695
 30
0.0
 10
14.5975048335
 20
9.0837641168
 30
0.0
 10
14.600764644
 20
9.0908838317
 30
0.0
 10
14.6035168987
 20
9.0961061617
 30
0.0
 10
14.6054877486
 20
9.0995202022
 30
0.0
  0
SPLINE
  5
2A1
100
AcDbEntity
  8
0
100
AcDbSpline
 62
9
  6
CONTINUOUS
 70
0
 71
3
 72
30
 73
26
 74
0
 42
0.0000001
 43
0.0000001
 44
0.0000000001
 40
0.0
 40
0.0
 40
0.0
 40
0.0
 40
0.0249067686
 40
0.0505197667
 40
0.1035774052
 40
0.1587772887
 40
0.2158173406
 40
0.2744664883
 40
0.3345573915
 40
0.4586161213
 40
0.5224438314
 40
0.554793093
 40
0.5874307027
 40
0.6203562508
 40
0.653570286
 40
0.6870697066
 40
0.7208524958
 40
0.7549197165
 40
0.7892743578
 40
0.823897439
 40
0.8587646522
 40
0.8938570788
 40
0.929131637
 40
0.9645333591
 40
1.0
 40
1.0
 40
1.0
 40
1.0
 10
14.8135321921
 20
7.8336671129
 30
0.0
 10
14.815502202
 20
7.8332118071
 30
0.0
 10
14.8194857324
 20
7.8322343018
 30
0.0
 10
14.8276057061
 20
7.8300487823
 30
0.0
 10
14.838018691
 20
7.8269310038
 30
0.0
 10
14.8507710781
 20
7.8227516045
 30
0.0
 10
14.8638749282
 20
7.8181954023
 30
0.0
 10
14.8772977924
 20
7.8133516978
 30
0.0
 10
14.8957950174
 20
7.8065431594
 30
0.0
 10
14.9146703896
 20
7.7995444347
 30
0.0
 10
14.9315097212
 20
7.7935356497
 30
0.0
 10
14.9413959945
 20
7.7901272618
 30
0.0
 10
14.9489332127
 20
7.7876029668
 30
0.0
 10
14.9565643745
 20
7.7851394377
 30
0.0
 10
14.9642933767
 20
7.7827531666
 30
0.0
 10
14.972124255
 20
7.7804638082
 30
0.0
 10
14.9800599292
 20
7.778289908
 30
0.0
 10
14.9881058831
 20
7.7762614633
 30
0.0
 10
14.9962655164
 20
7.7744141233
 30
0.0
 10
15.0045349471
 20
7.7727704162
 30
0.0
 10
15.0129078149
 20
7.77135624
 30
0.0
 10
15.0213765792
 20
7.7702193245
 30
0.0
 10
15.0299245114
 20
7.7693870785
 30
0.0
 10
15.0385278264
 20
7.7688739008
 30
0.0
 10
15.0442815103
 20
7.7687512923
 30
0.0
 10
15.0471607045
 20
7.7687519462
 30
0.0
  0
SPLINE
  5
2A2
100
AcDbEntity
  8
0
100
AcDbSpline
 62
9
  6
CONTINUOUS
 70
0
 71
3
 72
33
 73
29
 74
0
 42
0.0000001
 43
0.0000001
 44
0.0000000001
 40
0.0
 40
0.0
 40
0.0
 40
0.0
 40
0.0249095815
 40
0.0505218713
 40
0.1035792955
 40
0.1587773718
 40
0.2158158976
 40
0.2744654637
 40
0.3345570453
 40
0.3959691946
 40
0.4586164946
 40
0.5224450337
 40
0.5547947625
 40
0.5874325474
 40
0.6203573825
 40
0.6535694553
 40
0.6870669745
 40
0.7208496703
 40
0.754917797
 40
0.7892724628
 40
0.823895684
 40
0.8587638543
 40
0.8938551618
 40
0.9114730054
 40
0.9291298672
 40
0.9468190375
 40
0.9645334951
 40
1.0
 40
1.0
 40
1.0
 40
1.0
 10
14.2885505059
 20
9.5522749736
 30
0.0
 10
14.2871710323
 20
9.5507963777
 30
0.0
 10
14.2843326087
 20
9.5478351455
 30
0.0
 10
14.2783798081
 20
9.5418956433
 30
0.0
 10
14.2704734389
 20
9.5344366806
 30
0.0
 10
14.2604778541
 20
9.5254827681
 30
0.0
 10
14.2499801907
 20
9.5164128355
 30
0.0
 10
14.2390740333
 20
9.5072100837
 30
0.0
 10
14.2278368045
 20
9.4978497996
 30
0.0
 10
14.2163349167
 20
9.4883002487
 30
0.0
 10
14.2046314287
 20
9.4785186487
 30
0.0
 10
14.1948068253
 20
9.4701682385
 30
0.0
 10
14.1869120925
 20
9.4633102516
 30
0.0
 10
14.1809575483
 20
9.4580447557
 30
0.0
 10
14.175008511
 20
9.4526679825
 30
0.0
 10
14.16907698
 20
9.4471686113
 30
0.0
 10
14.163178403
 20
9.4415324881
 30
0.0
 10
14.1573281613
 20
9.4357467666
 30
0.0
 10
14.1515489809
 20
9.4297923939
 30
0.0
 10
14.1458689119
 20
9.4236498492
 30
0.0
 10
14.1403108919
 20
9.4173097941
 30
0.0
 10
14.1349013897
 20
9.4107644563
 30
0.0
 10
14.1305566212
 20
9.4051348964
 30
0.0
 10
14.1271903732
 20
9.4005194243
 30
0.0
 10
14.1247223601
 20
9.3969983372
 30
0.0
 10
14.1223171188
 20
9.3934245905
 30
0.0
 10
14.1191952381
 20
9.3885917467
 30
0.0
 10
14.1169572301
 20
9.3848980342
 30
0.0
 10
14.1155180663
 20
9.3824043302
 30
0.0
  0
SPLINE
  5
2A3
100
AcDbEntity
  8
0
100
AcDbSpline
 62
9
  6
CONTINUOUS
 70
0
 71
3
 72
32
 73
28
 74
0
 42
0.0000001
 43
0.0000001
 44
0.0000000001
 40
0.0
 40
0.0
 40
0.0
 40
0.0
 40
0.0354666431
 40
0.0708684457
 40
0.106143018
 40
0.1412351144
 40
0.1761021711
 40
0.2107268298
 40
0.2450822401
 40
0.2791475861
 40
0.3129303332
 40
0.3464331608
 40
0.3796490413
 40
0.4125716304
 40
0.4452044467
 40
0.4775507304
 40
0.5096100185
 40
0.5413794525
 40
0.6040297113
 40
0.6654441085
 40
0.7255367609
 40
0.7841879776
 40
0.84122056
 40
0.8964166563
 40
0.9494886868
 40
0.9751002622
 40
1.0
 40
1.0
 40
1.0
 40
1.0
 10
14.1155180663
 20
9.3824043302
 30
0.0
 10
14.1140779511
 20
9.3799111713
 30
0.0
 10
14.1113072487
 20
9.3748670466
 30
0.0
 10
14.1074497514
 20
9.3671598832
 30
0.0
 10
14.1038966157
 20
9.3593410038
 30
0.0
 10
14.1006472512
 20
9.3514382387
 30
0.0
 10
14.0976858684
 20
9.3434798185
 30
0.0
 10
14.094973426
 20
9.3354966608
 30
0.0
 10
14.0924923996
 20
9.3275068033
 30
0.0
 10
14.0902275534
 20
9.3195242497
 30
0.0
 10
14.0881429648
 20
9.3115645337
 30
0.0
 10
14.0862081694
 20
9.3036381686
 30
0.0
 10
14.0844088287
 20
9.2957516345
 30
0.0
 10
14.082728157
 20
9.2879112586
 30
0.0
 10
14.0811480369
 20
9.280122089
 30
0.0
 10
14.0796491182
 20
9.2723883121
 30
0.0
 10
14.0782172491
 20
9.2647131561
 30
0.0
 10
14.0763910941
 20
9.2546092002
 30
0.0
 10
14.0742177709
 20
9.2421465204
 30
0.0
 10
14.0716981702
 20
9.2274104216
 30
0.0
 10
14.069210521
 20
9.2129981832
 30
0.0
 10
14.0666936377
 20
9.1989521293
 30
0.0
 10
14.0640884536
 20
9.185326333
 30
0.0
 10
14.06133235
 20
9.1721923251
 30
0.0
 10
14.0588245981
 20
9.1616150702
 30
0.0
 10
14.0566574558
 20
9.1534896732
 30
0.0
 10
14.0555125347
 20
9.1495517043
 30
0.0
 10
14.0549219935
 20
9.1476185201
 30
0.0
  0
SPLINE
  5
2A4
100
AcDbEntity
  8
0
100
AcDbSpline
 62
9
  6
CONTINUOUS
 70
0
 71
3
 72
32
 73
28
 74
0
 42
0.0000001
 43
0.0000001
 44
0.0000000001
 40
0.0
 40
0.0
 40
0.0
 40
0.0
 40
0.0354666324
 40
0.070868337
 40
0.1061430948
 40
0.1412354573
 40
0.1761024626
 40
0.2107266628
 40
0.2450818788
 40
0.279147724
 40
0.3129306693
 40
0.3464329438
 40
0.3796483592
 40
0.4125711659
 40
0.4452044857
 40
0.4775510379
 40
0.5096102653
 40
0.5413794985
 40
0.6040294823
 40
0.6654439147
 40
0.7255367862
 40
0.7841881211
 40
0.8412205591
 40
0.8964165959
 40
0.9494888835
 40
0.9751004074
 40
1.0
 40
1.0
 40
1.0
 40
1.0
 10
15.0471607045
 20
7.7687519462
 30
0.0
 10
15.0500399001
 20
7.7687513153
 30
0.0
 10
15.0557935849
 20
7.7688739823
 30
0.0
 10
15.0643969153
 20
7.7693871976
 30
0.0
 10
15.072944882
 20
7.7702192238
 30
0.0
 10
15.0814136633
 20
7.7713560755
 30
0.0
 10
15.0897865111
 20
7.772770792
 30
0.0
 10
15.0980562169
 20
7.7744137015
 30
0.0
 10
15.1062160823
 20
7.7762602183
 30
0.0
 10
15.1142617311
 20
7.7782897144
 30
0.0
 10
15.1221974197
 20
7.7804640375
 30
0.0
 10
15.1300290949
 20
7.7827519402
 30
0.0
 10
15.1377585465
 20
7.7851372165
 30
0.0
 10
15.1453888984
 20
7.7876018033
 30
0.0
 10
15.1529247371
 20
7.790127739
 30
0.0
 10
15.1603719418
 20
7.7926964191
 30
0.0
 10
15.1677347431
 20
7.7952940015
 30
0.0
 10
15.1773980189
 20
7.7987645874
 30
0.0
 10
15.1892776255
 20
7.8031138108
 30
0.0
 10
15.203299273
 20
7.8082997854
 30
0.0
 10
15.2170245058
 20
7.8133515047
 30
0.0
 10
15.2304472062
 20
7.8181948374
 30
0.0
 10
15.2435500703
 20
7.8227515966
 30
0.0
 10
15.2563025071
 20
7.8269317565
 30
0.0
 10
15.2667165715
 20
7.8300485901
 30
0.0
 10
15.2748369456
 20
7.8322344953
 30
0.0
 10
15.2788197712
 20
7.8332119472
 30
0.0
 10
15.2807892169
 20
7.8336671129
 30
0.0
  0
SPLINE
  5
2A5
100
AcDbEntity
  8
0
100
AcDbSpline
 62
9
  6
CONTINUOUS
 70
0
 71
3
 72
32
 73
28
 74
0
 42
0.0000001
 43
0.0000001
 44
0.0000000001
 40
0.0
 40
0.0
 40
0.0
 40
0.0
 40
0.0249066152
 40
0.0505195119
 40
0.1035771073
 40
0.1587768695
 40
0.2158166206
 40
0.2744655156
 40
0.3345562508
 40
0.4586141272
 40
0.5224416142
 40
0.5547914533
 40
0.5874299499
 40
0.6203558184
 40
0.6535688755
 40
0.6870668839
 40
0.7208492215
 40
0.7549168448
 40
0.7892718384
 40
0.8238954177
 40
0.8587634165
 40
0.8938548059
 40
0.9114727451
 40
0.9291296752
 40
0.9468188868
 40
0.9645334029
 40
1.0
 40
1.0
 40
1.0
 40
1.0
 10
16.0393994156
 20
9.1476185201
 30
0.0
 10
16.0388087184
 20
9.149552246
 30
0.0
 10
16.0376635014
 20
9.153490831
 30
0.0
 10
16.035496231
 20
9.1616156983
 30
0.0
 10
16.0329898035
 20
9.1721925094
 30
0.0
 10
16.0302330702
 20
9.1853261061
 30
0.0
 10
16.0276269422
 20
9.1989524674
 30
0.0
 10
16.0251102993
 20
9.2129988529
 30
0.0
 10
16.0217580561
 20
9.2324221511
 30
0.0
 10
16.0183814828
 20
9.2522680354
 30
0.0
 10
16.0151658466
 20
9.2698557871
 30
0.0
 10
16.0131740859
 20
9.2801218116
 30
0.0
 10
16.0115910477
 20
9.2879114483
 30
0.0
 10
16.0099087283
 20
9.2957519899
 30
0.0
 10
16.0081113754
 20
9.3036386214
 30
0.0
 10
16.0061793344
 20
9.3115650164
 30
0.0
 10
16.0040942681
 20
9.3195244034
 30
0.0
 10
16.0018276034
 20
9.327506575
 30
0.0
 10
15.9993476584
 20
9.3354968328
 30
0.0
 10
15.9966358186
 20
9.3434802159
 30
0.0
 10
15.9936724576
 20
9.3514377918
 30
0.0
 10
15.9909694113
 20
9.3580152203
 30
0.0
 10
15.9886552858
 20
9.3632381747
 30
0.0
 10
15.9868398748
 20
9.367136067
 30
0.0
 10
15.9849475503
 20
9.3710059599
 30
0.0
 10
15.9823232057
 20
9.376126068
 30
0.0
 10
15.9802433912
 20
9.3799111284
 30
0.0
 10
15.9788033428
 20
9.3824043302
 30
0.0
  0
SPLINE
  5
2A6
100
AcDbEntity
  8
0
100
AcDbSpline
 62
9
  6
CONTINUOUS
 70
0
 71
3
 72
32
 73
28
 74
0
 42
0.0000001
 43
0.0000001
 44
0.0000000001
 40
0.0
 40
0.0
 40
0.0
 40
0.0
 40
0.035466542
 40
0.0708678719
 40
0.1061430963
 40
0.1412361383
 40
0.176103184
 40
0.2107260799
 40
0.2450809453
 40
0.2791491237
 40
0.3129328859
 40
0.3464324613
 40
0.379645146
 40
0.4125679128
 40
0.4452029226
 40
0.4775513295
 40
0.5096118424
 40
0.5413816188
 40
0.6040303566
 40
0.6654430208
 40
0.7255345511
 40
0.7841841292
 40
0.8412232494
 40
0.8964214979
 40
0.9494788478
 40
0.9750919836
 40
1.0
 40
1.0
 40
1.0
 40
1.0
 10
15.9788033428
 20
9.3824043302
 30
0.0
 10
15.9773643646
 20
9.3848981361
 30
0.0
 10
15.9743810802
 20
9.389819484
 30
0.0
 10
15.9696342111
 20
9.3970130745
 30
0.0
 10
15.9646402839
 20
9.4040003077
 30
0.0
 10
15.9594223431
 20
9.410766961
 30
0.0
 10
15.9540106065
 20
9.4173105516
 30
0.0
 10
15.9484522686
 20
9.4236501036
 30
0.0
 10
15.9427726971
 20
9.429793081
 30
0.0
 10
15.9369933378
 20
9.4357474014
 30
0.0
 10
15.9311431469
 20
9.441533502
 30
0.0
 10
15.9252450656
 20
9.4471705507
 30
0.0
 10
15.9193138186
 20
9.4526702775
 30
0.0
 10
15.9133643705
 20
9.4580460591
 30
0.0
 10
15.907409313
 20
9.4633101851
 30
0.0
 10
15.9014614079
 20
9.4684761897
 30
0.0
 10
15.8955304073
 20
9.473554201
 30
0.0
 10
15.8876931589
 20
9.4801876311
 30
0.0
 10
15.8779867031
 20
9.4883006131
 30
0.0
 10
15.8664846347
 20
9.4978501056
 30
0.0
 10
15.85524736
 20
9.5072103408
 30
0.0
 10
15.8443411524
 20
9.5164130437
 30
0.0
 10
15.833843464
 20
9.5254829894
 30
0.0
 10
15.8238478572
 20
9.5344369082
 30
0.0
 10
15.8159414173
 20
9.5418958663
 30
0.0
 10
15.8099886659
 20
9.5478352955
 30
0.0
 10
15.8071502844
 20
9.5507964726
 30
0.0
 10
15.8057709032
 20
9.5522749736
 30
0.0
  0
SPLINE
  5
2A7
100
AcDbEntity
  8
0
100
AcDbSpline
 62
9
  6
CONTINUOUS
 70
0
 71
3
 72
49
 73
45
 74
0
 42
0.0000001
 43
0.0000001
 44
0.0000000001
 40
0.0
 40
0.0
 40
0.0
 40
0.0
 40
0.0514030527
 40
0.0768781479
 40
0.1020919999
 40
0.1269766434
 40
0.1514792923
 40
0.1755643068
 40
0.1992092237
 40
0.222400719
 40
0.2451333858
 40
0.2892346221
 40
0.3315951101
 40
0.3521597025
 40
0.3723326133
 40
0.3921287947
 40
0.4115624789
 40
0.4493987773
 40
0.4859494283
 40
0.5213025968
 40
0.5555323683
 40
0.588698909
 40
0.6208452471
 40
0.6520029183
 40
0.6821960881
 40
0.7114366743
 40
0.7397174174
 40
0.7670246471
 40
0.7933422655
 40
0.8186440482
 40
0.8428761502
 40
0.8659779169
 40
0.8878881953
 40
0.9085370059
 40
0.9278215001
 40
0.9456309943
 40
0.9539482086
 40
0.9618553952
 40
0.9693380321
 40
0.9763832848
 40
0.9829800954
 40
0.9891174187
 40
0.9947894593
 40
1.0
 40
1.0
 40
1.0
 40
1.0
 10
15.0471607045
 20
8.3345202022
 30
0.0
 10
15.0432182154
 20
8.3345204055
 30
0.0
 10
15.0373187914
 20
8.3347479824
 30
0.0
 10
15.0295221925
 20
8.3354846118
 30
0.0
 10
15.0237738981
 20
8.33623998
 30
0.0
 10
15.0181305136
 20
8.3371909758
 30
0.0
 10
15.0126098378
 20
8.3383268509
 30
0.0
 10
15.0072237321
 20
8.3396282219
 30
0.0
 10
15.0019802143
 20
8.3410786756
 30
0.0
 10
14.9968843271
 20
8.3426636467
 30
0.0
 10
14.9903569676
 20
8.3449178606
 30
0.0
 10
14.9825653723
 20
8.3480024139
 30
0.0
 10
14.9751074324
 20
8.3514413438
 30
0.0
 10
14.9694251889
 20
8.354329096
 30
0.0
 10
14.9653375112
 20
8.3565314979
 30
0.0
 10
14.9613782436
 20
8.3587866328
 30
0.0
 10
14.9563105258
 20
8.3618297862
 30
0.0
 10
14.9502645519
 20
8.3657360993
 30
0.0
 10
14.9433808289
 20
8.3705828308
 30
0.0
 10
14.936905291
 20
8.3755184489
 30
0.0
 10
14.9308111846
 20
8.3805175628
 30
0.0
 10
14.9250740517
 20
8.3855568516
 30
0.0
 10
14.9196712803
 20
8.3906138273
 30
0.0
 10
14.91458266
 20
8.3956679333
 30
0.0
 10
14.909797276
 20
8.4007068054
 30
0.0
 10
14.9053040564
 20
8.405714964
 30
0.0
 10
14.9010907967
 20
8.4106735964
 30
0.0
 10
14.8971479976
 20
8.4155650455
 30
0.0
 10
14.8934748582
 20
8.4203776845
 30
0.0
 10
14.8900709495
 20
8.4250964155
 30
0.0
 10
14.8869340464
 20
8.4297010893
 30
0.0
 10
14.8840635895
 20
8.434170217
 30
0.0
 10
14.8814680494
 20
8.4384867957
 30
0.0
 10
14.8791573981
 20
8.4426302677
 30
0.0
 10
14.8771409982
 20
8.4465744591
 30
0.0
 10
14.8756845453
 20
8.4497397905
 30
0.0
 10
14.8746871902
 20
8.4521523818
 30
0.0
 10
14.8740413056
 20
8.4538523835
 30
0.0
 10
14.8734835091
 20
8.4554805592
 30
0.0
 10
14.8730171574
 20
8.4570326835
 30
0.0
 10
14.8726456484
 20
8.4585041207
 30
0.0
 10
14.8723730768
 20
8.4598901085
 30
0.0
 10
14.8722036438
 20
8.4611854234
 30
0.0
 10
14.8721607001
 20
8.4620203128
 30
0.0
 10
14.8721606863
 20
8.4624199486
 30
0.0
  0
SPLINE
  5
2A8
100
AcDbEntity
  8
0
100
AcDbSpline
 62
9
  6
CONTINUOUS
 70
0
 71
3
 72
34
 73
30
 74
0
 42
0.0000001
 43
0.0000001
 44
0.0000000001
 40
0.0
 40
0.0
 40
0.0
 40
0.0
 40
0.0220196119
 40
0.0448772657
 40
0.0928961839
 40
0.1179698883
 40
0.143696162
 40
0.19697755
 40
0.2525050025
 40
0.3100963996
 40
0.3696154116
 40
0.4309720955
 40
0.4941247092
 40
0.5590855409
 40
0.592268258
 40
0.6259423282
 40
0.6601344459
 40
0.6948833838
 40
0.7302378325
 40
0.7662603875
 40
0.8030327084
 40
0.8406474317
 40
0.879186674
 40
0.8988243694
 40
0.9187018779
 40
0.9387999654
 40
0.9590838056
 40
0.979505456
 40
1.0
 40
1.0
 40
1.0
 40
1.0
 10
14.9062613084
 20
7.8946667213
 30
0.0
 10
14.9073117609
 20
7.8939315717
 30
0.0
 10
14.9094317065
 20
7.8924032174
 30
0.0
 10
14.9137438488
 20
7.889137055
 30
0.0
 10
14.9180926903
 20
7.8856275584
 30
0.0
 10
14.9224943394
 20
7.8819216142
 30
0.0
 10
14.9270845439
 20
7.8779643359
 30
0.0
 10
14.9329416873
 20
7.8727618725
 30
0.0
 10
14.9401024981
 20
7.8662347718
 30
0.0
 10
14.9474837162
 20
7.8594108432
 30
0.0
 10
14.9551038829
 20
7.8523454529
 30
0.0
 10
14.9629914793
 20
7.8450922109
 30
0.0
 10
14.971186817
 20
7.8377060902
 30
0.0
 10
14.9782715174
 20
7.8315391689
 30
0.0
 10
14.9841636388
 20
7.8266199162
 30
0.0
 10
14.9887429095
 20
7.8229248712
 30
0.0
 10
14.9934679799
 20
7.8192669261
 30
0.0
 10
14.9983639778
 20
7.815672702
 30
0.0
 10
15.0034566415
 20
7.8121705936
 30
0.0
 10
15.0087774589
 20
7.8087990821
 30
0.0
 10
15.0143670376
 20
7.8056168942
 30
0.0
 10
15.0202676369
 20
7.8027055339
 30
0.0
 10
15.0254408085
 20
7.800601924
 30
0.0
 10
15.0297578738
 20
7.7991759767
 30
0.0
 10
15.0331059683
 20
7.79825386
 30
0.0
 10
15.0365361323
 20
7.7975068233
 30
0.0
 10
15.0400351285
 20
7.79695322
 30
0.0
 10
15.0435842189
 20
7.7966096543
 30
0.0
 10
15.0459673605
 20
7.7965311898
 30
0.0
 10
15.0471607045
 20
7.796531231
 30
0.0
  0
SPLINE
  5
2A9
100
AcDbEntity
  8
0
100
AcDbSpline
 62
9
  6
CONTINUOUS
 70
0
 71
3
 72
35
 73
31
 74
0
 42
0.0000001
 43
0.0000001
 44
0.0000000001
 40
0.0
 40
0.0
 40
0.0
 40
0.0
 40
0.0204949062
 40
0.0409169827
 40
0.081282982
 40
0.1011608033
 40
0.1207987158
 40
0.1593383858
 40
0.1969540786
 40
0.233727768
 40
0.2697495923
 40
0.2875067802
 40
0.3051059676
 40
0.3398558856
 40
0.3740479042
 40
0.4077224232
 40
0.4409058181
 40
0.4736166684
 40
0.5058683124
 40
0.5690218496
 40
0.6303797172
 40
0.6898992755
 40
0.7474908312
 40
0.8030193474
 40
0.8563027866
 40
0.8820298069
 40
0.9071037965
 40
0.9551219796
 40
0.9779793115
 40
1.0
 40
1.0
 40
1.0
 40
1.0
 10
15.0471607045
 20
7.796531231
 30
0.0
 10
15.0483540529
 20
7.7965312022
 30
0.0
 10
15.0507372991
 20
7.7966097071
 30
0.0
 10
15.0554504146
 20
7.7970657766
 30
0.0
 10
15.0600778769
 20
7.7979403208
 30
0.0
 10
15.0645634718
 20
7.7991760426
 30
0.0
 10
15.0688806876
 20
7.8006020584
 30
0.0
 10
15.0740536723
 20
7.8027059631
 30
0.0
 10
15.0799544417
 20
7.8056171036
 30
0.0
 10
15.0855449902
 20
7.8087975723
 30
0.0
 10
15.08999919
 20
7.8116220216
 30
0.0
 10
15.093444859
 20
7.8139462041
 30
0.0
 10
15.0967910915
 20
7.8162844136
 30
0.0
 10
15.1008543476
 20
7.8192658826
 30
0.0
 10
15.1055782986
 20
7.8229252313
 30
0.0
 10
15.1101575311
 20
7.8266202699
 30
0.0
 10
15.1146087958
 20
7.8303351641
 30
0.0
 10
15.1189441901
 20
7.8340585926
 30
0.0
 10
15.1245487214
 20
7.8389818869
 30
0.0
 10
15.1313313945
 20
7.8450907057
 30
0.0
 10
15.1392164277
 20
7.8523467014
 30
0.0
 10
15.1468374663
 20
7.8594111036
 30
0.0
 10
15.154220221
 20
7.8662333073
 30
0.0
 10
15.1613799409
 20
7.8727616722
 30
0.0
 10
15.1672361584
 20
7.877965358
 30
0.0
 10
15.1718261804
 20
7.8819229967
 30
0.0
 10
15.1762281442
 20
7.8856284753
 30
0.0
 10
15.180577705
 20
7.8891368835
 30
0.0
 10
15.1848901569
 20
7.8924025037
 30
0.0
 10
15.1870098853
 20
7.8939311551
 30
0.0
 10
15.1880601006
 20
7.8946667213
 30
0.0
  0
SPLINE
  5
2AA
100
AcDbEntity
  8
0
100
AcDbSpline
 62
9
  6
CONTINUOUS
 70
0
 71
3
 72
31
 73
27
 74
0
 42
0.0000001
 43
0.0000001
 44
0.0000000001
 40
0.0
 40
0.0
 40
0.0
 40
0.0
 40
0.0794543358
 40
0.1549671903
 40
0.2262670896
 40
0.2931082279
 40
0.35529749
 40
0.4127575727
 40
0.4656552447
 40
0.4905770298
 40
0.5146247843
 40
0.5379722425
 40
0.5608460787
 40
0.5835294287
 40
0.6063560645
 40
0.6296946632
 40
0.653898249
 40
0.7061407766
 40
0.7348683581
 40
0.7656515398
 40
0.7986872949
 40
0.8340862384
 40
0.8719094006
 40
0.912178212
 40
0.9548861791
 40
1.0
 40
1.0
 40
1.0
 40
1.0
 10
15.1880601006
 20
7.8946667213
 30
0.0
 10
15.1891599669
 20
7.8954366688
 30
0.0
 10
15.1913286686
 20
7.896905284
 30
0.0
 10
15.194575881
 20
7.8989257244
 30
0.0
 10
15.1977294514
 20
7.9006866096
 30
0.0
 10
15.2007785868
 20
7.9021622185
 30
0.0
 10
15.2037124496
 20
7.9033227466
 30
0.0
 10
15.2065195716
 20
7.9041302483
 30
0.0
 10
15.2087872952
 20
7.9044828296
 30
0.0
 10
15.2105099029
 20
7.904533407
 30
0.0
 10
15.2117314126
 20
7.9044562675
 30
0.0
 10
15.2129046985
 20
7.9042593242
 30
0.0
 10
15.2140262233
 20
7.9039365453
 30
0.0
 10
15.2150919521
 20
7.9034820601
 30
0.0
 10
15.2160973253
 20
7.9028901572
 30
0.0
 10
15.2170370095
 20
7.9021560325
 30
0.0
 10
15.2182270802
 20
7.9009562034
 30
0.0
 10
15.2192373318
 20
7.8994734159
 30
0.0
 10
15.2200649793
 20
7.8977745947
 30
0.0
 10
15.2206241862
 20
7.8963119227
 30
0.0
 10
15.2210987909
 20
7.8947025037
 30
0.0
 10
15.221488187
 20
7.892948465
 30
0.0
 10
15.2217907983
 20
7.8910537638
 30
0.0
 10
15.2220062438
 20
7.8890231026
 30
0.0
 10
15.2221341287
 20
7.8868618033
 30
0.0
 10
15.2221607071
 20
7.8853776346
 30
0.0
 10
15.2221606998
 20
7.8846153228
 30
0.0
  0
SPLINE
  5
2AB
100
AcDbEntity
  8
0
100
AcDbSpline
 62
9
  6
CONTINUOUS
 70
0
 71
3
 72
40
 73
36
 74
0
 42
0.0000001
 43
0.0000001
 44
0.0000000001
 40
0.0
 40
0.0
 40
0.0
 40
0.0
 40
0.051405402
 40
0.0768815943
 40
0.1020966061
 40
0.1269825526
 40
0.151486436
 40
0.1755728928
 40
0.1992189144
 40
0.2224109292
 40
0.2451443201
 40
0.2892474598
 40
0.3316110009
 40
0.3723465855
 40
0.411575229
 40
0.4494138277
 40
0.5213084581
 40
0.58869792
 40
0.6519996826
 40
0.7114278185
 40
0.7670165825
 40
0.8186312436
 40
0.8428618486
 40
0.8659676305
 40
0.8878830091
 40
0.9085289953
 40
0.9278146954
 40
0.9456266124
 40
0.9618514299
 40
0.9693369336
 40
0.9763859138
 40
0.9829836931
 40
0.9891196436
 40
0.9947897888
 40
1.0
 40
1.0
 40
1.0
 40
1.0
 10
14.6054877486
 20
9.0995202022
 30
0.0
 10
14.6074591135
 20
9.1029343659
 30
0.0
 10
14.6106060126
 20
9.1079294673
 30
0.0
 10
14.6151422179
 20
9.1143130887
 30
0.0
 10
14.6186704942
 20
9.1189135121
 30
0.0
 10
14.6223155741
 20
9.1233254149
 30
0.0
 10
14.6260592593
 20
9.1275387911
 30
0.0
 10
14.6298789885
 20
9.1315528848
 30
0.0
 10
14.6337567441
 20
9.1353686967
 30
0.0
 10
14.6376776416
 20
9.1389888289
 30
0.0
 10
14.6428938899
 20
9.1435138915
 30
0.0
 10
14.649461338
 20
9.1487188587
 30
0.0
 10
14.6574305602
 20
9.1543532636
 30
0.0
 10
14.6653586864
 20
9.1593763374
 30
0.0
 10
14.6732130007
 20
9.1638475873
 30
0.0
 10
14.6833795936
 20
9.1690649411
 30
0.0
 10
14.6958270925
 20
9.1745402733
 30
0.0
 10
14.7104682617
 20
9.1797726112
 30
0.0
 10
14.7244900174
 20
9.1838037073
 30
0.0
 10
14.7378365205
 20
9.186818966
 30
0.0
 10
14.7504414113
 20
9.1889588358
 30
0.0
 10
14.7604590643
 20
9.1901242987
 30
0.0
 10
14.7680274648
 20
9.190692049
 30
0.0
 10
14.7733334694
 20
9.1909415456
 30
0.0
 10
14.7783696858
 20
9.1910301783
 30
0.0
 10
14.7831133161
 20
9.1909605245
 30
0.0
 10
14.78753726
 20
9.1907354142
 30
0.0
 10
14.7916104609
 20
9.1903571525
 30
0.0
 10
14.7947644173
 20
9.189902855
 30
0.0
 10
14.7970798378
 20
9.1894489771
 30
0.0
 10
14.7986576613
 20
9.1890766385
 30
0.0
 10
14.8001178375
 20
9.1886624853
 30
0.0
 10
14.8014542436
 20
9.1882058492
 30
0.0
 10
14.8026605558
 20
9.1877053998
 30
0.0
 10
14.8034048649
 20
9.1873252363
 30
0.0
 10
14.803750943
 20
9.1871254876
 30
0.0
  0
SPLINE
  5
2AC
100
AcDbEntity
  8
0
100
AcDbSpline
 62
9
  6
CONTINUOUS
 70
0
 71
3
 72
30
 73
26
 74
0
 42
0.0000001
 43
0.0000001
 44
0.0000000001
 40
0.0
 40
0.0
 40
0.0
 40
0.0
 40
0.0220200044
 40
0.0448790459
 40
0.0928989998
 40
0.1436987997
 40
0.1969832246
 40
0.2525126933
 40
0.3101058165
 40
0.3696267513
 40
0.4309856023
 40
0.4941402673
 40
0.5591036106
 40
0.6259597621
 40
0.6601533482
 40
0.6949031233
 40
0.7302585554
 40
0.7662832705
 40
0.8030559813
 40
0.84067193
 40
0.879213359
 40
0.9187167067
 40
0.9590828074
 40
0.9795049725
 40
1.0
 40
1.0
 40
1.0
 40
1.0
 10
14.2950131583
 20
9.441469399
 30
0.0
 10
14.2938514251
 20
9.4409269735
 30
0.0
 10
14.2914678271
 20
9.4398552248
 30
0.0
 10
14.2864828321
 20
9.4377546994
 30
0.0
 10
14.2798717366
 20
9.4352031169
 30
0.0
 10
14.2715225717
 20
9.4322470283
 30
0.0
 10
14.2627026915
 20
9.4293164556
 30
0.0
 10
14.2534695521
 20
9.4263785657
 30
0.0
 10
14.2438695309
 20
9.4233972777
 30
0.0
 10
14.2339407834
 20
9.4203302003
 30
0.0
 10
14.2237152159
 20
9.4171268895
 30
0.0
 10
14.2132205524
 20
9.4137234201
 30
0.0
 10
14.2024844357
 20
9.4100313311
 30
0.0
 10
14.1934297927
 20
9.4066417239
 30
0.0
 10
14.1861118322
 20
9.4036453542
 30
0.0
 10
14.1805506869
 20
9.4012034821
 30
0.0
 10
14.1749712442
 20
9.3985444077
 30
0.0
 10
14.169392073
 20
9.3956202004
 30
0.0
 10
14.1638404303
 20
9.3923724427
 30
0.0
 10
14.1583686473
 20
9.3887177163
 30
0.0
 10
14.1530477543
 20
9.3845778848
 30
0.0
 10
14.1479999002
 20
9.3798654774
 30
0.0
 10
14.1441826667
 20
9.3754270172
 30
0.0
 10
14.1414316896
 20
9.3715729115
 30
0.0
 10
14.1401722894
 20
9.3695481515
 30
0.0
 10
14.1395756326
 20
9.3685146878
 30
0.0
  0
SPLINE
  5
2AD
100
AcDbEntity
  8
0
100
AcDbSpline
 62
9
  6
CONTINUOUS
 70
0
 71
3
 72
36
 73
32
 74
0
 42
0.0000001
 43
0.0000001
 44
0.0000000001
 40
0.0
 40
0.0
 40
0.0
 40
0.0
 40
0.0204945383
 40
0.0409162572
 40
0.0612001837
 40
0.0812982436
 40
0.1011756316
 40
0.1208131769
 40
0.1593523605
 40
0.1969675436
 40
0.2337404014
 40
0.2697617156
 40
0.2875186946
 40
0.3051176513
 40
0.3398669985
 40
0.374058352
 40
0.4077322774
 40
0.4409151387
 40
0.4736254568
 40
0.5058765611
 40
0.5690290304
 40
0.6303858696
 40
0.6899044324
 40
0.7474950512
 40
0.8030226636
 40
0.8563051659
 40
0.882031739
 40
0.9071053166
 40
0.95512274
 40
0.9779796965
 40
1.0
 40
1.0
 40
1.0
 40
1.0
 10
14.1395756326
 20
9.3685146878
 30
0.0
 10
14.1389789387
 20
9.3674812307
 30
0.0
 10
14.137855291
 20
9.3653781435
 30
0.0
 10
14.1363781869
 20
9.3621327825
 30
0.0
 10
14.1351079879
 20
9.3588257937
 30
0.0
 10
14.1340399195
 20
9.3554816337
 30
0.0
 10
14.1331647631
 20
9.3521209669
 30
0.0
 10
14.1322412894
 20
9.347669283
 30
0.0
 10
14.1314766099
 20
9.3421373381
 30
0.0
 10
14.1310471181
 20
9.3355715738
 30
0.0
 10
14.1310066921
 20
9.3291397713
 30
0.0
 10
14.1312255033
 20
9.3238701025
 30
0.0
 10
14.1315152815
 20
9.3197239454
 30
0.0
 10
14.1318669941
 20
9.315656898
 30
0.0
 10
14.1324173744
 20
9.3106472765
 30
0.0
 10
14.1332247027
 20
9.3047265756
 30
0.0
 10
14.1341351471
 20
9.2989133414
 30
0.0
 10
14.1351266306
 20
9.2932009719
 30
0.0
 10
14.1361834541
 20
9.2875846814
 30
0.0
 10
14.1376448749
 20
9.280269364
 30
0.0
 10
14.1395441408
 20
9.2713410322
 30
0.0
 10
14.1418853827
 20
9.2608843694
 30
0.0
 10
14.1441927685
 20
9.2507521419
 30
0.0
 10
14.1464096538
 20
9.2409473969
 30
0.0
 10
14.1484835671
 20
9.231482723
 30
0.0
 10
14.1500619119
 20
9.2238092336
 30
0.0
 10
14.1511942778
 20
9.2178553341
 30
0.0
 10
14.152202348
 20
9.2121903824
 30
0.0
 10
14.1530659921
 20
9.2066693525
 30
0.0
 10
14.1537378839
 20
9.2013018477
 30
0.0
 10
14.1540018601
 20
9.1987017824
 30
0.0
 10
14.1541137622
 20
9.1974244862
 30
0.0
  0
SPLINE
  5
2AE
100
AcDbEntity
  8
0
100
AcDbSpline
 62
9
  6
CONTINUOUS
 70
0
 71
3
 72
30
 73
26
 74
0
 42
0.0000001
 43
0.0000001
 44
0.0000000001
 40
0.0
 40
0.0
 40
0.0
 40
0.0
 40
0.0794577824
 40
0.154973642
 40
0.2262758923
 40
0.293119225
 40
0.3553110201
 40
0.4127735132
 40
0.4656732613
 40
0.5145942523
 40
0.5379444582
 40
0.5608198527
 40
0.5835012808
 40
0.6063229807
 40
0.629656762
 40
0.6538608489
 40
0.7061253282
 40
0.7348579
 40
0.7656353885
 40
0.7986576787
 40
0.8340471711
 40
0.8718743324
 40
0.9121562416
 40
0.9548785897
 40
1.0
 40
1.0
 40
1.0
 40
1.0
 10
14.1541137622
 20
9.1974244862
 30
0.0
 10
14.1542306652
 20
9.1960869965
 30
0.0
 10
14.1544182668
 20
9.1934745359
 30
0.0
 10
14.1545444574
 20
9.1896521371
 30
0.0
 10
14.1544924904
 20
9.1860406466
 30
0.0
 10
14.15424566
 20
9.1826621828
 30
0.0
 10
14.1537839473
 20
9.17954129
 30
0.0
 10
14.1530796628
 20
9.1767058437
 30
0.0
 10
14.1521053974
 20
9.1741878395
 30
0.0
 10
14.1510238423
 20
9.1723543848
 30
0.0
 10
14.1499983262
 20
9.1711124272
 30
0.0
 10
14.1491579446
 20
9.1703026101
 30
0.0
 10
14.1482317788
 20
9.1696067725
 30
0.0
 10
14.1472169206
 20
9.169031772
 30
0.0
 10
14.1461116213
 20
9.1685847842
 30
0.0
 10
14.1444772501
 20
9.1681539921
 30
0.0
 10
14.1426875255
 20
9.1680212097
 30
0.0
 10
14.1408022202
 20
9.1681539369
 30
0.0
 10
14.1392561785
 20
9.1684007926
 30
0.0
 10
14.1376255521
 20
9.1687941109
 30
0.0
 10
14.135912143
 20
9.1693336797
 30
0.0
 10
14.1341199447
 20
9.1700190377
 30
0.0
 10
14.1322532302
 20
9.1708480342
 30
0.0
 10
14.1303171127
 20
9.1718182033
 30
0.0
 10
14.1290182171
 20
9.1725374169
 30
0.0
 10
14.1283579526
 20
9.1729186276
 30
0.0
  0
SPLINE
  5
2AF
100
AcDbEntity
  8
0
100
AcDbSpline
 62
9
  6
CONTINUOUS
 70
0
 71
3
 72
48
 73
44
 74
0
 42
0.0000001
 43
0.0000001
 44
0.0000000001
 40
0.0
 40
0.0
 40
0.0
 40
0.0
 40
0.0514036729
 40
0.0768790808
 40
0.1020932238
 40
0.1269781471
 40
0.1514810964
 40
0.1755664393
 40
0.1992116574
 40
0.2224033919
 40
0.2451362485
 40
0.2892378561
 40
0.331599
 40
0.3521639005
 40
0.3723370141
 40
0.3921333441
 40
0.4115671714
 40
0.449403871
 40
0.4859549277
 40
0.5213085342
 40
0.5886959922
 40
0.6208424274
 40
0.6520008086
 40
0.6821945127
 40
0.7114349153
 40
0.7397155892
 40
0.7670234644
 40
0.793341765
 40
0.8186436343
 40
0.8428753926
 40
0.8659768222
 40
0.887887593
 40
0.9085379697
 40
0.92782261
 40
0.9456302245
 40
0.9539472796
 40
0.9618554817
 40
0.9693395722
 40
0.9763857132
 40
0.9829821591
 40
0.9891184351
 40
0.9947896298
 40
1.0
 40
1.0
 40
1.0
 40
1.0
 10
15.4888336605
 20
9.0995202022
 30
0.0
 10
15.4908047396
 20
9.0961057964
 30
0.0
 10
15.4935573766
 20
9.0908829423
 30
0.0
 10
15.4968177708
 20
9.083762564
 30
0.0
 10
15.4990377412
 20
9.078406689
 30
0.0
 10
15.5010358069
 20
9.0730438451
 30
0.0
 10
15.5028124742
 20
9.0676948511
 30
0.0
 10
15.5043785859
 20
9.0623796619
 30
0.0
 10
15.505744269
 20
9.0571134096
 30
0.0
 10
15.5069195492
 20
9.0519077383
 30
0.0
 10
15.5082308992
 20
9.0451277467
 30
0.0
 10
15.5094551112
 20
9.0368376947
 30
0.0
 10
15.5102061677
 20
9.0286594698
 30
0.0
 10
15.5105466918
 20
9.0222946061
 30
0.0
 10
15.5106831461
 20
9.0176533597
 30
0.0
 10
15.5107095835
 20
9.0130969676
 30
0.0
 10
15.5106076103
 20
9.0071866187
 30
0.0
 10
15.510247276
 20
8.9999975468
 30
0.0
 10
15.5094928219
 20
8.9916124811
 30
0.0
 10
15.5081321189
 20
8.9810142256
 30
0.0
 10
15.5062727745
 20
8.9708277264
 30
0.0
 10
15.5040003329
 20
8.9610639406
 30
0.0
 10
15.5021670558
 20
8.9541300265
 30
0.0
 10
15.5001956218
 20
8.9474664386
 30
0.0
 10
15.498105472
 20
8.9410710133
 30
0.0
 10
15.4959180946
 20
8.9349428282
 30
0.0
 10
15.4936530963
 20
8.9290825995
 30
0.0
 10
15.4913215156
 20
8.9234953096
 30
0.0
 10
15.4889370135
 20
8.9181880586
 30
0.0
 10
15.4865179227
 20
8.9131690826
 30
0.0
 10
15.4840829248
 20
8.9084486203
 30
0.0
 10
15.4816423276
 20
8.9040424789
 30
0.0
 10
15.4792088901
 20
8.8999697559
 30
0.0
 10
15.4768012707
 20
8.8962515113
 30
0.0
 10
15.4747886514
 20
8.8934074457
 30
0.0
 10
15.4731980705
 20
8.891337458
 30
0.0
 10
15.4720485579
 20
8.8899280667
 30
0.0
 10
15.4709171188
 20
8.8886308494
 30
0.0
 10
15.4698059376
 20
8.8874508962
 30
0.0
 10
15.4687174465
 20
8.8863934628
 30
0.0
 10
15.4676536135
 20
8.8854644892
 30
0.0
 10
15.4666167031
 20
8.8846701818
 30
0.0
 10
15.4659152012
 20
8.8842156076
 30
0.0
 10
15.4655691234
 20
8.8840157935
 30
0.0
  0
SPLINE
  5
2B0
100
AcDbEntity
  8
0
100
AcDbSpline
 62
9
  6
CONTINUOUS
 70
0
 71
3
 72
32
 73
28
 74
0
 42
0.0000001
 43
0.0000001
 44
0.0000000001
 40
0.0
 40
0.0
 40
0.0
 40
0.0
 40
0.0220197954
 40
0.0448776057
 40
0.0928968961
 40
0.1179707703
 40
0.1436972139
 40
0.1969789764
 40
0.2525069283
 40
0.3100987829
 40
0.3696182686
 40
0.4309754578
 40
0.4941285731
 40
0.5590899884
 40
0.6259448566
 40
0.694880821
 40
0.7302355873
 40
0.7662592187
 40
0.8030311261
 40
0.8406463568
 40
0.8791868099
 40
0.8988244939
 40
0.9187015837
 40
0.9387994628
 40
0.959083658
 40
0.9795054134
 40
1.0
 40
1.0
 40
1.0
 40
1.0
 10
15.9402076469
 20
9.1974244862
 30
0.0
 10
15.9403190853
 20
9.1987017803
 30
0.0
 10
15.9405827051
 20
9.2013018847
 30
0.0
 10
15.9412551997
 20
9.2066693944
 30
0.0
 10
15.9421201318
 20
9.2121903434
 30
0.0
 10
15.943128736
 20
9.2178552566
 30
0.0
 10
15.9442606841
 20
9.2238091366
 30
0.0
 10
15.9458375342
 20
9.2314828159
 30
0.0
 10
15.9479098514
 20
9.2409477981
 30
0.0
 10
15.9501290228
 20
9.2507520743
 30
0.0
 10
15.9524376603
 20
9.2608840574
 30
0.0
 10
15.954775165
 20
9.2713415764
 30
0.0
 10
15.9570746016
 20
9.2821319399
 30
0.0
 10
15.9592475043
 20
9.2932755166
 30
0.0
 10
15.9611695318
 20
9.3048073958
 30
0.0
 10
15.9624108734
 20
9.314699982
 30
0.0
 10
15.963054249
 20
9.3228462269
 30
0.0
 10
15.9633119556
 20
9.3291400154
 30
0.0
 10
15.9632748459
 20
9.3355718307
 30
0.0
 10
15.9628455395
 20
9.3421376555
 30
0.0
 10
15.9620794543
 20
9.3476694162
 30
0.0
 10
15.9611561837
 20
9.3521211387
 30
0.0
 10
15.9602819035
 20
9.3554819738
 30
0.0
 10
15.9592142441
 20
9.3588262319
 30
0.0
 10
15.9579436881
 20
9.3621330616
 30
0.0
 10
15.9564662379
 20
9.3653782456
 30
0.0
 10
15.955342456
 20
9.3674812331
 30
0.0
 10
15.9547457765
 20
9.3685146878
 30
0.0
  0
SPLINE
  5
2B1
100
AcDbEntity
  8
0
100
AcDbSpline
 62
9
  6
CONTINUOUS
 70
0
 71
3
 72
34
 73
30
 74
0
 42
0.0000001
 43
0.0000001
 44
0.0000000001
 40
0.0
 40
0.0
 40
0.0
 40
0.0
 40
0.0204949256
 40
0.0409169753
 40
0.081283029
 40
0.1011610883
 40
0.1207991085
 40
0.1593383652
 40
0.1969536563
 40
0.2337280868
 40
0.2697496019
 40
0.2875065228
 40
0.3051054338
 40
0.339855218
 40
0.3740477162
 40
0.4077221962
 40
0.4409053719
 40
0.5058672301
 40
0.5690208463
 40
0.6303785047
 40
0.6898982918
 40
0.7474904383
 40
0.8030188061
 40
0.8563019568
 40
0.8820287418
 40
0.9071024396
 40
0.955121839
 40
0.9779801713
 40
1.0
 40
1.0
 40
1.0
 40
1.0
 10
15.9547457765
 20
9.3685146878
 30
0.0
 10
15.9541491366
 20
9.3695481769
 30
0.0
 10
15.9528894553
 20
9.3715728308
 30
0.0
 10
15.950137673
 20
9.3754262925
 30
0.0
 10
15.9470664082
 20
9.3789963446
 30
0.0
 10
15.9437540065
 20
9.3822637135
 30
0.0
 10
15.9403605714
 20
9.3852896772
 30
0.0
 10
15.935951855
 20
9.3887173803
 30
0.0
 10
15.9304799322
 20
9.3923713072
 30
0.0
 10
15.924931179
 20
9.3956241199
 30
0.0
 10
15.9202577542
 20
9.3980688734
 30
0.0
 10
15.9165219728
 20
9.3998903853
 30
0.0
 10
15.9128237193
 20
9.4016186968
 30
0.0
 10
15.9082099358
 20
9.4036465147
 30
0.0
 10
15.9026793309
 20
9.405909042
 30
0.0
 10
15.8971896527
 20
9.4080271378
 30
0.0
 10
15.8899833637
 20
9.4106701263
 30
0.0
 10
15.8811002867
 20
9.4137221351
 30
0.0
 10
15.8706062239
 20
9.4171269985
 30
0.0
 10
15.860380758
 20
9.4203306579
 30
0.0
 10
15.8504520532
 20
9.4233977648
 30
0.0
 10
15.8408520091
 20
9.4263789154
 30
0.0
 10
15.8316189115
 20
9.4293167748
 30
0.0
 10
15.8241844977
 20
9.4317870437
 30
0.0
 10
15.8184621081
 20
9.433783232
 30
0.0
 10
15.8130519453
 20
9.435742403
 30
0.0
 10
15.8078384344
 20
9.4377543649
 30
0.0
 10
15.8028536615
 20
9.4398554004
 30
0.0
 10
15.8004700763
 20
9.4409271461
 30
0.0
 10
15.7993082508
 20
9.441469399
 30
0.0
  0
SPLINE
  5
2B2
100
AcDbEntity
  8
0
100
AcDbSpline
 62
9
  6
CONTINUOUS
 70
0
 71
3
 72
30
 73
26
 74
0
 42
0.0000001
 43
0.0000001
 44
0.0000000001
 40
0.0
 40
0.0
 40
0.0
 40
0.0
 40
0.0794590131
 40
0.1549760623
 40
0.2262794168
 40
0.293123752
 40
0.3553164575
 40
0.4127798139
 40
0.4656803248
 40
0.514601795
 40
0.5379522003
 40
0.5608278737
 40
0.5835098217
 40
0.6063325821
 40
0.6296682104
 40
0.6538747017
 40
0.7061436885
 40
0.7348764754
 40
0.7656518451
 40
0.7986694783
 40
0.834053437
 40
0.8718761378
 40
0.9121548052
 40
0.9548756715
 40
1.0
 40
1.0
 40
1.0
 40
1.0
 10
15.7993082508
 20
9.441469399
 30
0.0
 10
15.7980914976
 20
9.4420369004
 30
0.0
 10
15.795735238
 20
9.4431806623
 30
0.0
 10
15.7923618484
 20
9.4449825803
 30
0.0
 10
15.7892601874
 20
9.4468333287
 30
0.0
 10
15.7864577719
 20
9.4487363287
 30
0.0
 10
15.7839858719
 20
9.4506966492
 30
0.0
 10
15.7818824587
 20
9.4527243104
 30
0.0
 10
15.7801889101
 20
9.4548270187
 30
0.0
 10
15.7791418073
 20
9.4566803559
 30
0.0
 10
15.778578966
 20
9.4581894376
 30
0.0
 10
15.7782978232
 20
9.4593221349
 30
0.0
 10
15.7781583025
 20
9.4604721532
 30
0.0
 10
15.7781678177
 20
9.4616385883
 30
0.0
 10
15.7783334636
 20
9.462819359
 30
0.0
 10
15.7787777299
 20
9.464450246
 30
0.0
 10
15.7795577204
 20
9.4660666212
 30
0.0
 10
15.7806153171
 20
9.467632997
 30
0.0
 10
15.7816019974
 20
9.468848406
 30
0.0
 10
15.782757714
 20
9.4700637976
 30
0.0
 10
15.7840814514
 20
9.4712777328
 30
0.0
 10
15.7855708694
 20
9.4724870118
 30
0.0
 10
15.7872219975
 20
9.4736890409
 30
0.0
 10
15.7890301923
 20
9.4748806518
 30
0.0
 10
15.790302502
 20
9.4756459171
 30
0.0
 10
15.7909628055
 20
9.4760271359
 30
0.0
  0
SPLINE
  5
2B3
100
AcDbEntity
  8
0
100
AcDbSpline
 62
9
  6
CONTINUOUS
 70
0
 71
3
 72
29
 73
25
 74
0
 42
0.0000001
 43
0.0000001
 44
0.0000000001
 40
0.0
 40
0.0
 40
0.0
 40
0.0
 40
0.0794612414
 40
0.1549799986
 40
0.2262844314
 40
0.293131111
 40
0.3553248635
 40
0.4127894124
 40
0.4656912474
 40
0.514613493
 40
0.5379645351
 40
0.5608406581
 40
0.5835231896
 40
0.6063485541
 40
0.6296835448
 40
0.6538869498
 40
0.7061598898
 40
0.7348933553
 40
0.7656706768
 40
0.7986852946
 40
0.834070149
 40
0.8718953185
 40
0.9121758592
 40
1.0
 40
1.0
 40
1.0
 40
1.0
 10
7.7993082508
 20
9.441469399
 30
0.0
 10
7.7980914897
 20
9.4420369041
 30
0.0
 10
7.7957352206
 20
9.4431806685
 30
0.0
 10
7.792361825
 20
9.4449825863
 30
0.0
 10
7.7892602145
 20
9.4468334296
 30
0.0
 10
7.7864576826
 20
9.4487362619
 30
0.0
 10
7.7839858051
 20
9.4506966373
 30
0.0
 10
7.7818824739
 20
9.4527243784
 30
0.0
 10
7.7801889102
 20
9.4548270558
 30
0.0
 10
7.7791417063
 20
9.4566803507
 30
0.0
 10
7.7785789715
 20
9.4581894697
 30
0.0
 10
7.7782977876
 20
9.4593221536
 30
0.0
 10
7.7781582396
 20
9.4604722186
 30
0.0
 10
7.7781680526
 20
9.4616386662
 30
0.0
 10
7.7783335276
 20
9.462819398
 30
0.0
 10
7.7787775517
 20
9.4644503345
 30
0.0
 10
7.7795577792
 20
9.466066596
 30
0.0
 10
7.7806153404
 20
9.4676330736
 30
0.0
 10
7.7816020893
 20
9.4688483755
 30
0.0
 10
7.7827576546
 20
9.4700638572
 30
0.0
 10
7.7840814438
 20
9.4712776797
 30
0.0
 10
7.7855708618
 20
9.4724870859
 30
0.0
 10
7.7878383848
 20
9.4741375068
 30
0.0
 10
7.7896776011
 20
9.4752851088
 30
0.0
 10
7.7909626974
 20
9.4760270563
 30
0.0
  0
SPLINE
  5
2B4
100
AcDbEntity
  8
0
100
AcDbSpline
 62
9
  6
CONTINUOUS
 70
0
 71
3
 72
34
 73
30
 74
0
 42
0.0000001
 43
0.0000001
 44
0.0000000001
 40
0.0
 40
0.0
 40
0.0
 40
0.0
 40
0.0204948735
 40
0.0409168117
 40
0.0812827029
 40
0.1011606833
 40
0.1207986906
 40
0.1593379126
 40
0.1969531722
 40
0.2337276377
 40
0.2697491664
 40
0.2875061535
 40
0.3051050829
 40
0.3398548392
 40
0.3740474215
 40
0.4077219552
 40
0.4409051428
 40
0.505867078
 40
0.5690207681
 40
0.6303785042
 40
0.6898984172
 40
0.7474906319
 40
0.8030190878
 40
0.8563021963
 40
0.8820289312
 40
0.9071025293
 40
0.9551218713
 40
0.9779801704
 40
1.0
 40
1.0
 40
1.0
 40
1.0
 10
7.9547457765
 20
9.3685146878
 30
0.0
 10
7.9541491381
 20
9.3695481743
 30
0.0
 10
7.9528894614
 20
9.3715728195
 30
0.0
 10
7.9501376977
 20
9.375426272
 30
0.0
 10
7.9470664309
 20
9.3789962928
 30
0.0
 10
7.9437540743
 20
9.3822636874
 30
0.0
 10
7.9403606066
 20
9.3852896031
 30
0.0
 10
7.9359519425
 20
9.3887173649
 30
0.0
 10
7.9304799815
 20
9.3923712319
 30
0.0
 10
7.9249312673
 20
9.3956241161
 30
0.0
 10
7.9202577692
 20
9.3980687405
 30
0.0
 10
7.916522065
 20
9.3998904225
 30
0.0
 10
7.9128238031
 20
9.4016187269
 30
0.0
 10
7.9082099583
 20
9.4036464144
 30
0.0
 10
7.9026793825
 20
9.4059090247
 30
0.0
 10
7.8971897315
 20
9.408027219
 30
0.0
 10
7.8899833745
 20
9.4106700471
 30
0.0
 10
7.8811003127
 20
9.4137221228
 30
0.0
 10
7.8706062447
 20
9.4171270167
 30
0.0
 10
7.8603807548
 20
9.4203306529
 30
0.0
 10
7.8504520395
 20
9.4233977794
 30
0.0
 10
7.8408519787
 20
9.4263789317
 30
0.0
 10
7.8316188744
 20
9.4293167919
 30
0.0
 10
7.8241844622
 20
9.431787065
 30
0.0
 10
7.8184620906
 20
9.4337832711
 30
0.0
 10
7.8130519422
 20
9.4357424455
 30
0.0
 10
7.8078384239
 20
9.4377543578
 30
0.0
 10
7.8028536578
 20
9.4398553967
 30
0.0
 10
7.8004700763
 20
9.4409271461
 30
0.0
 10
7.7993082508
 20
9.441469399
 30
0.0
  0
SPLINE
  5
2B5
100
AcDbEntity
  8
0
100
AcDbSpline
 62
9
  6
CONTINUOUS
 70
0
 71
3
 72
32
 73
28
 74
0
 42
0.0000001
 43
0.0000001
 44
0.0000000001
 40
0.0
 40
0.0
 40
0.0
 40
0.0
 40
0.0220197975
 40
0.044877581
 40
0.092896833
 40
0.1179705878
 40
0.1436969524
 40
0.1969786306
 40
0.2525067008
 40
0.3100985717
 40
0.3696181378
 40
0.4309754285
 40
0.4941286266
 40
0.5590901027
 40
0.6259450881
 40
0.6948811128
 40
0.7302359395
 40
0.7662595404
 40
0.8030315455
 40
0.8406467687
 40
0.8791871822
 40
0.89882487
 40
0.9187018926
 40
0.938799691
 40
0.9590838098
 40
0.9795054621
 40
1.0
 40
1.0
 40
1.0
 40
1.0
 10
7.9402076469
 20
9.1974244862
 30
0.0
 10
7.9403190854
 20
9.1987017804
 30
0.0
 10
7.9405826994
 20
9.2013018838
 30
0.0
 10
7.9412551907
 20
9.2066693906
 30
0.0
 10
7.9421201837
 20
9.2121903189
 30
0.0
 10
7.943128745
 20
9.2178552253
 30
0.0
 10
7.9442606133
 20
9.2238091036
 30
0.0
 10
7.9458374376
 20
9.2314827864
 30
0.0
 10
7.9479098763
 20
9.2409477449
 30
0.0
 10
7.9501290742
 20
9.2507520276
 30
0.0
 10
7.9524376496
 20
9.2608840365
 30
0.0
 10
7.9547751657
 20
9.271341569
 30
0.0
 10
7.9570745548
 20
9.282131956
 30
0.0
 10
7.9592475955
 20
9.293275523
 30
0.0
 10
7.9611694325
 20
9.3048074461
 30
0.0
 10
7.9624109181
 20
9.3147000294
 30
0.0
 10
7.9630541939
 20
9.3228462864
 30
0.0
 10
7.9633120235
 20
9.3291400777
 30
0.0
 10
7.9632748147
 20
9.335571897
 30
0.0
 10
7.9628455384
 20
9.3421377254
 30
0.0
 10
7.962079427
 20
9.3476694794
 30
0.0
 10
7.9611561906
 20
9.3521212034
 30
0.0
 10
7.9602818676
 20
9.3554820188
 30
0.0
 10
7.9592142282
 20
9.3588262686
 30
0.0
 10
7.957943682
 20
9.3621330864
 30
0.0
 10
7.9564662317
 20
9.3653782557
 30
0.0
 10
7.9553424545
 20
9.3674812355
 30
0.0
 10
7.9547457765
 20
9.3685146878
 30
0.0
  0
SPLINE
  5
2B6
100
AcDbEntity
  8
0
100
AcDbSpline
 62
9
  6
CONTINUOUS
 70
0
 71
3
 72
48
 73
44
 74
0
 42
0.0000001
 43
0.0000001
 44
0.0000000001
 40
0.0
 40
0.0
 40
0.0
 40
0.0
 40
0.0514036729
 40
0.0768790808
 40
0.1020932238
 40
0.1269781471
 40
0.1514810964
 40
0.1755664393
 40
0.1992116574
 40
0.2224033919
 40
0.2451362485
 40
0.2892378561
 40
0.331599
 40
0.3521639005
 40
0.3723370141
 40
0.3921333441
 40
0.4115671714
 40
0.449403871
 40
0.4859549277
 40
0.5213085342
 40
0.5886959922
 40
0.6208424274
 40
0.6520008086
 40
0.6821945127
 40
0.7114349153
 40
0.7397155892
 40
0.7670234644
 40
0.793341765
 40
0.8186436343
 40
0.8428753926
 40
0.8659768222
 40
0.887887593
 40
0.9085379697
 40
0.92782261
 40
0.9456302245
 40
0.9539472796
 40
0.9618554817
 40
0.9693395722
 40
0.9763857132
 40
0.9829821591
 40
0.9891184351
 40
0.9947896298
 40
1.0
 40
1.0
 40
1.0
 40
1.0
 10
7.4888336605
 20
9.0995202022
 30
0.0
 10
7.4908047396
 20
9.0961057964
 30
0.0
 10
7.4935573766
 20
9.0908829423
 30
0.0
 10
7.4968177708
 20
9.083762564
 30
0.0
 10
7.4990377412
 20
9.078406689
 30
0.0
 10
7.5010358069
 20
9.0730438451
 30
0.0
 10
7.5028124742
 20
9.0676948511
 30
0.0
 10
7.5043785859
 20
9.0623796619
 30
0.0
 10
7.505744269
 20
9.0571134096
 30
0.0
 10
7.5069195492
 20
9.0519077383
 30
0.0
 10
7.5082308992
 20
9.0451277467
 30
0.0
 10
7.5094551112
 20
9.0368376947
 30
0.0
 10
7.5102061677
 20
9.0286594698
 30
0.0
 10
7.5105466918
 20
9.0222946061
 30
0.0
 10
7.5106831461
 20
9.0176533597
 30
0.0
 10
7.5107095835
 20
9.0130969676
 30
0.0
 10
7.5106076103
 20
9.0071866187
 30
0.0
 10
7.510247276
 20
8.9999975468
 30
0.0
 10
7.5094928219
 20
8.9916124811
 30
0.0
 10
7.5081321189
 20
8.9810142256
 30
0.0
 10
7.5062727745
 20
8.9708277264
 30
0.0
 10
7.5040003329
 20
8.9610639406
 30
0.0
 10
7.5021670558
 20
8.9541300265
 30
0.0
 10
7.5001956218
 20
8.9474664386
 30
0.0
 10
7.498105472
 20
8.9410710133
 30
0.0
 10
7.4959180946
 20
8.9349428282
 30
0.0
 10
7.4936530963
 20
8.9290825995
 30
0.0
 10
7.4913215156
 20
8.9234953096
 30
0.0
 10
7.4889370135
 20
8.9181880586
 30
0.0
 10
7.4865179227
 20
8.9131690826
 30
0.0
 10
7.4840829248
 20
8.9084486203
 30
0.0
 10
7.4816423276
 20
8.9040424789
 30
0.0
 10
7.4792088901
 20
8.8999697559
 30
0.0
 10
7.4768012707
 20
8.8962515113
 30
0.0
 10
7.4747886514
 20
8.8934074457
 30
0.0
 10
7.4731980705
 20
8.891337458
 30
0.0
 10
7.4720485579
 20
8.8899280667
 30
0.0
 10
7.4709171188
 20
8.8886308494
 30
0.0
 10
7.4698059376
 20
8.8874508962
 30
0.0
 10
7.4687174465
 20
8.8863934628
 30
0.0
 10
7.4676536135
 20
8.8854644892
 30
0.0
 10
7.4666167031
 20
8.8846701818
 30
0.0
 10
7.4659152012
 20
8.8842156076
 30
0.0
 10
7.4655691234
 20
8.8840157935
 30
0.0
  0
SPLINE
  5
2B7
100
AcDbEntity
  8
0
100
AcDbSpline
 62
9
  6
CONTINUOUS
 70
0
 71
3
 72
29
 73
25
 74
0
 42
0.0000001
 43
0.0000001
 44
0.0000000001
 40
0.0
 40
0.0
 40
0.0
 40
0.0
 40
0.0794599766
 40
0.1549775097
 40
0.2262808037
 40
0.2931264546
 40
0.355319266
 40
0.4127829238
 40
0.4656839736
 40
0.5146057078
 40
0.5379565554
 40
0.5608323884
 40
0.5835143471
 40
0.6063386379
 40
0.6296719447
 40
0.6538729811
 40
0.7061411001
 40
0.7348743689
 40
0.7656540602
 40
0.7986733684
 40
0.834063465
 40
0.8718932006
 40
0.9121768029
 40
1.0
 40
1.0
 40
1.0
 40
1.0
 10
6.1541137622
 20
9.1974244862
 30
0.0
 10
6.154230666
 20
9.1960869877
 30
0.0
 10
6.1544182706
 20
9.1934745176
 30
0.0
 10
6.1545444643
 20
9.1896521136
 30
0.0
 10
6.1544923885
 20
9.1860406192
 30
0.0
 10
6.154245763
 20
9.1826621383
 30
0.0
 10
6.153783992
 20
9.1795412373
 30
0.0
 10
6.1530795948
 20
9.1767058226
 30
0.0
 10
6.1521053646
 20
9.1741878209
 30
0.0
 10
6.1510238998
 20
9.1723542972
 30
0.0
 10
6.1499982939
 20
9.1711124165
 30
0.0
 10
6.1491579447
 20
9.1703025712
 30
0.0
 10
6.1482317565
 20
9.1696066824
 30
0.0
 10
6.1472167369
 20
9.1690319305
 30
0.0
 10
6.1461115472
 20
9.1685848276
 30
0.0
 10
6.1444772566
 20
9.1681538003
 30
0.0
 10
6.1426875161
 20
9.1680212693
 30
0.0
 10
6.1408021398
 20
9.168153917
 30
0.0
 10
6.139256152
 20
9.1684008934
 30
0.0
 10
6.1376255228
 20
9.1687940359
 30
0.0
 10
6.1359121854
 20
9.1693337001
 30
0.0
 10
6.1341198831
 20
9.1700189965
 30
0.0
 10
6.1315566814
 20
9.1711576028
 30
0.0
 10
6.1296431535
 20
9.1721766309
 30
0.0
 10
6.1283580531
 20
9.1729185862
 30
0.0
  0
SPLINE
  5
2B8
100
AcDbEntity
  8
0
100
AcDbSpline
 62
9
  6
CONTINUOUS
 70
0
 71
3
 72
36
 73
32
 74
0
 42
0.0000001
 43
0.0000001
 44
0.0000000001
 40
0.0
 40
0.0
 40
0.0
 40
0.0
 40
0.0204944821
 40
0.0409160838
 40
0.0611999223
 40
0.0812978921
 40
0.1011752039
 40
0.120812736
 40
0.1593518815
 40
0.1969670341
 40
0.233739945
 40
0.2697612063
 40
0.2875182492
 40
0.3051172511
 40
0.3398665792
 40
0.3740580012
 40
0.4077319978
 40
0.440914859
 40
0.4736252031
 40
0.505876362
 40
0.5690288935
 40
0.6303858121
 40
0.6899045086
 40
0.7474951639
 40
0.8030228294
 40
0.8563054295
 40
0.8820319919
 40
0.9071054799
 40
0.9551228127
 40
0.9779797033
 40
1.0
 40
1.0
 40
1.0
 40
1.0
 10
6.1395756326
 20
9.3685146878
 30
0.0
 10
6.1389789404
 20
9.3674812335
 30
0.0
 10
6.1378552982
 20
9.365378155
 30
0.0
 10
6.1363781931
 20
9.3621328111
 30
0.0
 10
6.1351080089
 20
9.3588258346
 30
0.0
 10
6.1340399522
 20
9.3554816875
 30
0.0
 10
6.1331647516
 20
9.3521210424
 30
0.0
 10
6.1322413317
 20
9.3476693548
 30
0.0
 10
6.13147659
 20
9.3421374239
 30
0.0
 10
6.1310471566
 20
9.3355716575
 30
0.0
 10
6.1310066219
 20
9.329139855
 30
0.0
 10
6.1312256339
 20
9.3238701913
 30
0.0
 10
6.1315152747
 20
9.3197240226
 30
0.0
 10
6.1318669193
 20
9.315656963
 30
0.0
 10
6.1324174256
 20
9.310647349
 30
0.0
 10
6.1332247368
 20
9.3047266412
 30
0.0
 10
6.1341350061
 20
9.2989133702
 30
0.0
 10
6.1351266754
 20
9.2932010264
 30
0.0
 10
6.1361835022
 20
9.287584733
 30
0.0
 10
6.1376447629
 20
9.2802693748
 30
0.0
 10
6.1395441854
 20
9.2713410638
 30
0.0
 10
6.1418853716
 20
9.2608843729
 30
0.0
 10
6.1441927934
 20
9.2507521386
 30
0.0
 10
6.1464096662
 20
9.2409473772
 30
0.0
 10
6.1484834672
 20
9.2314826681
 30
0.0
 10
6.1500619467
 20
9.2238091986
 30
0.0
 10
6.1511943548
 20
9.2178553069
 30
0.0
 10
6.1522023753
 20
9.2121903575
 30
0.0
 10
6.1530659832
 20
9.2066693371
 30
0.0
 10
6.1537378833
 20
9.201301843
 30
0.0
 10
6.1540018601
 20
9.198701782
 30
0.0
 10
6.1541137622
 20
9.1974244862
 30
0.0
  0
SPLINE
  5
2B9
100
AcDbEntity
  8
0
100
AcDbSpline
 62
9
  6
CONTINUOUS
 70
0
 71
3
 72
32
 73
28
 74
0
 42
0.0000001
 43
0.0000001
 44
0.0000000001
 40
0.0
 40
0.0
 40
0.0
 40
0.0
 40
0.022019364
 40
0.0448776957
 40
0.0928961877
 40
0.1436944256
 40
0.1969771886
 40
0.2525050902
 40
0.3100965377
 40
0.3696158599
 40
0.4309730196
 40
0.4941259218
 40
0.5590874391
 40
0.6259417601
 40
0.6601343508
 40
0.6948831867
 40
0.7302376458
 40
0.7662612851
 40
0.8030330306
 40
0.8406478741
 40
0.8791881361
 40
0.8988257319
 40
0.9187025609
 40
0.9388001704
 40
0.9590841511
 40
0.9795056187
 40
1.0
 40
1.0
 40
1.0
 40
1.0
 10
6.2950131583
 20
9.441469399
 30
0.0
 10
6.2938514251
 20
9.4409269735
 30
0.0
 10
6.2914678309
 20
9.4398552227
 30
0.0
 10
6.286482845
 20
9.4377546915
 30
0.0
 10
6.2798717493
 20
9.4352031399
 30
0.0
 10
6.2715226027
 20
9.4322470454
 30
0.0
 10
6.2627027288
 20
9.4293164801
 30
0.0
 10
6.2534695957
 20
9.4263785819
 30
0.0
 10
6.2438695616
 20
9.4233973018
 30
0.0
 10
6.2339408025
 20
9.4203302196
 30
0.0
 10
6.2237152197
 20
9.4171268995
 30
0.0
 10
6.2132205578
 20
9.4137233854
 30
0.0
 10
6.202484377
 20
9.410031427
 30
0.0
 10
6.1934298119
 20
9.406641591
 30
0.0
 10
6.1861117514
 20
9.4036454359
 30
0.0
 10
6.1805506508
 20
9.4012034408
 30
0.0
 10
6.1749712135
 20
9.3985443394
 30
0.0
 10
6.1693919908
 20
9.3956202426
 30
0.0
 10
6.1638403603
 20
9.3923723361
 30
0.0
 10
6.1583686974
 20
9.3887178557
 30
0.0
 10
6.1539612583
 20
9.3852883347
 30
0.0
 10
6.1505675682
 20
9.3822629399
 30
0.0
 10
6.1480941481
 20
9.3798253936
 30
0.0
 10
6.1457317278
 20
9.3772287149
 30
0.0
 10
6.143503247
 20
9.3744749685
 30
0.0
 10
6.1414316144
 20
9.3715728593
 30
0.0
 10
6.1401722879
 20
9.369548149
 30
0.0
 10
6.1395756326
 20
9.3685146878
 30
0.0
  0
SPLINE
  5
2BA
100
AcDbEntity
  8
0
100
AcDbSpline
 62
9
  6
CONTINUOUS
 70
0
 71
3
 72
45
 73
41
 74
0
 42
0.0000001
 43
0.0000001
 44
0.0000000001
 40
0.0
 40
0.0
 40
0.0
 40
0.0
 40
0.0514042051
 40
0.0768798386
 40
0.1020943039
 40
0.126979654
 40
0.1514830848
 40
0.1755689288
 40
0.1992144202
 40
0.2224061551
 40
0.2451389299
 40
0.2892411167
 40
0.3106354364
 40
0.3316077264
 40
0.3723422609
 40
0.3921383398
 40
0.4115728034
 40
0.449410959
 40
0.5213044588
 40
0.5886927859
 40
0.6519933734
 40
0.7114205141
 40
0.7397010852
 40
0.7670131778
 40
0.7933333421
 40
0.8186305892
 40
0.8428595648
 40
0.8659674359
 40
0.8878841549
 40
0.9085311358
 40
0.9278121176
 40
0.9456235043
 40
0.9539433487
 40
0.961853897
 40
0.9693396877
 40
0.9763864587
 40
0.9829824578
 40
0.9891180014
 40
0.9947889726
 40
1.0
 40
1.0
 40
1.0
 40
1.0
 10
6.6054877486
 20
9.0995202022
 30
0.0
 10
6.6074591029
 20
9.1029343475
 30
0.0
 10
6.6106059346
 20
9.1079294599
 30
0.0
 10
6.6151422173
 20
9.1143129819
 30
0.0
 10
6.6186704219
 20
9.1189134237
 30
0.0
 10
6.6223154204
 20
9.1233253708
 30
0.0
 10
6.626059182
 20
9.1275386439
 30
0.0
 10
6.6298788851
 20
9.1315527302
 30
0.0
 10
6.6337566182
 20
9.1353685419
 30
0.0
 10
6.6376774209
 20
9.1389887761
 30
0.0
 10
6.6428936887
 20
9.1435136994
 30
0.0
 10
6.6482003125
 20
9.1477193712
 30
0.0
 10
6.6535645871
 20
9.1516195554
 30
0.0
 10
6.6588162463
 20
9.1552317479
 30
0.0
 10
6.6640993244
 20
9.1585782599
 30
0.0
 10
6.6693945431
 20
9.1616730238
 30
0.0
 10
6.6745635275
 20
9.1645407902
 30
0.0
 10
6.6833789692
 20
9.1690659442
 30
0.0
 10
6.6958272733
 20
9.1745392403
 30
0.0
 10
6.7104681665
 20
9.1797724909
 30
0.0
 10
6.7244897807
 20
9.1838035342
 30
0.0
 10
6.7357928116
 20
9.1863574543
 30
0.0
 10
6.7444710103
 20
9.1879450992
 30
0.0
 10
6.7506792396
 20
9.1889116539
 30
0.0
 10
6.7566837833
 20
9.1896849742
 30
0.0
 10
6.7624713574
 20
9.1902760497
 30
0.0
 10
6.7680270886
 20
9.1906925067
 30
0.0
 10
6.7733333137
 20
9.190941986
 30
0.0
 10
6.7783699746
 20
9.1910294841
 30
0.0
 10
6.7831135308
 20
9.1909599636
 30
0.0
 10
6.787537132
 20
9.1907354307
 30
0.0
 10
6.79100655
 20
9.1904139447
 30
0.0
 10
6.7935950365
 20
9.1900709517
 30
0.0
 10
6.7953907935
 20
9.1897799094
 30
0.0
 10
6.7970802328
 20
9.1894486117
 30
0.0
 10
6.7986578034
 20
9.1890763514
 30
0.0
 10
6.8001177711
 20
9.1886626011
 30
0.0
 10
6.8014541293
 20
9.1882060429
 30
0.0
 10
6.802660471
 20
9.1877053642
 30
0.0
 10
6.803404942
 20
9.1873252142
 30
0.0
 10
6.8037510854
 20
9.1871254391
 30
0.0
  0
SPLINE
  5
2BB
100
AcDbEntity
  8
0
100
AcDbSpline
 62
9
  6
CONTINUOUS
 70
0
 71
3
 72
30
 73
26
 74
0
 42
0.0000001
 43
0.0000001
 44
0.0000000001
 40
0.0
 40
0.0
 40
0.0
 40
0.0
 40
0.0794545601
 40
0.1549672007
 40
0.22626632
 40
0.2931081068
 40
0.3552968743
 40
0.4127567016
 40
0.4656543765
 40
0.5145712326
 40
0.5379186024
 40
0.5607921156
 40
0.5834749048
 40
0.6063040953
 40
0.629643581
 40
0.6538437879
 40
0.6792441069
 40
0.7061636829
 40
0.7348909937
 40
0.7656778076
 40
0.7987113362
 40
0.8341078294
 40
0.8719310199
 40
0.9122016189
 40
1.0
 40
1.0
 40
1.0
 40
1.0
 10
7.1880601006
 20
7.8946667213
 30
0.0
 10
7.1891599741
 20
7.8954366738
 30
0.0
 10
7.1913286795
 20
7.896905298
 30
0.0
 10
7.1945758973
 20
7.8989257461
 30
0.0
 10
7.1977295151
 20
7.9006865227
 30
0.0
 10
7.2007786242
 20
7.9021623122
 30
0.0
 10
7.2037123132
 20
7.9033228133
 30
0.0
 10
7.2065201329
 20
7.9041302126
 30
0.0
 10
7.2091878623
 20
7.9045453648
 30
0.0
 10
7.2113163766
 20
7.9045260267
 30
0.0
 10
7.2129046904
 20
7.9042592854
 30
0.0
 10
7.21402625
 20
7.9039365696
 30
0.0
 10
7.2150920533
 20
7.9034821752
 30
0.0
 10
7.2160973133
 20
7.9028899259
 30
0.0
 10
7.217036949
 20
7.9021558822
 30
0.0
 10
7.2179071336
 20
7.901278664
 30
0.0
 10
7.2187040042
 20
7.9002568178
 30
0.0
 10
7.2194243155
 20
7.8990891304
 30
0.0
 10
7.2200652265
 20
7.8977743647
 30
0.0
 10
7.2206240495
 20
7.8963118574
 30
0.0
 10
7.2210988619
 20
7.8947024187
 30
0.0
 10
7.2214881492
 20
7.8929484621
 30
0.0
 10
7.2217908751
 20
7.8910537411
 30
0.0
 10
7.2220864333
 20
7.8882652218
 30
0.0
 10
7.2221606849
 20
7.8860990457
 30
0.0
 10
7.2221606859
 20
7.8846154651
 30
0.0
  0
SPLINE
  5
2BC
100
AcDbEntity
  8
0
100
AcDbSpline
 62
9
  6
CONTINUOUS
 70
0
 71
3
 72
34
 73
30
 74
0
 42
0.0000001
 43
0.0000001
 44
0.0000000001
 40
0.0
 40
0.0
 40
0.0
 40
0.0
 40
0.0204948712
 40
0.0409168514
 40
0.0812827162
 40
0.1011604808
 40
0.1207983985
 40
0.159338071
 40
0.1969537691
 40
0.2337275456
 40
0.2697493593
 40
0.2875066319
 40
0.3051058798
 40
0.339855811
 40
0.3740479339
 40
0.4077225576
 40
0.4409059862
 40
0.5058676127
 40
0.5690212774
 40
0.630379287
 40
0.6898990394
 40
0.7474906897
 40
0.8030193127
 40
0.8563029027
 40
0.882029939
 40
0.9071038655
 40
0.9551220069
 40
0.9779792961
 40
1.0
 40
1.0
 40
1.0
 40
1.0
 10
7.0471607045
 20
7.796531231
 30
0.0
 10
7.0483540497
 20
7.7965312022
 30
0.0
 10
7.0507372855
 20
7.7966097078
 30
0.0
 10
7.0554503829
 20
7.7970657635
 30
0.0
 10
7.0600778157
 20
7.7979403356
 30
0.0
 10
7.0645634123
 20
7.7991759947
 30
0.0
 10
7.0688806037
 20
7.8006020609
 30
0.0
 10
7.0740536094
 20
7.8027058995
 30
0.0
 10
7.0799543484
 20
7.8056170975
 30
0.0
 10
7.0855449515
 20
7.8087974714
 30
0.0
 10
7.0899990465
 20
7.8116220923
 30
0.0
 10
7.0934448008
 20
7.8139461528
 30
0.0
 10
7.0967910745
 20
7.8162843142
 30
0.0
 10
7.1008542569
 20
7.8192658937
 30
0.0
 10
7.1055782258
 20
7.8229252263
 30
0.0
 10
7.1101575778
 20
7.8266201327
 30
0.0
 10
7.1160504616
 20
7.8315384944
 30
0.0
 10
7.1231336067
 20
7.8377072058
 30
0.0
 10
7.1313313264
 20
7.8450907017
 30
0.0
 10
7.1392164365
 20
7.8523466954
 30
0.0
 10
7.1468374539
 20
7.8594111271
 30
0.0
 10
7.1542202305
 20
7.8662333302
 30
0.0
 10
7.1613800388
 20
7.8727616122
 30
0.0
 10
7.1672361728
 20
7.8779654034
 30
0.0
 10
7.171826166
 20
7.8819230758
 30
0.0
 10
7.1762281519
 20
7.8856285116
 30
0.0
 10
7.1805777227
 20
7.8891368837
 30
0.0
 10
7.1848901613
 20
7.8924025055
 30
0.0
 10
7.1870098857
 20
7.8939311553
 30
0.0
 10
7.1880601006
 20
7.8946667213
 30
0.0
  0
SPLINE
  5
2BD
100
AcDbEntity
  8
0
100
AcDbSpline
 62
9
  6
CONTINUOUS
 70
0
 71
3
 72
35
 73
31
 74
0
 42
0.0000001
 43
0.0000001
 44
0.0000000001
 40
0.0
 40
0.0
 40
0.0
 40
0.0
 40
0.0052124236
 40
0.010884664
 40
0.0170204854
 40
0.0236161574
 40
0.0306631466
 40
0.0381488295
 40
0.0543800741
 40
0.0721950002
 40
0.0914794924
 40
0.1121259711
 40
0.1340440224
 40
0.1571517436
 40
0.181383812
 40
0.2330014142
 40
0.2885937334
 40
0.3480254881
 40
0.4113309353
 40
0.4787243106
 40
0.5506234453
 40
0.6276773091
 40
0.710754459
 40
0.7548608475
 40
0.8007823631
 40
0.8485116955
 40
0.8978965934
 40
0.9485812292
 40
0.9742440746
 40
1.0
 40
1.0
 40
1.0
 40
1.0
 10
15.2221607145
 20
8.4624182989
 30
0.0
 10
15.2221606584
 20
8.4620185679
 30
0.0
 10
15.2221177105
 20
8.4611836197
 30
0.0
 10
15.2219479566
 20
8.4598884586
 30
0.0
 10
15.2216751817
 20
8.4585028837
 30
0.0
 10
15.2213035664
 20
8.4570317382
 30
0.0
 10
15.2208369343
 20
8.455479611
 30
0.0
 10
15.2200722225
 20
8.4532472752
 30
0.0
 10
15.2188891864
 20
8.4502879473
 30
0.0
 10
15.2171802284
 20
8.446570863
 30
0.0
 10
15.2151625521
 20
8.4426275143
 30
0.0
 10
15.2128510743
 20
8.4384847606
 30
0.0
 10
15.2102564296
 20
8.4341673698
 30
0.0
 10
15.2073873832
 20
8.4296968119
 30
0.0
 10
15.2031113499
 20
8.4234263554
 30
0.0
 10
15.1970931004
 20
8.4153336663
 30
0.0
 10
15.1889375722
 20
8.4054874211
 30
0.0
 10
15.1796529808
 20
8.3954367108
 30
0.0
 10
15.1691511411
 20
8.3853091986
 30
0.0
 10
15.1572982036
 20
8.3752464539
 30
0.0
 10
15.1439072282
 20
8.365424039
 30
0.0
 10
15.1287354804
 20
8.356085557
 30
0.0
 10
15.114657974
 20
8.3491516266
 30
0.0
 10
15.1023085952
 20
8.3442642354
 30
0.0
 10
15.0922656109
 20
8.340964304
 30
0.0
 10
15.0816390755
 20
8.3382119171
 30
0.0
 10
15.0704890416
 20
8.3361255342
 30
0.0
 10
15.0608985045
 20
8.3350393646
 30
0.0
 10
15.0530795358
 20
8.3345955887
 30
0.0
 10
15.049135878
 20
8.3345202157
 30
0.0
 10
15.0471607045
 20
8.3345202022
 30
0.0
  0
SPLINE
  5
2BE
100
AcDbEntity
  8
0
100
AcDbSpline
 62
9
  6
CONTINUOUS
 70
0
 71
3
 72
34
 73
30
 74
0
 42
0.0000001
 43
0.0000001
 44
0.0000000001
 40
0.0
 40
0.0
 40
0.0
 40
0.0
 40
0.022019614
 40
0.0448772413
 40
0.0928961223
 40
0.1179697109
 40
0.143695904
 40
0.1969772087
 40
0.2525047755
 40
0.3100961946
 40
0.3696152893
 40
0.4309720736
 40
0.4941247694
 40
0.5590856626
 40
0.592268433
 40
0.6259425684
 40
0.6601347
 40
0.6948836796
 40
0.7302382128
 40
0.7662607312
 40
0.8030331357
 40
0.840647838
 40
0.8791870521
 40
0.8988247438
 40
0.9187021799
 40
0.9388001912
 40
0.9590839541
 40
0.9795055023
 40
1.0
 40
1.0
 40
1.0
 40
1.0
 10
6.9062613084
 20
7.8946667213
 30
0.0
 10
6.907311761
 20
7.8939315716
 30
0.0
 10
6.9094317087
 20
7.8924032228
 30
0.0
 10
6.9137438504
 20
7.8891370649
 30
0.0
 10
6.9180926437
 20
7.8856275255
 30
0.0
 10
6.9224943065
 20
7.8819216194
 30
0.0
 10
6.9270845501
 20
7.8779644113
 30
0.0
 10
6.9329417136
 20
7.8727619738
 30
0.0
 10
6.9401024453
 20
7.8662347816
 30
0.0
 10
6.9474836519
 20
7.8594108222
 30
0.0
 10
6.9551038688
 20
7.8523454685
 30
0.0
 10
6.9629914724
 20
7.8450922113
 30
0.0
 10
6.9711868544
 20
7.8377061194
 30
0.0
 10
6.9782715005
 20
7.8315391185
 30
0.0
 10
6.9841636547
 20
7.826619887
 30
0.0
 10
6.9887429979
 20
7.8229249211
 30
0.0
 10
6.9934679845
 20
7.8192668575
 30
0.0
 10
6.9983640063
 20
7.8156726477
 30
0.0
 10
7.0034567445
 20
7.812170643
 30
0.0
 10
7.0087774814
 20
7.808798989
 30
0.0
 10
7.0143671165
 20
7.805616895
 30
0.0
 10
7.0202676895
 20
7.8027054784
 30
0.0
 10
7.0254408811
 20
7.8006019264
 30
0.0
 10
7.0297579256
 20
7.799175936
 30
0.0
 10
7.0331060217
 20
7.7982538561
 30
0.0
 10
7.0365361723
 20
7.7975068237
 30
0.0
 10
7.0400351523
 20
7.7969532116
 30
0.0
 10
7.0435842304
 20
7.796609655
 30
0.0
 10
7.0459673632
 20
7.7965311898
 30
0.0
 10
7.0471607045
 20
7.796531231
 30
0.0
  0
SPLINE
  5
2BF
100
AcDbEntity
  8
0
100
AcDbSpline
 62
9
  6
CONTINUOUS
 70
0
 71
3
 72
38
 73
34
 74
0
 42
0.0000001
 43
0.0000001
 44
0.0000000001
 40
0.0
 40
0.0
 40
0.0
 40
0.0
 40
0.0052132197
 40
0.0108839451
 40
0.0170181571
 40
0.023613612
 40
0.0306616992
 40
0.0381496042
 40
0.0543803093
 40
0.0721919596
 40
0.0914744301
 40
0.1121232803
 40
0.1340411326
 40
0.15715005
 40
0.1813808251
 40
0.2066801848
 40
0.233002301
 40
0.2603163299
 40
0.288598654
 40
0.3178390435
 40
0.3480353812
 40
0.4113401207
 40
0.478732749
 40
0.5506309202
 40
0.6276838174
 40
0.7107597214
 40
0.7548654564
 40
0.800786214
 40
0.8485145421
 40
0.8978986042
 40
0.9485822776
 40
0.9742444919
 40
1.0
 40
1.0
 40
1.0
 40
1.0
 10
7.2221607492
 20
8.4624180876
 30
0.0
 10
7.2221606662
 20
8.4620182899
 30
0.0
 10
7.2221176484
 20
8.4611833913
 30
0.0
 10
7.221948017
 20
8.4598883752
 30
0.0
 10
7.2216750988
 20
8.4585030637
 30
0.0
 10
7.2213033887
 20
8.4570319849
 30
0.0
 10
7.2208370404
 20
8.455479501
 30
0.0
 10
7.2200724271
 20
8.4532468667
 30
0.0
 10
7.2188895109
 20
8.4502875579
 30
0.0
 10
7.2171797637
 20
8.4465712643
 30
0.0
 10
7.2151623574
 20
8.4426279718
 30
0.0
 10
7.2128508926
 20
8.4384851198
 30
0.0
 10
7.2102566055
 20
8.4341671194
 30
0.0
 10
7.2073873232
 20
8.4296966744
 30
0.0
 10
7.2042488058
 20
8.4250934844
 30
0.0
 10
7.2008432128
 20
8.4203767086
 30
0.0
 10
7.1971712416
 20
8.4155631897
 30
0.0
 10
7.1932300616
 20
8.4106700168
 30
0.0
 10
7.189015749
 20
8.4057123565
 30
0.0
 10
7.1845205645
 20
8.4007064298
 30
0.0
 10
7.1780384477
 20
8.3938796724
 30
0.0
 10
7.1691507768
 20
8.3853090677
 30
0.0
 10
7.1572982091
 20
8.3752461744
 30
0.0
 10
7.1439070528
 20
8.3654238242
 30
0.0
 10
7.1287353366
 20
8.3560853065
 30
0.0
 10
7.114657752
 20
8.3491515015
 30
0.0
 10
7.1023083709
 20
8.34426415
 30
0.0
 10
7.0922653945
 20
8.3409643057
 30
0.0
 10
7.0816389268
 20
8.3382118165
 30
0.0
 10
7.0704889219
 20
8.3361255491
 30
0.0
 10
7.0608984392
 20
8.3350393293
 30
0.0
 10
7.0530795086
 20
8.3345955925
 30
0.0
 10
7.0491358745
 20
8.3345202157
 30
0.0
 10
7.0471607045
 20
8.3345202022
 30
0.0
  0
SPLINE
  5
2C0
100
AcDbEntity
  8
0
100
AcDbSpline
 62
9
  6
CONTINUOUS
 70
0
 71
3
 72
49
 73
45
 74
0
 42
0.0000001
 43
0.0000001
 44
0.0000000001
 40
0.0
 40
0.0
 40
0.0
 40
0.0
 40
0.0514030527
 40
0.0768781479
 40
0.1020919999
 40
0.1269766434
 40
0.1514792923
 40
0.1755643068
 40
0.1992092237
 40
0.222400719
 40
0.2451333858
 40
0.2892346221
 40
0.3315951101
 40
0.3521597025
 40
0.3723326133
 40
0.3921287947
 40
0.4115624789
 40
0.4493987773
 40
0.4859494283
 40
0.5213025968
 40
0.5555323683
 40
0.588698909
 40
0.6208452471
 40
0.6520029183
 40
0.6821960881
 40
0.7114366743
 40
0.7397174174
 40
0.7670246471
 40
0.7933422655
 40
0.8186440482
 40
0.8428761502
 40
0.8659779169
 40
0.8878881953
 40
0.9085370059
 40
0.9278215001
 40
0.9456309943
 40
0.9539482086
 40
0.9618553952
 40
0.9693380321
 40
0.9763832848
 40
0.9829800954
 40
0.9891174187
 40
0.9947894593
 40
1.0
 40
1.0
 40
1.0
 40
1.0
 10
7.0471607045
 20
8.3345202022
 30
0.0
 10
7.0432182154
 20
8.3345204055
 30
0.0
 10
7.0373187914
 20
8.3347479824
 30
0.0
 10
7.0295221925
 20
8.3354846118
 30
0.0
 10
7.0237738981
 20
8.33623998
 30
0.0
 10
7.0181305136
 20
8.3371909758
 30
0.0
 10
7.0126098378
 20
8.3383268509
 30
0.0
 10
7.0072237321
 20
8.3396282219
 30
0.0
 10
7.0019802143
 20
8.3410786756
 30
0.0
 10
6.9968843271
 20
8.3426636467
 30
0.0
 10
6.9903569676
 20
8.3449178606
 30
0.0
 10
6.9825653723
 20
8.3480024139
 30
0.0
 10
6.9751074324
 20
8.3514413438
 30
0.0
 10
6.9694251889
 20
8.354329096
 30
0.0
 10
6.9653375112
 20
8.3565314979
 30
0.0
 10
6.9613782436
 20
8.3587866328
 30
0.0
 10
6.9563105258
 20
8.3618297862
 30
0.0
 10
6.9502645519
 20
8.3657360993
 30
0.0
 10
6.9433808289
 20
8.3705828308
 30
0.0
 10
6.936905291
 20
8.3755184489
 30
0.0
 10
6.9308111846
 20
8.3805175628
 30
0.0
 10
6.9250740517
 20
8.3855568516
 30
0.0
 10
6.9196712803
 20
8.3906138273
 30
0.0
 10
6.91458266
 20
8.3956679333
 30
0.0
 10
6.909797276
 20
8.4007068054
 30
0.0
 10
6.9053040564
 20
8.405714964
 30
0.0
 10
6.9010907967
 20
8.4106735964
 30
0.0
 10
6.8971479976
 20
8.4155650455
 30
0.0
 10
6.8934748582
 20
8.4203776845
 30
0.0
 10
6.8900709495
 20
8.4250964155
 30
0.0
 10
6.8869340464
 20
8.4297010893
 30
0.0
 10
6.8840635895
 20
8.434170217
 30
0.0
 10
6.8814680494
 20
8.4384867957
 30
0.0
 10
6.8791573981
 20
8.4426302677
 30
0.0
 10
6.8771409982
 20
8.4465744591
 30
0.0
 10
6.8756845453
 20
8.4497397905
 30
0.0
 10
6.8746871902
 20
8.4521523818
 30
0.0
 10
6.8740413056
 20
8.4538523835
 30
0.0
 10
6.8734835091
 20
8.4554805592
 30
0.0
 10
6.8730171574
 20
8.4570326835
 30
0.0
 10
6.8726456484
 20
8.4585041207
 30
0.0
 10
6.8723730768
 20
8.4598901085
 30
0.0
 10
6.8722036438
 20
8.4611854234
 30
0.0
 10
6.8721607001
 20
8.4620203128
 30
0.0
 10
6.8721606863
 20
8.4624199486
 30
0.0
  0
SPLINE
  5
2C1
100
AcDbEntity
  8
0
100
AcDbSpline
 62
9
  6
CONTINUOUS
 70
0
 71
3
 72
29
 73
25
 74
0
 42
0.0000001
 43
0.0000001
 44
0.0000000001
 40
0.0
 40
0.0
 40
0.0
 40
0.0
 40
0.035466762
 40
0.0708673863
 40
0.1061430404
 40
0.1237165346
 40
0.1412371321
 40
0.1761050936
 40
0.2107246179
 40
0.2450806555
 40
0.2791561888
 40
0.3464271247
 40
0.4125608647
 40
0.477548814
 40
0.5413800875
 40
0.60402847
 40
0.6654410188
 40
0.7255335885
 40
0.7841829897
 40
0.8412217161
 40
0.8964218351
 40
0.9494790256
 40
0.9750914217
 40
1.0
 40
1.0
 40
1.0
 40
1.0
 10
7.9788033428
 20
9.3824043302
 30
0.0
 10
7.9773643608
 20
9.3848981427
 30
0.0
 10
7.9743812215
 20
9.3898195256
 30
0.0
 10
7.9696339368
 20
9.3970127462
 30
0.0
 10
7.965467476
 20
9.4028429132
 30
0.0
 10
7.9620204736
 20
9.4073986996
 30
0.0
 10
7.9585128792
 20
9.4118660093
 30
0.0
 10
7.9540119957
 20
9.4173112662
 30
0.0
 10
7.948451555
 20
9.4236487929
 30
0.0
 10
7.9427712832
 20
9.4297915902
 30
0.0
 10
7.9351036128
 20
9.437702726
 30
0.0
 10
7.9253348745
 20
9.4471638867
 30
0.0
 10
7.9134443734
 20
9.458028974
 30
0.0
 10
7.9015333612
 20
9.468451431
 30
0.0
 10
7.8896905572
 20
9.4785188572
 30
0.0
 10
7.8779865323
 20
9.4883002475
 30
0.0
 10
7.8664847836
 20
9.4978501227
 30
0.0
 10
7.8552473645
 20
9.5072101955
 30
0.0
 10
7.844341192
 20
9.516412922
 30
0.0
 10
7.8338435144
 20
9.525482966
 30
0.0
 10
7.8238478856
 20
9.5344369477
 30
0.0
 10
7.8159413817
 20
9.5418958977
 30
0.0
 10
7.8099887015
 20
9.5478353168
 30
0.0
 10
7.8071503106
 20
9.5507964445
 30
0.0
 10
7.8057709032
 20
9.5522749736
 30
0.0
  0
SPLINE
  5
2C2
100
AcDbEntity
  8
0
100
AcDbSpline
 62
9
  6
CONTINUOUS
 70
0
 71
3
 72
32
 73
28
 74
0
 42
0.0000001
 43
0.0000001
 44
0.0000000001
 40
0.0
 40
0.0
 40
0.0
 40
0.0
 40
0.0249066258
 40
0.0505195109
 40
0.1035771168
 40
0.1587769221
 40
0.2158166312
 40
0.2744654951
 40
0.3345562294
 40
0.3959677767
 40
0.4586142785
 40
0.5224419202
 40
0.5874296993
 40
0.6203555986
 40
0.6535687468
 40
0.6870668639
 40
0.7208492535
 40
0.7549168378
 40
0.7892717925
 40
0.8238954252
 40
0.8587634345
 40
0.8938548019
 40
0.911472753
 40
0.9291296843
 40
0.9468188875
 40
0.9645333942
 40
1.0
 40
1.0
 40
1.0
 40
1.0
 10
8.0393994156
 20
9.1476185201
 30
0.0
 10
8.0388087184
 20
9.1495522458
 30
0.0
 10
8.0376635028
 20
9.1534908291
 30
0.0
 10
8.0354962326
 20
9.1616156931
 30
0.0
 10
8.0329898055
 20
9.1721925025
 30
0.0
 10
8.0302330713
 20
9.1853260928
 30
0.0
 10
8.0276269414
 20
9.1989524465
 30
0.0
 10
8.0251103277
 20
9.2129988163
 30
0.0
 10
8.0226229543
 20
9.2274105454
 30
0.0
 10
8.0201038659
 20
9.2421460666
 30
0.0
 10
8.0174848602
 20
9.2571722846
 30
0.0
 10
8.0146890781
 20
9.2724620285
 30
0.0
 10
8.0121418848
 20
9.285343672
 30
0.0
 10
8.0099087781
 20
9.2957519935
 30
0.0
 10
8.0081113667
 20
9.30363863
 30
0.0
 10
8.0061792939
 20
9.3115650333
 30
0.0
 10
8.0040942023
 20
9.3195244196
 30
0.0
 10
8.0018276086
 20
9.3275066045
 30
0.0
 10
7.99934769
 20
9.3354968653
 30
0.0
 10
7.9966357871
 20
9.3434802246
 30
0.0
 10
7.9936724529
 20
9.3514378091
 30
0.0
 10
7.9909694081
 20
9.3580152351
 30
0.0
 10
7.9886552714
 20
9.3632381806
 30
0.0
 10
7.9868398681
 20
9.3671360746
 30
0.0
 10
7.9849475488
 20
9.3710059663
 30
0.0
 10
7.9823232038
 20
9.3761260702
 30
0.0
 10
7.9802433909
 20
9.379911129
 30
0.0
 10
7.9788033428
 20
9.3824043302
 30
0.0
  0
SPLINE
  5
2C3
100
AcDbEntity
  8
0
100
AcDbSpline
 62
9
  6
CONTINUOUS
 70
0
 71
3
 72
47
 73
43
 74
0
 42
0.0000001
 43
0.0000001
 44
0.0000000001
 40
0.0
 40
0.0
 40
0.0
 40
0.0
 40
0.0052133687
 40
0.0108841143
 40
0.0170179975
 40
0.0236134899
 40
0.0306625622
 40
0.0381523612
 40
0.054387978
 40
0.0722000341
 40
0.0914768724
 40
0.1121216407
 40
0.1340437477
 40
0.1571566369
 40
0.1813829672
 40
0.2066763021
 40
0.2329982994
 40
0.2603133344
 40
0.2885921088
 40
0.3178269754
 40
0.3480210159
 40
0.3791821271
 40
0.4113270721
 40
0.4444911131
 40
0.4787210086
 40
0.514073924
 40
0.5506236398
 40
0.5884591072
 40
0.6276849224
 40
0.6478569281
 40
0.6684208606
 40
0.7107802576
 40
0.7548798176
 40
0.7776114972
 40
0.8008018263
 40
0.8244454918
 40
0.8485292705
 40
0.873030742
 40
0.8979141955
 40
0.9231266539
 40
0.9486001407
 40
1.0
 40
1.0
 40
1.0
 40
1.0
 10
6.6287444431
 20
8.884020295
 30
0.0
 10
6.6283983139
 20
8.8842204517
 30
0.0
 10
6.6276969345
 20
8.8846755161
 30
0.0
 10
6.6266605094
 20
8.8854704046
 30
0.0
 10
6.6255975138
 20
8.8863998183
 30
0.0
 10
6.6245096362
 20
8.8874577502
 30
0.0
 10
6.6233983445
 20
8.8886383313
 30
0.0
 10
6.621846791
 20
8.890417517
 30
0.0
 10
6.6198749135
 20
8.8929221751
 30
0.0
 10
6.6175114048
 20
8.8962613403
 30
0.0
 10
6.6151069948
 20
8.8999808349
 30
0.0
 10
6.6126763074
 20
8.9040547181
 30
0.0
 10
6.6102322434
 20
8.9084601992
 30
0.0
 10
6.6077937025
 20
8.9131801765
 30
0.0
 10
6.6053782696
 20
8.9182005423
 30
0.0
 10
6.602998419
 20
8.9235087466
 30
0.0
 10
6.60066459
 20
8.9290950017
 30
0.0
 10
6.5983956346
 20
8.9349542353
 30
0.0
 10
6.596210771
 20
8.9410831156
 30
0.0
 10
6.5941255882
 20
8.9474793044
 30
0.0
 10
6.5921528392
 20
8.9541420102
 30
0.0
 10
6.5903157253
 20
8.9610747068
 30
0.0
 10
6.5886408166
 20
8.9682825796
 30
0.0
 10
6.5871500567
 20
8.9757709885
 30
0.0
 10
6.5858644241
 20
8.9835470381
 30
0.0
 10
6.5848260813
 20
8.9916222139
 30
0.0
 10
6.5840739087
 20
9.0000069337
 30
0.0
 10
6.5836386908
 20
9.008711789
 30
0.0
 10
6.5835948756
 20
9.0161717668
 30
0.0
 10
6.58377463
 20
9.0223022475
 30
0.0
 10
6.5841152939
 20
9.0286666149
 30
0.0
 10
6.584867017
 20
9.0368441119
 30
0.0
 10
6.5860915685
 20
9.0451334288
 30
0.0
 10
6.5874031185
 20
9.0519127714
 30
0.0
 10
6.5885782746
 20
9.0571179511
 30
0.0
 10
6.5899437359
 20
9.0623837056
 30
0.0
 10
6.5915097012
 20
9.0676983694
 30
0.0
 10
6.5932864505
 20
9.0730467683
 30
0.0
 10
6.5952849156
 20
9.0784088695
 30
0.0
 10
6.5975048335
 20
9.0837641168
 30
0.0
 10
6.600764644
 20
9.0908838317
 30
0.0
 10
6.6035168987
 20
9.0961061617
 30
0.0
 10
6.6054877486
 20
9.0995202022
 30
0.0
  0
SPLINE
  5
2C4
100
AcDbEntity
  8
0
100
AcDbSpline
 62
9
  6
CONTINUOUS
 70
0
 71
3
 72
29
 73
25
 74
0
 42
0.0000001
 43
0.0000001
 44
0.0000000001
 40
0.0
 40
0.0
 40
0.0
 40
0.0
 40
0.0354668779
 40
0.0708678356
 40
0.1061431093
 40
0.1237161988
 40
0.141236313
 40
0.1761046968
 40
0.2107262342
 40
0.245080463
 40
0.2791538614
 40
0.3464303751
 40
0.4125607165
 40
0.4775532127
 40
0.5413841949
 40
0.6040279297
 40
0.6654391638
 40
0.7255330293
 40
0.7841867472
 40
0.8412226815
 40
0.8964150919
 40
0.9494887942
 40
0.9751001755
 40
1.0
 40
1.0
 40
1.0
 40
1.0
 10
7.0471607045
 20
7.7687519462
 30
0.0
 10
7.0500399102
 20
7.7687513153
 30
0.0
 10
7.0557935519
 20
7.7688738444
 30
0.0
 10
7.0643967797
 20
7.7693875759
 30
0.0
 10
7.0715289925
 20
7.7700814814
 30
0.0
 10
7.0771977141
 20
7.7707895906
 30
0.0
 10
7.0828201928
 20
7.7715941941
 30
0.0
 10
7.0897865055
 20
7.772769423
 30
0.0
 10
7.0980557174
 20
7.7744137599
 30
0.0
 10
7.1062152874
 20
7.7762627842
 30
0.0
 10
7.1168996524
 20
7.7789508291
 30
0.0
 10
7.1299794022
 20
7.7826739652
 30
0.0
 10
7.1453331503
 20
7.7875438776
 30
0.0
 10
7.1603158632
 20
7.7926447437
 30
0.0
 10
7.1749558474
 20
7.7978673794
 30
0.0
 10
7.1892775916
 20
7.8031144568
 30
0.0
 10
7.2032986002
 20
7.8083000505
 30
0.0
 10
7.2170237869
 20
7.8133517884
 30
0.0
 10
7.2304470972
 20
7.818194942
 30
0.0
 10
7.2435502959
 20
7.822751137
 30
0.0
 10
7.256302581
 20
7.8269319427
 30
0.0
 10
7.2667164696
 20
7.8300485899
 30
0.0
 10
7.2748369555
 20
7.8322344326
 30
0.0
 10
7.2788197595
 20
7.8332119445
 30
0.0
 10
7.2807892169
 20
7.8336671129
 30
0.0
  0
SPLINE
  5
2C5
100
AcDbEntity
  8
0
100
AcDbSpline
 62
9
  6
CONTINUOUS
 70
0
 71
3
 72
29
 73
25
 74
0
 42
0.0000001
 43
0.0000001
 44
0.0000000001
 40
0.0
 40
0.0
 40
0.0
 40
0.0
 40
0.0878332743
 40
0.1281160721
 40
0.1659395809
 40
0.2013187059
 40
0.2343269708
 40
0.2651037697
 40
0.2938435493
 40
0.3461314221
 40
0.3703294503
 40
0.3936545213
 40
0.416473971
 40
0.4391550631
 40
0.4620320129
 40
0.485384533
 40
0.534308467
 40
0.5872105928
 40
0.6446751509
 40
0.7068692214
 40
0.7737162853
 40
0.8450206703
 40
0.9205390204
 40
1.0
 40
1.0
 40
1.0
 40
1.0
 10
7.9659628486
 20
9.1729182932
 30
0.0
 10
7.9646776189
 20
9.1721762646
 30
0.0
 10
7.9627639908
 20
9.171157158
 30
0.0
 10
7.9602007791
 20
9.1700185457
 30
0.0
 10
7.9584087696
 20
9.1693334114
 30
0.0
 10
7.9566958738
 20
9.1687940123
 30
0.0
 10
7.9550656319
 20
9.1684011696
 30
0.0
 10
7.9535197788
 20
9.1681542973
 30
0.0
 10
7.9516340692
 20
9.168021487
 30
0.0
 10
7.9498438794
 20
9.16815329
 30
0.0
 10
7.9482094778
 20
9.1685845145
 30
0.0
 10
7.9471047746
 20
9.1690320612
 30
0.0
 10
7.9460901804
 20
9.1696070199
 30
0.0
 10
7.9451641217
 20
9.170302906
 30
0.0
 10
7.9443236814
 20
9.1711126702
 30
0.0
 10
7.9432977807
 20
9.1723543831
 30
0.0
 10
7.9422159512
 20
9.1741877682
 30
0.0
 10
7.9412415326
 20
9.1767057436
 30
0.0
 10
7.9405371185
 20
9.1795411742
 30
0.0
 10
7.9400755657
 20
9.1826621252
 30
0.0
 10
7.9398290934
 20
9.1860406277
 30
0.0
 10
7.939777042
 20
9.1896521246
 30
0.0
 10
7.9399032014
 20
9.1934745227
 30
0.0
 10
7.9400907637
 20
9.1960869885
 30
0.0
 10
7.9402076469
 20
9.1974244862
 30
0.0
  0
SPLINE
  5
2C6
100
AcDbEntity
  8
0
100
AcDbSpline
 62
9
  6
CONTINUOUS
 70
0
 71
3
 72
41
 73
37
 74
0
 42
0.0000001
 43
0.0000001
 44
0.0000000001
 40
0.0
 40
0.0
 40
0.0
 40
0.0
 40
0.0052109438
 40
0.0108814598
 40
0.0170169688
 40
0.0236136534
 40
0.0306617002
 40
0.0381471784
 40
0.0543730864
 40
0.0721842617
 40
0.091467991
 40
0.1121145146
 40
0.1340314195
 40
0.1571375939
 40
0.181367325
 40
0.2329806844
 40
0.2885687105
 40
0.3479960265
 40
0.4112968772
 40
0.4786856297
 40
0.5140405374
 40
0.5505925596
 40
0.5884308963
 40
0.6276591272
 40
0.6683942796
 40
0.6893665434
 40
0.710760615
 40
0.7548633398
 40
0.8007837748
 40
0.8244295069
 40
0.848515412
 40
0.8730188462
 40
0.89790442
 40
0.9231191531
 40
0.94859512
 40
1.0
 40
1.0
 40
1.0
 40
1.0
 10
15.2905702992
 20
9.1871253916
 30
0.0
 10
15.290916427
 20
9.187325176
 30
0.0
 10
15.2916608048
 20
9.187705411
 30
0.0
 10
15.2928671584
 20
9.1882059372
 30
0.0
 10
15.2942035079
 20
9.1886625187
 30
0.0
 10
15.2956635358
 20
9.189076566
 30
0.0
 10
15.2972412377
 20
9.1894488162
 30
0.0
 10
15.2995566905
 20
9.1899027145
 30
0.0
 10
15.3027106628
 20
9.1903573443
 30
0.0
 10
15.3067838161
 20
9.1907354115
 30
0.0
 10
15.3112076615
 20
9.1909601111
 30
0.0
 10
15.3159513439
 20
9.1910300113
 30
0.0
 10
15.3209878206
 20
9.1909419726
 30
0.0
 10
15.3262939792
 20
9.1906925935
 30
0.0
 10
15.3338623187
 20
9.1901246497
 30
0.0
 10
15.3438798452
 20
9.1889589941
 30
0.0
 10
15.3564846531
 20
9.1868191841
 30
0.0
 10
15.3698311899
 20
9.1838037501
 30
0.0
 10
15.3838525262
 20
9.1797726875
 30
0.0
 10
15.3958539291
 20
9.1754827038
 30
0.0
 10
15.405713835
 20
9.1713650753
 30
0.0
 10
15.4133538071
 20
9.167827969
 30
0.0
 10
15.4211080776
 20
9.1638471798
 30
0.0
 10
15.4289625086
 20
9.1593764895
 30
0.0
 10
15.435504495
 20
9.1552315393
 30
0.0
 10
15.4407564552
 20
9.151619787
 30
0.0
 10
15.4461213996
 20
9.1477204275
 30
0.0
 10
15.4528219631
 20
9.1424096449
 30
0.0
 10
15.459321367
 20
9.1365906264
 30
0.0
 10
15.4644417904
 20
9.1315522565
 30
0.0
 10
15.4682618911
 20
9.127538509
 30
0.0
 10
15.4720057962
 20
9.123325391
 30
0.0
 10
15.475651041
 20
9.1189136397
 30
0.0
 10
15.4791793322
 20
9.1143132244
 30
0.0
 10
15.4837154387
 20
9.1079295116
 30
0.0
 10
15.4868622225
 20
9.1029343314
 30
0.0
 10
15.4888336605
 20
9.0995202022
 30
0.0
  0
SPLINE
  5
2C7
100
AcDbEntity
  8
0
100
AcDbSpline
 62
9
  6
CONTINUOUS
 70
0
 71
3
 72
30
 73
26
 74
0
 42
0.0000001
 43
0.0000001
 44
0.0000000001
 40
0.0
 40
0.0
 40
0.0
 40
0.0
 40
0.0354667961
 40
0.0708677456
 40
0.1061427599
 40
0.1237156389
 40
0.1412355393
 40
0.1761039819
 40
0.2107261456
 40
0.2450798995
 40
0.2791525393
 40
0.3129368763
 40
0.3464327939
 40
0.4125622931
 40
0.4775546361
 40
0.5413853681
 40
0.6040287122
 40
0.6654399815
 40
0.7255338525
 40
0.7841873402
 40
0.8412230541
 40
0.8964153771
 40
0.9494887392
 40
0.9751000995
 40
1.0
 40
1.0
 40
1.0
 40
1.0
 10
6.1155180663
 20
9.3824043302
 30
0.0
 10
6.114077946
 20
9.3799111624
 30
0.0
 10
6.111307148
 20
9.374867144
 30
0.0
 10
6.1074501383
 20
9.3671598155
 30
0.0
 10
6.1044852364
 20
9.3606360796
 30
0.0
 10
6.1022644273
 20
9.3553726812
 30
0.0
 10
6.1001501979
 20
9.3501011045
 30
0.0
 10
6.0976847459
 20
9.3434804623
 30
0.0
 10
6.0949733755
 20
9.3354971719
 30
0.0
 10
6.0924951291
 20
9.3275062197
 30
0.0
 10
6.0902255287
 20
9.3195244587
 30
0.0
 10
6.0881377999
 20
9.3115653502
 30
0.0
 10
6.0855759843
 20
9.3010419831
 30
0.0
 10
6.0827062478
 20
9.2879883459
 30
0.0
 10
6.0796322277
 20
9.2724627261
 30
0.0
 10
6.0768351604
 20
9.2571727989
 30
0.0
 10
6.0742185382
 20
9.2421462579
 30
0.0
 10
6.071698783
 20
9.2274109156
 30
0.0
 10
6.069211097
 20
9.2129986672
 30
0.0
 10
6.0666937549
 20
9.1989521571
 30
0.0
 10
6.0640879511
 20
9.1853263601
 30
0.0
 10
6.0613324798
 20
9.1721921742
 30
0.0
 10
6.0588246488
 20
9.1616151618
 30
0.0
 10
6.0566573962
 20
9.1534896952
 30
0.0
 10
6.0555125381
 20
9.1495517155
 30
0.0
 10
6.0549219935
 20
9.1476185201
 30
0.0
  0
SPLINE
  5
2C8
100
AcDbEntity
  8
0
100
AcDbSpline
 62
9
  6
CONTINUOUS
 70
0
 71
3
 72
33
 73
29
 74
0
 42
0.0000001
 43
0.0000001
 44
0.0000000001
 40
0.0
 40
0.0
 40
0.0
 40
0.0
 40
0.0249095832
 40
0.0505218614
 40
0.1035792584
 40
0.1587773313
 40
0.2158158327
 40
0.2744653836
 40
0.3345569713
 40
0.3959691127
 40
0.4586164279
 40
0.5224449995
 40
0.5547947436
 40
0.5874325302
 40
0.6203573784
 40
0.6535695036
 40
0.687067081
 40
0.7208497863
 40
0.7549178684
 40
0.789272499
 40
0.8238957425
 40
0.8587639056
 40
0.8938551901
 40
0.9114730361
 40
0.9291298941
 40
0.9468190547
 40
0.9645335013
 40
1.0
 40
1.0
 40
1.0
 40
1.0
 10
6.2885505059
 20
9.5522749736
 30
0.0
 10
6.2871710323
 20
9.5507963776
 30
0.0
 10
6.2843326089
 20
9.5478351462
 30
0.0
 10
6.278379811
 20
9.5418956457
 30
0.0
 10
6.2704734434
 20
9.5344366864
 30
0.0
 10
6.260477862
 20
9.5254827768
 30
0.0
 10
6.2499802023
 20
9.5164128454
 30
0.0
 10
6.2390740462
 20
9.5072100964
 30
0.0
 10
6.2278368191
 20
9.4978498126
 30
0.0
 10
6.2163349364
 20
9.4883002539
 30
0.0
 10
6.204631443
 20
9.4785186554
 30
0.0
 10
6.194806848
 20
9.4701682276
 30
0.0
 10
6.1869121016
 20
9.4633102503
 30
0.0
 10
6.1809575444
 20
9.4580447656
 30
0.0
 10
6.1750085013
 20
9.4526679906
 30
0.0
 10
6.1690769746
 20
9.4471686
 30
0.0
 10
6.1631784071
 20
9.4415324527
 30
0.0
 10
6.1573281714
 20
9.435746723
 30
0.0
 10
6.1515489596
 20
9.429792389
 30
0.0
 10
6.145868885
 20
9.4236498549
 30
0.0
 10
6.1403108976
 20
9.4173097737
 30
0.0
 10
6.1349013816
 20
9.4107644486
 30
0.0
 10
6.1305566144
 20
9.4051348903
 30
0.0
 10
6.1271903743
 20
9.400519415
 30
0.0
 10
6.124722358
 20
9.3969983313
 30
0.0
 10
6.1223171157
 20
9.3934245875
 30
0.0
 10
6.1191952374
 20
9.3885917448
 30
0.0
 10
6.1169572298
 20
9.3848980337
 30
0.0
 10
6.1155180663
 20
9.3824043302
 30
0.0
  0
SPLINE
  5
2C9
100
AcDbEntity
  8
0
100
AcDbSpline
 62
9
  6
CONTINUOUS
 70
0
 71
3
 72
30
 73
26
 74
0
 42
0.0000001
 43
0.0000001
 44
0.0000000001
 40
0.0
 40
0.0
 40
0.0
 40
0.0
 40
0.0249070941
 40
0.0505192856
 40
0.1035778716
 40
0.1587785902
 40
0.2158159796
 40
0.2744637576
 40
0.3345554427
 40
0.4586181177
 40
0.5224510659
 40
0.5874351686
 40
0.653564512
 40
0.6870643138
 40
0.720851341
 40
0.7549221389
 40
0.7892732205
 40
0.8238949799
 40
0.841300455
 40
0.8587645726
 40
0.8762844953
 40
0.893857419
 40
0.9291324643
 40
0.9645332609
 40
1.0
 40
1.0
 40
1.0
 40
1.0
 10
6.8135321921
 20
7.8336671129
 30
0.0
 10
6.8155022285
 20
7.833211801
 30
0.0
 10
6.8194857113
 20
7.8322342586
 30
0.0
 10
6.8276057339
 20
7.8300487652
 30
0.0
 10
6.838018816
 20
7.8269310185
 30
0.0
 10
6.8507711394
 20
7.8227516328
 30
0.0
 10
6.8638746795
 20
7.8181953126
 30
0.0
 10
6.8772972464
 20
7.8133515422
 30
0.0
 10
6.8957946768
 20
7.806542769
 30
0.0
 10
6.914670779
 20
7.7995435434
 30
0.0
 10
6.9340071397
 20
7.7926472415
 30
0.0
 10
6.9489879046
 20
7.7875428488
 30
0.0
 10
6.9617270671
 20
7.7835007735
 30
0.0
 10
6.9721229158
 20
7.7804606944
 30
0.0
 10
6.980060415
 20
7.7782908649
 30
0.0
 10
6.9881070625
 20
7.7762639044
 30
0.0
 10
6.9962657394
 20
7.7744130078
 30
0.0
 10
7.0031444188
 20
7.7730457689
 30
0.0
 10
7.0087003701
 20
7.7720669428
 30
0.0
 10
7.012900009
 20
7.7713941625
 30
0.0
 10
7.0171237966
 20
7.7707897001
 30
0.0
 10
7.0227924668
 20
7.7700814903
 30
0.0
 10
7.0299246524
 20
7.7693874874
 30
0.0
 10
7.038527864
 20
7.7688737526
 30
0.0
 10
7.0442815012
 20
7.7687512923
 30
0.0
 10
7.0471607045
 20
7.7687519462
 30
0.0
  0
ENDSEC
  0
SECTION
  2
OBJECTS
  0
DICTIONARY
  5
C
100
AcDbDictionary
280
0
281
1
  3
ACAD_GROUP
350
D
  3
ACAD_MLINESTYLE
350
17
  3
ACAD_LAYOUT
350
1A
  3
ACAD_PLOTSETTINGS
350
19
  3
ACAD_PLOTSTYLENAME
350
E
  0
DICTIONARY
  5
D
102
{ACAD_REACTORS
330
C
102
}
100
AcDbDictionary
280
0
281
1
  0
ACDBDICTIONARYWDFLT
  5
E
102
{ACAD_REACTORS
330
C
102
}
100
AcDbDictionary
281
1
  3
Normal
350
F
100
AcDbDictionaryWithDefault
340
F
  0
DICTIONARY
  5
17
102
{ACAD_REACTORS
330
C
102
}
100
AcDbDictionary
280
0
281
1
  3
Standard
350
18
  0
DICTIONARY
  5
19
102
{ACAD_REACTORS
330
C
102
}
100
AcDbDictionary
281
1
  0
DICTIONARY
  5
1A
102
{ACAD_REACTORS
330
C
102
}
100
AcDbDictionary
281
1
  3
Model
350
2CA
  3
Layout1
350
2CB
  0
ACDBPLACEHOLDER
  5
F
102
{ACAD_REACTORS
330
E
102
}
  0
MLINESTYLE
  5
18
102
{ACAD_REACTORS
330
17
102
}
100
AcDbMlineStyle
  2
STANDARD
 70
0
  3

 62
256
 51
90.0
 52
90.0
 71
2
 49
0.5
 62
256
  6
BYLAYER
 49
-0.5
 62
256
  6
BYLAYER
  0
LAYOUT
  5
2CA
102
{ACAD_REACTORS
330
1A
102
}
100
AcDbPlotSettings
  1

  2
none_device
  4
ANSI_C_(22.00_x_17.00_Inches)
  6

 40
0.0
 41
0.0
 42
0.0
 43
0.0
 44
558.8
 45
431.8
 46
0.0
 47
0.0
 48
0.0
 49
0.0
140
0.0
141
0.0
142
1.0
143
1.0
 70
1024
 72
0
 73
0
 74
0
  7

 75
0
147
1.0
148
0.0
149
0.0
100
AcDbLayout
  1
Model
 70
0
 71
0
 10
0.0
 20
0.0
 11
22.0
 21
17.0
 12
0.0
 22
0.0
 32
0.0
 14
0.0
 24
0.0
 34
0.0
 15
0.0
 25
0.0
 35
0.0
146
0.0
 13
0.0
 23
0.0
 33
0.0
 16
1.0
 26
0.0
 36
0.0
 17
0.0
 27
1.0
 37
0.0
 76
0
330
205
345
0
346
0
  0
LAYOUT
  5
2CB
102
{ACAD_REACTORS
330
1A
102
}
100
AcDbPlotSettings
  1

  2
none_device
  4
ANSI_C_(22.00_x_17.00_Inches)
  6

 40
0.0
 41
0.0
 42
0.0
 43
0.0
 44
558.8
 45
431.8
 46
0.0
 47
0.0
 48
0.0
 49
0.0
140
0.0
141
0.0
142
1.0
143
1.0
 70
0
 72
0
 73
0
 74
0
  7

 75
0
147
1.0
148
0.0
149
0.0
100
AcDbLayout
  1
Layout1
 70
0
 71
1
 10
0.0
 20
0.0
 11
22.0
 21
17.0
 12
0.0
 22
0.0
 32
0.0
 14
0.0
 24
0.0
 34
0.0
 15
0.0
 25
0.0
 35
0.0
146
0.0
 13
0.0
 23
0.0
 33
0.0
 16
1.0
 26
0.0
 36
0.0
 17
0.0
 27
1.0
 37
0.0
 76
0
330
206
345
0
346
0
  0
ENDSEC
  0
EOF
