  0
SECTION
  2
HEADER
  9
$ACADVER
  1
AC1015
  9
$DWGCODEPAGE
  3
ANSI_1252
  9
$EXTMAX
 10
11.6929133858
 20
8.2677165354
 30
0.0
  9
$EXTMIN
 10
0.0
 20
0.0
 30
0.0
  9
$LIMMIN
 10
0.0
 20
0.0
  9
$LIMMAX
 10
11.6929133858
 20
8.2677165354
  9
$VIEWCTR
 10
5.8464566929
 20
4.1338582677
  9
$VIEWSIZE
 40
8.2677165354
  9
$CLAYER
  8
0
  9
$LTSCALE
 40
0.6431102362
  9
$CELTYPE
  6
BYLAYER
  9
$DIMSCALE
 40
1.0
  9
$DIMASZ
 40
0.1875
  9
$DIMEXO
 40
0.0730807087
  9
$DIMDLI
 40
0.4443307087
  9
$DIMEXE
 40
0.2104724409
  9
$DIMCEN
 40
0.1052362205
  9
$DIMLFAC
 40
1.0
  9
$DIMBLK
  1
_CLOSED
  9
$DIMTXT
 40
0.15625
  9
$DIMTOL
 70
0
  9
$DIMLIM
 70
0
  9
$DIMTFAC
 40
1.0
  9
$PDMODE
 70
3
  9
$PDSIZE
 40
0.3125
  9
$HANDSEED
  5
365
  9
$TILEMODE
 70
1
  9
$MEASUREMENT
 70
0
  9
$INSUNITS
 70
1
  0
ENDSEC
  0
SECTION
  2
CLASSES
  0
CLASS
  1
ACDBDICTIONARYWDFLT
  2
AcDbDictionaryWithDefault
  3
AutoCAD 2000
 90
0
280
0
281
0
  0
CLASS
  1
ACDBPLACEHOLDER
  2
AcDbPlaceHolder
  3
AutoCAD 2000
 90
0
280
0
281
0
  0
CLASS
  1
LAYOUT
  2
AcDbLayout
  3
AutoCAD 2000
 90
0
280
0
281
0
  0
ENDSEC
  0
SECTION
  2
TABLES
  0
TABLE
  2
VPORT
  5
8
100
AcDbSymbolTable
 70
2
  0
VPORT
  5
1F4
100
AcDbSymbolTableRecord
100
AcDbViewportTableRecord
  2
*ACTIVE
 70
0
 10
0.0
 20
0.0
 11
1.0
 21
1.0
 12
5.8464566929
 22
4.1338582677
 13
0.0
 23
0.0
 14
1.0
 24
1.0
 15
0.0
 25
0.0
 16
0.0
 26
0.0
 36
1.0
 17
0.0
 27
0.0
 37
0.0
 40
8.2677165354
 41
1.4142857143
 42
50.0
 43
0.0
 44
0.0
 50
0.0
 51
0.0
 71
0
 72
100
 73
1
 74
1
 75
0
 76
0
 77
0
 78
0
  0
ENDTAB
  0
TABLE
  2
LTYPE
  5
5
100
AcDbSymbolTable
 70
6
  0
LTYPE
  5
14
100
AcDbSymbolTableRecord
100
AcDbLinetypeTableRecord
  2
BYBLOCK
 70
0
  3

 72
65
 73
0
 40
0.0
  0
LTYPE
  5
15
100
AcDbSymbolTableRecord
100
AcDbLinetypeTableRecord
  2
BYLAYER
 70
0
  3

 72
65
 73
0
 40
0.0
  0
LTYPE
  5
16
100
AcDbSymbolTableRecord
100
AcDbLinetypeTableRecord
  2
CONTINUOUS
 70
64
  3
Solid line
 72
65
 73
0
 40
0.0
  0
LTYPE
  5
1F5
100
AcDbSymbolTableRecord
100
AcDbLinetypeTableRecord
  2
CENTER
 70
64
  3
____ _ ____ _ ____ _ ____ _ ____ _ ____ _ ____
 72
65
 73
4
 40
0.6
 49
0.375
 74
0
 49
-0.075
 74
0
 49
0.075
 74
0
 49
-0.075
 74
0
  0
LTYPE
  5
1F6
100
AcDbSymbolTableRecord
100
AcDbLinetypeTableRecord
  2
HIDDEN
 70
64
  3
- - - - - - - - - - - - - - - - - - - -
 72
65
 73
2
 40
0.2
 49
0.1
 74
0
 49
-0.1
 74
0
  0
LTYPE
  5
1F7
100
AcDbSymbolTableRecord
100
AcDbLinetypeTableRecord
  2
PHANTOM
 70
64
  3
_____ _ _ _____ _ _ _____ _ _ _____
 72
65
 73
6
 40
0.8
 49
0.45
 74
0
 49
-0.05
 74
0
 49
0.1
 74
0
 49
-0.05
 74
0
 49
0.1
 74
0
 49
-0.05
 74
0
  0
LTYPE
  5
1F8
100
AcDbSymbolTableRecord
100
AcDbLinetypeTableRecord
  2
DOT
 70
64
  3
. . . . . . . . . . . . . . . . . . . .
 72
65
 73
2
 40
0.2
 49
0.1
 74
0
 49
-0.1
 74
0
  0
LTYPE
  5
1F9
100
AcDbSymbolTableRecord
100
AcDbLinetypeTableRecord
  2
DASHED
 70
64
  3
- - - - - - - - - - - - - - - - - - - -
 72
65
 73
2
 40
0.2
 49
0.1
 74
0
 49
-0.1
 74
0
  0
ENDTAB
  0
TABLE
  2
LAYER
  5
2
100
AcDbSymbolTable
 70
36
  0
LAYER
  5
10
100
AcDbSymbolTableRecord
100
AcDbLayerTableRecord
  2
0
 70
0
 62
7
  6
CONTINUOUS
370
-3
390
F
  0
LAYER
  5
1FA
100
AcDbSymbolTableRecord
100
AcDbLayerTableRecord
  2
DEFAULT_1
 70
0
 62
7
  6
CENTER
370
-3
390
F
  0
LAYER
  5
1FB
100
AcDbSymbolTableRecord
100
AcDbLayerTableRecord
  2
DEFAULT_2
 70
0
 62
8
  6
HIDDEN
370
-3
390
F
  0
LAYER
  5
1FC
100
AcDbSymbolTableRecord
100
AcDbLayerTableRecord
  2
DEFAULT_3
 70
0
 62
7
  6
PHANTOM
370
-3
390
F
  0
LAYER
  5
1FD
100
AcDbSymbolTableRecord
100
AcDbLayerTableRecord
  2
10050
 70
0
 62
7
  6
CONTINUOUS
370
-3
390
F
  0
LAYER
  5
1FE
100
AcDbSymbolTableRecord
100
AcDbLayerTableRecord
  2
10050_1
 70
0
 62
7
  6
CONTINUOUS
370
-3
390
F
  0
LAYER
  5
1FF
100
AcDbSymbolTableRecord
100
AcDbLayerTableRecord
  2
3_ALL_SYMBOLS
 70
0
 62
7
  6
CONTINUOUS
370
-3
390
F
  0
LAYER
  5
200
100
AcDbSymbolTableRecord
100
AcDbLayerTableRecord
  2
50297
 70
0
 62
7
  6
CONTINUOUS
370
-3
390
F
  0
LAYER
  5
201
100
AcDbSymbolTableRecord
100
AcDbLayerTableRecord
  2
50298
 70
0
 62
7
  6
CONTINUOUS
370
-3
390
F
  0
LAYER
  5
202
100
AcDbSymbolTableRecord
100
AcDbLayerTableRecord
  2
50310
 70
0
 62
7
  6
CONTINUOUS
370
-3
390
F
  0
LAYER
  5
203
100
AcDbSymbolTableRecord
100
AcDbLayerTableRecord
  2
50312
 70
0
 62
7
  6
CONTINUOUS
370
-3
390
F
  0
LAYER
  5
204
100
AcDbSymbolTableRecord
100
AcDbLayerTableRecord
  2
50312_1
 70
0
 62
7
  6
CONTINUOUS
370
-3
390
F
  0
LAYER
  5
205
100
AcDbSymbolTableRecord
100
AcDbLayerTableRecord
  2
50313
 70
0
 62
7
  6
CONTINUOUS
370
-3
390
F
  0
LAYER
  5
206
100
AcDbSymbolTableRecord
100
AcDbLayerTableRecord
  2
50314
 70
0
 62
7
  6
CONTINUOUS
370
-3
390
F
  0
LAYER
  5
207
100
AcDbSymbolTableRecord
100
AcDbLayerTableRecord
  2
50315
 70
0
 62
7
  6
CONTINUOUS
370
-3
390
F
  0
LAYER
  5
208
100
AcDbSymbolTableRecord
100
AcDbLayerTableRecord
  2
50315_1
 70
0
 62
7
  6
CONTINUOUS
370
-3
390
F
  0
LAYER
  5
209
100
AcDbSymbolTableRecord
100
AcDbLayerTableRecord
  2
50316
 70
0
 62
7
  6
CONTINUOUS
370
-3
390
F
  0
LAYER
  5
20A
100
AcDbSymbolTableRecord
100
AcDbLayerTableRecord
  2
50400
 70
0
 62
7
  6
CONTINUOUS
370
-3
390
F
  0
LAYER
  5
20B
100
AcDbSymbolTableRecord
100
AcDbLayerTableRecord
  2
6-013_TOPASSY
 70
0
 62
7
  6
CONTINUOUS
370
-3
390
F
  0
LAYER
  5
20C
100
AcDbSymbolTableRecord
100
AcDbLayerTableRecord
  2
91284
 70
0
 62
7
  6
CONTINUOUS
370
-3
390
F
  0
LAYER
  5
20D
100
AcDbSymbolTableRecord
100
AcDbLayerTableRecord
  2
91285
 70
0
 62
7
  6
CONTINUOUS
370
-3
390
F
  0
LAYER
  5
20E
100
AcDbSymbolTableRecord
100
AcDbLayerTableRecord
  2
ALL_ASSEMBLY_MEMBERS
 70
0
 62
7
  6
CONTINUOUS
370
-3
390
F
  0
LAYER
  5
20F
100
AcDbSymbolTableRecord
100
AcDbLayerTableRecord
  2
ALL_ASSEMBLY_MEMBERS_1
 70
0
 62
7
  6
CONTINUOUS
370
-3
390
F
  0
LAYER
  5
210
100
AcDbSymbolTableRecord
100
AcDbLayerTableRecord
  2
COLOR2
 70
0
 62
7
  6
CONTINUOUS
370
-3
390
F
  0
LAYER
  5
211
100
AcDbSymbolTableRecord
100
AcDbLayerTableRecord
  2
COLOR3
 70
0
 62
7
  6
CONTINUOUS
370
-3
390
F
  0
LAYER
  5
212
100
AcDbSymbolTableRecord
100
AcDbLayerTableRecord
  2
COLOR4
 70
0
 62
7
  6
CONTINUOUS
370
-3
390
F
  0
LAYER
  5
213
100
AcDbSymbolTableRecord
100
AcDbLayerTableRecord
  2
DEFAULT_COORDINATE_SYSTEM
 70
0
 62
7
  6
CONTINUOUS
370
-3
390
F
  0
LAYER
  5
214
100
AcDbSymbolTableRecord
100
AcDbLayerTableRecord
  2
DEFAULT_DATUM_AXES
 70
0
 62
7
  6
CONTINUOUS
370
-3
390
F
  0
LAYER
  5
215
100
AcDbSymbolTableRecord
100
AcDbLayerTableRecord
  2
DEFAULT_DATUM_CURVES
 70
0
 62
7
  6
CONTINUOUS
370
-3
390
F
  0
LAYER
  5
216
100
AcDbSymbolTableRecord
100
AcDbLayerTableRecord
  2
DEFAULT_DATUM_PLANES
 70
0
 62
7
  6
CONTINUOUS
370
-3
390
F
  0
LAYER
  5
217
100
AcDbSymbolTableRecord
100
AcDbLayerTableRecord
  2
INTF_10050
 70
0
 62
7
  6
CONTINUOUS
370
-3
390
F
  0
LAYER
  5
218
100
AcDbSymbolTableRecord
100
AcDbLayerTableRecord
  2
INTF_50297
 70
0
 62
7
  6
CONTINUOUS
370
-3
390
F
  0
LAYER
  5
219
100
AcDbSymbolTableRecord
100
AcDbLayerTableRecord
  2
INTF_50298
 70
0
 62
7
  6
CONTINUOUS
370
-3
390
F
  0
LAYER
  5
21A
100
AcDbSymbolTableRecord
100
AcDbLayerTableRecord
  2
INTF_50310
 70
0
 62
7
  6
CONTINUOUS
370
-3
390
F
  0
LAYER
  5
21B
100
AcDbSymbolTableRecord
100
AcDbLayerTableRecord
  2
INTF_50312
 70
0
 62
7
  6
CONTINUOUS
370
-3
390
F
  0
LAYER
  5
21C
100
AcDbSymbolTableRecord
100
AcDbLayerTableRecord
  2
INTF_50313
 70
0
 62
7
  6
CONTINUOUS
370
-3
390
F
  0
LAYER
  5
21D
100
AcDbSymbolTableRecord
100
AcDbLayerTableRecord
  2
INTF_50314
 70
0
 62
7
  6
CONTINUOUS
370
-3
390
F
  0
LAYER
  5
21E
100
AcDbSymbolTableRecord
100
AcDbLayerTableRecord
  2
INTF_50315
 70
0
 62
7
  6
CONTINUOUS
370
-3
390
F
  0
LAYER
  5
21F
100
AcDbSymbolTableRecord
100
AcDbLayerTableRecord
  2
INTF_50316
 70
0
 62
7
  6
CONTINUOUS
370
-3
390
F
  0
LAYER
  5
220
100
AcDbSymbolTableRecord
100
AcDbLayerTableRecord
  2
INTF_50400
 70
0
 62
7
  6
CONTINUOUS
370
-3
390
F
  0
LAYER
  5
221
100
AcDbSymbolTableRecord
100
AcDbLayerTableRecord
  2
INTF_91284
 70
0
 62
7
  6
CONTINUOUS
370
-3
390
F
  0
LAYER
  5
222
100
AcDbSymbolTableRecord
100
AcDbLayerTableRecord
  2
INTF_91285
 70
0
 62
7
  6
CONTINUOUS
370
-3
390
F
  0
LAYER
  5
223
100
AcDbSymbolTableRecord
100
AcDbLayerTableRecord
  2
QUILT_2
 70
0
 62
7
  6
CONTINUOUS
370
-3
390
F
  0
ENDTAB
  0
TABLE
  2
STYLE
  5
3
100
AcDbSymbolTable
 70
1
  0
STYLE
  5
11
100
AcDbSymbolTableRecord
100
AcDbTextStyleTableRecord
  2
STANDARD
 70
0
 40
0.0
 41
0.8
 50
0.0
 71
0
 42
0.2
  3
txt
  4

  0
STYLE
  5
224
100
AcDbSymbolTableRecord
100
AcDbTextStyleTableRecord
  2
TEXTSTYLE_1
 70
0
 40
0.0
 41
0.8
 50
0.0
 71
0
 42
0.2
  3
gdt
  4

  0
ENDTAB
  0
TABLE
  2
VIEW
  5
6
100
AcDbSymbolTable
 70
0
  0
ENDTAB
  0
TABLE
  2
UCS
  5
7
100
AcDbSymbolTable
 70
0
  0
ENDTAB
  0
TABLE
  2
APPID
  5
9
100
AcDbSymbolTable
 70
1
  0
APPID
  5
225
100
AcDbSymbolTableRecord
100
AcDbRegAppTableRecord
  2
ACAD
 70
0
  0
ENDTAB
  0
TABLE
  2
BLOCK_RECORD
  5
1
100
AcDbSymbolTable
 70
0
  0
BLOCK_RECORD
  5
226
100
AcDbSymbolTableRecord
100
AcDbBlockTableRecord
  2
*Model_Space
  0
BLOCK_RECORD
  5
227
100
AcDbSymbolTableRecord
100
AcDbBlockTableRecord
  2
*Paper_Space
  0
ENDTAB
  0
TABLE
  2
DIMSTYLE
  5
A
100
AcDbSymbolTable
 70
1
100
AcDbDimStyleTable
 71
0
  0
DIMSTYLE
105
228
100
AcDbSymbolTableRecord
100
AcDbDimStyleTableRecord
  2
STANDARD
 70
0
  3

  4

 40
1.0
 41
0.1875
 42
0.0625
 43
0.38
 44
0.18
 45
0.0
 46
0.0
 47
0.01
 48
0.01
140
0.15625
141
0.09
142
0.0
143
25.4
144
1.0
145
0.0
146
1.0
147
0.09
 71
0.0
 72
0.0
 73
1
 74
1
 75
0
 76
0
 77
0
 78
4
170
0
171
2
172
0
173
0
174
0
175
0
176
0
177
0
178
0
270
2
271
2
272
2
273
2
274
2
275
0
280
0
281
0
282
0
283
1
284
4
285
0
286
0
287
3
288
0
340
11
  0
ENDTAB
  0
ENDSEC
  0
SECTION
  2
BLOCKS
  0
BLOCK
  5
20
100
AcDbEntity
  8
0
100
AcDbBlockBegin
  2
*Model_Space
 70
0
 10
0.0
 20
0.0
 30
0.0
  3
*Model_Space
  1

  0
ENDBLK
  5
21
100
AcDbEntity
  8
0
100
AcDbBlockEnd
  0
BLOCK
  5
1C
100
AcDbEntity
  8
0
100
AcDbBlockBegin
  2
*Paper_Space
 70
0
 10
0.0
 20
0.0
 30
0.0
  3
*Paper_Space
  1

  0
ENDBLK
  5
1D
100
AcDbEntity
  8
0
100
AcDbBlockEnd
  0
ENDSEC
  0
SECTION
  2
ENTITIES
  0
LINE
  5
229
100
AcDbEntity
  8
0
100
AcDbLine
 62
7
  6
CONTINUOUS
 10
4.7614253026
 20
1.468214262
 11
7.1214253026
 21
1.468214262
  0
LINE
  5
22A
100
AcDbEntity
  8
0
100
AcDbLine
 62
7
  6
CONTINUOUS
 10
6.9414253026
 20
1.655214262
 11
4.9414253026
 21
1.655214262
  0
LINE
  5
22B
100
AcDbEntity
  8
0
100
AcDbLine
 62
7
  6
CONTINUOUS
 10
5.1284226288
 20
1.843214262
 11
6.7544279764
 21
1.843214262
  0
LINE
  5
22C
100
AcDbEntity
  8
0
100
AcDbLine
 62
7
  6
CONTINUOUS
 10
5.2004253026
 20
1.905214262
 11
6.6824253026
 21
1.905214262
  0
LINE
  5
22D
100
AcDbEntity
  8
0
100
AcDbLine
 62
7
  6
CONTINUOUS
 10
6.5814253026
 20
2.612214262
 11
6.4104253026
 21
2.612214262
  0
LINE
  5
22E
100
AcDbEntity
  8
0
100
AcDbLine
 62
7
  6
CONTINUOUS
 10
5.4724253026
 20
2.612214262
 11
4.9564253026
 21
2.612214262
  0
LINE
  5
22F
100
AcDbEntity
  8
0
100
AcDbLine
 62
7
  6
CONTINUOUS
 10
4.9564253026
 20
2.627214262
 11
4.2632286099
 21
2.627214262
  0
LINE
  5
230
100
AcDbEntity
  8
0
100
AcDbLine
 62
7
  6
CONTINUOUS
 10
4.1761831265
 20
3.427214262
 11
4.2274253026
 21
2.713214262
  0
LINE
  5
231
100
AcDbEntity
  8
0
100
AcDbLine
 62
7
  6
CONTINUOUS
 10
4.4134764628
 20
2.7202635206
 11
4.9564253026
 21
2.720263533
  0
LINE
  5
232
100
AcDbEntity
  8
0
100
AcDbLine
 62
9
  6
CONTINUOUS
 10
4.2274253026
 20
4.1412141374
 11
4.2274253026
 21
2.7132143865
  0
LINE
  5
233
100
AcDbEntity
  8
0
100
AcDbLine
 62
9
  6
CONTINUOUS
 10
4.4134763719
 20
4.2272151833
 11
4.4134763719
 21
4.1341669073
  0
LINE
  5
234
100
AcDbEntity
  8
0
100
AcDbLine
 62
9
  6
CONTINUOUS
 10
4.4134763719
 20
3.5202674391
 11
4.4134763719
 21
3.3341650065
  0
LINE
  5
235
100
AcDbEntity
  8
0
100
AcDbLine
 62
9
  6
CONTINUOUS
 10
4.4134763719
 20
2.7202635238
 11
4.4134763719
 21
2.6272126707
  0
LINE
  5
236
100
AcDbEntity
  8
0
100
AcDbLine
 62
7
  6
CONTINUOUS
 10
4.9564253026
 20
3.3341649909
 11
4.4134764826
 21
3.3341650033
  0
LINE
  5
237
100
AcDbEntity
  8
0
100
AcDbLine
 62
7
  6
CONTINUOUS
 10
4.4134764621
 20
3.5202635206
 11
4.9564253026
 21
3.520263533
  0
LINE
  5
238
100
AcDbEntity
  8
0
100
AcDbLine
 62
7
  6
CONTINUOUS
 10
4.9564253026
 20
2.612214262
 11
4.9564253026
 21
4.242214262
  0
LINE
  5
239
100
AcDbEntity
  8
0
100
AcDbLine
 62
9
  6
CONTINUOUS
 10
5.6003405494
 20
6.9220733739
 11
5.601370531
 21
6.9256150957
  0
LINE
  5
23A
100
AcDbEntity
  8
0
100
AcDbLine
 62
7
  6
CONTINUOUS
 10
5.2004253026
 20
1.905214262
 11
5.2004253026
 21
1.843214262
  0
LINE
  5
23B
100
AcDbEntity
  8
0
100
AcDbLine
 62
7
  6
CONTINUOUS
 10
5.3877009729
 20
5.004214262
 11
5.3877009729
 21
4.704214262
  0
LINE
  5
23C
100
AcDbEntity
  8
0
100
AcDbLine
 62
7
  6
CONTINUOUS
 10
5.3904016475
 20
4.704214262
 11
5.3904016475
 21
5.004214262
  0
LINE
  5
23D
100
AcDbEntity
  8
0
100
AcDbLine
 62
7
  6
CONTINUOUS
 10
5.3914253026
 20
4.597214262
 11
5.3914253026
 21
4.305214262
  0
LINE
  5
23E
100
AcDbEntity
  8
0
100
AcDbLine
 62
7
  6
CONTINUOUS
 10
5.3930047118
 20
5.004214262
 11
5.3930047118
 21
4.704214262
  0
LINE
  5
23F
100
AcDbEntity
  8
0
100
AcDbLine
 62
7
  6
CONTINUOUS
 10
5.3974890516
 20
4.704214262
 11
5.3974890516
 21
5.004214262
  0
LINE
  5
240
100
AcDbEntity
  8
0
100
AcDbLine
 62
7
  6
CONTINUOUS
 10
5.3999253026
 20
5.071214262
 11
5.3999253026
 21
5.004214262
  0
LINE
  5
241
100
AcDbEntity
  8
0
100
AcDbLine
 62
7
  6
CONTINUOUS
 10
5.3999253026
 20
4.704214262
 11
5.3999253026
 21
4.597214262
  0
LINE
  5
242
100
AcDbEntity
  8
0
100
AcDbLine
 62
7
  6
CONTINUOUS
 10
5.4013754412
 20
5.004214262
 11
5.4013754412
 21
4.704214262
  0
LINE
  5
243
100
AcDbEntity
  8
0
100
AcDbLine
 62
7
  6
CONTINUOUS
 10
5.4076183678
 20
4.704214262
 11
5.4076183678
 21
5.004214262
  0
LINE
  5
244
100
AcDbEntity
  8
0
100
AcDbLine
 62
7
  6
CONTINUOUS
 10
5.4127663484
 20
5.004214262
 11
5.4127663484
 21
4.704214262
  0
LINE
  5
245
100
AcDbEntity
  8
0
100
AcDbLine
 62
7
  6
CONTINUOUS
 10
5.420732949
 20
4.704214262
 11
5.420732949
 21
5.004214262
  0
LINE
  5
246
100
AcDbEntity
  8
0
100
AcDbLine
 62
7
  6
CONTINUOUS
 10
5.4271137309
 20
5.004214262
 11
5.4271137309
 21
4.704214262
  0
LINE
  5
247
100
AcDbEntity
  8
0
100
AcDbLine
 62
7
  6
CONTINUOUS
 10
5.436759453
 20
4.704214262
 11
5.436759453
 21
5.004214262
  0
LINE
  5
248
100
AcDbEntity
  8
0
100
AcDbLine
 62
7
  6
CONTINUOUS
 10
5.4443373524
 20
5.004214262
 11
5.4443373524
 21
4.704214262
  0
LINE
  5
249
100
AcDbEntity
  8
0
100
AcDbLine
 62
7
  6
CONTINUOUS
 10
5.4556082532
 20
4.704214262
 11
5.4556082532
 21
5.004214262
  0
LINE
  5
24A
100
AcDbEntity
  8
0
100
AcDbLine
 62
7
  6
CONTINUOUS
 10
5.670615106
 20
4.1685979132
 11
5.5093611359
 21
4.155104557
  0
LINE
  5
24B
100
AcDbEntity
  8
0
100
AcDbLine
 62
7
  6
CONTINUOUS
 10
5.7123082282
 20
4.1703392617
 11
5.6706151059
 21
4.168597913
  0
LINE
  5
24C
100
AcDbEntity
  8
0
100
AcDbLine
 62
7
  6
CONTINUOUS
 10
5.4724253026
 20
4.092214262
 11
6.4104253026
 21
4.092214262
  0
LINE
  5
24D
100
AcDbEntity
  8
0
100
AcDbLine
 62
7
  6
CONTINUOUS
 10
4.9564253026
 20
4.1341649909
 11
4.4134764733
 21
4.1341650033
  0
LINE
  5
24E
100
AcDbEntity
  8
0
100
AcDbLine
 62
9
  6
CONTINUOUS
 10
5.5093611359
 20
4.155104557
 11
6.3734894693
 21
4.155104557
  0
LINE
  5
24F
100
AcDbEntity
  8
0
100
AcDbLine
 62
9
  6
CONTINUOUS
 10
6.2122354992
 20
4.1685979132
 11
5.670615106
 21
4.1685979132
  0
LINE
  5
250
100
AcDbEntity
  8
0
100
AcDbLine
 62
7
  6
CONTINUOUS
 10
5.7123082282
 20
4.170339262
 11
6.170542377
 21
4.170339262
  0
LINE
  5
251
100
AcDbEntity
  8
0
100
AcDbLine
 62
7
  6
CONTINUOUS
 10
4.2632286099
 20
4.227214262
 11
4.9564253026
 21
4.227214262
  0
LINE
  5
252
100
AcDbEntity
  8
0
100
AcDbLine
 62
7
  6
CONTINUOUS
 10
6.170542377
 20
4.1703392617
 11
6.2122354992
 21
4.1685979129
  0
LINE
  5
253
100
AcDbEntity
  8
0
100
AcDbLine
 62
7
  6
CONTINUOUS
 10
6.2122354992
 20
4.1685979132
 11
6.3734894693
 21
4.155104557
  0
LINE
  5
254
100
AcDbEntity
  8
0
100
AcDbLine
 62
7
  6
CONTINUOUS
 10
5.4651973244
 20
5.004214262
 11
5.4651973244
 21
4.704214262
  0
LINE
  5
255
100
AcDbEntity
  8
0
100
AcDbLine
 62
7
  6
CONTINUOUS
 10
5.4724253026
 20
4.092214262
 11
5.4724253026
 21
1.905214262
  0
LINE
  5
256
100
AcDbEntity
  8
0
100
AcDbLine
 62
7
  6
CONTINUOUS
 10
5.4771739393
 20
4.704214262
 11
5.4771739393
 21
5.004214262
  0
LINE
  5
257
100
AcDbEntity
  8
0
100
AcDbLine
 62
7
  6
CONTINUOUS
 10
5.4889377689
 20
5.004214262
 11
5.4889377689
 21
4.704214262
  0
LINE
  5
258
100
AcDbEntity
  8
0
100
AcDbLine
 62
7
  6
CONTINUOUS
 10
5.5013359074
 20
4.704214262
 11
5.5013359074
 21
5.004214262
  0
LINE
  5
259
100
AcDbEntity
  8
0
100
AcDbLine
 62
7
  6
CONTINUOUS
 10
5.5132847536
 20
5.004214262
 11
5.5132847536
 21
4.704214262
  0
LINE
  5
25A
100
AcDbEntity
  8
0
100
AcDbLine
 62
7
  6
CONTINUOUS
 10
5.5244473064
 20
4.704214262
 11
5.5244473064
 21
5.004214262
  0
LINE
  5
25B
100
AcDbEntity
  8
0
100
AcDbLine
 62
7
  6
CONTINUOUS
 10
5.526848679
 20
4.704214262
 11
5.526848679
 21
5.004214262
  0
LINE
  5
25C
100
AcDbEntity
  8
0
100
AcDbLine
 62
7
  6
CONTINUOUS
 10
5.5409907482
 20
5.004214262
 11
5.5409907482
 21
4.704214262
  0
LINE
  5
25D
100
AcDbEntity
  8
0
100
AcDbLine
 62
7
  6
CONTINUOUS
 10
5.5514304918
 20
4.704214262
 11
5.5514304918
 21
5.004214262
  0
LINE
  5
25E
100
AcDbEntity
  8
0
100
AcDbLine
 62
7
  6
CONTINUOUS
 10
5.5556946094
 20
4.704214262
 11
5.5556946094
 21
5.004214262
  0
LINE
  5
25F
100
AcDbEntity
  8
0
100
AcDbLine
 62
7
  6
CONTINUOUS
 10
5.5709361352
 20
5.004214262
 11
5.5709361352
 21
4.704214262
  0
LINE
  5
260
100
AcDbEntity
  8
0
100
AcDbLine
 62
7
  6
CONTINUOUS
 10
5.5805946864
 20
4.704214262
 11
5.5805946864
 21
5.004214262
  0
LINE
  5
261
100
AcDbEntity
  8
0
100
AcDbLine
 62
9
  6
CONTINUOUS
 10
5.5851753026
 20
7.3002866782
 11
5.5851753026
 21
7.3737334769
  0
LINE
  5
262
100
AcDbEntity
  8
0
100
AcDbLine
 62
7
  6
CONTINUOUS
 10
5.5866977024
 20
4.704214262
 11
5.5866977024
 21
5.004214262
  0
LINE
  5
263
100
AcDbEntity
  8
0
100
AcDbLine
 62
7
  6
CONTINUOUS
 10
5.602953448
 20
5.004214262
 11
5.602953448
 21
4.704214262
  0
LINE
  5
264
100
AcDbEntity
  8
0
100
AcDbLine
 62
7
  6
CONTINUOUS
 10
5.6051753026
 20
7.3659448041
 11
5.6051753026
 21
6.9351109876
  0
LINE
  5
265
100
AcDbEntity
  8
0
100
AcDbLine
 62
7
  6
CONTINUOUS
 10
5.6117767922
 20
4.704214262
 11
5.6117767922
 21
5.004214262
  0
LINE
  5
266
100
AcDbEntity
  8
0
100
AcDbLine
 62
7
  6
CONTINUOUS
 10
5.619684576
 20
4.704214262
 11
5.619684576
 21
5.004214262
  0
LINE
  5
267
100
AcDbEntity
  8
0
100
AcDbLine
 62
7
  6
CONTINUOUS
 10
5.6368636326
 20
5.004214262
 11
5.6368636326
 21
4.704214262
  0
LINE
  5
268
100
AcDbEntity
  8
0
100
AcDbLine
 62
7
  6
CONTINUOUS
 10
5.6448024261
 20
4.704214262
 11
5.6448024261
 21
5.004214262
  0
LINE
  5
269
100
AcDbEntity
  8
0
100
AcDbLine
 62
7
  6
CONTINUOUS
 10
5.6544707543
 20
4.704214262
 11
5.6544707543
 21
5.004214262
  0
LINE
  5
26A
100
AcDbEntity
  8
0
100
AcDbLine
 62
7
  6
CONTINUOUS
 10
5.6724770496
 20
5.004214262
 11
5.6724770496
 21
4.704214262
  0
LINE
  5
26B
100
AcDbEntity
  8
0
100
AcDbLine
 62
7
  6
CONTINUOUS
 10
6.5814253026
 20
4.242214262
 11
6.5544253026
 21
4.242214262
  0
LINE
  5
26C
100
AcDbEntity
  8
0
100
AcDbLine
 62
7
  6
CONTINUOUS
 10
5.3284253026
 20
4.242214262
 11
4.9564253026
 21
4.242214262
  0
LINE
  5
26D
100
AcDbEntity
  8
0
100
AcDbLine
 62
7
  6
CONTINUOUS
 10
5.6794868955
 20
4.704214262
 11
5.6794868955
 21
5.004214262
  0
LINE
  5
26E
100
AcDbEntity
  8
0
100
AcDbLine
 62
7
  6
CONTINUOUS
 10
5.6908616988
 20
4.704214262
 11
5.6908616988
 21
5.004214262
  0
LINE
  5
26F
100
AcDbEntity
  8
0
100
AcDbLine
 62
7
  6
CONTINUOUS
 10
5.7095945344
 20
5.004214262
 11
5.7095945344
 21
4.704214262
  0
LINE
  5
270
100
AcDbEntity
  8
0
100
AcDbLine
 62
7
  6
CONTINUOUS
 10
5.7156362308
 20
4.704214262
 11
5.7156362308
 21
5.004214262
  0
LINE
  5
271
100
AcDbEntity
  8
0
100
AcDbLine
 62
7
  6
CONTINUOUS
 10
5.7286538966
 20
4.704214262
 11
5.7286538966
 21
5.004214262
  0
LINE
  5
272
100
AcDbEntity
  8
0
100
AcDbLine
 62
7
  6
CONTINUOUS
 10
5.7414253026
 20
5.2026427537
 11
5.7414253026
 21
6.4304112375
  0
LINE
  5
273
100
AcDbEntity
  8
0
100
AcDbLine
 62
7
  6
CONTINUOUS
 10
5.7464497326
 20
5.004214262
 11
5.7464497326
 21
4.704214262
  0
LINE
  5
274
100
AcDbEntity
  8
0
100
AcDbLine
 62
7
  6
CONTINUOUS
 10
5.7515301483
 20
4.704214262
 11
5.7515301483
 21
5.004214262
  0
LINE
  5
275
100
AcDbEntity
  8
0
100
AcDbLine
 62
7
  6
CONTINUOUS
 10
5.7676359984
 20
4.704214262
 11
5.7676359984
 21
5.004214262
  0
LINE
  5
276
100
AcDbEntity
  8
0
100
AcDbLine
 62
7
  6
CONTINUOUS
 10
5.7859063122
 20
5.004214262
 11
5.7859063122
 21
4.704214262
  0
LINE
  5
277
100
AcDbEntity
  8
0
100
AcDbLine
 62
7
  6
CONTINUOUS
 10
5.789957624
 20
4.704214262
 11
5.789957624
 21
5.004214262
  0
LINE
  5
278
100
AcDbEntity
  8
0
100
AcDbLine
 62
7
  6
CONTINUOUS
 10
5.8075900005
 20
4.704214262
 11
5.8075900005
 21
5.004214262
  0
LINE
  5
279
100
AcDbEntity
  8
0
100
AcDbLine
 62
7
  6
CONTINUOUS
 10
5.826232617
 20
5.004214262
 11
5.826232617
 21
4.704214262
  0
LINE
  5
27A
100
AcDbEntity
  8
0
100
AcDbLine
 62
7
  6
CONTINUOUS
 10
5.8292321684
 20
4.704214262
 11
5.8292321684
 21
5.004214262
  0
LINE
  5
27B
100
AcDbEntity
  8
0
100
AcDbLine
 62
7
  6
CONTINUOUS
 10
5.8499329225
 20
4.704214262
 11
5.8499329225
 21
5.004214262
  0
LINE
  5
27C
100
AcDbEntity
  8
0
100
AcDbLine
 62
7
  6
CONTINUOUS
 10
5.8672031261
 20
5.004214262
 11
5.8672031261
 21
4.704214262
  0
LINE
  5
27D
100
AcDbEntity
  8
0
100
AcDbLine
 62
7
  6
CONTINUOUS
 10
5.8911722758
 20
4.704214262
 11
5.8911722758
 21
5.004214262
  0
LINE
  5
27E
100
AcDbEntity
  8
0
100
AcDbLine
 62
7
  6
CONTINUOUS
 10
6.3094745395
 20
7.3791909759
 11
6.3099287143
 21
7.3818298573
  0
LINE
  5
27F
100
AcDbEntity
  8
0
100
AcDbLine
 62
7
  6
CONTINUOUS
 10
5.3914253026
 20
4.597214262
 11
6.4914253026
 21
4.597214262
  0
LINE
  5
280
100
AcDbEntity
  8
0
100
AcDbLine
 62
7
  6
CONTINUOUS
 10
5.9085887156
 20
5.004214262
 11
5.9085887156
 21
4.704214262
  0
LINE
  5
281
100
AcDbEntity
  8
0
100
AcDbLine
 62
7
  6
CONTINUOUS
 10
5.9326926645
 20
4.704214262
 11
5.9326926645
 21
5.004214262
  0
LINE
  5
282
100
AcDbEntity
  8
0
100
AcDbLine
 62
7
  6
CONTINUOUS
 10
5.9501579407
 20
5.004214262
 11
5.9501579407
 21
4.704214262
  0
LINE
  5
283
100
AcDbEntity
  8
0
100
AcDbLine
 62
7
  6
CONTINUOUS
 10
5.9742618896
 20
4.704214262
 11
5.9742618896
 21
5.004214262
  0
LINE
  5
284
100
AcDbEntity
  8
0
100
AcDbLine
 62
7
  6
CONTINUOUS
 10
5.9916783294
 20
5.004214262
 11
5.9916783294
 21
4.704214262
  0
LINE
  5
285
100
AcDbEntity
  8
0
100
AcDbLine
 62
7
  6
CONTINUOUS
 10
6.0156474791
 20
4.704214262
 11
6.0156474791
 21
5.004214262
  0
LINE
  5
286
100
AcDbEntity
  8
0
100
AcDbLine
 62
7
  6
CONTINUOUS
 10
6.0329176827
 20
5.004214262
 11
6.0329176827
 21
4.704214262
  0
LINE
  5
287
100
AcDbEntity
  8
0
100
AcDbLine
 62
7
  6
CONTINUOUS
 10
6.0536184368
 20
5.004214262
 11
6.0536184368
 21
4.704214262
  0
LINE
  5
288
100
AcDbEntity
  8
0
100
AcDbLine
 62
7
  6
CONTINUOUS
 10
6.0566179882
 20
4.704214262
 11
6.0566179882
 21
5.004214262
  0
LINE
  5
289
100
AcDbEntity
  8
0
100
AcDbLine
 62
7
  6
CONTINUOUS
 10
6.0752606047
 20
5.004214262
 11
6.0752606047
 21
4.704214262
  0
LINE
  5
28A
100
AcDbEntity
  8
0
100
AcDbLine
 62
7
  6
CONTINUOUS
 10
6.0928929812
 20
5.004214262
 11
6.0928929812
 21
4.704214262
  0
LINE
  5
28B
100
AcDbEntity
  8
0
100
AcDbLine
 62
7
  6
CONTINUOUS
 10
6.096944293
 20
4.704214262
 11
6.096944293
 21
5.004214262
  0
LINE
  5
28C
100
AcDbEntity
  8
0
100
AcDbLine
 62
7
  6
CONTINUOUS
 10
6.1152146068
 20
5.004214262
 11
6.1152146068
 21
4.704214262
  0
LINE
  5
28D
100
AcDbEntity
  8
0
100
AcDbLine
 62
7
  6
CONTINUOUS
 10
5.9501579407
 20
4.704214262
 11
5.9326926645
 21
4.704214262
  0
LINE
  5
28E
100
AcDbEntity
  8
0
100
AcDbLine
 62
7
  6
CONTINUOUS
 10
5.3877009729
 20
4.704214262
 11
5.5244473064
 21
4.704214262
  0
LINE
  5
28F
100
AcDbEntity
  8
0
100
AcDbLine
 62
7
  6
CONTINUOUS
 10
5.526848679
 20
4.704214262
 11
5.5514304918
 21
4.704214262
  0
LINE
  5
290
100
AcDbEntity
  8
0
100
AcDbLine
 62
7
  6
CONTINUOUS
 10
5.5556946094
 20
4.704214262
 11
5.5805946864
 21
4.704214262
  0
LINE
  5
291
100
AcDbEntity
  8
0
100
AcDbLine
 62
7
  6
CONTINUOUS
 10
5.5866977024
 20
4.704214262
 11
5.6117767922
 21
4.704214262
  0
LINE
  5
292
100
AcDbEntity
  8
0
100
AcDbLine
 62
7
  6
CONTINUOUS
 10
5.619684576
 20
4.704214262
 11
5.6448024261
 21
4.704214262
  0
LINE
  5
293
100
AcDbEntity
  8
0
100
AcDbLine
 62
7
  6
CONTINUOUS
 10
5.6544707543
 20
4.704214262
 11
5.6794868955
 21
4.704214262
  0
LINE
  5
294
100
AcDbEntity
  8
0
100
AcDbLine
 62
7
  6
CONTINUOUS
 10
5.6908616988
 20
4.704214262
 11
5.7156362308
 21
4.704214262
  0
LINE
  5
295
100
AcDbEntity
  8
0
100
AcDbLine
 62
7
  6
CONTINUOUS
 10
5.7286538966
 20
4.704214262
 11
5.7515301483
 21
4.704214262
  0
LINE
  5
296
100
AcDbEntity
  8
0
100
AcDbLine
 62
7
  6
CONTINUOUS
 10
5.7676359984
 20
4.704214262
 11
5.789957624
 21
4.704214262
  0
LINE
  5
297
100
AcDbEntity
  8
0
100
AcDbLine
 62
7
  6
CONTINUOUS
 10
5.8075900005
 20
4.704214262
 11
5.8292321684
 21
4.704214262
  0
LINE
  5
298
100
AcDbEntity
  8
0
100
AcDbLine
 62
7
  6
CONTINUOUS
 10
5.8499329225
 20
4.704214262
 11
5.8691341424
 21
4.704214262
  0
LINE
  5
299
100
AcDbEntity
  8
0
100
AcDbLine
 62
7
  6
CONTINUOUS
 10
5.8911722758
 20
4.704214262
 11
5.9085887156
 21
4.704214262
  0
LINE
  5
29A
100
AcDbEntity
  8
0
100
AcDbLine
 62
7
  6
CONTINUOUS
 10
5.9742618896
 20
4.704214262
 11
5.9916783294
 21
4.704214262
  0
LINE
  5
29B
100
AcDbEntity
  8
0
100
AcDbLine
 62
7
  6
CONTINUOUS
 10
6.0137164628
 20
4.704214262
 11
6.0329176827
 21
4.704214262
  0
LINE
  5
29C
100
AcDbEntity
  8
0
100
AcDbLine
 62
7
  6
CONTINUOUS
 10
6.0536184368
 20
4.704214262
 11
6.0752606047
 21
4.704214262
  0
LINE
  5
29D
100
AcDbEntity
  8
0
100
AcDbLine
 62
7
  6
CONTINUOUS
 10
6.0928929812
 20
4.704214262
 11
6.1152146068
 21
4.704214262
  0
LINE
  5
29E
100
AcDbEntity
  8
0
100
AcDbLine
 62
7
  6
CONTINUOUS
 10
6.1313204569
 20
4.704214262
 11
6.1541967086
 21
4.704214262
  0
LINE
  5
29F
100
AcDbEntity
  8
0
100
AcDbLine
 62
7
  6
CONTINUOUS
 10
6.1672143744
 20
4.704214262
 11
6.1919889064
 21
4.704214262
  0
LINE
  5
2A0
100
AcDbEntity
  8
0
100
AcDbLine
 62
7
  6
CONTINUOUS
 10
6.2033637097
 20
4.704214262
 11
6.2283798509
 21
4.704214262
  0
LINE
  5
2A1
100
AcDbEntity
  8
0
100
AcDbLine
 62
7
  6
CONTINUOUS
 10
6.2380481791
 20
4.704214262
 11
6.2631660292
 21
4.704214262
  0
LINE
  5
2A2
100
AcDbEntity
  8
0
100
AcDbLine
 62
7
  6
CONTINUOUS
 10
6.271073813
 20
4.704214262
 11
6.2961529028
 21
4.704214262
  0
LINE
  5
2A3
100
AcDbEntity
  8
0
100
AcDbLine
 62
7
  6
CONTINUOUS
 10
6.3022559188
 20
4.704214262
 11
6.3271559958
 21
4.704214262
  0
LINE
  5
2A4
100
AcDbEntity
  8
0
100
AcDbLine
 62
7
  6
CONTINUOUS
 10
6.3314201134
 20
4.704214262
 11
6.3560019262
 21
4.704214262
  0
LINE
  5
2A5
100
AcDbEntity
  8
0
100
AcDbLine
 62
7
  6
CONTINUOUS
 10
6.3584032988
 20
4.704214262
 11
6.4960805494
 21
4.704214262
  0
LINE
  5
2A6
100
AcDbEntity
  8
0
100
AcDbLine
 62
7
  6
CONTINUOUS
 10
5.5729217282
 20
7.3818297381
 11
5.5733765072
 21
7.3791913231
  0
LINE
  5
2A7
100
AcDbEntity
  8
0
100
AcDbLine
 62
7
  6
CONTINUOUS
 10
6.1313204569
 20
5.004214262
 11
6.1313204569
 21
4.704214262
  0
LINE
  5
2A8
100
AcDbEntity
  8
0
100
AcDbLine
 62
7
  6
CONTINUOUS
 10
6.1364008726
 20
4.704214262
 11
6.1364008726
 21
5.004214262
  0
LINE
  5
2A9
100
AcDbEntity
  8
0
100
AcDbLine
 62
7
  6
CONTINUOUS
 10
6.1414253026
 20
5.2026427537
 11
6.1414253026
 21
6.4304112375
  0
LINE
  5
2AA
100
AcDbEntity
  8
0
100
AcDbLine
 62
7
  6
CONTINUOUS
 10
6.1541967086
 20
5.004214262
 11
6.1541967086
 21
4.704214262
  0
LINE
  5
2AB
100
AcDbEntity
  8
0
100
AcDbLine
 62
7
  6
CONTINUOUS
 10
6.1672143744
 20
5.004214262
 11
6.1672143744
 21
4.704214262
  0
LINE
  5
2AC
100
AcDbEntity
  8
0
100
AcDbLine
 62
7
  6
CONTINUOUS
 10
6.1732560708
 20
4.704214262
 11
6.1732560708
 21
5.004214262
  0
LINE
  5
2AD
100
AcDbEntity
  8
0
100
AcDbLine
 62
7
  6
CONTINUOUS
 10
6.1919889064
 20
5.004214262
 11
6.1919889064
 21
4.704214262
  0
LINE
  5
2AE
100
AcDbEntity
  8
0
100
AcDbLine
 62
7
  6
CONTINUOUS
 10
6.2033637097
 20
5.004214262
 11
6.2033637097
 21
4.704214262
  0
LINE
  5
2AF
100
AcDbEntity
  8
0
100
AcDbLine
 62
7
  6
CONTINUOUS
 10
6.2103735555
 20
4.704214262
 11
6.2103735555
 21
5.004214262
  0
LINE
  5
2B0
100
AcDbEntity
  8
0
100
AcDbLine
 62
7
  6
CONTINUOUS
 10
6.2283798509
 20
5.004214262
 11
6.2283798509
 21
4.704214262
  0
LINE
  5
2B1
100
AcDbEntity
  8
0
100
AcDbLine
 62
7
  6
CONTINUOUS
 10
6.2380481791
 20
5.004214262
 11
6.2380481791
 21
4.704214262
  0
LINE
  5
2B2
100
AcDbEntity
  8
0
100
AcDbLine
 62
7
  6
CONTINUOUS
 10
6.2459869726
 20
4.704214262
 11
6.2459869726
 21
5.004214262
  0
LINE
  5
2B3
100
AcDbEntity
  8
0
100
AcDbLine
 62
7
  6
CONTINUOUS
 10
6.2631660292
 20
5.004214262
 11
6.2631660292
 21
4.704214262
  0
LINE
  5
2B4
100
AcDbEntity
  8
0
100
AcDbLine
 62
7
  6
CONTINUOUS
 10
6.271073813
 20
5.004214262
 11
6.271073813
 21
4.704214262
  0
LINE
  5
2B5
100
AcDbEntity
  8
0
100
AcDbLine
 62
7
  6
CONTINUOUS
 10
6.2776753026
 20
6.9351109876
 11
6.2776753026
 21
7.3659459951
  0
LINE
  5
2B6
100
AcDbEntity
  8
0
100
AcDbLine
 62
7
  6
CONTINUOUS
 10
6.2798971572
 20
4.704214262
 11
6.2798971572
 21
5.004214262
  0
LINE
  5
2B7
100
AcDbEntity
  8
0
100
AcDbLine
 62
7
  6
CONTINUOUS
 10
6.2961529028
 20
5.004214262
 11
6.2961529028
 21
4.704214262
  0
LINE
  5
2B8
100
AcDbEntity
  8
0
100
AcDbLine
 62
9
  6
CONTINUOUS
 10
6.2976753026
 20
7.3737340527
 11
6.2976753026
 21
7.3003020585
  0
LINE
  5
2B9
100
AcDbEntity
  8
0
100
AcDbLine
 62
7
  6
CONTINUOUS
 10
6.3022559188
 20
5.004214262
 11
6.3022559188
 21
4.704214262
  0
LINE
  5
2BA
100
AcDbEntity
  8
0
100
AcDbLine
 62
7
  6
CONTINUOUS
 10
6.31191447
 20
4.704214262
 11
6.31191447
 21
5.004214262
  0
LINE
  5
2BB
100
AcDbEntity
  8
0
100
AcDbLine
 62
7
  6
CONTINUOUS
 10
6.3271559958
 20
5.004214262
 11
6.3271559958
 21
4.704214262
  0
LINE
  5
2BC
100
AcDbEntity
  8
0
100
AcDbLine
 62
7
  6
CONTINUOUS
 10
6.3314201134
 20
5.004214262
 11
6.3314201134
 21
4.704214262
  0
LINE
  5
2BD
100
AcDbEntity
  8
0
100
AcDbLine
 62
7
  6
CONTINUOUS
 10
5.3877009729
 20
5.004214262
 11
5.5244473064
 21
5.004214262
  0
LINE
  5
2BE
100
AcDbEntity
  8
0
100
AcDbLine
 62
7
  6
CONTINUOUS
 10
5.526848679
 20
5.004214262
 11
5.5514304918
 21
5.004214262
  0
LINE
  5
2BF
100
AcDbEntity
  8
0
100
AcDbLine
 62
7
  6
CONTINUOUS
 10
5.5556946094
 20
5.004214262
 11
5.5805946864
 21
5.004214262
  0
LINE
  5
2C0
100
AcDbEntity
  8
0
100
AcDbLine
 62
7
  6
CONTINUOUS
 10
5.5866977024
 20
5.004214262
 11
5.6117767922
 21
5.004214262
  0
LINE
  5
2C1
100
AcDbEntity
  8
0
100
AcDbLine
 62
7
  6
CONTINUOUS
 10
5.619684576
 20
5.004214262
 11
5.6448024261
 21
5.004214262
  0
LINE
  5
2C2
100
AcDbEntity
  8
0
100
AcDbLine
 62
7
  6
CONTINUOUS
 10
5.6544707543
 20
5.004214262
 11
5.6794868955
 21
5.004214262
  0
LINE
  5
2C3
100
AcDbEntity
  8
0
100
AcDbLine
 62
7
  6
CONTINUOUS
 10
5.6908616988
 20
5.004214262
 11
5.7156362308
 21
5.004214262
  0
LINE
  5
2C4
100
AcDbEntity
  8
0
100
AcDbLine
 62
7
  6
CONTINUOUS
 10
5.7286538966
 20
5.004214262
 11
5.7515301483
 21
5.004214262
  0
LINE
  5
2C5
100
AcDbEntity
  8
0
100
AcDbLine
 62
7
  6
CONTINUOUS
 10
5.7676359984
 20
5.004214262
 11
5.789957624
 21
5.004214262
  0
LINE
  5
2C6
100
AcDbEntity
  8
0
100
AcDbLine
 62
7
  6
CONTINUOUS
 10
5.8075900005
 20
5.004214262
 11
5.8292321684
 21
5.004214262
  0
LINE
  5
2C7
100
AcDbEntity
  8
0
100
AcDbLine
 62
7
  6
CONTINUOUS
 10
5.8499329225
 20
5.004214262
 11
5.8691341424
 21
5.004214262
  0
LINE
  5
2C8
100
AcDbEntity
  8
0
100
AcDbLine
 62
7
  6
CONTINUOUS
 10
5.8911722758
 20
5.004214262
 11
5.9085887156
 21
5.004214262
  0
LINE
  5
2C9
100
AcDbEntity
  8
0
100
AcDbLine
 62
7
  6
CONTINUOUS
 10
5.9326926645
 20
5.004214262
 11
5.9501579407
 21
5.004214262
  0
LINE
  5
2CA
100
AcDbEntity
  8
0
100
AcDbLine
 62
7
  6
CONTINUOUS
 10
5.9734102074
 20
5.004214262
 11
5.9916783294
 21
5.004214262
  0
LINE
  5
2CB
100
AcDbEntity
  8
0
100
AcDbLine
 62
7
  6
CONTINUOUS
 10
6.0137164628
 20
5.004214262
 11
6.0329176827
 21
5.004214262
  0
LINE
  5
2CC
100
AcDbEntity
  8
0
100
AcDbLine
 62
7
  6
CONTINUOUS
 10
6.0536184368
 20
5.004214262
 11
6.0752606047
 21
5.004214262
  0
LINE
  5
2CD
100
AcDbEntity
  8
0
100
AcDbLine
 62
7
  6
CONTINUOUS
 10
6.0928929812
 20
5.004214262
 11
6.1152146068
 21
5.004214262
  0
LINE
  5
2CE
100
AcDbEntity
  8
0
100
AcDbLine
 62
7
  6
CONTINUOUS
 10
6.1313204569
 20
5.004214262
 11
6.1541967086
 21
5.004214262
  0
LINE
  5
2CF
100
AcDbEntity
  8
0
100
AcDbLine
 62
7
  6
CONTINUOUS
 10
6.1672143744
 20
5.004214262
 11
6.1919889064
 21
5.004214262
  0
LINE
  5
2D0
100
AcDbEntity
  8
0
100
AcDbLine
 62
7
  6
CONTINUOUS
 10
6.2033637097
 20
5.004214262
 11
6.2283798509
 21
5.004214262
  0
LINE
  5
2D1
100
AcDbEntity
  8
0
100
AcDbLine
 62
7
  6
CONTINUOUS
 10
6.2380481791
 20
5.004214262
 11
6.2631660292
 21
5.004214262
  0
LINE
  5
2D2
100
AcDbEntity
  8
0
100
AcDbLine
 62
7
  6
CONTINUOUS
 10
6.271073813
 20
5.004214262
 11
6.2961529028
 21
5.004214262
  0
LINE
  5
2D3
100
AcDbEntity
  8
0
100
AcDbLine
 62
7
  6
CONTINUOUS
 10
6.3022559188
 20
5.004214262
 11
6.3271559958
 21
5.004214262
  0
LINE
  5
2D4
100
AcDbEntity
  8
0
100
AcDbLine
 62
7
  6
CONTINUOUS
 10
6.3314201134
 20
5.004214262
 11
6.3560019262
 21
5.004214262
  0
LINE
  5
2D5
100
AcDbEntity
  8
0
100
AcDbLine
 62
7
  6
CONTINUOUS
 10
6.3584032988
 20
5.004214262
 11
6.4960805494
 21
5.004214262
  0
LINE
  5
2D6
100
AcDbEntity
  8
0
100
AcDbLine
 62
9
  6
CONTINUOUS
 10
6.4829253026
 20
5.071214262
 11
5.3999253026
 21
5.071214262
  0
LINE
  5
2D7
100
AcDbEntity
  8
0
100
AcDbLine
 62
7
  6
CONTINUOUS
 10
5.4399253026
 20
5.111214262
 11
6.4429253026
 21
5.111214262
  0
LINE
  5
2D8
100
AcDbEntity
  8
0
100
AcDbLine
 62
7
  6
CONTINUOUS
 10
6.341859857
 20
4.704214262
 11
6.341859857
 21
5.004214262
  0
LINE
  5
2D9
100
AcDbEntity
  8
0
100
AcDbLine
 62
7
  6
CONTINUOUS
 10
6.3560019262
 20
5.004214262
 11
6.3560019262
 21
4.704214262
  0
LINE
  5
2DA
100
AcDbEntity
  8
0
100
AcDbLine
 62
7
  6
CONTINUOUS
 10
6.3584032988
 20
5.004214262
 11
6.3584032988
 21
4.704214262
  0
LINE
  5
2DB
100
AcDbEntity
  8
0
100
AcDbLine
 62
7
  6
CONTINUOUS
 10
6.3695658516
 20
4.704214262
 11
6.3695658516
 21
5.004214262
  0
LINE
  5
2DC
100
AcDbEntity
  8
0
100
AcDbLine
 62
7
  6
CONTINUOUS
 10
6.3815146978
 20
5.004214262
 11
6.3815146978
 21
4.704214262
  0
LINE
  5
2DD
100
AcDbEntity
  8
0
100
AcDbLine
 62
7
  6
CONTINUOUS
 10
6.3939128363
 20
4.704214262
 11
6.3939128363
 21
5.004214262
  0
LINE
  5
2DE
100
AcDbEntity
  8
0
100
AcDbLine
 62
7
  6
CONTINUOUS
 10
6.4056766659
 20
5.004214262
 11
6.4056766659
 21
4.704214262
  0
LINE
  5
2DF
100
AcDbEntity
  8
0
100
AcDbLine
 62
7
  6
CONTINUOUS
 10
6.4104253026
 20
4.092214262
 11
6.4104253026
 21
1.905214262
  0
LINE
  5
2E0
100
AcDbEntity
  8
0
100
AcDbLine
 62
7
  6
CONTINUOUS
 10
6.4176532808
 20
4.704214262
 11
6.4176532808
 21
5.004214262
  0
LINE
  5
2E1
100
AcDbEntity
  8
0
100
AcDbLine
 62
7
  6
CONTINUOUS
 10
6.427242352
 20
5.004214262
 11
6.427242352
 21
4.704214262
  0
LINE
  5
2E2
100
AcDbEntity
  8
0
100
AcDbLine
 62
7
  6
CONTINUOUS
 10
6.4385132528
 20
4.704214262
 11
6.4385132528
 21
5.004214262
  0
LINE
  5
2E3
100
AcDbEntity
  8
0
100
AcDbLine
 62
7
  6
CONTINUOUS
 10
6.4460911522
 20
5.004214262
 11
6.4460911522
 21
4.704214262
  0
LINE
  5
2E4
100
AcDbEntity
  8
0
100
AcDbLine
 62
7
  6
CONTINUOUS
 10
6.4557368743
 20
4.704214262
 11
6.4557368743
 21
5.004214262
  0
LINE
  5
2E5
100
AcDbEntity
  8
0
100
AcDbLine
 62
7
  6
CONTINUOUS
 10
6.4621176562
 20
5.004214262
 11
6.4621176562
 21
4.704214262
  0
LINE
  5
2E6
100
AcDbEntity
  8
0
100
AcDbLine
 62
7
  6
CONTINUOUS
 10
6.4700842568
 20
4.704214262
 11
6.4700842568
 21
5.004214262
  0
LINE
  5
2E7
100
AcDbEntity
  8
0
100
AcDbLine
 62
7
  6
CONTINUOUS
 10
6.4752322374
 20
5.004214262
 11
6.4752322374
 21
4.704214262
  0
LINE
  5
2E8
100
AcDbEntity
  8
0
100
AcDbLine
 62
7
  6
CONTINUOUS
 10
6.481475164
 20
4.704214262
 11
6.481475164
 21
5.004214262
  0
LINE
  5
2E9
100
AcDbEntity
  8
0
100
AcDbLine
 62
7
  6
CONTINUOUS
 10
6.4829253026
 20
5.071214262
 11
6.4829253026
 21
5.004214262
  0
LINE
  5
2EA
100
AcDbEntity
  8
0
100
AcDbLine
 62
7
  6
CONTINUOUS
 10
6.4829253026
 20
4.704214262
 11
6.4829253026
 21
4.597214262
  0
LINE
  5
2EB
100
AcDbEntity
  8
0
100
AcDbLine
 62
7
  6
CONTINUOUS
 10
6.4853615536
 20
5.004214262
 11
6.4853615536
 21
4.704214262
  0
LINE
  5
2EC
100
AcDbEntity
  8
0
100
AcDbLine
 62
7
  6
CONTINUOUS
 10
6.4898458934
 20
4.704214262
 11
6.4898458934
 21
5.004214262
  0
LINE
  5
2ED
100
AcDbEntity
  8
0
100
AcDbLine
 62
7
  6
CONTINUOUS
 10
6.4914253026
 20
4.597214262
 11
6.4914253026
 21
4.305214262
  0
LINE
  5
2EE
100
AcDbEntity
  8
0
100
AcDbLine
 62
7
  6
CONTINUOUS
 10
6.4924489577
 20
5.004214262
 11
6.4924489577
 21
4.704214262
  0
LINE
  5
2EF
100
AcDbEntity
  8
0
100
AcDbLine
 62
7
  6
CONTINUOUS
 10
6.4951496323
 20
4.704214262
 11
6.4951496323
 21
5.004214262
  0
LINE
  5
2F0
100
AcDbEntity
  8
0
100
AcDbLine
 62
7
  6
CONTINUOUS
 10
6.5814253026
 20
4.242214262
 11
6.5814253026
 21
2.612214262
  0
LINE
  5
2F1
100
AcDbEntity
  8
0
100
AcDbLine
 62
7
  6
CONTINUOUS
 10
6.6824253026
 20
1.905214262
 11
6.6824253026
 21
1.843214262
  0
LINE
  5
2F2
100
AcDbEntity
  8
0
100
AcDbLine
 62
9
  6
CONTINUOUS
 10
6.2814800742
 20
6.9256150957
 11
6.2825172981
 21
6.9220648552
  0
ARC
  5
2F3
100
AcDbEntity
  8
0
100
AcDbCircle
 62
7
  6
CONTINUOUS
 10
4.4134763719
 20
2.740214255
 40
0.188
100
AcDbArc
 50
188.2572000152
 51
216.9777486433
  0
ARC
  5
2F4
100
AcDbEntity
  8
0
100
AcDbCircle
 62
7
  6
CONTINUOUS
 10
4.9485614137
 20
1.468214262
 40
0.1871361111
100
AcDbArc
 50
92.1854050712
 51
180.0
  0
ARC
  5
2F5
100
AcDbEntity
  8
0
100
AcDbCircle
 62
7
  6
CONTINUOUS
 10
5.1284226288
 20
1.656214262
 40
0.187
100
AcDbArc
 50
90.0000000002
 51
180.3063960024
  0
ARC
  5
2F6
100
AcDbEntity
  8
0
100
AcDbCircle
 62
7
  6
CONTINUOUS
 10
4.4134763719
 20
4.1142142689
 40
0.188
100
AcDbArc
 50
143.0222513567
 51
171.7427999848
  0
ARC
  5
2F7
100
AcDbEntity
  8
0
100
AcDbCircle
 62
7
  6
CONTINUOUS
 10
5.3284252645
 20
4.305214371
 40
0.0630002333
100
AcDbArc
 50
270.0000346509
 51
359.9999008353
  0
ARC
  5
2F8
100
AcDbEntity
  8
0
100
AcDbCircle
 62
7
  6
CONTINUOUS
 10
5.5119878026
 20
4.123714262
 40
0.0315
100
AcDbArc
 50
94.783234017
 51
262.8524733252
  0
ARC
  5
2F9
100
AcDbEntity
  8
0
100
AcDbCircle
 62
7
  6
CONTINUOUS
 10
6.7544279764
 20
1.656214262
 40
0.187
100
AcDbArc
 50
359.6936039976
 51
89.9999999998
  0
ARC
  5
2FA
100
AcDbEntity
  8
0
100
AcDbCircle
 62
7
  6
CONTINUOUS
 10
6.1705423766
 20
3.6703392617
 40
0.5000000001
100
AcDbArc
 50
85.2167659302
 51
89.9999999472
  0
ARC
  5
2FB
100
AcDbEntity
  8
0
100
AcDbCircle
 62
7
  6
CONTINUOUS
 10
5.7123082286
 20
3.6703392617
 40
0.5000000001
100
AcDbArc
 50
90.0000000528
 51
94.7832340698
  0
ARC
  5
2FC
100
AcDbEntity
  8
0
100
AcDbCircle
 62
7
  6
CONTINUOUS
 10
6.5544253318
 20
4.3052143642
 40
0.0630002324
100
AcDbArc
 50
180.0000930162
 51
269.9999734704
  0
ARC
  5
2FD
100
AcDbEntity
  8
0
100
AcDbCircle
 62
7
  6
CONTINUOUS
 10
6.3708628026
 20
4.123714262
 40
0.0315
100
AcDbArc
 50
270.0
 51
85.216765983
  0
ARC
  5
2FE
100
AcDbEntity
  8
0
100
AcDbCircle
 62
9
  6
CONTINUOUS
 10
6.4386686747
 20
5.8955998133
 40
1.9906278597
100
AcDbArc
 50
240.4609795044
 51
241.4820982755
  0
ARC
  5
2FF
100
AcDbEntity
  8
0
100
AcDbCircle
 62
7
  6
CONTINUOUS
 10
5.9414296396
 20
6.8770230286
 40
0.6249931541
100
AcDbArc
 50
290.1447568207
 51
53.9253427841
  0
ARC
  5
300
100
AcDbEntity
  8
0
100
AcDbCircle
 62
7
  6
CONTINUOUS
 10
5.9414202698
 20
6.8770213859
 40
0.6249922525
100
AcDbArc
 50
126.0745141391
 51
249.8670009016
  0
ARC
  5
301
100
AcDbEntity
  8
0
100
AcDbCircle
 62
7
  6
CONTINUOUS
 10
5.9396724722
 20
6.8720067471
 40
0.6196865807
100
AcDbArc
 50
249.8591380914
 51
250.2897330557
  0
ARC
  5
302
100
AcDbEntity
  8
0
100
AcDbCircle
 62
7
  6
CONTINUOUS
 10
5.943212407
 20
6.8719084656
 40
0.6195824956
100
AcDbArc
 50
289.718868172
 51
290.1528680635
  0
ARC
  5
303
100
AcDbEntity
  8
0
100
AcDbCircle
 62
7
  6
CONTINUOUS
 10
5.9393414374
 20
6.8710832302
 40
0.6187055264
100
AcDbArc
 50
250.2897488477
 51
250.6550996368
  0
ARC
  5
304
100
AcDbEntity
  8
0
100
AcDbCircle
 62
7
  6
CONTINUOUS
 10
5.9435486419
 20
6.8709707889
 40
0.6185863574
100
AcDbArc
 50
289.3388935563
 51
289.7188551275
  0
ARC
  5
305
100
AcDbEntity
  8
0
100
AcDbCircle
 62
7
  6
CONTINUOUS
 10
5.9503312542
 20
6.8516703251
 40
0.5981297536
100
AcDbArc
 50
288.6339636553
 51
289.3382999226
  0
ARC
  5
306
100
AcDbEntity
  8
0
100
AcDbCircle
 62
7
  6
CONTINUOUS
 10
5.950767294
 20
6.8504235848
 40
0.5968089621
100
AcDbArc
 50
289.3384356468
 51
289.6652049386
  0
ARC
  5
307
100
AcDbEntity
  8
0
100
AcDbCircle
 62
7
  6
CONTINUOUS
 10
5.9318714232
 20
6.8500268011
 40
0.5963639923
100
AcDbArc
 50
250.6621415933
 51
251.3408574877
  0
ARC
  5
308
100
AcDbEntity
  8
0
100
AcDbCircle
 62
7
  6
CONTINUOUS
 10
5.9511113761
 20
6.8494617008
 40
0.5957873882
100
AcDbArc
 50
289.6651744528
 51
290.0937244232
  0
ARC
  5
309
100
AcDbEntity
  8
0
100
AcDbCircle
 62
7
  6
CONTINUOUS
 10
5.9313968739
 20
6.8486682804
 40
0.5949249749
100
AcDbArc
 50
250.2890539354
 51
250.6619411378
  0
ARC
  5
30A
100
AcDbEntity
  8
0
100
AcDbCircle
 62
7
  6
CONTINUOUS
 10
5.9310636824
 20
6.8477389887
 40
0.5939377568
100
AcDbArc
 50
249.8384748841
 51
250.2890772319
  0
ARC
  5
30B
100
AcDbEntity
  8
0
100
AcDbCircle
 62
9
  6
CONTINUOUS
 10
5.9704849414
 20
6.9619386382
 40
0.5259553174
100
AcDbArc
 50
51.0678881998
 51
51.5312459988
  0
ARC
  5
30C
100
AcDbEntity
  8
0
100
AcDbCircle
 62
9
  6
CONTINUOUS
 10
5.912239986
 20
6.9620697534
 40
0.5257740278
100
AcDbArc
 50
128.4669585744
 51
128.9304542841
  0
ARC
  5
30D
100
AcDbEntity
  8
0
100
AcDbCircle
 62
9
  6
CONTINUOUS
 10
5.9780182078
 20
6.9711220953
 40
0.5140776978
100
AcDbArc
 50
46.2527009031
 51
51.077828095
  0
ARC
  5
30E
100
AcDbEntity
  8
0
100
AcDbCircle
 62
9
  6
CONTINUOUS
 10
5.9017160215
 20
6.9746520448
 40
0.5093732107
100
AcDbArc
 50
128.8989285167
 51
133.7684826091
  0
ARC
  5
30F
100
AcDbEntity
  8
0
100
AcDbCircle
 62
7
  6
CONTINUOUS
 10
5.9422572748
 20
4.9231429221
 40
0.3915957499
100
AcDbArc
 50
121.1213645544
 51
125.1477842526
  0
ARC
  5
310
100
AcDbEntity
  8
0
100
AcDbCircle
 62
7
  6
CONTINUOUS
 10
5.9414614829
 20
4.9245531612
 40
0.3899460704
100
AcDbArc
 50
28.7631003572
 51
58.9617068857
  0
ARC
  5
311
100
AcDbEntity
  8
0
100
AcDbCircle
 62
7
  6
CONTINUOUS
 10
5.9412113091
 20
4.9247274339
 40
0.3896983196
100
AcDbArc
 50
125.1561542766
 51
151.1695213442
  0
ARC
  5
312
100
AcDbEntity
  8
0
100
AcDbCircle
 62
9
  6
CONTINUOUS
 10
6.0078319782
 20
6.6923519533
 40
0.3595761245
100
AcDbArc
 50
39.8680524695
 51
40.4430462344
  0
ARC
  5
313
100
AcDbEntity
  8
0
100
AcDbCircle
 62
9
  6
CONTINUOUS
 10
5.8742507055
 20
6.6930066128
 40
0.3585670247
100
AcDbArc
 50
139.5569673372
 51
140.1333141784
  0
ARC
  5
314
100
AcDbEntity
  8
0
100
AcDbCircle
 62
9
  6
CONTINUOUS
 10
6.0698325438
 20
7.0479795877
 40
0.3357858405
100
AcDbArc
 50
349.6648999894
 51
353.9782699576
  0
ARC
  5
315
100
AcDbEntity
  8
0
100
AcDbCircle
 62
9
  6
CONTINUOUS
 10
5.8129361306
 20
7.0479660983
 40
0.3357028239
100
AcDbArc
 50
186.0204848367
 51
190.3273897219
  0
ARC
  5
316
100
AcDbEntity
  8
0
100
AcDbCircle
 62
7
  6
CONTINUOUS
 10
5.9017511433
 20
5.3952709597
 40
0.2957988508
100
AcDbArc
 50
249.9164500328
 51
250.8462859805
  0
ARC
  5
317
100
AcDbEntity
  8
0
100
AcDbCircle
 62
7
  6
CONTINUOUS
 10
5.9887928587
 20
5.3369640812
 40
0.2216534962
100
AcDbArc
 50
291.4871338589
 51
295.2523161938
  0
ARC
  5
318
100
AcDbEntity
  8
0
100
AcDbCircle
 62
7
  6
CONTINUOUS
 10
5.9992447448
 20
5.3142416942
 40
0.1966438252
100
AcDbArc
 50
295.3223637273
 51
296.9102039557
  0
ARC
  5
319
100
AcDbEntity
  8
0
100
AcDbCircle
 62
7
  6
CONTINUOUS
 10
6.4429253026
 20
5.071214262
 40
0.04
100
AcDbArc
 50
0.0
 51
89.9999999996
  0
ARC
  5
31A
100
AcDbEntity
  8
0
100
AcDbCircle
 62
7
  6
CONTINUOUS
 10
5.4399253026
 20
5.071214262
 40
0.04
100
AcDbArc
 50
90.0000000004
 51
180.0
  0
ARC
  5
31B
100
AcDbEntity
  8
0
100
AcDbCircle
 62
7
  6
CONTINUOUS
 10
5.5851753028
 20
7.3660124285
 40
0.0200000001
100
AcDbArc
 50
0.0000317812
 51
126.0749279363
  0
ARC
  5
31C
100
AcDbEntity
  8
0
100
AcDbCircle
 62
7
  6
CONTINUOUS
 10
6.2976753024
 20
7.3660124253
 40
0.0200000001
100
AcDbArc
 50
53.9250803513
 51
179.9999542987
  0
ARC
  5
31D
100
AcDbEntity
  8
0
100
AcDbCircle
 62
7
  6
CONTINUOUS
 10
6.2976190537
 20
6.9350812749
 40
0.0199368235
100
AcDbArc
 50
180.0376412061
 51
220.8013046783
  0
ARC
  5
31E
100
AcDbEntity
  8
0
100
AcDbCircle
 62
7
  6
CONTINUOUS
 10
5.5852991614
 20
6.9350293113
 40
0.0198519175
100
AcDbArc
 50
319.2339030994
 51
329.3688332925
  0
ARC
  5
31F
100
AcDbEntity
  8
0
100
AcDbCircle
 62
9
  6
CONTINUOUS
 10
5.5918870787
 20
6.9351272686
 40
0.0132882324
100
AcDbArc
 50
345.7517960088
 51
359.9349688627
  0
ARC
  5
320
100
AcDbEntity
  8
0
100
AcDbCircle
 62
7
  6
CONTINUOUS
 10
9.1761831266
 20
3.427214262
 40
5.0000000001
100
AcDbArc
 50
171.7900972579
 51
179.9999999999
  0
ARC
  5
321
100
AcDbEntity
  8
0
100
AcDbCircle
 62
7
  6
CONTINUOUS
 10
6.9342891915
 20
1.468214262
 40
0.1871361111
100
AcDbArc
 50
0.0
 51
87.8145949288
  0
SPLINE
  5
322
100
AcDbEntity
  8
0
100
AcDbSpline
 62
7
  6
CONTINUOUS
 70
0
 71
3
 72
9
 73
5
 74
3
 42
0.0000001
 43
0.0000001
 44
0.0000000001
 12
0.0365890597
 22
0.0719092053
 32
0.0
 13
0.0523390534
 23
0.0614029037
 33
0.0
 40
0.0
 40
0.0
 40
0.0
 40
0.0
 40
0.4959629263
 40
1.0
 40
1.0
 40
1.0
 40
1.0
 10
5.555587404
 20
6.8552094112
 30
0.0
 10
5.5616363431
 20
6.8670975111
 30
0.0
 10
5.5753089594
 20
6.8903406509
 30
0.0
 10
5.5916025358
 20
6.911821699
 30
0.0
 10
5.6003961435
 20
6.9221381456
 30
0.0
 11
5.555587404
 21
6.8552094112
 31
0.0
 11
5.5758432664
 21
6.8897195444
 31
0.0
 11
5.6003961435
 21
6.9221381456
 31
0.0
  0
SPLINE
  5
323
100
AcDbEntity
  8
0
100
AcDbSpline
 62
7
  6
CONTINUOUS
 70
0
 71
3
 72
9
 73
5
 74
3
 42
0.0000001
 43
0.0000001
 44
0.0000000001
 12
0.0523572196
 22
-0.0614242158
 32
0.0
 13
0.0365956066
 23
-0.0719372943
 33
0.0
 40
0.0
 40
0.0
 40
0.0
 40
0.0
 40
0.504037861
 40
1.0
 40
1.0
 40
1.0
 40
1.0
 10
6.2824544616
 20
6.9221381456
 30
0.0
 10
6.2912511353
 20
6.9118181022
 30
0.0
 10
6.3075499499
 20
6.8903292209
 30
0.0
 10
6.3212258734
 20
6.8670771068
 30
0.0
 10
6.3272758852
 20
6.855184382
 30
0.0
 11
6.2824544616
 21
6.9221381456
 31
0.0
 11
6.3070152182
 21
6.889707726
 31
0.0
 11
6.3272758852
 21
6.855184382
 31
0.0
  0
SPLINE
  5
324
100
AcDbEntity
  8
0
100
AcDbSpline
 62
7
  6
CONTINUOUS
 70
0
 71
3
 72
9
 73
5
 74
3
 42
0.0000001
 43
0.0000001
 44
0.0000000001
 12
-0.0000000096
 22
-0.010666164
 32
0.0
 13
-0.0054292669
 23
-0.0091809648
 33
0.0
 40
0.0
 40
0.0
 40
0.0
 40
0.0
 40
0.4977741386
 40
1.0
 40
1.0
 40
1.0
 40
1.0
 10
5.6051753026
 20
6.9351121797
 30
0.0
 10
5.605175301
 20
6.9333423995
 30
0.0
 10
5.6046809303
 20
6.9297745759
 30
0.0
 10
5.6032899477
 20
6.9264515423
 30
0.0
 10
5.6023810416
 20
6.9249145697
 30
0.0
 11
5.6051753026
 21
6.9351121797
 31
0.0
 11
5.6044609694
 21
6.9298511127
 31
0.0
 11
5.6023810416
 21
6.9249145697
 31
0.0
  0
SPLINE
  5
325
100
AcDbEntity
  8
0
100
AcDbSpline
 62
7
  6
CONTINUOUS
 70
0
 71
3
 72
9
 73
5
 74
3
 42
0.0000001
 43
0.0000001
 44
0.0000000001
 12
-0.0079425515
 22
-0.1032003389
 32
0.0
 13
-0.04005483
 23
-0.0954411058
 33
0.0
 40
0.0
 40
0.0
 40
0.0
 40
0.0
 40
0.4964387307
 40
1.0
 40
1.0
 40
1.0
 40
1.0
 10
6.3847013071
 20
7.013218982
 30
0.0
 10
6.383386977
 20
6.9961414336
 30
0.0
 10
6.3778837172
 20
6.9619080994
 30
0.0
 10
6.3670000594
 20
6.9289977321
 30
0.0
 10
6.3602767057
 20
6.912977584
 30
0.0
 11
6.3847013071
 21
7.013218982
 31
0.0
 11
6.3765969077
 21
6.9624779747
 31
0.0
 11
6.3602767057
 21
6.912977584
 31
0.0
  0
SPLINE
  5
326
100
AcDbEntity
  8
0
100
AcDbSpline
 62
7
  6
CONTINUOUS
 70
0
 71
3
 72
9
 73
5
 74
3
 42
0.0000001
 43
0.0000001
 44
0.0000000001
 12
-0.0412713866
 22
-0.0983398699
 32
0.0
 13
-0.0684549381
 23
-0.0817800637
 33
0.0
 40
0.0
 40
0.0
 40
0.0
 40
0.0
 40
0.4944545492
 40
1.0
 40
1.0
 40
1.0
 40
1.0
 10
6.3602767057
 20
6.912977584
 30
0.0
 10
6.3534744307
 20
6.8967693853
 30
0.0
 10
6.3371017408
 20
6.8650362457
 30
0.0
 10
6.3161892981
 20
6.8361136301
 30
0.0
 10
6.304653604
 20
6.8223324504
 30
0.0
 11
6.3602767057
 21
6.912977584
 31
0.0
 11
6.3361734259
 21
6.8660753266
 31
0.0
 11
6.304653604
 21
6.8223324504
 31
0.0
  0
SPLINE
  5
327
100
AcDbEntity
  8
0
100
AcDbSpline
 62
7
  6
CONTINUOUS
 70
0
 71
3
 72
24
 73
20
 74
18
 42
0.0000001
 43
0.0000001
 44
0.0000000001
 12
-0.538966993
 22
-0.6438798469
 32
0.0
 13
-0.5000664069
 23
0.6745370749
 33
0.0
 40
0.0
 40
0.0
 40
0.0
 40
0.0
 40
0.0588843697
 40
0.1191097839
 40
0.1806261139
 40
0.2433169404
 40
0.3070047628
 40
0.3714690102
 40
0.4364427002
 40
0.5016461954
 40
0.5667812159
 40
0.6315578617
 40
0.6957009941
 40
0.7589602998
 40
0.821137722
 40
0.8820772477
 40
0.9120690002
 40
0.9417254093
 40
1.0
 40
1.0
 40
1.0
 40
1.0
 10
6.304653604
 20
6.8223324504
 30
0.0
 10
6.2940746934
 20
6.8096942974
 30
0.0
 10
6.2709878303
 20
6.7855002749
 30
0.0
 10
6.2317961734
 20
6.7533812731
 30
0.0
 10
6.1881791842
 20
6.7255509493
 30
0.0
 10
6.1408319
 20
6.7024111632
 30
0.0
 10
6.0904537352
 20
6.6843400864
 30
0.0
 10
6.0378160962
 20
6.6716079609
 30
0.0
 10
5.9837150668
 20
6.664403693
 30
0.0
 10
5.9289720793
 20
6.6628658774
 30
0.0
 10
5.8744163571
 20
6.6669759943
 30
0.0
 10
5.8208820471
 20
6.6767247898
 30
0.0
 10
5.769170238
 20
6.6918995421
 30
0.0
 10
5.7200807735
 20
6.7123270359
 30
0.0
 10
5.6743413162
 20
6.7376354591
 30
0.0
 10
5.6394097537
 20
6.7626481253
 30
0.0
 10
5.6138451267
 20
6.7847148859
 30
0.0
 10
5.5902112505
 20
6.8077743307
 30
0.0
 10
5.5742192659
 20
6.8265983064
 30
0.0
 10
5.5645055442
 20
6.8397010971
 30
0.0
 11
6.304653604
 21
6.8223324504
 31
0.0
 11
6.2705739009
 21
6.7865092712
 31
0.0
 11
6.2314948186
 21
6.7544129625
 31
0.0
 11
6.1879848487
 21
6.7265734701
 31
0.0
 11
6.1407102914
 21
6.7034190582
 31
0.0
 11
6.0903871559
 21
6.6853240235
 31
0.0
 11
6.0377817081
 21
6.6725698249
 31
0.0
 11
5.9837033083
 21
6.6653571747
 31
0.0
 11
5.9289749605
 21
6.6638092865
 31
0.0
 11
5.8744381501
 21
6.6679362319
 31
0.0
 11
5.8209283008
 21
6.6776915157
 31
0.0
 11
5.7692599811
 21
6.6928990722
 31
0.0
 11
5.7202320675
 21
6.7133381779
 31
0.0
 11
5.6745796882
 21
6.7386693934
 31
0.0
 11
5.6330085591
 21
6.7685055297
 31
0.0
 11
5.6139486928
 21
6.7849655615
 31
0.0
 11
5.596132384
 21
6.802363467
 31
0.0
 11
5.5645055442
 21
6.8397010971
 31
0.0
  0
SPLINE
  5
328
100
AcDbEntity
  8
0
100
AcDbSpline
 62
7
  6
CONTINUOUS
 70
0
 71
3
 72
11
 73
7
 74
5
 42
0.0000001
 43
0.0000001
 44
0.0000000001
 12
-0.1120164928
 22
0.1510984868
 32
0.0
 13
-0.014433307
 23
0.1875370018
 33
0.0
 40
0.0
 40
0.0
 40
0.0
 40
0.0
 40
0.2562249917
 40
0.507683928
 40
0.7553772058
 40
1.0
 40
1.0
 40
1.0
 40
1.0
 10
5.5645055442
 20
6.8397010971
 30
0.0
 10
5.5549384025
 20
6.8526061666
 30
0.0
 10
5.5376207566
 20
6.8794462826
 30
0.0
 10
5.5175542891
 20
6.9225107996
 30
0.0
 10
5.5039841366
 20
6.9672840958
 30
0.0
 10
5.4993262033
 20
6.9979270423
 30
0.0
 10
5.498149298
 20
7.0132189841
 30
0.0
 11
5.5645055442
 21
6.8397010971
 31
0.0
 11
5.5384340257
 21
6.8802339861
 31
0.0
 11
5.5185081982
 21
6.9231291736
 31
0.0
 11
5.5050227325
 21
6.9677237843
 31
0.0
 11
5.498149298
 21
7.0132189841
 31
0.0
  0
SPLINE
  5
329
100
AcDbEntity
  8
0
100
AcDbSpline
 62
7
  6
CONTINUOUS
 70
0
 71
3
 72
14
 73
10
 74
8
 42
0.0000001
 43
0.0000001
 44
0.0000000001
 12
0.0000000316
 22
0.0344801396
 32
0.0
 13
0.0340089407
 23
-0.0056808431
 33
0.0
 40
0.0
 40
0.0
 40
0.0
 40
0.0
 40
0.2479162249
 40
0.3731716633
 40
0.4983234802
 40
0.6234910787
 40
0.7487740695
 40
0.8742773485
 40
1.0
 40
1.0
 40
1.0
 40
1.0
 10
6.2776753026
 20
7.3631379408
 30
0.0
 10
6.2776753052
 20
7.3659873362
 30
0.0
 10
6.2786540962
 20
7.3703441677
 30
0.0
 10
6.2816306953
 20
7.3752749744
 30
0.0
 10
6.2846417967
 20
7.3784188864
 30
0.0
 10
6.2882472549
 20
7.380852428
 30
0.0
 10
6.2923012532
 20
7.3824448258
 30
0.0
 10
6.2966028864
 20
7.3831467249
 30
0.0
 10
6.2995134067
 20
7.3829861067
 30
0.0
 10
6.3009386381
 20
7.3827480365
 30
0.0
 11
6.2776753026
 21
7.3631379408
 31
0.0
 11
6.2795276318
 21
7.3714830209
 31
0.0
 11
6.2817593837
 21
7.3751805245
 31
0.0
 11
6.2847406478
 21
7.3783003746
 31
0.0
 11
6.2883202185
 21
7.3807113436
 31
0.0
 11
6.2923390468
 21
7.3822954758
 31
0.0
 11
6.2966104254
 21
7.3829893502
 31
0.0
 11
6.3009386381
 21
7.3827480365
 31
0.0
  0
SPLINE
  5
32A
100
AcDbEntity
  8
0
100
AcDbSpline
 62
7
  6
CONTINUOUS
 70
0
 71
3
 72
9
 73
5
 74
3
 42
0.0000001
 43
0.0000001
 44
0.0000000001
 12
0.0091390292
 22
-0.0015265807
 32
0.0
 13
0.0075042084
 23
-0.0054349939
 33
0.0
 40
0.0
 40
0.0
 40
0.0
 40
0.0
 40
0.2521509955
 40
1.0
 40
1.0
 40
1.0
 40
1.0
 10
6.3009386381
 20
7.3827480365
 30
0.0
 10
6.3017067765
 20
7.3826197269
 30
0.0
 10
6.3047208086
 20
7.3819352754
 30
0.0
 10
6.3075814905
 20
7.3805627161
 30
0.0
 10
6.3094521621
 20
7.3792078645
 30
0.0
 11
6.3009386381
 21
7.3827480365
 31
0.0
 11
6.3032170089
 21
7.3822308067
 31
0.0
 11
6.3094521621
 21
7.3792078645
 31
0.0
  0
SPLINE
  5
32B
100
AcDbEntity
  8
0
100
AcDbSpline
 62
7
  6
CONTINUOUS
 70
0
 71
3
 72
13
 73
9
 74
7
 42
0.0000001
 43
0.0000001
 44
0.0000000001
 12
0.0266129347
 22
0.0192746713
 32
0.0
 13
0.0171441343
 23
-0.0280328362
 33
0.0
 40
0.0
 40
0.0
 40
0.0
 40
0.0
 40
0.2490562756
 40
0.3748684579
 40
0.500436414
 40
0.6258131925
 40
0.7510032207
 40
1.0
 40
1.0
 40
1.0
 40
1.0
 10
5.5733984431
 20
7.3792078645
 30
0.0
 10
5.5756078159
 20
7.3808080238
 30
0.0
 10
5.5794996595
 20
7.3825314386
 30
0.0
 10
5.5849719473
 20
7.3831620602
 30
0.0
 10
5.5891112094
 20
7.3827694825
 30
0.0
 10
5.5930798055
 20
7.3815551768
 30
0.0
 10
5.5978964152
 20
7.3789024191
 30
0.0
 10
5.6008267239
 20
7.3758201393
 30
0.0
 10
5.6022496686
 20
7.373493444
 30
0.0
 11
5.5733984431
 21
7.3792078645
 31
0.0
 11
5.5808706937
 21
7.3825458298
 31
0.0
 11
5.5849778625
 21
7.3830174089
 31
0.0
 11
5.5890859425
 21
7.3826319087
 31
0.0
 11
5.593024727
 21
7.3814239738
 31
0.0
 11
5.5966268844
 21
7.3794372511
 31
0.0
 11
5.6022496686
 21
7.373493444
 31
0.0
  0
SPLINE
  5
32C
100
AcDbEntity
  8
0
100
AcDbSpline
 62
7
  6
CONTINUOUS
 70
0
 71
3
 72
9
 73
5
 74
3
 42
0.0000001
 43
0.0000001
 44
0.0000000001
 12
0.00566643
 22
-0.0092653325
 32
0.0
 13
0.000000009
 23
-0.0108607006
 33
0.0
 40
0.0
 40
0.0
 40
0.0
 40
0.0
 40
0.5020270275
 40
1.0
 40
1.0
 40
1.0
 40
1.0
 10
5.6022496686
 20
7.373493444
 30
0.0
 10
5.6031979023
 20
7.3719429615
 30
0.0
 10
5.6046564485
 20
7.3685746541
 30
0.0
 10
5.6051753011
 20
7.3649407193
 30
0.0
 10
5.6051753026
 20
7.3631379408
 30
0.0
 11
5.6022496686
 21
7.373493444
 31
0.0
 11
5.6044255295
 21
7.3684940524
 31
0.0
 11
5.6051753026
 21
7.3631379408
 31
0.0
  0
SPLINE
  5
32D
100
AcDbEntity
  8
0
100
AcDbSpline
 62
7
  6
CONTINUOUS
 70
0
 71
3
 72
19
 73
15
 74
13
 42
0.0000001
 43
0.0000001
 44
0.0000000001
 12
-0.1558455296
 22
0.0569935277
 32
0.0
 13
0.0944873867
 23
0.1364119682
 33
0.0
 40
0.0
 40
0.0
 40
0.0
 40
0.0
 40
0.1703327048
 40
0.3243135679
 40
0.4611337088
 40
0.5234253237
 40
0.5819443893
 40
0.6371564875
 40
0.6897238102
 40
0.7404517299
 40
0.7902727129
 40
0.8402088546
 40
0.8912684613
 40
1.0
 40
1.0
 40
1.0
 40
1.0
 10
5.8001767582
 20
5.1174587849
 30
0.0
 10
5.791328228
 20
5.1206947388
 30
0.0
 10
5.7747571877
 20
5.1276756646
 30
0.0
 10
5.7525411369
 20
5.1403428637
 30
0.0
 10
5.7371319076
 20
5.1525210983
 30
0.0
 10
5.7273645914
 20
5.1629303437
 30
0.0
 10
5.7215130353
 20
5.1707408245
 30
0.0
 10
5.7169514911
 20
5.178759574
 30
0.0
 10
5.7137047808
 20
5.1869372052
 30
0.0
 10
5.7117987618
 20
5.1952251327
 30
0.0
 10
5.7112592309
 20
5.203568861
 30
0.0
 10
5.7121053624
 20
5.211906816
 30
0.0
 10
5.7151024286
 20
5.223153612
 30
0.0
 10
5.7193282176
 20
5.2310844809
 30
0.0
 10
5.7227528039
 20
5.2360285753
 30
0.0
 11
5.8001767582
 21
5.1174587849
 31
0.0
 11
5.7741827873
 21
5.1285594351
 31
0.0
 11
5.7520842435
 21
5.1413866722
 31
0.0
 11
5.7344180168
 21
5.15564757
 31
0.0
 11
5.7273715235
 21
5.163210223
 31
0.0
 11
5.721578142
 21
5.1710033965
 31
0.0
 11
5.7170754258
 21
5.178982488
 31
0.0
 11
5.71388205
 21
5.1870999677
 31
0.0
 11
5.7120142981
 21
5.195307935
 31
0.0
 11
5.7114884465
 21
5.2035584894
 31
0.0
 11
5.7123133708
 21
5.2118037304
 31
0.0
 11
5.7144766016
 21
5.2199957583
 31
0.0
 11
5.7227528039
 21
5.2360285753
 31
0.0
  0
SPLINE
  5
32E
100
AcDbEntity
  8
0
100
AcDbSpline
 62
7
  6
CONTINUOUS
 70
0
 71
3
 72
9
 73
5
 74
3
 42
0.0000001
 43
0.0000001
 44
0.0000000001
 12
0.01373989
 22
0.019836356
 32
0.0
 13
0.0181886617
 23
0.0158568024
 33
0.0
 40
0.0
 40
0.0
 40
0.0
 40
0.0
 40
0.236590656
 40
1.0
 40
1.0
 40
1.0
 40
1.0
 10
5.7227528039
 20
5.2360285753
 30
0.0
 10
5.7238363804
 20
5.2375929408
 30
0.0
 10
5.7286589328
 20
5.2440367254
 30
0.0
 10
5.7343559273
 20
5.2497999535
 30
0.0
 10
5.7389843921
 20
5.2538350305
 30
0.0
 11
5.7227528039
 21
5.2360285753
 31
0.0
 11
5.7261672691
 21
5.240603925
 31
0.0
 11
5.7389843921
 21
5.2538350305
 31
0.0
  0
SPLINE
  5
32F
100
AcDbEntity
  8
0
100
AcDbSpline
 62
7
  6
CONTINUOUS
 70
0
 71
3
 72
9
 73
5
 74
3
 42
0.0000001
 43
0.0000001
 44
0.0000000001
 12
0.0615160467
 22
0.0104965484
 32
0.0
 13
0.0580587325
 23
0.0228819823
 33
0.0
 40
0.0
 40
0.0
 40
0.0
 40
0.0
 40
0.5184745476
 40
1.0
 40
1.0
 40
1.0
 40
1.0
 10
6.0098293313
 20
5.1144109611
 30
0.0
 10
6.0204608328
 20
5.1162250255
 30
0.0
 10
6.04082473
 20
5.1206272828
 30
0.0
 10
6.0606639054
 20
5.127042785
 30
0.0
 10
6.0699828245
 20
5.1307155373
 30
0.0
 11
6.0098293313
 21
5.1144109611
 31
0.0
 11
6.041436104
 21
5.1213311344
 31
0.0
 11
6.0699828245
 21
5.1307155373
 31
0.0
  0
SPLINE
  5
330
100
AcDbEntity
  8
0
100
AcDbSpline
 62
7
  6
CONTINUOUS
 70
0
 71
3
 72
15
 73
11
 74
9
 42
0.0000001
 43
0.0000001
 44
0.0000000001
 12
0.0777204462
 22
0.0394702356
 32
0.0
 13
-0.0
 23
0.0871686139
 33
0.0
 40
0.0
 40
0.0
 40
0.0
 40
0.0
 40
0.1578082926
 40
0.3051333817
 40
0.4418618846
 40
0.5684201317
 40
0.6857574395
 40
0.795312968
 40
0.8991552642
 40
1.0
 40
1.0
 40
1.0
 40
1.0
 10
6.0882444667
 20
5.1388910641
 30
0.0
 10
6.092332777
 20
5.1409673076
 30
0.0
 10
6.1000969367
 20
5.1452703921
 30
0.0
 10
6.1107719722
 20
5.1524345685
 30
0.0
 10
6.1199873717
 20
5.1600483777
 30
0.0
 10
6.1276621125
 20
5.1680509947
 30
0.0
 10
6.1337373013
 20
5.1763749824
 30
0.0
 10
6.138149936
 20
5.1849636059
 30
0.0
 10
6.1408191556
 20
5.193749256
 30
0.0
 10
6.1414167633
 20
5.1997125884
 30
0.0
 10
6.1414167633
 20
5.2026427537
 30
0.0
 11
6.0882444667
 21
5.1388910641
 31
0.0
 11
6.1002587328
 21
5.1455905435
 31
0.0
 11
6.1108968477
 21
5.1527843364
 31
0.0
 11
6.1200537663
 21
5.1604132231
 31
0.0
 11
6.1276526425
 21
5.1684107259
 31
0.0
 11
6.1336376592
 21
5.1767049546
 31
0.0
 11
6.1379535024
 21
5.1852238891
 31
0.0
 11
6.1405509431
 21
5.1938950013
 31
0.0
 11
6.1414167633
 21
5.2026427537
 31
0.0
  0
SPLINE
  5
331
100
AcDbEntity
  8
0
100
AcDbSpline
 62
9
  6
CONTINUOUS
 70
0
 71
3
 72
31
 73
27
 74
25
 42
0.0000001
 43
0.0000001
 44
0.0000000001
 12
0.1634559069
 22
0.0887890634
 32
0.0
 13
0.1801368396
 23
0.0463901963
 33
0.0
 40
0.0
 40
0.0
 40
0.0
 40
0.0
 40
0.2109666846
 40
0.4035599336
 40
0.4920338963
 40
0.5747627071
 40
0.6513466161
 40
0.7213835712
 40
0.7844672089
 40
0.8401892385
 40
0.8881406304
 40
0.9090743403
 40
0.9279125723
 40
0.94461979
 40
0.9591730922
 40
0.9715499734
 40
0.9817279229
 40
0.9859852621
 40
0.9896844244
 40
0.9928225943
 40
0.9953969562
 40
0.997404694
 40
0.9988429916
 40
0.9993477201
 40
0.9997090324
 40
1.0
 40
1.0
 40
1.0
 40
1.0
 10
6.3948798203
 20
4.1466641271
 30
0.0
 10
6.4063744039
 20
4.1529079719
 30
0.0
 10
6.4282355711
 20
4.1650866295
 30
0.0
 10
6.4546243556
 20
4.1803991794
 30
0.0
 10
6.4740046225
 20
4.191941919
 30
0.0
 10
6.4871520587
 20
4.1998917248
 30
0.0
 10
6.4992774615
 20
4.2073218672
 30
0.0
 10
6.5103301054
 20
4.2141709569
 30
0.0
 10
6.5202551917
 20
4.2203836523
 30
0.0
 10
6.5289970803
 20
4.2259054278
 30
0.0
 10
6.5355148349
 20
4.2300543826
 30
0.0
 10
6.5400970696
 20
4.2329850391
 30
0.0
 10
6.5430453102
 20
4.2348749408
 30
0.0
 10
6.5456590331
 20
4.2365536129
 30
0.0
 10
6.547934363
 20
4.2380177969
 30
0.0
 10
6.5498681681
 20
4.2392645761
 30
0.0
 10
6.5512646677
 20
4.2401665914
 30
0.0
 10
6.5522087833
 20
4.2407773115
 30
0.0
 10
6.5527862659
 20
4.2411511315
 30
0.0
 10
6.5532759572
 20
4.2414685923
 30
0.0
 10
6.5536777369
 20
4.241728715
 30
0.0
 10
6.553990492
 20
4.2419327926
 30
0.0
 10
6.554196726
 20
4.2420644102
 30
0.0
 10
6.5543154935
 20
4.2421446546
 30
0.0
 10
6.5543775236
 20
4.2421794625
 30
0.0
 10
6.5544078313
 20
4.2422097626
 30
0.0
 10
6.5544253026
 20
4.242214262
 30
0.0
 11
6.3948798203
 21
4.1466641271
 31
0.0
 11
6.4291714572
 21
4.1657450884
 31
0.0
 11
6.4601610165
 21
4.1837196626
 31
0.0
 11
6.4743009484
 21
4.1921404203
 31
0.0
 11
6.4874699045
 21
4.2001023328
 31
0.0
 11
6.4996170766
 21
4.2075445306
 31
0.0
 11
6.5106911191
 21
4.2144068314
 31
0.0
 11
6.5206375922
 21
4.2206330051
 31
0.0
 11
6.5294009516
 21
4.226168233
 31
0.0
 11
6.5369256515
 21
4.2309576982
 31
0.0
 11
6.5402061462
 21
4.2330556395
 31
0.0
 11
6.5431562598
 21
4.2349467013
 31
0.0
 11
6.5457711409
 21
4.2366261969
 31
0.0
 11
6.548047617
 21
4.2380911782
 31
0.0
 11
6.5499825691
 21
4.2393387523
 31
0.0
 11
6.5515728781
 21
4.2403660262
 31
0.0
 11
6.5522378168
 21
4.2407961466
 31
0.0
 11
6.5528154251
 21
4.2411701071
 31
0.0
 11
6.553305313
 21
4.241487546
 31
0.0
 11
6.5537070908
 21
4.2417481019
 31
0.0
 11
6.5540203685
 21
4.2419514131
 31
0.0
 11
6.5542447563
 21
4.2420971179
 31
0.0
 11
6.5543234947
 21
4.2421482549
 31
0.0
 11
6.5543798643
 21
4.2421848547
 31
0.0
 11
6.5544253026
 21
4.242214262
 31
0.0
  0
SPLINE
  5
332
100
AcDbEntity
  8
0
100
AcDbSpline
 62
7
  6
CONTINUOUS
 70
0
 71
3
 72
15
 73
11
 74
9
 42
0.0000001
 43
0.0000001
 44
0.0000000001
 12
-0.0
 22
0.2318985298
 32
0.0
 13
-0.2266038097
 23
0.0492711025
 33
0.0
 40
0.0
 40
0.0
 40
0.0
 40
0.0
 40
0.1032527636
 40
0.2105140385
 40
0.3234345198
 40
0.4433406424
 40
0.5710626534
 40
0.7068630453
 40
0.8502685877
 40
1.0
 40
1.0
 40
1.0
 40
1.0
 10
6.1414267584
 20
6.4304090145
 30
0.0
 10
6.1414267584
 20
6.4383904025
 30
0.0
 10
6.1397909712
 20
6.4547033046
 30
0.0
 10
6.1325484667
 20
6.4787789922
 30
0.0
 10
6.1204357092
 20
6.502271797
 30
0.0
 10
6.1034672342
 20
6.5245504951
 30
0.0
 10
6.0817533479
 20
6.5449163971
 30
0.0
 10
6.0555692328
 20
6.5625815828
 30
0.0
 10
6.0254463077
 20
6.5767314097
 30
0.0
 10
6.0036174282
 20
6.5831773592
 30
0.0
 10
5.9923075254
 20
6.5856365032
 30
0.0
 11
6.1414267584
 21
6.4304090145
 31
0.0
 11
6.1390816098
 21
6.4542380571
 31
0.0
 11
6.1319842041
 21
6.4780777168
 31
0.0
 11
6.1200576386
 21
6.5013901283
 31
0.0
 11
6.1032795518
 21
6.5235638158
 31
0.0
 11
6.0817332513
 21
6.5438865922
 31
0.0
 11
6.0556701458
 21
6.561562989
 31
0.0
 11
6.0255931212
 21
6.5757511234
 31
0.0
 11
5.9923075254
 21
6.5856365032
 31
0.0
  0
SPLINE
  5
333
100
AcDbEntity
  8
0
100
AcDbSpline
 62
9
  6
CONTINUOUS
 70
0
 71
3
 72
32
 73
28
 74
26
 42
0.0000001
 43
0.0000001
 44
0.0000000001
 12
-0.0790066192
 22
-0.1590910748
 32
0.0
 13
-0.1488372191
 23
-0.0969510091
 33
0.0
 40
0.0
 40
0.0
 40
0.0
 40
0.0
 40
0.0000733018
 40
0.0002906037
 40
0.0006515442
 40
0.001155761
 40
0.0025925735
 40
0.0045981413
 40
0.0071695649
 40
0.0103039453
 40
0.0139983838
 40
0.0182499819
 40
0.028413066
 40
0.0407700202
 40
0.0552976736
 40
0.0719728626
 40
0.0907724268
 40
0.1116670502
 40
0.1595465237
 40
0.2152043973
 40
0.2782310477
 40
0.3482177218
 40
0.4247578817
 40
0.5074578334
 40
0.5959322696
 40
0.7886749098
 40
1.0
 40
1.0
 40
1.0
 40
1.0
 10
6.4914253026
 20
4.305214262
 30
0.0
 10
6.4914233722
 20
4.3052103747
 30
0.0
 10
6.491406371
 20
4.3052025172
 30
0.0
 10
6.4913793904
 20
4.3051759916
 30
0.0
 10
6.4913270716
 20
4.3051379516
 30
0.0
 10
6.4912209189
 20
4.3050529822
 30
0.0
 10
6.4910360075
 20
4.3049096985
 30
0.0
 10
6.4907558007
 20
4.3046901802
 30
0.0
 10
6.4903956472
 20
4.3044094591
 30
0.0
 10
6.4899566757
 20
4.3040673013
 30
0.0
 10
6.4894389384
 20
4.3036643373
 30
0.0
 10
6.4885924715
 20
4.3030061771
 30
0.0
 10
6.4873402712
 20
4.3020342387
 30
0.0
 10
6.4856060468
 20
4.3006910122
 30
0.0
 10
6.4835653489
 20
4.2991137939
 30
0.0
 10
6.4812209405
 20
4.297305744
 30
0.0
 10
6.4785758879
 20
4.2952702246
 30
0.0
 10
6.474463193
 20
4.2921123636
 30
0.0
 10
6.4686094041
 20
4.2876386113
 30
0.0
 10
6.4607510692
 20
4.2816795899
 30
0.0
 10
6.4518202155
 20
4.2749687498
 30
0.0
 10
6.441864351
 20
4.2675640077
 30
0.0
 10
6.4309309242
 20
4.2595220517
 30
0.0
 10
6.4190615284
 20
4.2509055417
 30
0.0
 10
6.4015332483
 20
4.2383732901
 30
0.0
 10
6.3775980694
 20
4.2217093802
 30
0.0
 10
6.357702994
 20
4.2084171318
 30
0.0
 10
6.3472186477
 20
4.2015877382
 30
0.0
 11
6.4914253026
 21
4.305214262
 31
0.0
 11
6.4914151115
 21
4.305206158
 31
0.0
 11
6.4913847732
 21
4.3051822942
 31
0.0
 11
6.4913343308
 21
4.3051427202
 31
0.0
 11
6.4912638276
 21
4.3050874851
 31
0.0
 11
6.4910628112
 21
4.3049302295
 31
0.0
 11
6.4907820692
 21
4.3047109222
 31
0.0
 11
6.4904219469
 21
4.3044299582
 31
0.0
 11
6.4899827896
 21
4.3040877322
 31
0.0
 11
6.4894649425
 21
4.3036846393
 31
0.0
 11
6.4888687509
 21
4.3032210742
 31
0.0
 11
6.4874427153
 21
4.3021141073
 31
0.0
 11
6.4857074449
 21
4.3007699904
 31
0.0
 11
6.483665702
 21
4.2991918826
 31
0.0
 11
6.4813202485
 21
4.2973829429
 31
0.0
 11
6.4786738473
 21
4.2953463311
 31
0.0
 11
6.4757299575
 21
4.2930860968
 31
0.0
 11
6.4689723432
 21
4.2879221954
 31
0.0
 11
6.4610946372
 21
4.2819486246
 31
0.0
 11
6.4521444651
 21
4.2752232738
 31
0.0
 11
6.4421694524
 21
4.2678040325
 31
0.0
 11
6.4312166843
 21
4.2597491534
 31
0.0
 11
6.4193282286
 21
4.2511202626
 31
0.0
 11
6.4065434306
 21
4.2419808167
 31
0.0
 11
6.3784420809
 21
4.2224241587
 31
0.0
 11
6.3472186477
 21
4.2015877382
 31
0.0
  0
SPLINE
  5
334
100
AcDbEntity
  8
0
100
AcDbSpline
 62
9
  6
CONTINUOUS
 70
0
 71
3
 72
9
 73
5
 74
3
 42
0.0000001
 43
0.0000001
 44
0.0000000001
 12
-0.0620827643
 22
-0.0404400638
 32
0.0
 13
-0.0641355002
 23
-0.0370985984
 33
0.0
 40
0.0
 40
0.0
 40
0.0
 40
0.0
 40
0.2394836278
 40
1.0
 40
1.0
 40
1.0
 40
1.0
 10
6.3472186477
 20
4.2015877382
 30
0.0
 10
6.3422627125
 20
4.1983594938
 30
0.0
 10
6.3214938037
 20
4.1849948809
 30
0.0
 10
6.30038895
 20
4.1721485448
 30
0.0
 10
6.2841302507
 20
4.1627438477
 30
0.0
 11
6.3472186477
 21
4.2015877382
 31
0.0
 11
6.332295818
 21
4.1919880063
 31
0.0
 11
6.2841302507
 21
4.1627438477
 31
0.0
  0
SPLINE
  5
335
100
AcDbEntity
  8
0
100
AcDbSpline
 62
9
  6
CONTINUOUS
 70
0
 71
3
 72
9
 73
5
 74
3
 42
0.0000001
 43
0.0000001
 44
0.0000000001
 12
-0.064135715
 22
0.0370987111
 32
0.0
 13
-0.0620830561
 23
0.0404400599
 33
0.0
 40
0.0
 40
0.0
 40
0.0
 40
0.0
 40
0.2601211743
 40
1.0
 40
1.0
 40
1.0
 40
1.0
 10
5.5987209957
 20
4.1627435879
 30
0.0
 10
5.5931599765
 20
4.165960308
 30
0.0
 10
5.5718757215
 20
4.1784894285
 30
0.0
 10
5.5509441832
 20
4.1916135878
 30
0.0
 10
5.5356328703
 20
4.2015871692
 30
0.0
 11
5.5987209957
 21
4.1627435879
 31
0.0
 11
5.5821108716
 21
4.1725187492
 31
0.0
 11
5.5356328703
 21
4.2015871692
 31
0.0
  0
SPLINE
  5
336
100
AcDbEntity
  8
0
100
AcDbSpline
 62
9
  6
CONTINUOUS
 70
0
 71
3
 72
32
 73
28
 74
26
 42
0.0000001
 43
0.0000001
 44
0.0000000001
 12
-0.1488383322
 22
0.0969512689
 32
0.0
 13
-0.078841014
 23
0.159174408
 33
0.0
 40
0.0
 40
0.0
 40
0.0
 40
0.0
 40
0.2113247876
 40
0.4040675224
 40
0.492542096
 40
0.5752421908
 40
0.6517824602
 40
0.7217692101
 40
0.7847959319
 40
0.8404538993
 40
0.8883335156
 40
0.9092282371
 40
0.9280278843
 40
0.9447030948
 40
0.9592307175
 40
0.9715875983
 40
0.9817505762
 40
0.986002112
 40
0.9896964835
 40
0.9928307936
 40
0.9954021449
 40
0.9974076395
 40
0.998844379
 40
0.9993485599
 40
0.999709465
 40
0.9999267322
 40
1.0
 40
1.0
 40
1.0
 40
1.0
 10
5.5356328703
 20
4.2015871692
 30
0.0
 10
5.5251484606
 20
4.2084165713
 30
0.0
 10
5.505253256
 20
4.221708865
 30
0.0
 10
5.4813179226
 20
4.2383728546
 30
0.0
 10
5.4637895173
 20
4.2509051935
 30
0.0
 10
5.4519200355
 20
4.2595217755
 30
0.0
 10
5.4409865398
 20
4.2675638092
 30
0.0
 10
5.4310306168
 20
4.2749686239
 30
0.0
 10
5.4220997104
 20
4.28167953
 30
0.0
 10
5.4142413243
 20
4.2876386128
 30
0.0
 10
5.408387491
 20
4.2921124131
 30
0.0
 10
5.4042747598
 20
4.2952703097
 30
0.0
 10
5.4016296826
 20
4.2973058498
 30
0.0
 10
5.3992852538
 20
4.2991139098
 30
0.0
 10
5.3972445422
 20
4.300691128
 30
0.0
 10
5.3955103102
 20
4.302034346
 30
0.0
 10
5.3942581064
 20
4.3030062722
 30
0.0
 10
5.3934116391
 20
4.3036644197
 30
0.0
 10
5.3928939034
 20
4.3040673731
 30
0.0
 10
5.3924549348
 20
4.3044095197
 30
0.0
 10
5.3920947843
 20
4.3046902286
 30
0.0
 10
5.3918145831
 20
4.3049097358
 30
0.0
 10
5.3916296726
 20
4.3050530072
 30
0.0
 10
5.3915235272
 20
4.3051379709
 30
0.0
 10
5.3914712047
 20
4.3051760008
 30
0.0
 10
5.3914442387
 20
4.3052025282
 30
0.0
 10
5.3914272281
 20
4.3052103745
 30
0.0
 10
5.3914253026
 20
4.305214262
 30
0.0
 11
5.5356328703
 21
4.2015871692
 31
0.0
 11
5.5044092602
 21
4.2224236368
 31
0.0
 11
5.4763077124
 21
4.2419804022
 31
0.0
 11
5.4635228168
 21
4.2511199169
 31
0.0
 11
5.4516342739
 21
4.2597488821
 31
0.0
 11
5.4406814358
 21
4.2678038376
 31
0.0
 11
5.4307063656
 21
4.2752231502
 31
0.0
 11
5.4217561418
 21
4.281948566
 31
0.0
 11
5.4138783855
 21
4.2879221971
 31
0.0
 11
5.4071207179
 21
4.2930861552
 31
0.0
 11
5.4041767989
 21
4.295346417
 31
0.0
 11
5.4015303703
 21
4.2973830506
 31
0.0
 11
5.399184897
 21
4.299192
 31
0.0
 11
5.3971431407
 21
4.3007701072
 31
0.0
 11
5.395407863
 21
4.302114215
 31
0.0
 11
5.3939818252
 21
4.3032211663
 31
0.0
 11
5.3933856343
 21
4.3036847216
 31
0.0
 11
5.3928677889
 21
4.3040878038
 31
0.0
 11
5.3924286342
 21
4.3044300183
 31
0.0
 11
5.3920685154
 21
4.3047109704
 31
0.0
 11
5.3917877777
 21
4.3049302654
 31
0.0
 11
5.3915867662
 21
4.3050875088
 31
0.0
 11
5.3915162656
 21
4.3051427378
 31
0.0
 11
5.3914658261
 21
4.3051823059
 31
0.0
 11
5.3914354907
 21
4.3052061637
 31
0.0
 11
5.3914253026
 21
4.305214262
 31
0.0
  0
SPLINE
  5
337
100
AcDbEntity
  8
0
100
AcDbSpline
 62
7
  6
CONTINUOUS
 70
0
 71
3
 72
9
 73
5
 74
3
 42
0.0000001
 43
0.0000001
 44
0.0000000001
 12
0.0181975999
 22
-0.0158644276
 32
0.0
 13
0.0137430853
 23
-0.0198484335
 33
0.0
 40
0.0
 40
0.0
 40
0.0
 40
0.0
 40
0.2643222158
 40
1.0
 40
1.0
 40
1.0
 40
1.0
 10
6.1438656916
 20
5.2538354905
 30
0.0
 10
6.1454690349
 20
5.2524377169
 30
0.0
 10
6.1513940974
 20
5.2469943882
 30
0.0
 10
6.1567355008
 20
5.2408845772
 30
0.0
 10
6.1601056616
 20
5.2360172267
 30
0.0
 11
6.1438656916
 21
5.2538354905
 31
0.0
 11
6.1485605081
 21
5.2495135669
 31
0.0
 11
6.1601056616
 21
5.2360172267
 31
0.0
  0
SPLINE
  5
338
100
AcDbEntity
  8
0
100
AcDbSpline
 62
7
  6
CONTINUOUS
 70
0
 71
3
 72
21
 73
17
 74
15
 42
0.0000001
 43
0.0000001
 44
0.0000000001
 12
0.1030251675
 22
-0.148793968
 32
0.0
 13
-0.1728104887
 23
-0.0537621156
 33
0.0
 40
0.0
 40
0.0
 40
0.0
 40
0.0
 40
0.0543358805
 40
0.1058176404
 40
0.1553112523
 40
0.2038327811
 40
0.2525037756
 40
0.3024263333
 40
0.3545795848
 40
0.4097873647
 40
0.4686828169
 40
0.5316665705
 40
0.6706125239
 40
0.7468049078
 40
0.8272694328
 40
1.0
 40
1.0
 40
1.0
 40
1.0
 10
6.1601056616
 20
5.2360172267
 30
0.0
 10
6.1619716493
 20
5.2333222763
 30
0.0
 10
6.165279809
 20
5.2278351329
 30
0.0
 10
6.168914129
 20
5.2191609897
 30
0.0
 10
6.1710376653
 20
5.2103528185
 30
0.0
 10
6.1716160357
 20
5.2014773854
 30
0.0
 10
6.1706285569
 20
5.1926126027
 30
0.0
 10
6.168105616
 20
5.1838336262
 30
0.0
 10
6.164079493
 20
5.1752028073
 30
0.0
 10
6.158580774
 20
5.1667791611
 30
0.0
 10
6.1516505409
 20
5.1586165315
 30
0.0
 10
6.1402065462
 20
5.1477818042
 30
0.0
 10
6.1263959658
 20
5.1380856255
 30
0.0
 10
6.110785246
 20
5.1294526424
 30
0.0
 10
6.0927912667
 20
5.1209923477
 30
0.0
 10
6.0784014167
 20
5.1157520511
 30
0.0
 10
6.0684515321
 20
5.1126565975
 30
0.0
 11
6.1601056616
 21
5.2360172267
 31
0.0
 11
6.1651496647
 21
5.2275756602
 31
0.0
 11
6.1687192865
 21
5.2189694054
 31
0.0
 11
6.170795012
 21
5.2102558686
 31
0.0
 11
6.1713573406
 21
5.2014924562
 31
0.0
 11
6.1703961155
 21
5.1927365741
 31
0.0
 11
6.1679265871
 21
5.1840456278
 31
0.0
 11
6.1639682837
 21
5.1754770225
 31
0.0
 11
6.1585408412
 21
5.167088147
 31
0.0
 11
6.1516755926
 21
5.1589345755
 31
0.0
 11
6.1434259147
 21
5.1510684629
 31
0.0
 11
6.1229968774
 21
5.1364056133
 31
0.0
 11
6.1109434557
 21
5.1297078407
 31
0.0
 11
6.0977752615
 21
5.1234897511
 31
0.0
 11
6.0684515321
 21
5.1126565975
 31
0.0
  0
SPLINE
  5
339
100
AcDbEntity
  8
0
100
AcDbSpline
 62
7
  6
CONTINUOUS
 70
0
 71
3
 72
15
 73
11
 74
9
 42
0.0000001
 43
0.0000001
 44
0.0000000001
 12
-0.2266038133
 22
-0.0492711053
 32
0.0
 13
-0.0
 23
-0.2318985338
 33
0.0
 40
0.0
 40
0.0
 40
0.0
 40
0.0
 40
0.1497314161
 40
0.2931369599
 40
0.4289373496
 40
0.5566593595
 40
0.6765654813
 40
0.7894859633
 40
0.8967472369
 40
1.0
 40
1.0
 40
1.0
 40
1.0
 10
5.8905430839
 20
6.5856365029
 30
0.0
 10
5.8792331806
 20
6.5831773588
 30
0.0
 10
5.8574042996
 20
6.5767314115
 30
0.0
 10
5.8272813741
 20
6.5625815835
 30
0.0
 10
5.8010972584
 20
6.5449163981
 30
0.0
 10
5.7793833718
 20
6.524550496
 30
0.0
 10
5.7624148964
 20
6.5022717977
 30
0.0
 10
5.7503021386
 20
6.4787789926
 30
0.0
 10
5.743059634
 20
6.4547033047
 30
0.0
 10
5.7414238473
 20
6.4383904024
 30
0.0
 10
5.7414238473
 20
6.4304090143
 30
0.0
 11
5.8905430839
 21
6.5856365029
 31
0.0
 11
5.8572574863
 21
6.5757511244
 31
0.0
 11
5.8271804607
 21
6.5615629897
 31
0.0
 11
5.8011173551
 21
6.5438865931
 31
0.0
 11
5.7795710542
 21
6.5235638168
 31
0.0
 11
5.7627929671
 21
6.5013901291
 31
0.0
 11
5.7508664011
 21
6.4780777171
 31
0.0
 11
5.7437689956
 21
6.4542380572
 31
0.0
 11
5.7414238473
 21
6.4304090143
 31
0.0
  0
SPLINE
  5
33A
100
AcDbEntity
  8
0
100
AcDbSpline
 62
9
  6
CONTINUOUS
 70
0
 71
3
 72
29
 73
25
 74
23
 42
0.0000001
 43
0.0000001
 44
0.0000000001
 12
0.1461658236
 22
-0.037444276
 32
0.0
 13
0.1312815199
 23
-0.0743752938
 33
0.0
 40
0.0
 40
0.0
 40
0.0
 40
0.0
 40
0.0002838209
 40
0.00112832
 40
0.0025309912
 40
0.0044893284
 40
0.0070008251
 40
0.0100629756
 40
0.0178292146
 40
0.0277680023
 40
0.0398592991
 40
0.0540830694
 40
0.0704192818
 40
0.0888479085
 40
0.1093489014
 40
0.156445435
 40
0.2113766212
 40
0.273785969
 40
0.3433175151
 40
0.419615893
 40
0.5023271274
 40
0.5911034658
 40
0.7854757424
 40
1.0
 40
1.0
 40
1.0
 40
1.0
 10
5.3284253026
 20
4.242214262
 30
0.0
 10
5.3284391309
 20
4.2422107195
 30
0.0
 10
5.3284823402
 20
4.2421697324
 30
0.0
 10
5.3285933426
 20
4.2421101314
 30
0.0
 10
5.3287683558
 20
4.2419894508
 30
0.0
 10
5.3290171868
 20
4.2418311139
 30
0.0
 10
5.3293346242
 20
4.2416240671
 30
0.0
 10
5.3298978667
 20
4.2412596457
 30
0.0
 10
5.330774579
 20
4.240691804
 30
0.0
 10
5.3320332701
 20
4.2398784935
 30
0.0
 10
5.3335653754
 20
4.2388898275
 30
0.0
 10
5.3353687291
 20
4.2377281027
 30
0.0
 10
5.3374410276
 20
4.2363952999
 30
0.0
 10
5.3397800225
 20
4.2348935234
 30
0.0
 10
5.3434226474
 20
4.2325586382
 30
0.0
 10
5.3486153522
 20
4.2292399506
 30
0.0
 10
5.3555958555
 20
4.2248045943
 30
0.0
 10
5.3635449291
 20
4.2197896511
 30
0.0
 10
5.37242344
 20
4.2142339566
 30
0.0
 10
5.382192315
 20
4.2081763792
 30
0.0
 10
5.3928125545
 20
4.201655289
 30
0.0
 10
5.4085419626
 20
4.1921061593
 30
0.0
 10
5.4300527794
 20
4.1793058589
 30
0.0
 10
5.4478692223
 20
4.1690319271
 30
0.0
 10
5.4572569125
 20
4.1637134922
 30
0.0
 11
5.3284253026
 21
4.242214262
 31
0.0
 11
5.328461266
 21
4.2421910117
 31
0.0
 11
5.3285681511
 21
4.2421216419
 31
0.0
 11
5.3287456747
 21
4.2420064109
 31
0.0
 11
5.3289935535
 21
4.2418455766
 31
0.0
 11
5.3293115041
 21
4.2416393974
 31
0.0
 11
5.3296992432
 21
4.2413881312
 31
0.0
 11
5.3306829539
 21
4.2407513706
 31
0.0
 11
5.3319424189
 21
4.2399373599
 31
0.0
 11
5.333475372
 21
4.2389481642
 31
0.0
 11
5.3352795465
 21
4.2377858485
 31
0.0
 11
5.3373526761
 21
4.2364524779
 31
0.0
 11
5.3396924942
 21
4.2349501174
 31
0.0
 11
5.3422967319
 21
4.2332808349
 31
0.0
 11
5.3482848762
 21
4.2294545871
 31
0.0
 11
5.3552806278
 21
4.2250098187
 31
0.0
 11
5.3632448789
 21
4.2199854145
 31
0.0
 11
5.3721385219
 21
4.214420259
 31
0.0
 11
5.3819224494
 21
4.2083532366
 31
0.0
 11
5.3925578847
 21
4.2018235606
 31
0.0
 11
5.4040084745
 21
4.1948728501
 31
0.0
 11
5.4292140195
 21
4.1798790868
 31
0.0
 11
5.4572569125
 21
4.1637134922
 31
0.0
  0
SPLINE
  5
33B
100
AcDbEntity
  8
0
100
AcDbSpline
 62
9
  6
CONTINUOUS
 70
0
 71
3
 72
15
 73
11
 74
9
 42
0.0000001
 43
0.0000001
 44
0.0000000001
 12
-0.0245581264
 22
0.0
 32
0.0
 13
0.0
 23
-0.0245581264
 33
0.0
 40
0.0
 40
0.0
 40
0.0
 40
0.0
 40
0.1582291222
 40
0.313311099
 40
0.4600019404
 40
0.5945361234
 40
0.7150848523
 40
0.8211899948
 40
0.9147433302
 40
1.0
 40
1.0
 40
1.0
 40
1.0
 10
6.2976753026
 20
7.3737363261
 30
0.0
 10
6.2963800323
 20
7.3737363261
 30
0.0
 10
6.2938134069
 20
7.3735992849
 30
0.0
 10
6.2900871405
 20
7.3730119821
 30
0.0
 10
6.286635555
 20
7.3720585373
 30
0.0
 10
6.2836004682
 20
7.3707629844
 30
0.0
 10
6.2810834313
 20
7.369181573
 30
0.0
 10
6.279183516
 20
7.3673402817
 30
0.0
 10
6.277974152
 20
7.3653082475
 30
0.0
 10
6.2776753026
 20
7.3638358555
 30
0.0
 10
6.2776753026
 20
7.3631379408
 30
0.0
 11
6.2976753026
 21
7.3737363261
 31
0.0
 11
6.2937949289
 21
7.373530837
 31
0.0
 11
6.2900342811
 21
7.3729288623
 31
0.0
 11
6.2865666774
 21
7.3719524471
 31
0.0
 11
6.2835363596
 21
7.3706360207
 31
0.0
 11
6.2810491609
 21
7.3690303706
 31
0.0
 11
6.2792042659
 21
7.3671901907
 31
0.0
 11
6.2780648922
 21
7.3651951195
 31
0.0
 11
6.2776753026
 21
7.3631379408
 31
0.0
  0
SPLINE
  5
33C
100
AcDbEntity
  8
0
100
AcDbSpline
 62
9
  6
CONTINUOUS
 70
0
 71
3
 72
29
 73
25
 74
23
 42
0.0000001
 43
0.0000001
 44
0.0000000001
 12
0.8860268759
 22
-0.6967761681
 32
0.0
 13
-1.1235857489
 23
-0.0899762079
 33
0.0
 40
0.0
 40
0.0
 40
0.0
 40
0.0
 40
0.0635283998
 40
0.1256582246
 40
0.1562001911
 40
0.1864163474
 40
0.2163460713
 40
0.2460350579
 40
0.3048384553
 40
0.3633100192
 40
0.3925944908
 40
0.4219711034
 40
0.4811693757
 40
0.5111372496
 40
0.5413919357
 40
0.5719673402
 40
0.6028883092
 40
0.6341739102
 40
0.6658362398
 40
0.7302450507
 40
0.796082119
 40
0.863197635
 40
0.9313427434
 40
1.0
 40
1.0
 40
1.0
 40
1.0
 10
6.3094521621
 20
7.3792078645
 30
0.0
 10
6.3282147853
 20
7.3644528395
 30
0.0
 10
6.3633473383
 20
7.3326391458
 30
0.0
 10
6.4008049957
 20
7.287154921
 30
0.0
 10
6.4258312653
 20
7.248303839
 30
0.0
 10
6.4420005758
 20
7.2182696908
 30
0.0
 10
6.455584422
 20
7.1873280257
 30
0.0
 10
6.4700938182
 20
7.1452225547
 30
0.0
 10
6.481574023
 20
7.0909289318
 30
0.0
 10
6.4836944083
 20
7.0356214431
 30
0.0
 10
6.4798053124
 20
6.9917373579
 30
0.0
 10
6.4721894468
 20
6.9480705141
 30
0.0
 10
6.4590058624
 20
6.9052736039
 30
0.0
 10
6.4406741745
 20
6.8642804123
 30
0.0
 10
6.4242694278
 20
6.8343240315
 30
0.0
 10
6.405373294
 20
6.805450485
 30
0.0
 10
6.3840884189
 20
6.7778000473
 30
0.0
 10
6.3605138064
 20
6.751521951
 30
0.0
 10
6.3260026631
 20
6.7183237037
 30
0.0
 10
6.2777243047
 20
6.6809545373
 30
0.0
 10
6.213257112
 20
6.6438803623
 30
0.0
 10
6.1432129874
 20
6.6149803193
 30
0.0
 10
6.0690630384
 20
6.5949503305
 30
0.0
 10
6.0180242849
 20
6.587695766
 30
0.0
 10
5.9923101799
 20
6.5856365928
 30
0.0
 11
6.3094521621
 21
7.3792078645
 31
0.0
 11
6.3624606325
 21
7.3310640882
 31
0.0
 11
6.4068739782
 21
7.2769171776
 31
0.0
 11
6.4255083479
 21
7.2479700625
 31
0.0
 11
6.4416404602
 21
7.2179737456
 31
0.0
 11
6.4551898027
 21
7.187077939
 31
0.0
 11
6.4660843232
 21
7.1554360428
 31
0.0
 11
6.4797232889
 21
7.0905723062
 31
0.0
 11
6.4822594751
 21
7.0247129907
 31
0.0
 11
6.4793490973
 21
6.9918325968
 31
0.0
 11
6.4736624903
 21
6.9592117371
 31
0.0
 11
6.4540928986
 21
6.8954186435
 31
0.0
 11
6.4403130549
 21
6.8645778466
 31
0.0
 11
6.4239470156
 21
6.8346590047
 31
0.0
 11
6.4050878683
 21
6.8058127864
 31
0.0
 11
6.38383798
 21
6.7781864548
 31
0.0
 11
6.3602999846
 21
6.7519270991
 31
0.0
 11
6.3345924403
 21
6.7271714304
 31
0.0
 11
6.2772436405
 21
6.6826523715
 31
0.0
 11
6.2129684365
 21
6.6455594952
 31
0.0
 11
6.1430614928
 21
6.6166430628
 31
0.0
 11
6.0689282399
 21
6.5965348227
 31
0.0
 11
5.9923101799
 21
6.5856365928
 31
0.0
  0
SPLINE
  5
33D
100
AcDbEntity
  8
0
100
AcDbSpline
 62
9
  6
CONTINUOUS
 70
0
 71
3
 72
26
 73
22
 74
20
 42
0.0000001
 43
0.0000001
 44
0.0000000001
 12
-1.1234400646
 22
0.0899424948
 32
0.0
 13
0.885925258
 23
0.6966661096
 33
0.0
 40
0.0
 40
0.0
 40
0.0
 40
0.0
 40
0.0686516963
 40
0.1367596849
 40
0.2038351891
 40
0.2696387682
 40
0.3340173335
 40
0.3969086137
 40
0.458360639
 40
0.5185387361
 40
0.5482643081
 40
0.5777922567
 40
0.6364205108
 40
0.6656869866
 40
0.6949845432
 40
0.7538415505
 40
0.7835546353
 40
0.8135080614
 40
0.8742696133
 40
0.9364500075
 40
1.0
 40
1.0
 40
1.0
 40
1.0
 10
5.8905404253
 20
6.5856365928
 30
0.0
 10
5.8648317366
 20
6.5876948278
 30
0.0
 10
5.8138141162
 20
6.5949377448
 30
0.0
 10
5.7397060571
 20
6.6149650572
 30
0.0
 10
5.6697034087
 20
6.6438249093
 30
0.0
 10
5.6052659703
 20
6.6808623521
 30
0.0
 10
5.5476791456
 20
6.7253513494
 30
0.0
 10
5.4981761199
 20
6.7764633169
 30
0.0
 10
5.4577547613
 20
6.8331055679
 30
0.0
 10
5.4322648668
 20
6.8842295392
 30
0.0
 10
5.4172794999
 20
6.9265695619
 30
0.0
 10
5.4060032001
 20
6.9694369456
 30
0.0
 10
5.400165553
 20
7.0134123792
 30
0.0
 10
5.399975971
 20
7.0574825829
 30
0.0
 10
5.4035381507
 20
7.1014948541
 30
0.0
 10
5.4127052173
 20
7.1450664143
 30
0.0
 10
5.4272183963
 20
7.1872032357
 30
0.0
 10
5.4454111889
 20
7.2286749021
 30
0.0
 10
5.4747842243
 20
7.2783424044
 30
0.0
 10
5.5194862107
 20
7.3326086587
 30
0.0
 10
5.5546315952
 20
7.3644501558
 30
0.0
 10
5.5733984431
 20
7.3792078645
 30
0.0
 11
5.8905404253
 21
6.5856365928
 31
0.0
 11
5.8139378957
 21
6.5965273925
 31
0.0
 11
5.7398547999
 21
6.6166222372
 31
0.0
 11
5.6699926994
 21
6.6455031275
 31
0.0
 11
5.6057451886
 21
6.6825489867
 31
0.0
 11
5.5484065007
 21
6.7270099285
 31
0.0
 11
5.4991742398
 21
6.7780025929
 31
0.0
 11
5.4590482665
 21
6.8344530591
 31
0.0
 11
5.4288659305
 21
6.895189863
 31
0.0
 11
5.4176993104
 21
6.9267758399
 31
0.0
 11
5.4092412618
 21
6.9589620913
 31
0.0
 11
5.4005867567
 21
7.0244689422
 31
0.0
 11
5.4004433711
 21
7.0574529645
 31
0.0
 11
5.4031033019
 21
7.0903650156
 31
0.0
 11
5.4167192104
 21
7.155286445
 31
0.0
 11
5.4276124175
 21
7.1869528722
 31
0.0
 11
5.4411630201
 21
7.2178724602
 31
0.0
 11
5.4759407018
 21
7.2768646207
 31
0.0
 11
5.5203827665
 21
7.3310498025
 31
0.0
 11
5.5733984431
 21
7.3792078645
 31
0.0
  0
SPLINE
  5
33E
100
AcDbEntity
  8
0
100
AcDbSpline
 62
9
  6
CONTINUOUS
 70
0
 71
3
 72
12
 73
8
 74
6
 42
0.0000001
 43
0.0000001
 44
0.0000000001
 12
0.0123554101
 22
0.0053827741
 32
0.0
 13
0.0099657825
 23
-0.0090726841
 33
0.0
 40
0.0
 40
0.0
 40
0.0
 40
0.0
 40
0.1611747096
 40
0.2629936586
 40
0.3808398022
 40
0.6637471729
 40
1.0
 40
1.0
 40
1.0
 40
1.0
 10
5.5733984431
 20
7.3792078645
 30
0.0
 10
5.5740622363
 20
7.3794970535
 30
0.0
 10
5.5753185725
 20
7.3795379173
 30
0.0
 10
5.5769741183
 20
7.3791289086
 30
0.0
 10
5.5790754318
 20
7.3782755613
 30
0.0
 10
5.5819036576
 20
7.3765220559
 30
0.0
 10
5.5840582951
 20
7.3747532313
 30
0.0
 10
5.5851753026
 20
7.3737363261
 30
0.0
 11
5.5733984431
 21
7.3792078645
 31
0.0
 11
5.5755596484
 21
7.379425711
 31
0.0
 11
5.5768966133
 21
7.3791166719
 31
0.0
 11
5.5783733824
 21
7.3785322198
 31
0.0
 11
5.5816527322
 21
7.3765872411
 31
0.0
 11
5.5851753026
 21
7.3737363261
 31
0.0
  0
SPLINE
  5
33F
100
AcDbEntity
  8
0
100
AcDbSpline
 62
9
  6
CONTINUOUS
 70
0
 71
3
 72
9
 73
5
 74
3
 42
0.0000001
 43
0.0000001
 44
0.0000000001
 12
0.0042576374
 22
0.0038761781
 32
0.0
 13
0.004850003
 23
0.0031031765
 33
0.0
 40
0.0
 40
0.0
 40
0.0
 40
0.0
 40
0.266493907
 40
1.0
 40
1.0
 40
1.0
 40
1.0
 10
6.2976753026
 20
7.3737363261
 30
0.0
 10
6.2980535141
 20
7.374080652
 30
0.0
 10
6.2994956779
 20
7.3753466365
 30
0.0
 10
6.3010292267
 20
7.3765133538
 30
0.0
 10
6.3022150622
 20
7.3772720868
 30
0.0
 11
6.2976753026
 21
7.3737363261
 31
0.0
 11
6.2988286599
 21
7.3747483565
 31
0.0
 11
6.3022150622
 21
7.3772720868
 31
0.0
  0
SPLINE
  5
340
100
AcDbEntity
  8
0
100
AcDbSpline
 62
9
  6
CONTINUOUS
 70
0
 71
3
 72
10
 73
6
 74
4
 42
0.0000001
 43
0.0000001
 44
0.0000000001
 12
0.0064791881
 22
0.0041455777
 32
0.0
 13
0.0070517962
 23
-0.0030721104
 33
0.0
 40
0.0
 40
0.0
 40
0.0
 40
0.0
 40
0.3251921072
 40
0.5991738402
 40
1.0
 40
1.0
 40
1.0
 40
1.0
 10
6.3022150622
 20
7.3772720868
 30
0.0
 10
6.3029173892
 20
7.3777214565
 30
0.0
 10
6.3042630377
 20
7.378488377
 30
0.0
 10
6.3066179667
 20
7.3794323494
 30
0.0
 10
6.3085099807
 20
7.3796183252
 30
0.0
 10
6.3094521621
 20
7.3792078645
 30
0.0
 11
6.3022150622
 21
7.3772720868
 31
0.0
 11
6.3043973015
 21
7.3784946244
 31
0.0
 11
6.3063691877
 21
7.3792382614
 31
0.0
 11
6.3094521621
 21
7.3792078645
 31
0.0
  0
SPLINE
  5
341
100
AcDbEntity
  8
0
100
AcDbSpline
 62
7
  6
CONTINUOUS
 70
0
 71
3
 72
24
 73
20
 74
18
 42
0.0000001
 43
0.0000001
 44
0.0000000001
 12
0.1022691528
 22
0.0222377244
 32
0.0
 13
0.1022691528
 23
-0.0222377244
 33
0.0
 40
0.0
 40
0.0
 40
0.0
 40
0.0
 40
0.1238980334
 40
0.1862160955
 40
0.2485650755
 40
0.3112368442
 40
0.3428132821
 40
0.3745854782
 40
0.4379356078
 40
0.5000280341
 40
0.5620751723
 40
0.6253870531
 40
0.6571628003
 40
0.6887481118
 40
0.751432262
 40
0.813785626
 40
0.8761018191
 40
0.9382580243
 40
1.0
 40
1.0
 40
1.0
 40
1.0
 10
5.8905249651
 20
6.5856371813
 30
0.0
 10
5.8947486141
 20
6.5865555847
 30
0.0
 10
5.9010692983
 20
6.5880610275
 30
0.0
 10
5.9094810405
 20
6.5901670204
 30
0.0
 10
5.9158165695
 20
6.5917718284
 30
0.0
 10
5.9210998438
 20
6.593162488
 30
0.0
 10
5.9253395322
 20
6.5943259734
 30
0.0
 10
5.9295900124
 20
6.5955388858
 30
0.0
 10
5.9348896632
 20
6.5969515395
 30
0.0
 10
5.941427562
 20
6.597797176
 30
0.0
 10
5.9479681168
 20
6.5969732129
 30
0.0
 10
5.9532637768
 20
6.5955539066
 30
0.0
 10
5.9575102915
 20
6.5943306961
 30
0.0
 10
5.961748736
 20
6.593159316
 30
0.0
 10
5.9670326599
 20
6.5917674505
 30
0.0
 10
5.9733697248
 20
6.5901667409
 30
0.0
 10
5.979692661
 20
6.5885854062
 30
0.0
 10
5.9860063663
 20
6.5870554874
 30
0.0
 10
5.9902208736
 20
6.5860948483
 30
0.0
 10
5.9923256401
 20
6.5856371813
 30
0.0
 11
5.8905249651
 21
6.5856371813
 31
0.0
 11
5.9031511214
 21
6.5885908663
 31
0.0
 11
5.9094792887
 21
6.5901696785
 31
0.0
 11
5.915803148
 21
6.5917788314
 31
0.0
 11
5.9221449738
 21
6.5934533003
 31
0.0
 11
5.9253314519
 21
6.5943295282
 31
0.0
 11
5.9285323545
 21
6.5952303472
 31
0.0
 11
5.934969206
 21
6.5968196673
 31
0.0
 11
5.9414298023
 21
6.5975207844
 31
0.0
 11
5.9478874233
 21
6.5968363733
 31
0.0
 11
5.9543190876
 21
6.5952427533
 31
0.0
 11
5.9575183158
 21
6.5943346436
 31
0.0
 11
5.9607041611
 21
6.5934526308
 31
0.0
 11
5.9670465678
 21
6.5917752881
 31
0.0
 11
5.9733716045
 21
6.5901689045
 31
0.0
 11
5.9796999958
 21
6.5885917992
 31
0.0
 11
5.9860238509
 21
6.5870665041
 31
0.0
 11
5.9923256401
 21
6.5856371813
 31
0.0
  0
SPLINE
  5
342
100
AcDbEntity
  8
0
100
AcDbSpline
 62
9
  6
CONTINUOUS
 70
0
 71
3
 72
21
 73
17
 74
15
 42
0.0000001
 43
0.0000001
 44
0.0000000001
 12
0.2382803568
 22
-0.0000000023
 32
0.0
 13
0.0
 23
0.2382803568
 33
0.0
 40
0.0
 40
0.0
 40
0.0
 40
0.0
 40
0.1637860443
 40
0.3230037304
 40
0.3992743278
 40
0.4726461308
 40
0.5426772302
 40
0.6089975928
 40
0.6713075959
 40
0.7293795711
 40
0.7831536306
 40
0.8327784884
 40
0.8785807741
 40
0.9211329081
 40
0.9612598438
 40
1.0
 40
1.0
 40
1.0
 40
1.0
 10
5.9414253026
 20
5.9210602266
 30
0.0
 10
5.9544343016
 20
5.9210602265
 30
0.0
 10
5.9801031175
 20
5.922239089
 30
0.0
 10
6.0115653669
 20
5.9266329525
 30
0.0
 10
6.0355286035
 20
5.9319334147
 30
0.0
 10
6.0523399806
 20
5.936640191
 30
0.0
 10
6.0680895874
 20
5.9420991914
 30
0.0
 10
6.0826318231
 20
5.9482564024
 30
0.0
 10
6.0958333167
 20
5.9550451151
 30
0.0
 10
6.1075653716
 20
5.9624102456
 30
0.0
 10
6.1177136771
 20
5.9702921698
 30
0.0
 10
6.1261914948
 20
5.9786168828
 30
0.0
 10
6.1329112125
 20
5.9873258115
 30
0.0
 10
6.1377804044
 20
5.9963531315
 30
0.0
 10
6.1407482822
 20
6.005589182
 30
0.0
 10
6.1414253026
 20
6.0118710817
 30
0.0
 10
6.1414253026
 20
6.0149480877
 30
0.0
 11
5.9414253026
 21
5.9210602266
 31
0.0
 11
5.9804104731
 21
5.9228665988
 31
0.0
 11
6.017970952
 21
5.9282085266
 31
0.0
 11
6.0357124146
 21
5.9321489545
 31
0.0
 11
6.0525418892
 21
5.9368845802
 31
0.0
 11
6.0683000567
 21
5.9423743257
 31
0.0
 11
6.0828401635
 21
5.9485642397
 31
0.0
 11
6.0960251459
 21
5.955390444
 31
0.0
 11
6.1077187344
 21
5.9627886822
 31
0.0
 11
6.1178058789
 21
5.9706899623
 31
0.0
 11
6.1261991393
 21
5.9790191296
 31
0.0
 11
6.132812999
 21
5.9877005789
 31
0.0
 11
6.1375776522
 21
5.9966506765
 31
0.0
 11
6.1404584
 21
6.0057678482
 31
0.0
 11
6.1414253026
 21
6.0149480877
 31
0.0
  0
SPLINE
  5
343
100
AcDbEntity
  8
0
100
AcDbSpline
 62
9
  6
CONTINUOUS
 70
0
 71
3
 72
21
 73
17
 74
15
 42
0.0000001
 43
0.0000001
 44
0.0000000001
 12
-0.0000000002
 22
-0.238274846
 32
0.0
 13
0.238274846
 23
-0.0
 33
0.0
 40
0.0
 40
0.0
 40
0.0
 40
0.0
 40
0.0387309518
 40
0.0788513808
 40
0.1214000495
 40
0.1672017524
 40
0.216827847
 40
0.2706037772
 40
0.3286774448
 40
0.3909889232
 40
0.457310742
 40
0.5273433905
 40
0.6007168643
 40
0.6769891839
 40
0.8362102985
 40
1.0
 40
1.0
 40
1.0
 40
1.0
 10
5.7414253026
 20
6.0149423473
 30
0.0
 10
5.7414253026
 20
6.0118661434
 30
0.0
 10
5.7421024071
 20
6.0055856386
 30
0.0
 10
5.7450704008
 20
5.9963514635
 30
0.0
 10
5.7499396545
 20
5.9873254208
 30
0.0
 10
5.7566593087
 20
5.9786170735
 30
0.0
 10
5.7651370471
 20
5.9702924005
 30
0.0
 10
5.7752852841
 20
5.9624102525
 30
0.0
 10
5.7870173347
 20
5.9550449534
 30
0.0
 10
5.8002188638
 20
5.9482562494
 30
0.0
 10
5.814761124
 20
5.9420991193
 30
0.0
 10
5.8305107365
 20
5.936640181
 30
0.0
 10
5.8473221059
 20
5.9319334208
 30
0.0
 10
5.8712853139
 20
5.9266329495
 30
0.0
 10
5.9027475272
 20
5.9222390636
 30
0.0
 10
5.928416314
 20
5.9210602266
 30
0.0
 10
5.9414253026
 20
5.9210602266
 30
0.0
 11
5.7414253026
 21
6.0149423473
 31
0.0
 11
5.7423922178
 21
6.0057645291
 31
0.0
 11
5.7452729898
 21
5.9966492229
 31
0.0
 11
5.7500376584
 21
5.9877003345
 31
0.0
 11
5.7566515233
 21
5.979019381
 31
0.0
 11
5.7650447993
 21
5.9706901994
 31
0.0
 11
5.775131955
 21
5.9627886914
 31
0.0
 11
5.786825543
 21
5.9553902966
 31
0.0
 11
5.8000105339
 21
5.948564091
 31
0.0
 11
5.814550651
 21
5.9423742484
 31
0.0
 11
5.8303088216
 21
5.9368845629
 31
0.0
 11
5.8471382951
 21
5.9321489563
 31
0.0
 11
5.8648797464
 21
5.9282085235
 31
0.0
 11
5.9024401627
 21
5.9228665851
 31
0.0
 11
5.9414253026
 21
5.9210602266
 31
0.0
  0
SPLINE
  5
344
100
AcDbEntity
  8
0
100
AcDbSpline
 62
9
  6
CONTINUOUS
 70
0
 71
3
 72
15
 73
11
 74
9
 42
0.0000001
 43
0.0000001
 44
0.0000000001
 12
0.0
 22
0.0245590435
 32
0.0
 13
-0.0245590435
 23
-0.0
 33
0.0
 40
0.0
 40
0.0
 40
0.0
 40
0.0
 40
0.0852000635
 40
0.1785921424
 40
0.2845441021
 40
0.404988823
 40
0.5395360624
 40
0.6864398924
 40
0.8417039999
 40
1.0
 40
1.0
 40
1.0
 40
1.0
 10
5.6051753026
 20
7.3631379408
 30
0.0
 10
5.6051753026
 20
7.3638354182
 30
0.0
 10
5.6048788281
 20
7.3653062116
 30
0.0
 10
5.6036731055
 20
7.3673374003
 30
0.0
 10
5.6017742739
 20
7.3691750279
 30
0.0
 10
5.5992605931
 20
7.3707576996
 30
0.0
 10
5.5962249826
 20
7.372055486
 30
0.0
 10
5.5927697252
 20
7.3730086652
 30
0.0
 10
5.5890399487
 20
7.3735983582
 30
0.0
 10
5.5864711687
 20
7.3737363261
 30
0.0
 10
5.5851753026
 20
7.3737363261
 30
0.0
 11
5.6051753026
 21
7.3631379408
 31
0.0
 11
5.6047876698
 21
7.365194154
 31
0.0
 11
5.6036519281
 21
7.3671868367
 31
0.0
 11
5.6018094339
 21
7.3690242341
 31
0.0
 11
5.5993252941
 21
7.3706301157
 31
0.0
 11
5.5962952434
 21
7.3719482703
 31
0.0
 11
5.5928224359
 21
7.3729260002
 31
0.0
 11
5.5890574137
 21
7.3735298455
 31
0.0
 11
5.5851753026
 21
7.3737363261
 31
0.0
  0
SPLINE
  5
345
100
AcDbEntity
  8
0
100
AcDbSpline
 62
9
  6
CONTINUOUS
 70
0
 71
3
 72
9
 73
5
 74
3
 42
0.0000001
 43
0.0000001
 44
0.0000000001
 12
0.0000000372
 22
-0.0104064467
 32
0.0
 13
0.0069416864
 23
-0.0077528784
 33
0.0
 40
0.0
 40
0.0
 40
0.0
 40
0.0
 40
0.4887147541
 40
1.0
 40
1.0
 40
1.0
 40
1.0
 10
6.2776753026
 20
6.9351121843
 30
0.0
 10
6.2776753087
 20
6.9334169229
 30
0.0
 10
6.2783727579
 20
6.9299182967
 30
0.0
 10
6.2802970136
 20
6.9269364065
 30
0.0
 10
6.2814800742
 20
6.9256150957
 30
0.0
 11
6.2776753026
 21
6.9351121843
 31
0.0
 11
6.2786500292
 21
6.9301206807
 31
0.0
 11
6.2814800742
 21
6.9256150957
 31
0.0
  0
SPLINE
  5
346
100
AcDbEntity
  8
0
100
AcDbSpline
 62
9
  6
CONTINUOUS
 70
0
 71
3
 72
9
 73
5
 74
3
 42
0.0000001
 43
0.0000001
 44
0.0000000001
 12
0.0358971496
 22
0.0718571549
 32
0.0
 13
0.0514882908
 23
0.0616523476
 33
0.0
 40
0.0
 40
0.0
 40
0.0
 40
0.0
 40
0.4965281638
 40
1.0
 40
1.0
 40
1.0
 40
1.0
 10
5.5550160162
 20
6.8558231845
 30
0.0
 10
5.5609573315
 20
6.8677162183
 30
0.0
 10
5.5743789307
 20
6.8909652745
 30
0.0
 10
5.5903959247
 20
6.9125025764
 30
0.0
 10
5.5990368928
 20
6.9228493167
 30
0.0
 11
5.5550160162
 21
6.8558231845
 31
0.0
 11
5.5749256047
 21
6.8903818244
 31
0.0
 11
5.5990368928
 21
6.9228493167
 31
0.0
  0
SPLINE
  5
347
100
AcDbEntity
  8
0
100
AcDbSpline
 62
9
  6
CONTINUOUS
 70
0
 71
3
 72
15
 73
11
 74
9
 42
0.0000001
 43
0.0000001
 44
0.0000000001
 12
-0.2222318841
 22
-0.2255996479
 32
0.0
 13
0.0332129431
 23
-0.3149271533
 33
0.0
 40
0.0
 40
0.0
 40
0.0
 40
0.0
 40
0.1301361682
 40
0.2585208662
 40
0.3850794262
 40
0.5099083359
 40
0.6333731367
 40
0.7559043407
 40
0.8779657006
 40
1.0
 40
1.0
 40
1.0
 40
1.0
 10
5.5851753026
 20
7.3002866782
 30
0.0
 10
5.5755351673
 20
7.2905004536
 30
0.0
 10
5.5573417703
 20
7.2700873033
 30
0.0
 10
5.533498268
 20
7.2370808879
 30
0.0
 10
5.5135450449
 20
7.2022201208
 30
0.0
 10
5.4977568048
 20
7.1658488379
 30
0.0
 10
5.4862497385
 20
7.1283483706
 30
0.0
 10
5.4791386171
 20
7.0900647174
 30
0.0
 10
5.4765081739
 20
7.0513714314
 30
0.0
 10
5.4777338496
 20
7.0255668728
 30
0.0
 10
5.4790848891
 20
7.0127562346
 30
0.0
 11
5.5851753026
 21
7.3002866782
 31
0.0
 11
5.557772491
 21
7.2695066926
 31
0.0
 11
5.5339915314
 21
7.2365312378
 31
0.0
 11
5.5141181662
 21
7.2017278405
 31
0.0
 11
5.4983951771
 21
7.1654592483
 31
0.0
 11
5.4869464171
 21
7.1280749802
 31
0.0
 11
5.4798750992
 21
7.0899223505
 31
0.0
 11
5.4772523929
 21
7.051357812
 31
0.0
 11
5.4790848891
 21
7.0127562346
 31
0.0
  0
SPLINE
  5
348
100
AcDbEntity
  8
0
100
AcDbSpline
 62
9
  6
CONTINUOUS
 70
0
 71
3
 72
32
 73
28
 74
26
 42
0.0000001
 43
0.0000001
 44
0.0000000001
 12
0.1998162501
 22
-1.0966099109
 32
0.0
 13
0.5377583526
 23
0.9763686725
 33
0.0
 40
0.0
 40
0.0
 40
0.0
 40
0.0
 40
0.0283518101
 40
0.0568986266
 40
0.0856958744
 40
0.114793546
 40
0.1739924141
 40
0.2041937269
 40
0.2347969746
 40
0.2658011984
 40
0.2971933176
 40
0.3289537638
 40
0.3610562932
 40
0.4260898664
 40
0.4919727038
 40
0.5582703272
 40
0.6245166489
 40
0.6574935224
 40
0.6902850724
 40
0.7228424314
 40
0.7551196489
 40
0.7870746815
 40
0.8186746482
 40
0.849897062
 40
0.8807247472
 40
0.9411254352
 40
1.0
 40
1.0
 40
1.0
 40
1.0
 10
5.4826718768
 20
6.9877838031
 30
0.0
 10
5.484560261
 20
6.9774201777
 30
0.0
 10
5.4893319589
 20
6.9567875584
 30
0.0
 10
5.4993403683
 20
6.9265172498
 30
0.0
 10
5.5121519408
 20
6.8970151033
 30
0.0
 10
5.5329877568
 20
6.85877057
 30
0.0
 10
5.5590915926
 20
6.8230012159
 30
0.0
 10
5.5896166063
 20
6.7904529877
 30
0.0
 10
5.6149177548
 20
6.767514588
 30
0.0
 10
5.6422839204
 20
6.7463621928
 30
0.0
 10
5.6715388989
 20
6.7271172032
 30
0.0
 10
5.7025072896
 20
6.7099130979
 30
0.0
 10
5.7459962484
 20
6.6897707731
 30
0.0
 10
5.8035713115
 20
6.6702646674
 30
0.0
 10
5.8757793433
 20
6.656546026
 30
0.0
 10
5.9496232328
 20
6.6526461062
 30
0.0
 10
6.0111180407
 20
6.6577426052
 30
0.0
 10
6.0593680912
 20
6.6667423671
 30
0.0
 10
6.0947634315
 20
6.6759140744
 30
0.0
 10
6.1291849336
 20
6.687449086
 30
0.0
 10
6.1624222126
 20
6.701261648
 30
0.0
 10
6.1942617831
 20
6.7172732465
 30
0.0
 10
6.2244920255
 20
6.7353982579
 30
0.0
 10
6.2529334371
 20
6.7555055484
 30
0.0
 10
6.2879839424
 20
6.7845738882
 30
0.0
 10
6.3265653001
 20
6.8251960711
 30
0.0
 10
6.3514593647
 20
6.8621675048
 30
0.0
 10
6.3620127944
 20
6.8813285983
 30
0.0
 11
5.4826718768
 21
6.9877838031
 31
0.0
 11
5.4897807713
 21
6.9569909445
 31
0.0
 11
5.4997576413
 21
6.9267753089
 31
0.0
 11
5.5125332756
 21
6.8973279204
 31
0.0
 11
5.528037589
 21
6.8688394623
 31
0.0
 11
5.5668153277
 21
6.8154487798
 31
0.0
 11
5.5898326461
 21
6.7908826878
 31
0.0
 11
5.6150911629
 21
6.7679553522
 31
0.0
 11
5.6424231066
 21
6.7468055682
 31
0.0
 11
5.6716492431
 21
6.7275635955
 31
0.0
 11
5.7025901061
 21
6.7103593913
 31
0.0
 11
5.7350529843
 21
6.6953052575
 31
0.0
 11
5.8036900592
 21
6.6719845917
 31
0.0
 11
5.8758247103
 21
6.6582137606
 31
0.0
 11
5.9496216421
 21
6.6543179331
 31
0.0
 11
6.023211563
 21
6.6604203624
 31
0.0
 11
6.0593447244
 21
6.6671701322
 31
0.0
 11
6.0947260492
 21
6.6763452457
 31
0.0
 11
6.1291334964
 21
6.687883589
 31
0.0
 11
6.1623519319
 21
6.701702936
 31
0.0
 11
6.1941663449
 21
6.7177207148
 31
0.0
 11
6.2243698674
 21
6.735843498
 31
0.0
 11
6.2527790537
 21
6.7559466342
 31
0.0
 11
6.279214644
 21
6.7778998918
 31
0.0
 11
6.3254795626
 21
6.8268123216
 31
0.0
 11
6.3620127944
 21
6.8813285983
 31
0.0
  0
SPLINE
  5
349
100
AcDbEntity
  8
0
100
AcDbSpline
 62
9
  6
CONTINUOUS
 70
0
 71
3
 72
36
 73
32
 74
30
 42
0.0000001
 43
0.0000001
 44
0.0000000001
 12
1.1473532599
 22
-1.0995231696
 32
0.0
 13
-0.9779097686
 23
1.2526225241
 33
0.0
 40
0.0
 40
0.0
 40
0.0
 40
0.0
 40
0.0307824304
 40
0.0610607574
 40
0.0908446725
 40
0.120210906
 40
0.1492466748
 40
0.1780509522
 40
0.2067303412
 40
0.2354008774
 40
0.2641821198
 40
0.2931819676
 40
0.3225007498
 40
0.352220819
 40
0.3824038911
 40
0.4130948715
 40
0.4443096586
 40
0.4760444777
 40
0.5082768993
 40
0.540959765
 40
0.6073577871
 40
0.6409779832
 40
0.6747351141
 40
0.7422016427
 40
0.7757775001
 40
0.8091035445
 40
0.8420936497
 40
0.8746782967
 40
0.9068002414
 40
0.9384169963
 40
1.0
 40
1.0
 40
1.0
 40
1.0
 10
6.3334921417
 20
7.3424900551
 30
0.0
 10
6.3452649156
 20
7.3312080567
 30
0.0
 10
6.3675389486
 20
7.307664335
 30
0.0
 10
6.3967903369
 20
7.2693358972
 30
0.0
 10
6.4211504247
 20
7.2285868583
 30
0.0
 10
6.4404396106
 20
7.1859289447
 30
0.0
 10
6.4544708106
 20
7.1418043164
 30
0.0
 10
6.4631080737
 20
7.096684716
 30
0.0
 10
6.466281467
 20
7.0510465676
 30
0.0
 10
6.4638860903
 20
7.005371676
 30
0.0
 10
6.4559776065
 20
6.9601541889
 30
0.0
 10
6.4426652225
 20
6.9158656185
 30
0.0
 10
6.4240467483
 20
6.8729940891
 30
0.0
 10
6.4003735752
 20
6.8319742342
 30
0.0
 10
6.3718846526
 20
6.793237359
 30
0.0
 10
6.3388623322
 20
6.7572108516
 30
0.0
 10
6.3016961072
 20
6.7242321747
 30
0.0
 10
6.2607523278
 20
6.6946698055
 30
0.0
 10
6.2164597283
 20
6.6688312991
 30
0.0
 10
6.1532923525
 20
6.6395172417
 30
0.0
 10
6.0856171564
 20
6.6188986836
 30
0.0
 10
6.0156417111
 20
6.6072825626
 30
0.0
 10
5.944349895
 20
6.6017997932
 30
0.0
 10
5.8726142085
 20
6.6055951203
 30
0.0
 10
5.8025792213
 20
6.6186824501
 30
0.0
 10
5.7515509056
 20
6.6329602839
 30
0.0
 10
5.702512002
 20
6.6516003901
 30
0.0
 10
5.6559765062
 20
6.6744078044
 30
0.0
 10
5.6124036826
 20
6.7011247517
 30
0.0
 10
5.5594259214
 20
6.7412365563
 30
0.0
 10
5.5246273764
 20
6.7769178009
 30
0.0
 10
5.5045531694
 20
6.8026312201
 30
0.0
 11
6.3334921417
 21
7.3424900551
 31
0.0
 11
6.3670587902
 21
7.3069061351
 31
0.0
 11
6.3961925118
 21
7.2686121633
 31
0.0
 11
6.420459391
 21
7.2279756225
 31
0.0
 11
6.4396578688
 21
7.1854404993
 31
0.0
 11
6.4536179544
 21
7.1414610143
 31
0.0
 11
6.4622112867
 21
7.0965008056
 31
0.0
 11
6.4653546651
 21
7.051033728
 31
0.0
 11
6.4629782312
 21
7.0055342072
 31
0.0
 11
6.4551179115
 21
6.9604772297
 31
0.0
 11
6.4418683414
 21
6.9163380933
 31
0.0
 11
6.4233475914
 21
6.873585693
 31
0.0
 11
6.3997718664
 21
6.8326613608
 31
0.0
 11
6.3713840257
 21
6.7939988692
 31
0.0
 11
6.3384672391
 21
6.7580096561
 31
0.0
 11
6.3013876963
 21
6.7250591613
 31
0.0
 11
6.2605237378
 21
6.695505235
 31
0.0
 11
6.2163018108
 21
6.6696575651
 31
0.0
 11
6.1691988141
 21
6.6477753304
 31
0.0
 11
6.0683236342
 21
6.6168270966
 31
0.0
 11
6.0156191043
 21
6.6080690468
 31
0.0
 11
5.9621329937
 21
6.6039451248
 31
0.0
 11
5.8550720119
 21
6.6096685879
 31
0.0
 11
5.8026239454
 21
6.619474055
 31
0.0
 11
5.7516304323
 21
6.6337709798
 31
0.0
 11
5.70263482
 21
6.6524233175
 31
0.0
 11
5.656149367
 21
6.675236434
 31
0.0
 11
5.6126547456
 21
6.7019561688
 31
0.0
 11
5.5726230719
 21
6.7323185485
 31
0.0
 11
5.5045531694
 21
6.8026312201
 31
0.0
  0
SPLINE
  5
34A
100
AcDbEntity
  8
0
100
AcDbSpline
 62
9
  6
CONTINUOUS
 70
0
 71
3
 72
11
 73
7
 74
5
 42
0.0000001
 43
0.0000001
 44
0.0000000001
 12
-0.0007203261
 22
0.0166114308
 32
0.0
 13
-0.0112987962
 23
0.0121981846
 33
0.0
 40
0.0
 40
0.0
 40
0.0
 40
0.0
 40
0.1918480292
 40
0.4286039777
 40
0.7023315253
 40
1.0
 40
1.0
 40
1.0
 40
1.0
 10
5.6005115086
 20
7.2792745188
 30
0.0
 10
5.6004654442
 20
7.2803368089
 30
0.0
 10
5.5998916136
 20
7.2826813709
 30
0.0
 10
5.5982399161
 20
7.2862159017
 30
0.0
 10
5.5958067251
 20
7.2899917754
 30
0.0
 10
5.5937874817
 20
7.2924417687
 30
0.0
 10
5.5926663832
 20
7.293652107
 30
0.0
 11
5.6005115086
 21
7.2792745188
 31
0.0
 11
5.599864757
 21
7.2823981308
 31
0.0
 11
5.5982544942
 21
7.2859902732
 31
0.0
 11
5.595810217
 21
7.2898294986
 31
0.0
 11
5.5926663832
 21
7.293652107
 31
0.0
  0
SPLINE
  5
34B
100
AcDbEntity
  8
0
100
AcDbSpline
 62
9
  6
CONTINUOUS
 70
0
 71
3
 72
9
 73
5
 74
3
 42
0.0000001
 43
0.0000001
 44
0.0000000001
 12
-0.0068157475
 22
0.0073582836
 32
0.0
 13
-0.008028242
 23
0.0060121612
 33
0.0
 40
0.0
 40
0.0
 40
0.0
 40
0.0
 40
0.5084971303
 40
1.0
 40
1.0
 40
1.0
 40
1.0
 10
5.5926663832
 20
7.293652107
 30
0.0
 10
5.5915111205
 20
7.294899329
 30
0.0
 10
5.5890931524
 20
7.2972181114
 30
0.0
 10
5.5864906039
 20
7.2993218611
 30
0.0
 10
5.5851753026
 20
7.3003068592
 30
0.0
 11
5.5926663832
 21
7.293652107
 31
0.0
 11
5.589004334
 21
7.2972019165
 31
0.0
 11
5.5851753026
 21
7.3003068592
 31
0.0
  0
SPLINE
  5
34C
100
AcDbEntity
  8
0
100
AcDbSpline
 62
9
  6
CONTINUOUS
 70
0
 71
3
 72
15
 73
11
 74
9
 42
0.0000001
 43
0.0000001
 44
0.0000000001
 12
0.0245586734
 22
0.0
 32
0.0
 13
0.0
 23
-0.0245586734
 33
0.0
 40
0.0
 40
0.0
 40
0.0
 40
0.0
 40
0.1582591698
 40
0.313421477
 40
0.4602087466
 40
0.5947587396
 40
0.7152736029
 40
0.8213061892
 40
0.9147732494
 40
1.0
 40
1.0
 40
1.0
 40
1.0
 10
5.5851753026
 20
7.3003068592
 30
0.0
 10
5.5864708477
 20
7.3003068592
 30
0.0
 10
5.5890384427
 20
7.3001694567
 30
0.0
 10
5.592766319
 20
7.2995811683
 30
0.0
 10
5.5962196206
 20
7.2986276762
 30
0.0
 10
5.5992550071
 20
7.2973307384
 30
0.0
 10
5.601770709
 20
7.2957487856
 30
0.0
 10
5.6036704241
 20
7.293909434
 30
0.0
 10
5.6048778167
 20
7.2918777097
 30
0.0
 10
5.6051753026
 20
7.2904061592
 30
0.0
 10
5.6051753026
 20
7.2897084739
 30
0.0
 11
5.5851753026
 21
7.3003068592
 31
0.0
 11
5.5890564812
 21
7.3001009804
 31
0.0
 11
5.5928190866
 21
7.2994982166
 31
0.0
 11
5.5962890269
 21
7.2985210662
 31
0.0
 11
5.5993193814
 21
7.2972035655
 31
0.0
 11
5.6018055408
 21
7.2955977175
 31
0.0
 11
5.6036494494
 21
7.2937589898
 31
0.0
 11
5.6047868349
 21
7.2917651645
 31
0.0
 11
5.6051753026
 21
7.2897084739
 31
0.0
  0
SPLINE
  5
34D
100
AcDbEntity
  8
0
100
AcDbSpline
 62
9
  6
CONTINUOUS
 70
0
 71
3
 72
10
 73
6
 74
4
 42
0.0000001
 43
0.0000001
 44
0.0000000001
 12
0.0083918055
 22
0.0081482271
 32
0.0
 13
-0.0000000185
 23
0.0116968374
 33
0.0
 40
0.0
 40
0.0
 40
0.0
 40
0.0
 40
0.5117480501
 40
0.7577465883
 40
1.0
 40
1.0
 40
1.0
 40
1.0
 10
5.6005115086
 20
7.2792745188
 30
0.0
 10
5.6019430053
 20
7.2806644653
 30
0.0
 10
5.6037372945
 20
7.2831312645
 30
0.0
 10
5.6049674014
 20
7.286853593
 30
0.0
 10
5.6051753041
 20
7.288763941
 30
0.0
 10
5.6051753026
 20
7.2897084739
 30
0.0
 11
5.6005115086
 21
7.2792745188
 31
0.0
 11
5.603973326
 21
7.2841577581
 31
0.0
 11
5.6048723216
 21
7.2868911198
 31
0.0
 11
5.6051753026
 21
7.2897084739
 31
0.0
  0
SPLINE
  5
34E
100
AcDbEntity
  8
0
100
AcDbSpline
 62
9
  6
CONTINUOUS
 70
0
 71
3
 72
9
 73
5
 74
3
 42
0.0000001
 43
0.0000001
 44
0.0000000001
 12
0.0047746463
 22
0.0053326021
 32
0.0
 13
0.0017592364
 23
0.006938226
 33
0.0
 40
0.0
 40
0.0
 40
0.0
 40
0.0
 40
0.5093834897
 40
1.0
 40
1.0
 40
1.0
 40
1.0
 10
5.601370531
 20
6.9256150957
 30
0.0
 10
5.6021812396
 20
6.9265205422
 30
0.0
 10
5.6035856839
 20
6.9284786047
 30
0.0
 10
5.6044788434
 20
6.9307220608
 30
0.0
 10
5.6047665469
 20
6.9318567302
 30
0.0
 11
5.601370531
 21
6.9256150957
 31
0.0
 11
5.6034793772
 21
6.9285894031
 31
0.0
 11
5.6047665469
 21
6.9318567302
 31
0.0
  0
SPLINE
  5
34F
100
AcDbEntity
  8
0
100
AcDbSpline
 62
9
  6
CONTINUOUS
 70
0
 71
3
 72
10
 73
6
 74
4
 42
0.0000001
 43
0.0000001
 44
0.0000000001
 12
-0.0000000185
 22
-0.0116968382
 32
0.0
 13
0.0083918061
 23
-0.0081482277
 33
0.0
 40
0.0
 40
0.0
 40
0.0
 40
0.0
 40
0.2422463542
 40
0.4882358718
 40
1.0
 40
1.0
 40
1.0
 40
1.0
 10
6.2776753026
 20
7.2897084739
 30
0.0
 10
6.2776753011
 20
7.2887639685
 30
0.0
 10
6.2778831615
 20
7.2868536792
 30
0.0
 10
6.2791132762
 20
7.2831313524
 30
0.0
 10
6.2809075548
 20
7.280664509
 30
0.0
 10
6.2823390966
 20
7.2792745188
 30
0.0
 11
6.2776753026
 21
7.2897084739
 31
0.0
 11
6.2779782497
 21
7.2868911989
 31
0.0
 11
6.2788772008
 21
7.2841579335
 31
0.0
 11
6.2823390966
 21
7.2792745188
 31
0.0
  0
LINE
  5
350
100
AcDbEntity
  8
0
100
AcDbLine
 62
9
  6
CONTINUOUS
 10
6.2823383517
 20
7.279275275
 11
6.2817786017
 21
7.042901342
  0
LINE
  5
351
100
AcDbEntity
  8
0
100
AcDbLine
 62
9
  6
CONTINUOUS
 10
6.2817786017
 20
7.042901342
 11
6.2815120215
 21
6.935115311
  0
LINE
  5
352
100
AcDbEntity
  8
0
100
AcDbLine
 62
9
  6
CONTINUOUS
 10
6.2815120215
 20
6.935115311
 11
6.2814878053
 21
6.9256060586
  0
SPLINE
  5
353
100
AcDbEntity
  8
0
100
AcDbSpline
 62
9
  6
CONTINUOUS
 70
0
 71
3
 72
14
 73
10
 74
8
 42
0.0000001
 43
0.0000001
 44
0.0000000001
 12
-0.2061968746
 22
-0.2093210931
 32
0.0
 13
0.0224528798
 23
-0.2929647407
 33
0.0
 40
0.0
 40
0.0
 40
0.0
 40
0.0
 40
0.2581051599
 40
0.384683636
 40
0.5096024893
 40
0.6331924745
 40
0.7558412989
 40
0.8779764685
 40
1.0
 40
1.0
 40
1.0
 40
1.0
 10
5.6005122535
 20
7.279275275
 30
0.0
 10
5.5827720944
 20
7.2612663236
 30
0.0
 10
5.5588068418
 20
7.2317673656
 30
0.0
 10
5.5336320899
 20
7.1885938106
 30
0.0
 10
5.5185663756
 20
7.1550059732
 30
0.0
 10
5.5073282775
 20
7.1203610059
 30
0.0
 10
5.500026102
 20
7.0849507592
 30
0.0
 10
5.4967539492
 20
7.049102414
 30
0.0
 10
5.497250525
 20
7.0251356858
 30
0.0
 10
5.4981637849
 20
7.0132194884
 30
0.0
 11
5.6005122535
 21
7.279275275
 31
0.0
 11
5.5528465194
 21
7.2202897007
 31
0.0
 11
5.5341384285
 21
7.1881457162
 31
0.0
 11
5.5191338631
 21
7.1546485962
 31
0.0
 11
5.5079483649
 21
7.1201005338
 31
0.0
 11
5.5006858876
 21
7.0848027601
 31
0.0
 11
5.497422221
 21
7.0490652458
 31
0.0
 11
5.4981637849
 21
7.0132194884
 31
0.0
  0
LINE
  5
354
100
AcDbEntity
  8
0
100
AcDbLine
 62
9
  6
CONTINUOUS
 10
5.6013627999
 20
6.9256060586
 11
5.6013385837
 21
6.9351153206
  0
LINE
  5
355
100
AcDbEntity
  8
0
100
AcDbLine
 62
9
  6
CONTINUOUS
 10
5.6013385837
 20
6.9351153206
 11
5.6010729031
 21
7.0425316251
  0
LINE
  5
356
100
AcDbEntity
  8
0
100
AcDbLine
 62
9
  6
CONTINUOUS
 10
5.6010729031
 20
7.0425316251
 11
5.6005122535
 21
7.279275275
  0
SPLINE
  5
357
100
AcDbEntity
  8
0
100
AcDbSpline
 62
9
  6
CONTINUOUS
 70
0
 71
3
 72
9
 73
5
 74
3
 42
0.0000001
 43
0.0000001
 44
0.0000000001
 12
0.0509453691
 22
-0.0609993222
 32
0.0
 13
0.0356954436
 23
-0.0710083322
 33
0.0
 40
0.0
 40
0.0
 40
0.0
 40
0.0
 40
0.5035338412
 40
1.0
 40
1.0
 40
1.0
 40
1.0
 10
6.2838148155
 20
6.9228480766
 30
0.0
 10
6.2923657213
 20
6.9126096689
 30
0.0
 10
6.3082286352
 20
6.891313362
 30
0.0
 10
6.3215532436
 20
6.8683375755
 30
0.0
 10
6.3274604369
 20
6.8565864976
 30
0.0
 11
6.2838148155
 21
6.9228480766
 31
0.0
 11
6.3076971712
 21
6.8907370206
 31
0.0
 11
6.3274604369
 21
6.8565864976
 31
0.0
  0
SPLINE
  5
358
100
AcDbEntity
  8
0
100
AcDbSpline
 62
9
  6
CONTINUOUS
 70
0
 71
3
 72
15
 73
11
 74
9
 42
0.0000001
 43
0.0000001
 44
0.0000000001
 12
0.0
 22
0.0245586537
 32
0.0
 13
0.0245586537
 23
-0.0
 33
0.0
 40
0.0
 40
0.0
 40
0.0
 40
0.0
 40
0.0852279636
 40
0.1786984478
 40
0.2847341157
 40
0.4052508973
 40
0.5398005139
 40
0.6865834916
 40
0.8417421603
 40
1.0
 40
1.0
 40
1.0
 40
1.0
 10
6.2776753026
 20
7.2897084739
 30
0.0
 10
6.2776753026
 20
7.2904061686
 30
0.0
 10
6.2779728402
 20
7.2918777529
 30
0.0
 10
6.2791803094
 20
7.2939094935
 30
0.0
 10
6.2810800419
 20
7.2957489232
 30
0.0
 10
6.28359581
 20
7.2973308489
 30
0.0
 10
6.2866311851
 20
7.2986277369
 30
0.0
 10
6.290084412
 20
7.2995812333
 30
0.0
 10
6.2938122175
 20
7.3001694747
 30
0.0
 10
6.2963797694
 20
7.3003068592
 30
0.0
 10
6.2976753026
 20
7.3003068592
 30
0.0
 11
6.2776753026
 21
7.2897084739
 31
0.0
 11
6.2780638128
 21
7.291765185
 31
0.0
 11
6.2792012755
 21
7.293759061
 31
0.0
 11
6.28104523
 21
7.2955978468
 31
0.0
 11
6.2835314471
 21
7.2972036879
 31
0.0
 11
6.2865618056
 21
7.2985211499
 31
0.0
 11
6.2900316411
 21
7.2994982726
 31
0.0
 11
6.2937941588
 21
7.3001009997
 31
0.0
 11
6.2976753026
 21
7.3003068592
 31
0.0
  0
SPLINE
  5
359
100
AcDbEntity
  8
0
100
AcDbSpline
 62
9
  6
CONTINUOUS
 70
0
 71
3
 72
11
 73
7
 74
5
 42
0.0000001
 43
0.0000001
 44
0.0000000001
 12
-0.0156389335
 22
-0.0117099579
 32
0.0
 13
-0.0093522432
 23
-0.0171532767
 33
0.0
 40
0.0
 40
0.0
 40
0.0
 40
0.0
 40
0.2524984039
 40
0.5137242596
 40
0.7670620917
 40
1.0
 40
1.0
 40
1.0
 40
1.0
 10
6.2976753026
 20
7.3003068592
 30
0.0
 10
6.296359034
 20
7.2993212773
 30
0.0
 10
6.2937547432
 20
7.297215689
 30
0.0
 10
6.2901427277
 20
7.2937518041
 30
0.0
 10
6.2870402762
 20
7.2899866085
 30
0.0
 10
6.285319102
 20
7.2873163465
 30
0.0
 10
6.284592938
 20
7.2859844637
 30
0.0
 11
6.2976753026
 21
7.3003068592
 31
0.0
 11
6.2938437307
 21
7.2971996951
 31
0.0
 11
6.2901796452
 21
7.2936470567
 31
0.0
 11
6.2870362395
 21
7.2898239053
 31
0.0
 11
6.284592938
 21
7.2859844637
 31
0.0
  0
SPLINE
  5
35A
100
AcDbEntity
  8
0
100
AcDbSpline
 62
9
  6
CONTINUOUS
 70
0
 71
3
 72
9
 73
5
 74
3
 42
0.0000001
 43
0.0000001
 44
0.0000000001
 12
-0.0034081652
 22
-0.0062510351
 32
0.0
 13
-0.0003104013
 23
-0.0071129938
 33
0.0
 40
0.0
 40
0.0
 40
0.0
 40
0.0
 40
0.5523817352
 40
1.0
 40
1.0
 40
1.0
 40
1.0
 10
6.284592938
 20
7.2859844637
 30
0.0
 10
6.2839654019
 20
7.2848334779
 30
0.0
 10
6.2829581061
 20
7.2826781203
 30
0.0
 10
6.2823854103
 20
7.2803358208
 30
0.0
 10
6.2823390966
 20
7.2792745188
 30
0.0
 11
6.284592938
 21
7.2859844637
 31
0.0
 11
6.2829851859
 21
7.2823952768
 31
0.0
 11
6.2823390966
 21
7.2792745188
 31
0.0
  0
SPLINE
  5
35B
100
AcDbEntity
  8
0
100
AcDbSpline
 62
9
  6
CONTINUOUS
 70
0
 71
3
 72
15
 73
11
 74
9
 42
0.0000001
 43
0.0000001
 44
0.0000000001
 12
0.0225478707
 22
0.2930512941
 32
0.0
 13
-0.2062625409
 23
0.2093877543
 33
0.0
 40
0.0
 40
0.0
 40
0.0
 40
0.0
 40
0.1219370077
 40
0.2439827619
 40
0.3665709913
 40
0.4901327111
 40
0.6150602791
 40
0.7416624943
 40
0.869996008
 40
1.0
 40
1.0
 40
1.0
 40
1.0
 10
6.3846831676
 20
7.01321935
 30
0.0
 10
6.3855996409
 20
7.0251306159
 30
0.0
 10
6.386107517
 20
7.0490877175
 30
0.0
 10
6.3828305756
 20
7.0849245252
 30
0.0
 10
6.3755266967
 20
7.120327335
 30
0.0
 10
6.3642978298
 20
7.1549805206
 30
0.0
 10
6.3492280647
 20
7.1885750488
 30
0.0
 10
6.330437497
 20
7.2207783503
 30
0.0
 10
6.308176432
 20
7.2512956755
 30
0.0
 10
6.2912766696
 20
7.270201527
 30
0.0
 10
6.2823383517
 20
7.279275275
 30
0.0
 11
6.3846831676
 21
7.01321935
 31
0.0
 11
6.3854356531
 21
7.0490508639
 31
0.0
 11
6.3821719027
 21
7.0847734563
 31
0.0
 11
6.3749096526
 21
7.1200648107
 31
0.0
 11
6.3637299045
 21
7.1546181575
 31
0.0
 11
6.3487188946
 21
7.1881280054
 31
0.0
 11
6.3299973248
 21
7.220285922
 31
0.0
 11
6.3077893266
 21
7.2507746479
 31
0.0
 11
6.2823383517
 21
7.279275275
 31
0.0
  0
SPLINE
  5
35C
100
AcDbEntity
  8
0
100
AcDbSpline
 62
7
  6
CONTINUOUS
 70
0
 71
3
 72
44
 73
40
 74
38
 42
0.0000001
 43
0.0000001
 44
0.0000000001
 12
-0.7465412049
 22
-0.0
 32
0.0
 13
0.7465412049
 23
-0.0
 33
0.0
 40
0.0
 40
0.0
 40
0.0
 40
0.0
 40
0.017431176
 40
0.0348455636
 40
0.0520318618
 40
0.0689121486
 40
0.0855543974
 40
0.1019507592
 40
0.1181100925
 40
0.1340932667
 40
0.1499283226
 40
0.1656254142
 40
0.1967110252
 40
0.2275034217
 40
0.2580903687
 40
0.3188587467
 40
0.3491348162
 40
0.3793601826
 40
0.4095536222
 40
0.4397245358
 40
0.5000274961
 40
0.5603311751
 40
0.5905028608
 40
0.6206971331
 40
0.6509228803
 40
0.6811991142
 40
0.7419675141
 40
0.8033041043
 40
0.8343900558
 40
0.8500860941
 40
0.8659202076
 40
0.8819042038
 40
0.8980625017
 40
0.9144547725
 40
0.9310965762
 40
0.947976331
 40
0.9651579021
 40
0.9825695162
 40
1.0
 40
1.0
 40
1.0
 40
1.0
 10
4.4134764826
 20
3.3341650033
 30
0.0
 10
4.4091387856
 20
3.3341650033
 30
0.0
 10
4.4004562738
 20
3.3334820443
 30
0.0
 10
4.3877822426
 20
3.3306538381
 30
0.0
 10
4.3757294953
 20
3.3261995754
 30
0.0
 10
4.3645285876
 20
3.3203206575
 30
0.0
 10
4.3542326208
 20
3.313330015
 30
0.0
 10
4.3448129717
 20
3.3054828932
 30
0.0
 10
4.3362301216
 20
3.2969644254
 30
0.0
 10
4.3284370957
 20
3.2879051675
 30
0.0
 10
4.3213578448
 20
3.2784243851
 30
0.0
 10
4.3127951912
 20
3.2653962911
 30
0.0
 10
4.3035472354
 20
3.2484109403
 30
0.0
 10
4.2943526217
 20
3.2272929411
 30
0.0
 10
4.2842901032
 20
3.1985887012
 30
0.0
 10
4.2768948215
 20
3.169169447
 30
0.0
 10
4.2715234374
 20
3.139469959
 30
0.0
 10
4.268375722
 20
3.1171151508
 30
0.0
 10
4.2660297239
 20
3.0946904948
 30
0.0
 10
4.2638499666
 20
3.0647377742
 30
0.0
 10
4.2628109249
 20
3.0272099917
 30
0.0
 10
4.2638495646
 20
2.9896819134
 30
0.0
 10
4.2660311009
 20
2.9597287985
 30
0.0
 10
4.2683764829
 20
2.9373034509
 30
0.0
 10
4.2715239854
 20
2.9149487963
 30
0.0
 10
4.276898233
 20
2.8852468747
 30
0.0
 10
4.2861578974
 20
2.8484107911
 30
0.0
 10
4.2999134772
 20
2.8126954051
 30
0.0
 10
4.3127996994
 20
2.789023919
 30
0.0
 10
4.3213628737
 20
2.7759962867
 30
0.0
 10
4.3284435306
 20
2.7665170133
 30
0.0
 10
4.3362355979
 20
2.7574573718
 30
0.0
 10
4.3448175193
 20
2.7489393449
 30
0.0
 10
4.3542388956
 20
2.7410963411
 30
0.0
 10
4.3645358958
 20
2.7341096051
 30
0.0
 10
4.3757356588
 20
2.728231965
 30
0.0
 10
4.3877853648
 20
2.7237753518
 30
0.0
 10
4.4004572999
 20
2.7209466588
 30
0.0
 10
4.409138938
 20
2.7202635206
 30
0.0
 10
4.4134764628
 20
2.7202635206
 30
0.0
 11
4.4134764826
 21
3.3341650033
 31
0.0
 11
4.4005008264
 21
3.3331786531
 31
0.0
 11
4.387809612
 21
3.3303595076
 31
0.0
 11
4.3757725925
 21
3.3259180841
 31
0.0
 11
4.3646003883
 21
3.3200881645
 31
0.0
 11
4.3543058877
 21
3.3131324383
 31
0.0
 11
4.3448884845
 21
3.305312987
 31
0.0
 11
4.3363159055
 21
3.2968252587
 31
0.0
 11
4.3285209584
 21
3.2877912251
 31
0.0
 11
4.321434656
 21
3.2783290533
 31
0.0
 11
4.3149918296
 21
3.2685405993
 31
0.0
 11
4.3038210808
 21
3.2481993897
 31
0.0
 11
4.2945957147
 21
3.2271439572
 31
0.0
 11
4.2869974369
 21
3.2056108028
 31
0.0
 11
4.2757104333
 21
3.1616712259
 31
0.0
 11
4.2716664293
 21
3.1394336112
 31
0.0
 11
4.2685078224
 21
3.1170912965
 31
0.0
 11
4.2661474338
 21
3.0946745768
 31
0.0
 11
4.2645066921
 21
3.0722105858
 31
0.0
 11
4.2632264071
 21
3.0272101498
 31
0.0
 11
4.2645068988
 21
2.982209183
 31
0.0
 11
4.2661484841
 21
2.9597446757
 31
0.0
 11
4.2685086677
 21
2.9373273093
 31
0.0
 11
4.2716673841
 21
2.914984723
 31
0.0
 11
4.2757125577
 21
2.8927471963
 31
0.0
 11
4.2870012362
 21
2.8488080329
 31
0.0
 11
4.3038262456
 21
2.8062208294
 31
0.0
 11
4.3149969056
 21
2.7858792811
 31
0.0
 11
4.321439828
 21
2.7760918316
 31
0.0
 11
4.3285267244
 21
2.7666309838
 31
0.0
 11
4.3363217991
 21
2.7575962497
 31
0.0
 11
4.3448940599
 21
2.7491092987
 31
0.0
 11
4.3543112835
 21
2.7412944126
 31
0.0
 11
4.3646073762
 21
2.7343416372
 31
0.0
 11
4.3757794845
 21
2.7285123921
 31
0.0
 11
4.387812431
 21
2.7240701254
 31
0.0
 11
4.4005013492
 21
2.7212501913
 31
0.0
 11
4.4134764628
 21
2.7202635206
 31
0.0
  0
SPLINE
  5
35D
100
AcDbEntity
  8
0
100
AcDbSpline
 62
7
  6
CONTINUOUS
 70
0
 71
3
 72
44
 73
40
 74
38
 42
0.0000001
 43
0.0000001
 44
0.0000000001
 12
-0.7465410379
 22
-0.0
 32
0.0
 13
0.7465410379
 23
-0.0
 33
0.0
 40
0.0
 40
0.0
 40
0.0
 40
0.0
 40
0.0174311513
 40
0.0348451678
 40
0.0520307481
 40
0.0689109725
 40
0.0855530768
 40
0.1019485467
 40
0.1181076685
 40
0.1340910495
 40
0.1499259147
 40
0.165622778
 40
0.1967086566
 40
0.2275008735
 40
0.2580881849
 40
0.318857005
 40
0.3491333442
 40
0.37935897
 40
0.4095527879
 40
0.4397241403
 40
0.5000278273
 40
0.5603321456
 40
0.590503803
 40
0.6206981866
 40
0.6509240194
 40
0.6812001528
 40
0.7419685876
 40
0.8033051806
 40
0.8343913115
 40
0.8500872495
 40
0.8659211798
 40
0.881905276
 40
0.8980635304
 40
0.9144553925
 40
0.9310971558
 40
0.9479768418
 40
0.9651579418
 40
0.9825694051
 40
1.0
 40
1.0
 40
1.0
 40
1.0
 10
4.4134764733
 20
4.1341650033
 30
0.0
 10
4.4091387834
 20
4.1341650033
 30
0.0
 10
4.4004563735
 20
4.1334819689
 30
0.0
 10
4.3877826574
 20
4.1306535576
 30
0.0
 10
4.3757304113
 20
4.1261987987
 30
0.0
 10
4.3645297029
 20
4.1203200762
 30
0.0
 10
4.3542335901
 20
4.1133301704
 30
0.0
 10
4.3448136245
 20
4.1054838966
 30
0.0
 10
4.3362309584
 20
4.096965534
 30
0.0
 10
4.328438105
 20
4.0879062126
 30
0.0
 10
4.321358501
 20
4.0784257707
 30
0.0
 10
4.3127957168
 20
4.0653977889
 30
0.0
 10
4.3035483528
 20
4.0484121801
 30
0.0
 10
4.2943528546
 20
4.0272944582
 30
0.0
 10
4.2842908601
 20
3.9985898544
 30
0.0
 10
4.2768949051
 20
3.9691705392
 30
0.0
 10
4.2715234664
 20
3.9394708086
 30
0.0
 10
4.268375871
 20
3.9171157582
 30
0.0
 10
4.2660302294
 20
3.8946908051
 30
0.0
 10
4.2638499691
 20
3.864737743
 30
0.0
 10
4.2628112136
 20
3.8272095146
 30
0.0
 10
4.2638492008
 20
3.7896810822
 30
0.0
 10
4.2660316407
 20
3.7597278516
 30
0.0
 10
4.2683771866
 20
3.7373024984
 30
0.0
 10
4.2715240482
 20
3.7149477277
 30
0.0
 10
4.2768989479
 20
3.685245923
 30
0.0
 10
4.2861581301
 20
3.6484097549
 30
0.0
 10
4.2999140956
 20
3.6126944562
 30
0.0
 10
4.3128001713
 20
3.5890228856
 30
0.0
 10
4.321363373
 20
3.5759952948
 30
0.0
 10
4.3284443263
 20
3.5665163046
 30
0.0
 10
4.3362363315
 20
3.5574566688
 30
0.0
 10
4.3448181026
 20
3.5489386106
 30
0.0
 10
4.3542394604
 20
3.5410957783
 30
0.0
 10
4.3645363088
 20
3.5341090691
 30
0.0
 10
4.3757358297
 20
3.5282312911
 30
0.0
 10
4.3877853582
 20
3.5237746449
 30
0.0
 10
4.4004572878
 20
3.5209464554
 30
0.0
 10
4.4091389106
 20
3.5202635206
 30
0.0
 10
4.4134764621
 20
3.5202635206
 30
0.0
 11
4.4134764733
 21
4.1341650033
 31
0.0
 11
4.4005008468
 21
4.1331785446
 31
0.0
 11
4.3878099736
 21
4.1303591536
 31
0.0
 11
4.3757736165
 21
4.1259174915
 31
0.0
 11
4.3646014226
 21
4.1200876588
 31
0.0
 11
4.3543066707
 21
4.1131325023
 31
0.0
 11
4.3448893535
 21
4.1053139942
 31
0.0
 11
4.3363168329
 21
4.0968264351
 31
0.0
 11
4.3285218177
 21
4.0877922598
 31
0.0
 11
4.3214353496
 21
4.0783303933
 31
0.0
 11
4.3149925091
 21
4.0685421557
 31
0.0
 11
4.3038218945
 21
4.0482006505
 31
0.0
 11
4.2945962091
 21
4.0271455099
 31
0.0
 11
4.2869979618
 21
4.0056120616
 31
0.0
 11
4.2757105574
 21
3.9616722575
 31
0.0
 11
4.2716664859
 21
3.9394344556
 31
0.0
 11
4.2685080154
 21
3.9170919311
 31
0.0
 11
4.2661478188
 21
3.8946749123
 31
0.0
 11
4.2645068798
 21
3.8722106122
 31
0.0
 11
4.2632265084
 21
3.8272096461
 31
0.0
 11
4.2645068869
 21
3.7822082087
 31
0.0
 11
4.2661489361
 21
3.7597437614
 31
0.0
 11
4.2685092388
 21
3.7373263292
 31
0.0
 11
4.2716676429
 21
3.7149836392
 31
0.0
 11
4.2757130162
 21
3.6927462302
 31
0.0
 11
4.2870016406
 21
3.6488070365
 31
0.0
 11
4.303826762
 21
3.6062198861
 31
0.0
 11
4.3149974358
 21
3.5858781984
 31
0.0
 11
4.3214403862
 21
3.5760908603
 31
0.0
 11
4.3285274142
 21
3.5666302852
 31
0.0
 11
4.3363225499
 21
3.5575955086
 31
0.0
 11
4.3448947362
 21
3.5491085323
 31
0.0
 11
4.3543117532
 21
3.5412938795
 31
0.0
 11
4.364607784
 21
3.5343410712
 31
0.0
 11
4.375779762
 21
3.5285116935
 31
0.0
 11
4.3878123686
 21
3.52406953
 31
0.0
 11
4.4005012513
 21
3.5212499682
 31
0.0
 11
4.4134764621
 21
3.5202635206
 31
0.0
  0
SPLINE
  5
35E
100
AcDbEntity
  8
0
100
AcDbSpline
 62
7
  6
CONTINUOUS
 70
0
 71
3
 72
15
 73
11
 74
9
 42
0.0000001
 43
0.0000001
 44
0.0000000001
 12
-0.0
 22
-0.1071534394
 32
0.0
 13
0.0996903916
 23
-0.0392897619
 33
0.0
 40
0.0
 40
0.0
 40
0.0
 40
0.0
 40
0.096035164
 40
0.1959427398
 40
0.3030564015
 40
0.4197034428
 40
0.5473643365
 40
0.6867667925
 40
0.8378179569
 40
1.0
 40
1.0
 40
1.0
 40
1.0
 10
5.7414338419
 20
5.2026427537
 30
0.0
 10
5.7414338419
 20
5.1992125877
 30
0.0
 10
5.7422606771
 20
5.192188657
 30
0.0
 10
5.7459415226
 20
5.1819243105
 30
0.0
 10
5.7519747913
 20
5.1719847448
 30
0.0
 10
5.7602275128
 20
5.1624622937
 30
0.0
 10
5.7706042135
 20
5.1534503433
 30
0.0
 10
5.7829863128
 20
5.1450488786
 30
0.0
 10
5.7972139645
 20
5.1373256978
 30
0.0
 10
5.8074784502
 20
5.1328395686
 30
0.0
 10
5.8128677807
 20
5.1307155373
 30
0.0
 11
5.7414338419
 21
5.2026427537
 31
0.0
 11
5.7426174005
 21
5.1924205455
 31
0.0
 11
5.7461671334
 21
5.182320751
 31
0.0
 11
5.7520454389
 21
5.1724627205
 31
0.0
 11
5.7601670941
 21
5.1629618254
 31
0.0
 11
5.7704435837
 21
5.1539331425
 31
0.0
 11
5.7827630325
 21
5.1454857361
 31
0.0
 11
5.7969614467
 21
5.1377152562
 31
0.0
 11
5.8128677807
 21
5.1307155373
 31
0.0
  0
SPLINE
  5
35F
100
AcDbEntity
  8
0
100
AcDbSpline
 62
7
  6
CONTINUOUS
 70
0
 71
3
 72
9
 73
5
 74
3
 42
0.0000001
 43
0.0000001
 44
0.0000000001
 12
0.0580587325
 22
-0.0228819823
 32
0.0
 13
0.0615160467
 23
-0.0104965484
 33
0.0
 40
0.0
 40
0.0
 40
0.0
 40
0.0
 40
0.4815254524
 40
1.0
 40
1.0
 40
1.0
 40
1.0
 10
5.8128677807
 20
5.1307155373
 30
0.0
 10
5.8221866998
 20
5.127042785
 30
0.0
 10
5.8420258752
 20
5.1206272828
 30
0.0
 10
5.8623897724
 20
5.1162250255
 30
0.0
 10
5.8730212739
 20
5.1144109611
 30
0.0
 11
5.8128677807
 21
5.1307155373
 31
0.0
 11
5.8414145012
 21
5.1213311344
 31
0.0
 11
5.8730212739
 21
5.1144109611
 31
0.0
  0
SPLINE
  5
360
100
AcDbEntity
  8
0
100
AcDbSpline
 62
9
  6
CONTINUOUS
 70
0
 71
3
 72
9
 73
5
 74
3
 42
0.0000001
 43
0.0000001
 44
0.0000000001
 12
0.0547150798
 22
0.0993421851
 32
0.0
 13
0.0203464509
 23
0.111573436
 33
0.0
 40
0.0
 40
0.0
 40
0.0
 40
0.0
 40
0.5036992428
 40
1.0
 40
1.0
 40
1.0
 40
1.0
 10
6.3620127944
 20
6.8813285983
 30
0.0
 10
6.3711994425
 20
6.8980081261
 30
0.0
 10
6.3868855524
 20
6.9326002974
 30
0.0
 10
6.3968043792
 20
6.9692799622
 30
0.0
 10
6.4001703655
 20
6.9877379558
 30
0.0
 11
6.3620127944
 21
6.8813285983
 31
0.0
 11
6.3855383716
 21
6.9333858512
 31
0.0
 11
6.4001703655
 21
6.9877379558
 31
0.0
  0
SPLINE
  5
361
100
AcDbEntity
  8
0
100
AcDbSpline
 62
9
  6
CONTINUOUS
 70
0
 71
3
 72
15
 73
11
 74
9
 42
0.0000001
 43
0.0000001
 44
0.0000000001
 12
0.0332188203
 22
0.3149414704
 32
0.0
 13
-0.2222423086
 23
0.2256102304
 33
0.0
 40
0.0
 40
0.0
 40
0.0
 40
0.0
 40
0.1220349631
 40
0.2440963349
 40
0.3666270265
 40
0.4900919298
 40
0.6149218674
 40
0.7414810576
 40
0.8698647903
 40
1.0
 40
1.0
 40
1.0
 40
1.0
 10
6.4037655785
 20
7.0127537596
 30
0.0
 10
6.4051168644
 20
7.0255650498
 30
0.0
 10
6.4063428973
 20
7.0513708842
 30
0.0
 10
6.4037122012
 20
7.0900660348
 30
0.0
 10
6.3965994092
 20
7.1283512253
 30
0.0
 10
6.3850904198
 20
7.1658530728
 30
0.0
 10
6.3693014015
 20
7.2022261393
 30
0.0
 10
6.3493500647
 20
7.2370901362
 30
0.0
 10
6.3255089121
 20
7.2701004574
 30
0.0
 10
6.3073158191
 20
7.2905154469
 30
0.0
 10
6.2976753026
 20
7.3003020585
 30
0.0
 11
6.4037655785
 21
7.0127537596
 31
0.0
 11
6.4055985452
 21
7.0513573399
 31
0.0
 11
6.4029754781
 21
7.089923675
 31
0.0
 11
6.3959027165
 21
7.1280777232
 31
0.0
 11
6.3844522851
 21
7.1654634315
 31
0.0
 11
6.3687286905
 21
7.201734137
 31
0.0
 11
6.3488567538
 21
7.2365407446
 31
0.0
 11
6.3250778513
 21
7.2695196571
 31
0.0
 11
6.2976753026
 21
7.3003020585
 31
0.0
  0
SPLINE
  5
362
100
AcDbEntity
  8
0
100
AcDbSpline
 62
9
  6
CONTINUOUS
 70
0
 71
3
 72
22
 73
18
 74
16
 42
0.0000001
 43
0.0000001
 44
0.0000000001
 12
-0.3671827226
 22
0.470331071
 32
0.0
 13
0.4308084701
 23
0.412842016
 33
0.0
 40
0.0
 40
0.0
 40
0.0
 40
0.0
 40
0.12717366
 40
0.189729318
 40
0.2516851875
 40
0.3131697358
 40
0.3743221279
 40
0.4352897064
 40
0.4962342708
 40
0.5573177197
 40
0.6186891173
 40
0.6804904151
 40
0.7428542962
 40
0.8058994805
 40
0.8697383281
 40
0.9344479562
 40
1.0
 40
1.0
 40
1.0
 40
1.0
 10
5.5045531694
 20
6.8026312201
 30
0.0
 10
5.4889878458
 20
6.822569128
 30
0.0
 10
5.4682529159
 20
6.8544103717
 30
0.0
 10
5.4468615888
 20
6.8997239733
 30
0.0
 10
5.4342159806
 20
6.9345512347
 30
0.0
 10
5.4249834827
 20
6.9701418953
 30
0.0
 10
5.4192022985
 20
7.006256044
 30
0.0
 10
5.4169268596
 20
7.042652825
 30
0.0
 10
5.4181982488
 20
7.0790846301
 30
0.0
 10
5.4229693519
 20
7.1153044655
 30
0.0
 10
5.4311982439
 20
7.1510728294
 30
0.0
 10
5.4428469509
 20
7.1861456731
 30
0.0
 10
5.4578402287
 20
7.2202866284
 30
0.0
 10
5.4760847881
 20
7.2532691276
 30
0.0
 10
5.4974994917
 20
7.2848529064
 30
0.0
 10
5.5219354565
 20
7.3147996868
 30
0.0
 10
5.5399456607
 20
7.3334703712
 30
0.0
 10
5.5493591192
 20
7.3424912505
 30
0.0
 11
5.5045531694
 21
6.8026312201
 31
0.0
 11
5.4632619568
 21
6.8662962105
 31
0.0
 11
5.4473450159
 21
6.900058449
 31
0.0
 11
5.4347428314
 21
6.9348123531
 31
0.0
 11
5.4255380153
 21
6.9703258174
 31
0.0
 11
5.4197800653
 21
7.0063574407
 31
0.0
 11
5.4175173803
 21
7.0426655199
 31
0.0
 11
5.4187776428
 21
7.0790084584
 31
0.0
 11
5.4235299798
 21
7.1151449598
 31
0.0
 11
5.4317332455
 21
7.1508337802
 31
0.0
 11
5.4433439112
 21
7.1858342178
 31
0.0
 11
5.4582917192
 21
7.2199116501
 31
0.0
 11
5.4764896164
 21
7.2528352747
 31
0.0
 11
5.4978498724
 21
7.284374485
 31
0.0
 11
5.5222269906
 21
7.3143176319
 31
0.0
 11
5.5493591192
 21
7.3424912505
 31
0.0
  0
ENDSEC
  0
SECTION
  2
OBJECTS
  0
DICTIONARY
  5
C
100
AcDbDictionary
280
0
281
1
  3
ACAD_GROUP
350
D
  3
ACAD_MLINESTYLE
350
17
  3
ACAD_LAYOUT
350
1A
  3
ACAD_PLOTSETTINGS
350
19
  3
ACAD_PLOTSTYLENAME
350
E
  0
DICTIONARY
  5
D
102
{ACAD_REACTORS
330
C
102
}
100
AcDbDictionary
280
0
281
1
  0
ACDBDICTIONARYWDFLT
  5
E
102
{ACAD_REACTORS
330
C
102
}
100
AcDbDictionary
281
1
  3
Normal
350
F
100
AcDbDictionaryWithDefault
340
F
  0
DICTIONARY
  5
17
102
{ACAD_REACTORS
330
C
102
}
100
AcDbDictionary
280
0
281
1
  3
Standard
350
18
  0
DICTIONARY
  5
19
102
{ACAD_REACTORS
330
C
102
}
100
AcDbDictionary
281
1
  0
DICTIONARY
  5
1A
102
{ACAD_REACTORS
330
C
102
}
100
AcDbDictionary
281
1
  3
Model
350
363
  3
Layout1
350
364
  0
ACDBPLACEHOLDER
  5
F
102
{ACAD_REACTORS
330
E
102
}
  0
MLINESTYLE
  5
18
102
{ACAD_REACTORS
330
17
102
}
100
AcDbMlineStyle
  2
STANDARD
 70
0
  3

 62
256
 51
90.0
 52
90.0
 71
2
 49
0.5
 62
256
  6
BYLAYER
 49
-0.5
 62
256
  6
BYLAYER
  0
LAYOUT
  5
363
102
{ACAD_REACTORS
330
1A
102
}
100
AcDbPlotSettings
  1

  2
none_device
  4
ISO_A4_(297.00_x_210.00_MM)
  6

 40
0.0
 41
0.0
 42
0.0
 43
0.0
 44
297.0
 45
210.0
 46
0.0
 47
0.0
 48
0.0
 49
0.0
140
0.0
141
0.0
142
1.0
143
1.0
 70
1024
 72
0
 73
0
 74
0
  7

 75
0
147
1.0
148
0.0
149
0.0
100
AcDbLayout
  1
Model
 70
0
 71
0
 10
0.0
 20
0.0
 11
11.6929133858
 21
8.2677165354
 12
0.0
 22
0.0
 32
0.0
 14
0.0
 24
0.0
 34
0.0
 15
0.0
 25
0.0
 35
0.0
146
0.0
 13
0.0
 23
0.0
 33
0.0
 16
1.0
 26
0.0
 36
0.0
 17
0.0
 27
1.0
 37
0.0
 76
0
330
226
345
0
346
0
  0
LAYOUT
  5
364
102
{ACAD_REACTORS
330
1A
102
}
100
AcDbPlotSettings
  1

  2
none_device
  4
ISO_A4_(297.00_x_210.00_MM)
  6

 40
0.0
 41
0.0
 42
0.0
 43
0.0
 44
297.0
 45
210.0
 46
0.0
 47
0.0
 48
0.0
 49
0.0
140
0.0
141
0.0
142
1.0
143
1.0
 70
0
 72
0
 73
0
 74
0
  7

 75
0
147
1.0
148
0.0
149
0.0
100
AcDbLayout
  1
Layout1
 70
0
 71
1
 10
0.0
 20
0.0
 11
11.6929133858
 21
8.2677165354
 12
0.0
 22
0.0
 32
0.0
 14
0.0
 24
0.0
 34
0.0
 15
0.0
 25
0.0
 35
0.0
146
0.0
 13
0.0
 23
0.0
 33
0.0
 16
1.0
 26
0.0
 36
0.0
 17
0.0
 27
1.0
 37
0.0
 76
0
330
227
345
0
346
0
  0
ENDSEC
  0
EOF
