999
DXF file: 2930_FRONT.dxf
999
Pro/ENGINEER 2019352 by Parametric Technology Corporation
  0
SECTION
  2
HEADER
  9
$ACADVER
  1
AC1032
  9
$DWGCODEPAGE
  3
ANSI_1252
  9
$EXTMAX
 10
11.0
 20
8.5
 30
0.0
  9
$EXTMIN
 10
0.0
 20
0.0
 30
0.0
  9
$LIMMIN
 10
0.0
 20
0.0
  9
$LIMMAX
 10
11.0
 20
8.5
  9
$VIEWCTR
 10
5.5
 20
4.25
  9
$VIEWSIZE
 40
8.5
  9
$CLAYER
  8
0
  9
$LTSCALE
 40
0.605
  9
$CELTYPE
  6
BYLAYER
  9
$DIMSCALE
 40
1.0
  9
$DIMASZ
 40
0.1
  9
$DIMEXO
 40
0.0625
  9
$DIMDLI
 40
0.418
  9
$DIMEXE
 40
0.125
  9
$DIMCEN
 40
0.099
  9
$DIMLFAC
 40
1.0
  9
$DIMBLK
  1
_FILLED
  9
$DIMALT
 70
1
  9
$DIMALTD
 70
2
  9
$DIMALTTD
 70
2
  9
$DIMALTF
 40
25.4
  9
$DIMTXT
 40
0.08
  9
$DIMTOL
 70
1
  9
$DIMLIM
 70
0
  9
$DIMTFAC
 40
1.0
  9
$DIMTP
 40
0.001
  9
$DIMTM
 40
0.001
  9
$DIMGAP
 40
0.09
  9
$DIMDSEP
 70
46
  9
$AUNITS
 70
0
  9
$PDMODE
 70
3
  9
$PDSIZE
 40
0.3125
  9
$HANDSEED
  5
293
  9
$TILEMODE
 70
1
  9
$MEASUREMENT
 70
0
  9
$INSUNITS
 70
1
  0
ENDSEC
  0
SECTION
  2
CLASSES
  0
CLASS
  1
ACDBDICTIONARYWDFLT
  2
AcDbDictionaryWithDefault
  3
AutoCAD 2000
 90
0
 91
1
280
0
281
0
  0
CLASS
  1
ACDBPLACEHOLDER
  2
AcDbPlaceHolder
  3
AutoCAD 2000
 90
0
 91
1
280
0
281
0
  0
CLASS
  1
LAYOUT
  2
AcDbLayout
  3
AutoCAD 2000
 90
0
 91
0
280
0
281
0
  0
ENDSEC
  0
SECTION
  2
TABLES
  0
TABLE
  2
VPORT
  5
8
100
AcDbSymbolTable
 70
2
  0
VPORT
  5
1F4
100
AcDbSymbolTableRecord
100
AcDbViewportTableRecord
  2
*ACTIVE
 70
0
 10
0.0
 20
0.0
 11
1.0
 21
1.0
 12
5.5
 22
4.25
 13
0.0
 23
0.0
 14
1.0
 24
1.0
 15
0.0
 25
0.0
 16
0.0
 26
0.0
 36
1.0
 17
0.0
 27
0.0
 37
0.0
 40
8.5
 41
1.2941176471
 42
50.0
 43
0.0
 44
0.0
 50
0.0
 51
0.0
 71
0
 72
100
 73
1
 74
1
 75
0
 76
0
 77
0
 78
0
  0
ENDTAB
  0
TABLE
  2
LTYPE
  5
5
100
AcDbSymbolTable
 70
6
  0
LTYPE
  5
14
100
AcDbSymbolTableRecord
100
AcDbLinetypeTableRecord
  2
BYBLOCK
 70
0
  3

 72
65
 73
0
 40
0.0
  0
LTYPE
  5
15
100
AcDbSymbolTableRecord
100
AcDbLinetypeTableRecord
  2
BYLAYER
 70
0
  3

 72
65
 73
0
 40
0.0
  0
LTYPE
  5
16
100
AcDbSymbolTableRecord
100
AcDbLinetypeTableRecord
  2
CONTINUOUS
 70
64
  3
Solid line
 72
65
 73
0
 40
0.0
  0
LTYPE
  5
1F5
100
AcDbSymbolTableRecord
100
AcDbLinetypeTableRecord
  2
CENTER
 70
64
  3
____ _ ____ _ ____ _ ____ _ ____ _ ____ _ ____
 72
65
 73
4
 40
0.6
 49
0.375
 74
0
 49
-0.075
 74
0
 49
0.075
 74
0
 49
-0.075
 74
0
  0
LTYPE
  5
1F6
100
AcDbSymbolTableRecord
100
AcDbLinetypeTableRecord
  2
HIDDEN
 70
64
  3
- - - - - - - - - - - - - - - - - - - -
 72
65
 73
2
 40
0.2
 49
0.1
 74
0
 49
-0.1
 74
0
  0
LTYPE
  5
1F7
100
AcDbSymbolTableRecord
100
AcDbLinetypeTableRecord
  2
PHANTOM
 70
64
  3
_____ _ _ _____ _ _ _____ _ _ _____
 72
65
 73
6
 40
0.8
 49
0.45
 74
0
 49
-0.05
 74
0
 49
0.1
 74
0
 49
-0.05
 74
0
 49
0.1
 74
0
 49
-0.05
 74
0
  0
LTYPE
  5
1F8
100
AcDbSymbolTableRecord
100
AcDbLinetypeTableRecord
  2
DOT
 70
64
  3
. . . . . . . . . . . . . . . . . . . .
 72
65
 73
2
 40
0.2
 49
0.1
 74
0
 49
-0.1
 74
0
  0
LTYPE
  5
1F9
100
AcDbSymbolTableRecord
100
AcDbLinetypeTableRecord
  2
DASHED
 70
64
  3
- - - - - - - - - - - - - - - - - - - -
 72
65
 73
2
 40
0.2
 49
0.1
 74
0
 49
-0.1
 74
0
  0
ENDTAB
  0
TABLE
  2
LAYER
  5
2
100
AcDbSymbolTable
 70
36
  0
LAYER
  5
10
100
AcDbSymbolTableRecord
100
AcDbLayerTableRecord
  2
0
 70
0
 62
7
  6
CONTINUOUS
370
-3
390
F
  0
LAYER
  5
1FA
100
AcDbSymbolTableRecord
100
AcDbLayerTableRecord
  2
DEFAULT_1
 70
0
 62
7
  6
CENTER
370
-3
390
F
  0
LAYER
  5
1FB
100
AcDbSymbolTableRecord
100
AcDbLayerTableRecord
  2
DEFAULT_2
 70
0
 62
8
  6
HIDDEN
370
-3
390
F
  0
LAYER
  5
1FC
100
AcDbSymbolTableRecord
100
AcDbLayerTableRecord
  2
DEFAULT_3
 70
0
 62
7
  6
PHANTOM
370
-3
390
F
  0
LAYER
  5
1FD
100
AcDbSymbolTableRecord
100
AcDbLayerTableRecord
  2
DEFAULT_COORDINATE_SYSTEM
 70
0
 62
7
  6
CONTINUOUS
370
-3
390
F
  0
LAYER
  5
1FE
100
AcDbSymbolTableRecord
100
AcDbLayerTableRecord
  2
DEFAULT_DATUM_AXES
 70
0
 62
7
  6
CONTINUOUS
370
-3
390
F
  0
LAYER
  5
1FF
100
AcDbSymbolTableRecord
100
AcDbLayerTableRecord
  2
DEFAULT_DATUM_PLANES
 70
0
 62
7
  6
CONTINUOUS
370
-3
390
F
  0
ENDTAB
  0
TABLE
  2
STYLE
  5
3
100
AcDbSymbolTable
 70
1
  0
STYLE
  5
11
100
AcDbSymbolTableRecord
100
AcDbTextStyleTableRecord
  2
STANDARD
 70
0
 40
0.0
 41
0.8
 50
0.0
 71
0
 42
0.2
  3
txt
  4

  0
STYLE
  5
200
100
AcDbSymbolTableRecord
100
AcDbTextStyleTableRecord
  2
TEXTSTYLE_1
 70
0
 40
0.0
 41
0.8
 50
0.0
 71
0
 42
0.2
  3
gdt
  4

  0
ENDTAB
  0
TABLE
  2
VIEW
  5
6
100
AcDbSymbolTable
 70
0
  0
ENDTAB
  0
TABLE
  2
UCS
  5
7
100
AcDbSymbolTable
 70
0
  0
ENDTAB
  0
TABLE
  2
APPID
  5
9
100
AcDbSymbolTable
 70
1
  0
APPID
  5
201
100
AcDbSymbolTableRecord
100
AcDbRegAppTableRecord
  2
ACAD
 70
0
  0
ENDTAB
  0
TABLE
  2
BLOCK_RECORD
  5
1
100
AcDbSymbolTable
 70
0
  0
BLOCK_RECORD
  5
202
100
AcDbSymbolTableRecord
100
AcDbBlockTableRecord
  2
*Model_Space
  0
BLOCK_RECORD
  5
203
100
AcDbSymbolTableRecord
100
AcDbBlockTableRecord
  2
*Paper_Space
  0
BLOCK_RECORD
  5
204
100
AcDbSymbolTableRecord
100
AcDbBlockTableRecord
  2
_FILLED
  0
ENDTAB
  0
TABLE
  2
DIMSTYLE
  5
A
100
AcDbSymbolTable
 70
1
100
AcDbDimStyleTable
 71
0
  0
DIMSTYLE
105
205
100
AcDbSymbolTableRecord
100
AcDbDimStyleTableRecord
  2
STANDARD
 70
0
  3

  4

 40
1.0
 41
0.1
 42
0.0625
 43
0.38
 44
0.125
 45
0.0
 46
0.0
 47
0.001
 48
0.001
140
0.08
141
0.09
142
0.0
143
25.4
144
1.0
145
0.0
146
1.0
147
0.09
 71
1.0
 72
0.0
 73
1
 74
1
 75
0
 76
0
 77
0
 78
4
 79
1
170
1
171
2
172
0
173
0
174
0
175
0
176
0
177
0
178
0
270
2
179
3
271
3
272
3
273
2
274
2
275
0
280
0
281
0
282
0
283
1
284
4
285
0
286
0
287
3
288
0
340
11
278
46
341
204
342
204
343
204
344
204
  0
ENDTAB
  0
ENDSEC
  0
SECTION
  2
BLOCKS
  0
BLOCK
  5
20
100
AcDbEntity
  8
0
100
AcDbBlockBegin
  2
*Model_Space
 70
0
 10
0.0
 20
0.0
 30
0.0
  3
*Model_Space
  1

  0
ENDBLK
  5
21
100
AcDbEntity
  8
0
100
AcDbBlockEnd
  0
BLOCK
  5
1C
100
AcDbEntity
  8
0
100
AcDbBlockBegin
  2
*Paper_Space
 70
0
 10
0.0
 20
0.0
 30
0.0
  3
*Paper_Space
  1

  0
ENDBLK
  5
1D
100
AcDbEntity
  8
0
100
AcDbBlockEnd
  0
BLOCK
  5
206
100
AcDbEntity
  8
0
100
AcDbBlockBegin
  2
_FILLED
 70
64
 10
0.0
 20
0.0
  3
_FILLED
  1

  0
SOLID
  5
207
100
AcDbEntity
  8
0
  6
BYBLOCK
 62
0
100
AcDbTrace
 10
0.0
 20
0.0
 11
-1.0
 21
0.2
 12
-1.0
 22
-0.2
 13
-1.0
 23
-0.2
  0
ENDBLK
  5
208
100
AcDbEntity
  8
0
  6
BYBLOCK
 62
0
100
AcDbBlockEnd
  0
ENDSEC
  0
SECTION
  2
ENTITIES
  0
MTEXT
  5
209
100
AcDbEntity
  8
0
100
AcDbMText
 62
2
  6
CONTINUOUS
  7
STANDARD
 71
3
 72
1
 10
5.8910448839
 20
3.1945391537
 30
0.0
 11
1.0
 21
0.0
 31
0.0
 73
2
 44
0.9
  1
SCALE 0.500
 40
0.08
 41
0.704
  0
LINE
  5
20A
100
AcDbEntity
  8
0
100
AcDbLine
 62
7
  6
CONTINUOUS
 10
0.0
 20
0.0
 11
0.0
 21
8.5
  0
LINE
  5
20B
100
AcDbEntity
  8
0
100
AcDbLine
 62
7
  6
CONTINUOUS
 10
0.0
 20
0.0
 11
11.0
 21
0.0
  0
LINE
  5
20C
100
AcDbEntity
  8
0
100
AcDbLine
 62
7
  6
CONTINUOUS
 10
0.0
 20
8.5
 11
11.0
 21
8.5
  0
LINE
  5
20D
100
AcDbEntity
  8
0
100
AcDbLine
 62
7
  6
CONTINUOUS
 10
11.0
 20
0.0
 11
11.0
 21
8.5
  0
LINE
  5
20E
100
AcDbEntity
  8
0
100
AcDbLine
 62
7
  6
CONTINUOUS
 10
3.000902204
 20
3.7027504864
 11
3.000902204
 21
3.5152504864
  0
LINE
  5
20F
100
AcDbEntity
  8
0
100
AcDbLine
 62
7
  6
CONTINUOUS
 10
3.266527204
 20
4.2567504864
 11
3.266527204
 21
3.7027504864
  0
LINE
  5
210
100
AcDbEntity
  8
0
100
AcDbLine
 62
7
  6
CONTINUOUS
 10
3.407152204
 20
4.8667504864
 11
3.4071522464
 21
4.798848627
  0
LINE
  5
211
100
AcDbEntity
  8
0
100
AcDbLine
 62
7
  6
CONTINUOUS
 10
3.437152204
 20
4.5667504864
 11
3.437152204
 21
4.2667504864
  0
LINE
  5
212
100
AcDbEntity
  8
0
100
AcDbLine
 62
7
  6
CONTINUOUS
 10
3.507152204
 20
4.8667504864
 11
3.507152204
 21
4.7198183855
  0
LINE
  5
213
100
AcDbEntity
  8
0
100
AcDbLine
 62
7
  6
CONTINUOUS
 10
3.407152204
 20
4.5667504864
 11
3.4071522167
 21
4.6524866123
  0
LINE
  5
214
100
AcDbEntity
  8
0
100
AcDbLine
 62
7
  6
CONTINUOUS
 10
3.6821521976
 20
4.7197744786
 11
3.682152204
 21
4.8667504864
  0
LINE
  5
215
100
AcDbEntity
  8
0
100
AcDbLine
 62
7
  6
CONTINUOUS
 10
3.752152204
 20
4.5667504864
 11
3.752152204
 21
4.2667504864
  0
LINE
  5
216
100
AcDbEntity
  8
0
100
AcDbLine
 62
7
  6
CONTINUOUS
 10
3.7821521564
 20
4.6526092199
 11
3.782152204
 21
4.5667504864
  0
LINE
  5
217
100
AcDbEntity
  8
0
100
AcDbLine
 62
7
  6
CONTINUOUS
 10
3.782152204
 20
4.8667504864
 11
3.782152204
 21
4.7991670716
  0
LINE
  5
218
100
AcDbEntity
  8
0
100
AcDbLine
 62
7
  6
CONTINUOUS
 10
3.922777204
 20
4.2567504864
 11
3.922777204
 21
3.7027504864
  0
LWPOLYLINE
  5
219
100
AcDbEntity
  8
0
100
AcDbPolyline
 62
7
  6
CONTINUOUS
 90
10
 70
0
 10
3.782152204
 20
4.6282122917
 10
3.7821668611
 20
4.6282311505
 10
3.7826330863
 20
4.6287872745
 10
3.7831508119
 20
4.6293592001
 10
3.783721388
 20
4.6299422079
 10
3.7843453908
 20
4.6305307803
 10
3.7850141749
 20
4.6311118654
 10
3.7857236956
 20
4.6316785307
 10
3.786475558
 20
4.6322288109
 10
3.7868811697
 20
4.6325059129
  0
LWPOLYLINE
  5
21A
100
AcDbEntity
  8
0
100
AcDbPolyline
 62
7
  6
CONTINUOUS
 90
15
 70
0
 10
3.407152204
 20
4.8559350594
 10
3.4064327348
 20
4.8554792969
 10
3.405589054
 20
4.8549891049
 10
3.4046968697
 20
4.8545163331
 10
3.4037572352
 20
4.8540653814
 10
3.4027754032
 20
4.8536422725
 10
3.4017539533
 20
4.8532513034
 10
3.4006959601
 20
4.852896736
 10
3.3996090362
 20
4.8525837937
 10
3.3984984454
 20
4.8523161591
 10
3.3973688918
 20
4.8520968929
 10
3.3962291429
 20
4.8519291937
 10
3.3950874945
 20
4.8518151471
 10
3.3939511495
 20
4.8517558647
 10
3.3933138896
 20
4.8517467686
  0
LINE
  5
21B
100
AcDbEntity
  8
0
100
AcDbLine
 62
7
  6
CONTINUOUS
 10
4.188402204
 20
3.7027504864
 11
4.188402204
 21
3.5152504864
  0
LINE
  5
21C
100
AcDbEntity
  8
0
100
AcDbLine
 62
7
  6
CONTINUOUS
 10
3.8227625543
 20
4.8667504864
 11
3.8013782488
 21
4.8524942827
  0
LWPOLYLINE
  5
21D
100
AcDbEntity
  8
0
100
AcDbPolyline
 62
7
  6
CONTINUOUS
 90
34
 70
0
 10
3.7868844893
 20
4.6325079519
 10
4.127193336
 20
4.859379907
 10
4.1280603849
 20
4.859938122
 10
4.1289352078
 20
4.8604733843
 10
4.129817936
 20
4.860986182
 10
4.1307071199
 20
4.8614760743
 10
4.1315996245
 20
4.8619418716
 10
4.132494735
 20
4.8623838341
 10
4.1333917085
 20
4.8628022171
 10
4.134287211
 20
4.8631961818
 10
4.1351805094
 20
4.8635662106
 10
4.1360708331
 20
4.863912774
 10
4.1369546674
 20
4.8642353823
 10
4.1378314522
 20
4.864534785
 10
4.1387002661
 20
4.8648116031
 10
4.139556948
 20
4.8650655494
 10
4.1404010853
 20
4.865297621
 10
4.1412316709
 20
4.8655086347
 10
4.1420435559
 20
4.8656984966
 10
4.1428357031
 20
4.8658682905
 10
4.1436078181
 20
4.8660192424
 10
4.1443558113
 20
4.8661518901
 10
4.1450772336
 20
4.8662672361
 10
4.1457733825
 20
4.8663668755
 10
4.1464457951
 20
4.866452272
 10
4.1470931191
 20
4.8665244288
 10
4.1477157607
 20
4.8665845282
 10
4.1483178823
 20
4.8666339535
 10
4.1488993964
 20
4.8666735463
 10
4.1494594857
 20
4.8667040801
 10
4.1500011223
 20
4.8667264664
 10
4.150525048
 20
4.8667413808
 10
4.1510294863
 20
4.8667494096
 10
4.1512480202
 20
4.8667504864
  0
LWPOLYLINE
  5
21E
100
AcDbEntity
  8
0
100
AcDbPolyline
 62
7
  6
CONTINUOUS
 90
8
 70
0
 10
3.8017030609
 20
4.8526000153
 10
3.8017768101
 20
4.8526362147
 10
3.8018190883
 20
4.8526560477
 10
3.8017745897
 20
4.852637624
 10
3.8016836932
 20
4.8526020138
 10
3.8015474804
 20
4.8525520673
 10
3.8013680652
 20
4.8524908055
 10
3.8011461563
 20
4.8524207157
  0
LWPOLYLINE
  5
21F
100
AcDbEntity
  8
0
100
AcDbPolyline
 62
7
  6
CONTINUOUS
 90
12
 70
0
 10
3.8011461563
 20
4.8524207157
 10
3.8008802106
 20
4.8523436652
 10
3.8005685357
 20
4.8522616648
 10
3.8002117352
 20
4.8521774467
 10
3.7998085788
 20
4.8520933572
 10
3.7993542916
 20
4.8520113386
 10
3.7988485033
 20
4.851934557
 10
3.7982916001
 20
4.8518664033
 10
3.7976798013
 20
4.8518100233
 10
3.7970121709
 20
4.8517693174
 10
3.7962909031
 20
4.8517485509
 10
3.7960125073
 20
4.8517467676
  0
LINE
  5
220
100
AcDbEntity
  8
0
100
AcDbLine
 62
7
  6
CONTINUOUS
 10
3.0621173381
 20
4.8593758075
 11
3.4024199131
 21
4.6325079557
  0
LINE
  5
221
100
AcDbEntity
  8
0
100
AcDbLine
 62
7
  6
CONTINUOUS
 10
3.4024223643
 20
4.632506322
 11
3.4024199496
 21
4.6325079314
  0
LWPOLYLINE
  5
222
100
AcDbEntity
  8
0
100
AcDbPolyline
 62
7
  6
CONTINUOUS
 90
10
 70
0
 10
3.4024231703
 20
4.6325059412
 10
3.4028273757
 20
4.6322298242
 10
3.4035777934
 20
4.6316807441
 10
3.4042860223
 20
4.6311153547
 10
3.4049536372
 20
4.6305356343
 10
3.4055766454
 20
4.6299484545
 10
3.4061465175
 20
4.6293667148
 10
3.4066638543
 20
4.6287958478
 10
3.4071299535
 20
4.6282405771
 10
3.407152204
 20
4.6282119891
  0
LINE
  5
223
100
AcDbEntity
  8
0
100
AcDbLine
 62
7
  6
CONTINUOUS
 10
8.188402204
 20
3.5152504864
 11
7.000902204
 21
3.5152504864
  0
LINE
  5
224
100
AcDbEntity
  8
0
100
AcDbLine
 62
7
  6
CONTINUOUS
 10
3.000902204
 20
3.5152504864
 11
4.188402204
 21
3.5152504864
  0
LINE
  5
225
100
AcDbEntity
  8
0
100
AcDbLine
 62
7
  6
CONTINUOUS
 10
5.000902204
 20
3.5152504864
 11
6.188402204
 21
3.5152504864
  0
LINE
  5
226
100
AcDbEntity
  8
0
100
AcDbLine
 62
7
  6
CONTINUOUS
 10
3.3665418537
 20
4.8667504864
 11
3.387926036
 21
4.8524943648
  0
LINE
  5
227
100
AcDbEntity
  8
0
100
AcDbLine
 62
7
  6
CONTINUOUS
 10
5.000902204
 20
3.6877504864
 11
5.000902204
 21
3.5152504864
  0
LINE
  5
228
100
AcDbEntity
  8
0
100
AcDbLine
 62
7
  6
CONTINUOUS
 10
5.000902204
 20
3.6877504864
 11
6.188402204
 21
3.6877504864
  0
LINE
  5
229
100
AcDbEntity
  8
0
100
AcDbLine
 62
7
  6
CONTINUOUS
 10
8.188402204
 20
3.7027504864
 11
7.000902204
 21
3.7027504864
  0
LINE
  5
22A
100
AcDbEntity
  8
0
100
AcDbLine
 62
7
  6
CONTINUOUS
 10
3.000902204
 20
3.7027504864
 11
4.188402204
 21
3.7027504864
  0
LINE
  5
22B
100
AcDbEntity
  8
0
100
AcDbLine
 62
7
  6
CONTINUOUS
 10
5.0159027762
 20
3.7027504864
 11
6.173402204
 21
3.7027504864
  0
LINE
  5
22C
100
AcDbEntity
  8
0
100
AcDbLine
 62
7
  6
CONTINUOUS
 10
5.9384018836
 20
3.7077504864
 11
5.2509025245
 21
3.7077504864
  0
LINE
  5
22D
100
AcDbEntity
  8
0
100
AcDbLine
 62
7
  6
CONTINUOUS
 10
5.250902204
 20
4.3377504864
 11
5.250902204
 21
3.7077504864
  0
LINE
  5
22E
100
AcDbEntity
  8
0
100
AcDbLine
 62
7
  6
CONTINUOUS
 10
5.262152204
 20
3.7077504864
 11
5.262152204
 21
3.7027504864
  0
LINE
  5
22F
100
AcDbEntity
  8
0
100
AcDbLine
 62
7
  6
CONTINUOUS
 10
5.360027204
 20
4.3527504864
 11
5.360027204
 21
4.9487504864
  0
LINE
  5
230
100
AcDbEntity
  8
0
100
AcDbLine
 62
7
  6
CONTINUOUS
 10
5.365902204
 20
4.6342504864
 11
5.365902204
 21
4.6657504864
  0
LWPOLYLINE
  5
231
100
AcDbEntity
  8
0
100
AcDbPolyline
 62
7
  6
CONTINUOUS
 90
7
 70
0
 10
3.388165509
 20
4.8524184708
 10
3.3879420698
 20
4.8524888986
 10
3.3877613677
 20
4.8525505033
 10
3.3876241368
 20
4.8526007638
 10
3.387532445
 20
4.8526366543
 10
3.3874873893
 20
4.8526553852
 10
3.3874838051
 20
4.8526569359
  0
LINE
  5
232
100
AcDbEntity
  8
0
100
AcDbLine
 62
7
  6
CONTINUOUS
 10
3.2665272381
 20
4.2567504864
 11
3.9227771699
 21
4.2567504864
  0
LINE
  5
233
100
AcDbEntity
  8
0
100
AcDbLine
 62
7
  6
CONTINUOUS
 10
7.266527204
 20
4.2567504864
 11
7.922777204
 21
4.2567504864
  0
LINE
  5
234
100
AcDbEntity
  8
0
100
AcDbLine
 62
7
  6
CONTINUOUS
 10
7.752152204
 20
4.2667504864
 11
7.437152204
 21
4.2667504864
  0
LINE
  5
235
100
AcDbEntity
  8
0
100
AcDbLine
 62
7
  6
CONTINUOUS
 10
3.752152204
 20
4.2667504864
 11
3.437152204
 21
4.2667504864
  0
LINE
  5
236
100
AcDbEntity
  8
0
100
AcDbLine
 62
7
  6
CONTINUOUS
 10
5.250902204
 20
4.3377504864
 11
5.938402204
 21
4.3377504864
  0
LINE
  5
237
100
AcDbEntity
  8
0
100
AcDbLine
 62
7
  6
CONTINUOUS
 10
5.2659027041
 20
4.3527504864
 11
5.923402204
 21
4.3527504864
  0
LINE
  5
238
100
AcDbEntity
  8
0
100
AcDbLine
 62
7
  6
CONTINUOUS
 10
7.9421873103
 20
4.8666737432
 11
7.9425061739
 21
4.866718961
  0
LINE
  5
239
100
AcDbEntity
  8
0
100
AcDbLine
 62
7
  6
CONTINUOUS
 10
5.829277204
 20
4.4467504864
 11
5.360027204
 21
4.4467504864
  0
LINE
  5
23A
100
AcDbEntity
  8
0
100
AcDbLine
 62
7
  6
CONTINUOUS
 10
5.823402204
 20
4.6342504864
 11
5.823402204
 21
4.6657504864
  0
LINE
  5
23B
100
AcDbEntity
  8
0
100
AcDbLine
 62
7
  6
CONTINUOUS
 10
5.829277204
 20
4.3527504864
 11
5.829277204
 21
4.9487504864
  0
LINE
  5
23C
100
AcDbEntity
  8
0
100
AcDbLine
 62
7
  6
CONTINUOUS
 10
5.927152204
 20
3.7077504864
 11
5.927152204
 21
3.7027504864
  0
LINE
  5
23D
100
AcDbEntity
  8
0
100
AcDbLine
 62
7
  6
CONTINUOUS
 10
5.938402204
 20
4.3377504864
 11
5.938402204
 21
3.7077504864
  0
LINE
  5
23E
100
AcDbEntity
  8
0
100
AcDbLine
 62
7
  6
CONTINUOUS
 10
7.942459875
 20
4.8667129394
 11
7.9427114611
 21
4.8667442068
  0
LINE
  5
23F
100
AcDbEntity
  8
0
100
AcDbLine
 62
7
  6
CONTINUOUS
 10
7.94267734
 20
4.8667404154
 11
7.9427690879
 21
4.8667504864
  0
LINE
  5
240
100
AcDbEntity
  8
0
100
AcDbLine
 62
7
  6
CONTINUOUS
 10
7.782152204
 20
4.5667504864
 11
7.407152204
 21
4.5667504864
  0
LINE
  5
241
100
AcDbEntity
  8
0
100
AcDbLine
 62
7
  6
CONTINUOUS
 10
3.407152204
 20
4.5667504864
 11
3.782152204
 21
4.5667504864
  0
LINE
  5
242
100
AcDbEntity
  8
0
100
AcDbLine
 62
7
  6
CONTINUOUS
 10
5.829277204
 20
4.6342504864
 11
5.360027204
 21
4.6342504864
  0
LINE
  5
243
100
AcDbEntity
  8
0
100
AcDbLine
 62
7
  6
CONTINUOUS
 10
5.829277204
 20
4.6657504864
 11
5.360027204
 21
4.6657504864
  0
LINE
  5
244
100
AcDbEntity
  8
0
100
AcDbLine
 62
7
  6
CONTINUOUS
 10
5.829277204
 20
4.6990004864
 11
5.360027204
 21
4.6990004864
  0
LINE
  5
245
100
AcDbEntity
  8
0
100
AcDbLine
 62
7
  6
CONTINUOUS
 10
6.188402204
 20
3.6877504864
 11
6.188402204
 21
3.5152504864
  0
LINE
  5
246
100
AcDbEntity
  8
0
100
AcDbLine
 62
7
  6
CONTINUOUS
 10
3.6392409282
 20
4.8667504864
 11
3.6392069564
 21
4.866750488
  0
LINE
  5
247
100
AcDbEntity
  8
0
100
AcDbLine
 62
7
  6
CONTINUOUS
 10
2.975902204
 20
4.8667504864
 11
3.5500248823
 21
4.8667504864
  0
LINE
  5
248
100
AcDbEntity
  8
0
100
AcDbLine
 62
7
  6
CONTINUOUS
 10
3.6392394422
 20
4.8667504864
 11
4.213402204
 21
4.8667504864
  0
LINE
  5
249
100
AcDbEntity
  8
0
100
AcDbLine
 62
7
  6
CONTINUOUS
 10
6.977507235
 20
4.8667504864
 11
7.8645703293
 21
4.8667504864
  0
LINE
  5
24A
100
AcDbEntity
  8
0
100
AcDbLine
 62
7
  6
CONTINUOUS
 10
7.9418453352
 20
4.8667504864
 11
8.213402204
 21
4.8667504864
  0
LINE
  5
24B
100
AcDbEntity
  8
0
100
AcDbLine
 62
7
  6
CONTINUOUS
 10
7.8645697354
 20
4.8667504869
 11
7.8644078936
 21
4.8667505132
  0
LWPOLYLINE
  5
24C
100
AcDbEntity
  8
0
100
AcDbPolyline
 62
7
  6
CONTINUOUS
 90
33
 70
0
 10
3.038070613
 20
4.8667504864
 10
3.0382868194
 20
4.8667494027
 10
3.0387997693
 20
4.8667410627
 10
3.0393296053
 20
4.8667256981
 10
3.0398738057
 20
4.8667028549
 10
3.0404337311
 20
4.8666719483
 10
3.0410132855
 20
4.8666321044
 10
3.0416113489
 20
4.8665826549
 10
3.04222811
 20
4.8665228238
 10
3.0428695755
 20
4.866451095
 10
3.0435363519
 20
4.8663662688
 10
3.0442268949
 20
4.8662673719
 10
3.0449440019
 20
4.8661527377
 10
3.0456894778
 20
4.8660206207
 10
3.0464603544
 20
4.8658700351
 10
3.0472522546
 20
4.865700439
 10
3.0480649257
 20
4.8655105405
 10
3.0488972609
 20
4.8652992116
 10
3.0497436587
 20
4.8650666122
 10
3.0506031291
 20
4.8648118837
 10
3.0514752091
 20
4.8645340056
 10
3.0523551995
 20
4.8642334162
 10
3.0532421577
 20
4.8639095
 10
3.0541355351
 20
4.8635615011
 10
3.055031352
 20
4.8631901064
 10
3.0559288275
 20
4.8627948839
 10
3.0568272599
 20
4.8623753734
 10
3.0577229403
 20
4.8619326419
 10
3.0586151555
 20
4.8614664896
 10
3.0595032183
 20
4.8609767138
 10
3.0603836453
 20
4.8604647884
 10
3.0612549134
 20
4.8599313138
 10
3.0621173381
 20
4.8593758075
  0
LWPOLYLINE
  5
24D
100
AcDbEntity
  8
0
100
AcDbPolyline
 62
7
  6
CONTINUOUS
 90
12
 70
0
 10
3.3932941977
 20
4.851746767
 10
3.3930575365
 20
4.851748047
 10
3.3923311629
 20
4.8517676057
 10
3.3916586186
 20
4.8518074443
 10
3.3910421303
 20
4.8518632664
 10
3.3904808261
 20
4.8519311298
 10
3.3899710102
 20
4.8520078355
 10
3.3895131115
 20
4.8520899464
 10
3.3891067711
 20
4.8521742534
 10
3.3887472229
 20
4.8522587682
 10
3.388433281
 20
4.8523410938
 10
3.388165509
 20
4.8524184708
  0
LWPOLYLINE
  5
24E
100
AcDbEntity
  8
0
100
AcDbPolyline
 62
7
  6
CONTINUOUS
 90
15
 70
0
 10
3.795991571
 20
4.8517467682
 10
3.7954001903
 20
4.8517546082
 10
3.794265349
 20
4.8518115464
 10
3.793123857
 20
4.8519232989
 10
3.7919827503
 20
4.8520889554
 10
3.790850528
 20
4.8523065878
 10
3.789736522
 20
4.8525730272
 10
3.7886454446
 20
4.8528853064
 10
3.7875826905
 20
4.8532397996
 10
3.7865566028
 20
4.853631082
 10
3.7855705125
 20
4.8540547647
 10
3.7846268099
 20
4.8545066077
 10
3.7837307894
 20
4.8549805494
 10
3.7828835292
 20
4.8554721421
 10
3.782152204
 20
4.8559349483
  0
LINE
  5
24F
100
AcDbEntity
  8
0
100
AcDbLine
 62
7
  6
CONTINUOUS
 10
2.975902204
 20
5.0667504864
 11
4.213402204
 21
5.0667504864
  0
LINE
  5
250
100
AcDbEntity
  8
0
100
AcDbLine
 62
7
  6
CONTINUOUS
 10
6.975902204
 20
5.0667504864
 11
8.213402204
 21
5.0667504864
  0
LINE
  5
251
100
AcDbEntity
  8
0
100
AcDbLine
 62
7
  6
CONTINUOUS
 10
6.9654224546
 20
4.8673015945
 11
6.9653887628
 21
4.8673046855
  0
LINE
  5
252
100
AcDbEntity
  8
0
100
AcDbLine
 62
7
  6
CONTINUOUS
 10
6.9653887657
 20
4.867304684
 11
6.9657942836
 21
4.8672599528
  0
LINE
  5
253
100
AcDbEntity
  8
0
100
AcDbLine
 62
7
  6
CONTINUOUS
 10
6.9657942836
 20
4.8672599528
 11
6.9658406651
 21
4.8672545993
  0
LINE
  5
254
100
AcDbEntity
  8
0
100
AcDbLine
 62
7
  6
CONTINUOUS
 10
6.9831577184
 20
4.8615252161
 11
7.384652204
 21
4.6297222667
  0
LINE
  5
255
100
AcDbEntity
  8
0
100
AcDbLine
 62
7
  6
CONTINUOUS
 10
7.7016730438
 20
4.8667504864
 11
7.6613571006
 21
4.820197623
  0
LINE
  5
256
100
AcDbEntity
  8
0
100
AcDbLine
 62
7
  6
CONTINUOUS
 10
7.3241072848
 20
4.8667504864
 11
7.339652204
 21
4.8577756231
  0
LINE
  5
257
100
AcDbEntity
  8
0
100
AcDbLine
 62
7
  6
CONTINUOUS
 10
7.000902204
 20
3.5152504864
 11
7.000902204
 21
3.7027504864
  0
LINE
  5
258
100
AcDbEntity
  8
0
100
AcDbLine
 62
7
  6
CONTINUOUS
 10
7.7436090798
 20
4.6478571347
 11
7.7436126353
 21
4.6478612397
  0
LINE
  5
259
100
AcDbEntity
  8
0
100
AcDbLine
 62
7
  6
CONTINUOUS
 10
7.9237216974
 20
4.8558332707
 11
7.7436123809
 21
4.647860946
  0
LWPOLYLINE
  5
25A
100
AcDbEntity
  8
0
100
AcDbPolyline
 62
7
  6
CONTINUOUS
 90
25
 70
0
 10
7.9237218694
 20
4.8558334669
 10
7.9241085209
 20
4.8562723728
 10
7.9250438911
 20
4.8572755343
 10
7.9260044083
 20
4.8582277558
 10
7.9269891335
 20
4.8591310219
 10
7.9279917237
 20
4.8599823127
 10
7.9289994937
 20
4.8607746787
 10
7.930007503
 20
4.8615087629
 10
7.9310124186
 20
4.8621864662
 10
7.9320028938
 20
4.8628047857
 10
7.9329744109
 20
4.863365919
 10
7.9339236657
 20
4.863872752
 10
7.9348406457
 20
4.864324892
 10
7.9357208671
 20
4.8647252827
 10
7.9365620275
 20
4.8650777778
 10
7.9373574339
 20
4.8653843741
 10
7.9381024741
 20
4.8656481227
 10
7.9387967094
 20
4.8658734362
 10
7.9394401338
 20
4.8660644619
 10
7.9400303346
 20
4.8662243512
 10
7.9405665538
 20
4.8663565497
 10
7.9410514374
 20
4.866464986
 10
7.9414835124
 20
4.8665522651
 10
7.9418613801
 20
4.8666208736
 10
7.9421873103
 20
4.8666737432
  0
LINE
  5
25B
100
AcDbEntity
  8
0
100
AcDbLine
 62
7
  6
CONTINUOUS
 10
7.266527204
 20
3.7027504864
 11
7.266527204
 21
4.2567504864
  0
LINE
  5
25C
100
AcDbEntity
  8
0
100
AcDbLine
 62
7
  6
CONTINUOUS
 10
7.407152204
 20
4.5667504864
 11
7.407152204
 21
4.5907511236
  0
LINE
  5
25D
100
AcDbEntity
  8
0
100
AcDbLine
 62
7
  6
CONTINUOUS
 10
7.437152204
 20
4.2667504864
 11
7.437152204
 21
4.5667504864
  0
LINE
  5
25E
100
AcDbEntity
  8
0
100
AcDbLine
 62
7
  6
CONTINUOUS
 10
7.752152204
 20
4.2667504864
 11
7.752152204
 21
4.5667504864
  0
LINE
  5
25F
100
AcDbEntity
  8
0
100
AcDbLine
 62
7
  6
CONTINUOUS
 10
7.782152204
 20
4.5667504864
 11
7.782152204
 21
4.6923629005
  0
LINE
  5
260
100
AcDbEntity
  8
0
100
AcDbLine
 62
7
  6
CONTINUOUS
 10
7.922777204
 20
3.7027504864
 11
7.922777204
 21
4.2567504864
  0
LINE
  5
261
100
AcDbEntity
  8
0
100
AcDbLine
 62
7
  6
CONTINUOUS
 10
8.188402204
 20
3.5152504864
 11
8.188402204
 21
3.7027504864
  0
ARC
  5
262
100
AcDbEntity
  8
0
100
AcDbCircle
 62
7
  6
CONTINUOUS
 10
5.594652204
 20
4.9487504864
 40
0.234625
100
AcDbArc
 50
0.0
 51
180.0
  0
ARC
  5
263
100
AcDbEntity
  8
0
100
AcDbCircle
 62
7
  6
CONTINUOUS
 10
6.9773877761
 20
4.9970464613
 40
0.1302954823
100
AcDbArc
 50
264.737060701
 51
270.0526417782
  0
ARC
  5
264
100
AcDbEntity
  8
0
100
AcDbCircle
 62
7
  6
CONTINUOUS
 10
8.213402204
 20
4.9667504864
 40
0.1
100
AcDbArc
 50
270.0
 51
90.0
  0
ARC
  5
265
100
AcDbEntity
  8
0
100
AcDbCircle
 62
7
  6
CONTINUOUS
 10
6.975902204
 20
4.9667504864
 40
0.1
100
AcDbArc
 50
90.0
 51
263.965090985
  0
ARC
  5
266
100
AcDbEntity
  8
0
100
AcDbCircle
 62
7
  6
CONTINUOUS
 10
4.213402204
 20
4.9667504864
 40
0.1
100
AcDbArc
 50
270.0
 51
90.0
  0
ARC
  5
267
100
AcDbEntity
  8
0
100
AcDbCircle
 62
7
  6
CONTINUOUS
 10
2.975902204
 20
4.9667504864
 40
0.1
100
AcDbArc
 50
90.0
 51
270.0
  0
ARC
  5
268
100
AcDbEntity
  8
0
100
AcDbCircle
 62
7
  6
CONTINUOUS
 10
3.8355606831
 20
4.7984620679
 40
0.0639181686
100
AcDbArc
 50
122.2264632918
 51
122.8103996148
  0
ARC
  5
269
100
AcDbEntity
  8
0
100
AcDbCircle
 62
7
  6
CONTINUOUS
 10
3.3539657587
 20
4.7988108719
 40
0.0635047045
100
AcDbArc
 50
57.1532661389
 51
57.775485511
  0
ARC
  5
26A
100
AcDbEntity
  8
0
100
AcDbCircle
 62
7
  6
CONTINUOUS
 10
3.8337180354
 20
4.8013834257
 40
0.0604642315
100
AcDbArc
 50
121.3384390044
 51
122.2255930802
  0
ARC
  5
26B
100
AcDbEntity
  8
0
100
AcDbCircle
 62
7
  6
CONTINUOUS
 10
3.355902059
 20
4.8018941171
 40
0.0598638776
100
AcDbArc
 50
57.7696836487
 51
58.6316652242
  0
ARC
  5
26C
100
AcDbEntity
  8
0
100
AcDbCircle
 62
7
  6
CONTINUOUS
 10
6.9606577184
 20
4.8225540729
 40
0.045
100
AcDbArc
 50
60.0000000008
 51
83.3861892272
  0
ARC
  5
26D
100
AcDbEntity
  8
0
100
AcDbCircle
 62
7
  6
CONTINUOUS
 10
7.362152204
 20
4.5907511236
 40
0.045
100
AcDbArc
 50
0.0
 51
60.0
  0
ARC
  5
26E
100
AcDbEntity
  8
0
100
AcDbCircle
 62
7
  6
CONTINUOUS
 10
7.362152204
 20
4.8967467662
 40
0.045
100
AcDbArc
 50
239.9999999943
 51
318.1933424466
  0
ARC
  5
26F
100
AcDbEntity
  8
0
100
AcDbCircle
 62
7
  6
CONTINUOUS
 10
6.9618818553
 20
4.8336902817
 40
0.0337968581
100
AcDbArc
 50
83.4946920418
 51
83.9594834084
  0
ARC
  5
270
100
AcDbEntity
  8
0
100
AcDbCircle
 62
7
  6
CONTINUOUS
 10
5.015902204
 20
3.6877504864
 40
0.015
100
AcDbArc
 50
90.0
 51
180.0
  0
ARC
  5
271
100
AcDbEntity
  8
0
100
AcDbCircle
 62
7
  6
CONTINUOUS
 10
6.173402204
 20
3.6877504864
 40
0.015
100
AcDbArc
 50
0.0
 51
90.0
  0
ARC
  5
272
100
AcDbEntity
  8
0
100
AcDbCircle
 62
7
  6
CONTINUOUS
 10
5.923402204
 20
4.3377504864
 40
0.015
100
AcDbArc
 50
0.0
 51
90.0
  0
ARC
  5
273
100
AcDbEntity
  8
0
100
AcDbCircle
 62
7
  6
CONTINUOUS
 10
5.265902204
 20
4.3377504864
 40
0.015
100
AcDbArc
 50
90.0
 51
180.0
  0
SPLINE
  5
274
100
AcDbEntity
  8
0
100
AcDbSpline
 62
7
  6
CONTINUOUS
 70
0
 71
3
 72
9
 73
5
 74
0
 42
0.0000001
 43
0.0000001
 44
0.0000000001
 40
0.0
 40
0.0
 40
0.0
 40
0.0
 40
0.2440624358
 40
1.0
 40
1.0
 40
1.0
 40
1.0
 10
6.9657108791
 20
4.8672695342
 30
0.0
 10
6.9657155166
 20
4.8672690074
 30
0.0
 10
6.9657345174
 20
4.8672668458
 30
0.0
 10
6.9657535168
 20
4.8672646716
 30
0.0
 10
6.9657678783
 20
4.8672630213
 30
0.0
  0
SPLINE
  5
275
100
AcDbEntity
  8
0
100
AcDbSpline
 62
7
  6
CONTINUOUS
 70
0
 71
3
 72
9
 73
5
 74
0
 42
0.0000001
 43
0.0000001
 44
0.0000000001
 40
0.0
 40
0.0
 40
0.0
 40
0.0
 40
0.2437399475
 40
1.0
 40
1.0
 40
1.0
 40
1.0
 10
6.9657678783
 20
4.8672630213
 30
0.0
 10
6.9657734134
 20
4.8672623853
 30
0.0
 10
6.9657961217
 20
4.8672597716
 30
0.0
 10
6.9658188281
 20
4.8672571411
 30
0.0
 10
6.965835999
 20
4.8672551427
 30
0.0
  0
SPLINE
  5
276
100
AcDbEntity
  8
0
100
AcDbSpline
 62
7
  6
CONTINUOUS
 70
0
 71
3
 72
19
 73
15
 74
0
 42
0.0000001
 43
0.0000001
 44
0.0000000001
 40
0.0
 40
0.0
 40
0.0
 40
0.0
 40
0.058108527
 40
0.118102549
 40
0.1795951901
 40
0.2422223828
 40
0.3056772223
 40
0.3696621461
 40
0.4339298378
 40
0.4982748996
 40
0.6265314817
 40
0.7533861158
 40
0.8780766382
 40
1.0
 40
1.0
 40
1.0
 40
1.0
 10
3.4071522049
 20
4.6524870936
 30
0.0
 10
3.4071527649
 20
4.6553221824
 30
0.0
 10
3.40718888
 20
4.6610843413
 30
0.0
 10
3.4073001856
 20
4.6698460122
 30
0.0
 10
3.4074360984
 20
4.6788278183
 30
0.0
 10
3.4075703149
 20
4.6879785203
 30
0.0
 10
3.4076821132
 20
4.6972511443
 30
0.0
 10
3.4077600002
 20
4.7066041664
 30
0.0
 10
3.4077977887
 20
4.7160008752
 30
0.0
 10
3.4077927263
 20
4.7285334527
 30
0.0
 10
3.4076879561
 20
4.7441193743
 30
0.0
 10
3.4074661439
 20
4.762648424
 30
0.0
 10
3.4072373042
 20
4.7808683139
 30
0.0
 10
3.4071538051
 20
4.792900432
 30
0.0
 10
3.4071522292
 20
4.7988490177
 30
0.0
  0
LINE
  5
277
100
AcDbEntity
  8
0
100
AcDbLine
 62
7
  6
CONTINUOUS
 10
7.9092839232
 20
4.867304684
 11
7.8645697024
 21
4.8667504964
  0
SPLINE
  5
278
100
AcDbEntity
  8
0
100
AcDbSpline
 62
7
  6
CONTINUOUS
 70
0
 71
3
 72
34
 73
30
 74
0
 42
0.0000001
 43
0.0000001
 44
0.0000000001
 40
0.0
 40
0.0
 40
0.0
 40
0.0
 40
0.0013601461
 40
0.0027649519
 40
0.0042985077
 40
0.0060258521
 40
0.0102239646
 40
0.0155824277
 40
0.0222001674
 40
0.0301325394
 40
0.0394230947
 40
0.0501057748
 40
0.0622088361
 40
0.0757652044
 40
0.1074315787
 40
0.1455239678
 40
0.1906047782
 40
0.2434906549
 40
0.3054088086
 40
0.3402301965
 40
0.3779491661
 40
0.4189139839
 40
0.4634990765
 40
0.5121009933
 40
0.5651500195
 40
0.6865777325
 40
0.7559297727
 40
0.8313622431
 40
1.0
 40
1.0
 40
1.0
 40
1.0
 10
7.9237215835
 20
4.8558331266
 30
0.0
 10
7.9237143491
 20
4.8558247841
 30
0.0
 10
7.9236973822
 20
4.8558096356
 30
0.0
 10
7.9236659744
 20
4.8557936832
 30
0.0
 10
7.9236289986
 20
4.8557843605
 30
0.0
 10
7.9235683567
 20
4.8557801082
 30
0.0
 10
7.9234768527
 20
4.8557927344
 30
0.0
 10
7.9233505798
 20
4.8558292951
 30
0.0
 10
7.9231997539
 20
4.855887852
 30
0.0
 10
7.9230234684
 20
4.8559678722
 30
0.0
 10
7.9228205998
 20
4.8560687948
 30
0.0
 10
7.9225900994
 20
4.8561899959
 30
0.0
 10
7.9223308594
 20
4.8563308814
 30
0.0
 10
7.9219235649
 20
4.8565560669
 30
0.0
 10
7.9213318404
 20
4.8568837537
 30
0.0
 10
7.9205095608
 20
4.8573232962
 30
0.0
 10
7.9195233444
 20
4.857821103
 30
0.0
 10
7.9183459464
 20
4.8583682953
 30
0.0
 10
7.9172223333
 20
4.8588311855
 30
0.0
 10
7.9161991308
 20
4.8592117582
 30
0.0
 10
7.9153274277
 20
4.8595109302
 30
0.0
 10
7.9143716568
 20
4.8598081268
 30
0.0
 10
7.9133220371
 20
4.8600994121
 30
0.0
 10
7.9121684244
 20
4.8603807622
 30
0.0
 10
7.9103959543
 20
4.8607538929
 30
0.0
 10
7.9084384727
 20
4.8610605671
 30
0.0
 10
7.9062889784
 20
4.861288498
 30
0.0
 10
7.9037508745
 20
4.8614742451
 30
0.0
 10
7.9017685344
 20
4.8615252476
 30
0.0
 10
7.9003994468
 20
4.8615252161
 30
0.0
  0
SPLINE
  5
279
100
AcDbEntity
  8
0
100
AcDbSpline
 62
7
  6
CONTINUOUS
 70
0
 71
3
 72
89
 73
85
 74
0
 42
0.0000001
 43
0.0000001
 44
0.0000000001
 40
0.0
 40
0.0
 40
0.0
 40
0.0
 40
0.0000099925
 40
0.0000398153
 40
0.0000894595
 40
0.0001589165
 40
0.0002481776
 40
0.0003572341
 40
0.000634699
 40
0.0009912429
 40
0.0014267981
 40
0.0019412699
 40
0.0025344843
 40
0.0039563868
 40
0.0056910028
 40
0.0077365919
 40
0.0100907002
 40
0.0127507762
 40
0.0157141193
 40
0.0189775429
 40
0.0225378382
 40
0.0305351835
 40
0.0396764563
 40
0.0499294121
 40
0.0612602849
 40
0.0736334711
 40
0.0870111328
 40
0.1013533875
 40
0.116616559
 40
0.1327515625
 40
0.1497031405
 40
0.167408323
 40
0.1857968916
 40
0.204789669
 40
0.2243027206
 40
0.2442506579
 40
0.2645502508
 40
0.2851223986
 40
0.3058970462
 40
0.3478165907
 40
0.3899525535
 40
0.4320694354
 40
0.4740206468
 40
0.5157122627
 40
0.5570764126
 40
0.5980543808
 40
0.6385863345
 40
0.6786020584
 40
0.7180119009
 40
0.7566996111
 40
0.7945054248
 40
0.8312079499
 40
0.8490525283
 40
0.8664928692
 40
0.8834679998
 40
0.8998999719
 40
0.9156961361
 40
0.9307398578
 40
0.9448874848
 40
0.9579639504
 40
0.9640350946
 40
0.9697552797
 40
0.9750914127
 40
0.9800089867
 40
0.9844709778
 40
0.9884400579
 40
0.9918788468
 40
0.9933879553
 40
0.9947512454
 40
0.9959645782
 40
0.9970239562
 40
0.9979263371
 40
0.9986690731
 40
0.9989797473
 40
0.9992495296
 40
0.9994782117
 40
0.999665647
 40
0.9998116894
 40
0.9998691427
 40
0.9999161931
 40
0.9999528222
 40
0.9999790119
 40
0.9999947439
 40
1.0
 40
1.0
 40
1.0
 40
1.0
 10
7.384652204
 20
4.6297222667
 30
0.0
 10
7.3846527899
 20
4.6297228488
 30
0.0
 10
7.3846545867
 20
4.6297256407
 30
0.0
 10
7.3846592653
 20
4.6297313485
 30
0.0
 10
7.3846666115
 20
4.6297412387
 30
0.0
 10
7.3846770813
 20
4.6297549062
 30
0.0
 10
7.3846904399
 20
4.6297725539
 30
0.0
 10
7.3847141915
 20
4.6298038931
 30
0.0
 10
7.3847512003
 20
4.6298529053
 30
0.0
 10
7.3848043653
 20
4.6299235312
 30
0.0
 10
7.3848691635
 20
4.6300099187
 30
0.0
 10
7.3849455327
 20
4.6301120789
 30
0.0
 10
7.3850704588
 20
4.6302797231
 30
0.0
 10
7.3852550788
 20
4.63052865
 30
0.0
 10
7.3855103043
 20
4.6308746608
 30
0.0
 10
7.3858101473
 20
4.6312834989
 30
0.0
 10
7.3861532705
 20
4.6317554465
 30
0.0
 10
7.3865383644
 20
4.6322906523
 30
0.0
 10
7.3869640191
 20
4.6328892494
 30
0.0
 10
7.3874286098
 20
4.6335514388
 30
0.0
 10
7.3881252861
 20
4.6345590162
 30
0.0
 10
7.3890819333
 20
4.6359774141
 30
0.0
 10
7.3903152353
 20
4.6378760806
 30
0.0
 10
7.3916545541
 20
4.6400338804
 30
0.0
 10
7.3930772239
 20
4.6424534835
 30
0.0
 10
7.3945610222
 20
4.6451356298
 30
0.0
 10
7.3960786604
 20
4.6480820063
 30
0.0
 10
7.3976000906
 20
4.6512930968
 30
0.0
 10
7.3990947855
 20
4.6547665149
 30
0.0
 10
7.4005294366
 20
4.6584974231
 30
0.0
 10
7.4018717538
 20
4.6624763452
 30
0.0
 10
7.4030899626
 20
4.6666895082
 30
0.0
 10
7.4041485049
 20
4.6711194334
 30
0.0
 10
7.4050245838
 20
4.675741237
 30
0.0
 10
7.4056992239
 20
4.6805269608
 30
0.0
 10
7.4061557528
 20
4.6854469678
 30
0.0
 10
7.406381998
 20
4.6904704226
 30
0.0
 10
7.4063858163
 20
4.6955671647
 30
0.0
 10
7.4060969414
 20
4.7024448923
 30
0.0
 10
7.4052034025
 20
4.7110723769
 30
0.0
 10
7.4033993191
 20
4.7213504932
 30
0.0
 10
7.4009809216
 20
4.731502649
 30
0.0
 10
7.398058607
 20
4.7414814207
 30
0.0
 10
7.3947299466
 20
4.751265259
 30
0.0
 10
7.3910765649
 20
4.760845672
 30
0.0
 10
7.3871655952
 20
4.7702194986
 30
0.0
 10
7.3830544818
 20
4.779384866
 30
0.0
 10
7.3787920055
 20
4.7883371981
 30
0.0
 10
7.3744233825
 20
4.7970678762
 30
0.0
 10
7.3699921574
 20
4.8055613021
 30
0.0
 10
7.365542516
 20
4.8137914648
 30
0.0
 10
7.361826304
 20
4.8204589791
 30
0.0
 10
7.3588858511
 20
4.8256314204
 30
0.0
 10
7.3567316709
 20
4.8293752453
 30
0.0
 10
7.3546181105
 20
4.8330076799
 30
0.0
 10
7.3525571191
 20
4.8365134304
 30
0.0
 10
7.3505630499
 20
4.8398733076
 30
0.0
 10
7.3486531868
 20
4.8430635769
 30
0.0
 10
7.3468484256
 20
4.8460547529
 30
0.0
 10
7.3454194411
 20
4.8484065216
 30
0.0
 10
7.344348429
 20
4.8501607583
 30
0.0
 10
7.3436092224
 20
4.8513680206
 30
0.0
 10
7.3429184641
 20
4.8524931504
 30
0.0
 10
7.3422809829
 20
4.8535289633
 30
0.0
 10
7.3417018025
 20
4.8544679851
 30
0.0
 10
7.3411860646
 20
4.8553025359
 30
0.0
 10
7.3407981403
 20
4.8559291728
 30
0.0
 10
7.3405233477
 20
4.856372546
 30
0.0
 10
7.3403453721
 20
4.8566595266
 30
0.0
 10
7.3401869293
 20
4.8569148826
 30
0.0
 10
7.3400485428
 20
4.8571378514
 30
0.0
 10
7.3399306421
 20
4.8573277572
 30
0.0
 10
7.3398453551
 20
4.8574650741
 30
0.0
 10
7.3397876339
 20
4.8575579636
 30
0.0
 10
7.3397523259
 20
4.8576147589
 30
0.0
 10
7.3397223871
 20
4.8576628987
 30
0.0
 10
7.3396978381
 20
4.8577023461
 30
0.0
 10
7.3396807688
 20
4.8577297812
 30
0.0
 10
7.3396698131
 20
4.8577473517
 30
0.0
 10
7.3396636652
 20
4.8577572685
 30
0.0
 10
7.3396588132
 20
4.8577649349
 30
0.0
 10
7.3396554927
 20
4.8577705373
 30
0.0
 10
7.3396532308
 20
4.8577736836
 30
0.0
 10
7.3396525192
 20
4.8577753241
 30
0.0
 10
7.339652204
 20
4.8577756231
 30
0.0
  0
SPLINE
  5
27A
100
AcDbEntity
  8
0
100
AcDbSpline
 62
7
  6
CONTINUOUS
 70
0
 71
3
 72
54
 73
50
 74
0
 42
0.0000001
 43
0.0000001
 44
0.0000000001
 40
0.0
 40
0.0
 40
0.0
 40
0.0
 40
0.0390729213
 40
0.0778339818
 40
0.1162887268
 40
0.1544390743
 40
0.2298376379
 40
0.3040650838
 40
0.3771250097
 40
0.4489953881
 40
0.5196148176
 40
0.5888749378
 40
0.6229450546
 40
0.6566003092
 40
0.6898011904
 40
0.7224965852
 40
0.75461946
 40
0.7860846483
 40
0.8167788919
 40
0.8465473456
 40
0.8751843036
 40
0.8889939692
 40
0.9024107756
 40
0.9153747329
 40
0.9278196931
 40
0.939670045
 40
0.9508375686
 40
0.9612223847
 40
0.9706961921
 40
0.9750481453
 40
0.9791161866
 40
0.9828788935
 40
0.986315188
 40
0.9894065673
 40
0.9921356727
 40
0.9944852281
 40
0.9955125323
 40
0.9964389018
 40
0.9972623753
 40
0.9979809908
 40
0.9985928021
 40
0.9990961978
 40
0.9994898903
 40
0.9996451995
 40
0.9997726049
 40
0.999871947
 40
0.9999430666
 40
0.999985804
 40
1.0
 40
1.0
 40
1.0
 40
1.0
 10
7.0888278148
 20
4.8667458599
 30
0.0
 10
7.0875544377
 20
4.8661610435
 30
0.0
 10
7.0849906259
 20
4.8650545098
 30
0.0
 10
7.081094092
 20
4.8635651664
 30
0.0
 10
7.0771735094
 20
4.8622404637
 30
0.0
 10
7.0719484902
 20
4.8606830967
 30
0.0
 10
7.065401393
 20
4.8590859361
 30
0.0
 10
7.0575408451
 20
4.8576536335
 30
0.0
 10
7.0497420094
 20
4.8566525587
 30
0.0
 10
7.0420339898
 20
4.8560340717
 30
0.0
 10
7.0344430064
 20
4.8557570192
 30
0.0
 10
7.0282030946
 20
4.8557809199
 30
0.0
 10
7.0232927968
 20
4.8559393454
 30
0.0
 10
7.0196777455
 20
4.8561220513
 30
0.0
 10
7.0161157121
 20
4.8563653989
 30
0.0
 10
7.0126131476
 20
4.8566651987
 30
0.0
 10
7.0091780009
 20
4.8570169786
 30
0.0
 10
7.0058202628
 20
4.8574157422
 30
0.0
 10
7.0025528745
 20
4.8578557829
 30
0.0
 10
6.9993928032
 20
4.8583299072
 30
0.0
 10
6.9968373557
 20
4.8587509435
 30
0.0
 10
6.9948641295
 20
4.8590974003
 30
0.0
 10
6.9934462587
 20
4.8593564277
 30
0.0
 10
6.9920781801
 20
4.8596155014
 30
0.0
 10
6.9907668264
 20
4.8598720594
 30
0.0
 10
6.9895201213
 20
4.8601234059
 30
0.0
 10
6.9883471922
 20
4.8603667572
 30
0.0
 10
6.9872589853
 20
4.8605988287
 30
0.0
 10
6.9864107328
 20
4.860784115
 30
0.0
 10
6.9857842676
 20
4.860923183
 30
0.0
 10
6.9853579318
 20
4.8610186844
 30
0.0
 10
6.984963787
 20
4.8611076629
 30
0.0
 10
6.9846039136
 20
4.861189395
 30
0.0
 10
6.9842802812
 20
4.8612633308
 30
0.0
 10
6.9839947334
 20
4.8613289813
 30
0.0
 10
6.9837814041
 20
4.861378383
 30
0.0
 10
6.9836311045
 20
4.8614133975
 30
0.0
 10
6.9835341259
 20
4.8614360752
 30
0.0
 10
6.9834479423
 20
4.8614563057
 30
0.0
 10
6.983372761
 20
4.8614740211
 30
0.0
 10
6.9833087524
 20
4.8614891675
 30
0.0
 10
6.9832561336
 20
4.8615016639
 30
0.0
 10
6.9832193563
 20
4.8615104477
 30
0.0
 10
6.9831958653
 20
4.8615160505
 30
0.0
 10
6.9831823288
 20
4.8615193319
 30
0.0
 10
6.983172492
 20
4.8615215983
 30
0.0
 10
6.9831638095
 20
4.8615239012
 30
0.0
 10
6.9831615374
 20
4.8615240695
 30
0.0
 10
6.9831572849
 20
4.8615254829
 30
0.0
 10
6.9831577184
 20
4.8615252161
 30
0.0
  0
SPLINE
  5
27B
100
AcDbEntity
  8
0
100
AcDbSpline
 62
7
  6
CONTINUOUS
 70
0
 71
3
 72
46
 73
42
 74
0
 42
0.0000001
 43
0.0000001
 44
0.0000000001
 40
0.0
 40
0.0
 40
0.0
 40
0.0
 40
0.0317333131
 40
0.0633937527
 40
0.0949180625
 40
0.126258483
 40
0.1573890654
 40
0.1728780167
 40
0.1883158137
 40
0.2190448483
 40
0.249625268
 40
0.2648807036
 40
0.2801211321
 40
0.3105820563
 40
0.3410796027
 40
0.3563638087
 40
0.3716778163
 40
0.3870272021
 40
0.4024166586
 40
0.4178492017
 40
0.4333255905
 40
0.4488466632
 40
0.4644133133
 40
0.4800253592
 40
0.4956805167
 40
0.5271016654
 40
0.5586529848
 40
0.5903028551
 40
0.6220166299
 40
0.6537613809
 40
0.6855081689
 40
0.7172324105
 40
0.7489158932
 40
0.7805436803
 40
0.8121064328
 40
0.843598334
 40
0.8750170784
 40
0.9063627784
 40
0.9376385478
 40
0.9688486442
 40
1.0
 40
1.0
 40
1.0
 40
1.0
 10
3.594652204
 20
4.5907511236
 30
0.0
 10
3.5976852144
 20
4.5907512758
 30
0.0
 10
3.6037475242
 20
4.5910174645
 30
0.0
 10
3.612752948
 20
4.5922017001
 30
0.0
 10
3.6215847885
 20
4.5941605805
 30
0.0
 10
3.6301603225
 20
4.5968762787
 30
0.0
 10
3.637047819
 20
4.5997472191
 30
0.0
 10
3.6423590656
 20
4.6023913616
 30
0.0
 10
3.6475138341
 20
4.6052506062
 30
0.0
 10
3.6536856596
 20
4.6092339136
 30
0.0
 10
3.6594666332
 20
4.6137373553
 30
0.0
 10
3.6638252995
 20
4.6176229994
 30
0.0
 10
3.6680018852
 20
4.6216873472
 30
0.0
 10
3.6728870369
 20
4.6271017361
 30
0.0
 10
3.6772998988
 20
4.6329118447
 30
0.0
 10
3.6805436765
 20
4.6377689568
 30
0.0
 10
3.6828363344
 20
4.6415159888
 30
0.0
 10
3.6849853541
 20
4.6453586236
 30
0.0
 10
3.6869901886
 20
4.6492910849
 30
0.0
 10
3.6888542219
 20
4.6533054802
 30
0.0
 10
3.6905811085
 20
4.6573943452
 30
0.0
 10
3.6921714496
 20
4.6615519321
 30
0.0
 10
3.6936245278
 20
4.6657731371
 30
0.0
 10
3.6949416496
 20
4.6700520997
 30
0.0
 10
3.6965247734
 20
4.6758316197
 30
0.0
 10
3.6981859568
 20
4.6831654635
 30
0.0
 10
3.699694008
 20
4.6920868827
 30
0.0
 10
3.7007426214
 20
4.7011017094
 30
0.0
 10
3.7013569381
 20
4.7101744325
 30
0.0
 10
3.7015696105
 20
4.7192742595
 30
0.0
 10
3.7014036596
 20
4.7283757846
 30
0.0
 10
3.7008788302
 20
4.7374575556
 30
0.0
 10
3.7000162477
 20
4.7465018426
 30
0.0
 10
3.6988327074
 20
4.7554940425
 30
0.0
 10
3.6973402527
 20
4.7644215073
 30
0.0
 10
3.6955480679
 20
4.7732732136
 30
0.0
 10
3.6934633144
 20
4.7820392758
 30
0.0
 10
3.6910888651
 20
4.790709937
 30
0.0
 10
3.6884254729
 20
4.7992754617
 30
0.0
 10
3.6854699419
 20
4.8077249174
 30
0.0
 10
3.6832989292
 20
4.8132775972
 30
0.0
 10
3.6821624416
 20
4.8160295484
 30
0.0
  0
SPLINE
  5
27C
100
AcDbEntity
  8
0
100
AcDbSpline
 62
7
  6
CONTINUOUS
 70
0
 71
3
 72
15
 73
11
 74
0
 42
0.0000001
 43
0.0000001
 44
0.0000000001
 40
0.0
 40
0.0
 40
0.0
 40
0.0
 40
0.1475173475
 40
0.2893751687
 40
0.4249995198
 40
0.5539384067
 40
0.6759282694
 40
0.7908603064
 40
0.8988020997
 40
1.0
 40
1.0
 40
1.0
 40
1.0
 10
3.8022710578
 20
4.8530265365
 30
0.0
 10
3.802867713
 20
4.8533897466
 30
0.0
 10
3.8040511062
 20
4.8540812702
 30
0.0
 10
3.8058299133
 20
4.8550237501
 30
0.0
 10
3.8075723089
 20
4.8558428
 30
0.0
 10
3.8092703345
 20
4.856529042
 30
0.0
 10
3.8109160068
 20
4.8570745907
 30
0.0
 10
3.8125016082
 20
4.8574724746
 30
0.0
 10
3.8140186569
 20
4.8577164675
 30
0.0
 10
3.815009498
 20
4.8577755656
 30
0.0
 10
3.815488682
 20
4.8577756231
 30
0.0
  0
SPLINE
  5
27D
100
AcDbEntity
  8
0
100
AcDbSpline
 62
7
  6
CONTINUOUS
 70
0
 71
3
 72
34
 73
30
 74
0
 42
0.0000001
 43
0.0000001
 44
0.0000000001
 40
0.0
 40
0.0
 40
0.0
 40
0.0
 40
0.0155047524
 40
0.0316353225
 40
0.0482522118
 40
0.0652322798
 40
0.0998486964
 40
0.1348007785
 40
0.1696974176
 40
0.2043410821
 40
0.2215397907
 40
0.2386491629
 40
0.2725926737
 40
0.3061663136
 40
0.3393820321
 40
0.3722540838
 40
0.4047959809
 40
0.4689437937
 40
0.531924865
 40
0.5938076216
 40
0.6546438231
 40
0.7144679454
 40
0.7733085134
 40
0.8312004718
 40
0.859811167
 40
0.8882082771
 40
0.9164050926
 40
0.9444218055
 40
1.0
 40
1.0
 40
1.0
 40
1.0
 10
7.9003994468
 20
4.8615252161
 30
0.0
 10
7.8997483691
 20
4.861525226
 30
0.0
 10
7.8984199021
 20
4.8615088349
 30
0.0
 10
7.8963946706
 20
4.8614422742
 30
0.0
 10
7.8943090762
 20
4.8613367577
 30
0.0
 10
7.8914507628
 20
4.8611482836
 30
0.0
 10
7.8878295606
 20
4.8608351884
 30
0.0
 10
7.8834663299
 20
4.8603809198
 30
0.0
 10
7.8791067806
 20
4.8598829021
 30
0.0
 10
7.8754903606
 20
4.8594489639
 30
0.0
 10
7.8726158335
 20
4.8591016707
 30
0.0
 10
7.8697702691
 20
4.858759775
 30
0.0
 10
7.8662412313
 20
4.858342214
 30
0.0
 10
7.8620382216
 20
4.8578650091
 30
0.0
 10
7.8578766093
 20
4.8574227997
 30
0.0
 10
7.8537542284
 20
4.8570227668
 30
0.0
 10
7.8483337982
 20
4.8565541357
 30
0.0
 10
7.8416436672
 20
4.8560965072
 30
0.0
 10
7.8337112987
 20
4.8557888125
 30
0.0
 10
7.8259116496
 20
4.8557548114
 30
0.0
 10
7.8182487925
 20
4.8560267601
 30
0.0
 10
7.8107330236
 20
4.8566398132
 30
0.0
 10
7.8033822813
 20
4.8576351308
 30
0.0
 10
7.7973914646
 20
4.8588282724
 30
0.0
 10
7.7927177868
 20
4.8600310567
 30
0.0
 10
7.7892903758
 20
4.8610614351
 30
0.0
 10
7.78593485
 20
4.8622338744
 30
0.0
 10
7.7815822958
 20
4.8639948069
 30
0.0
 10
7.7784337846
 20
4.8655711154
 30
0.0
 10
7.7764193339
 20
4.866749602
 30
0.0
  0
SPLINE
  5
27E
100
AcDbEntity
  8
0
100
AcDbSpline
 62
7
  6
CONTINUOUS
 70
0
 71
3
 72
20
 73
16
 74
0
 42
0.0000001
 43
0.0000001
 44
0.0000000001
 40
0.0
 40
0.0
 40
0.0
 40
0.0
 40
0.1354976879
 40
0.2016367422
 40
0.2667094531
 40
0.3938049282
 40
0.5173882527
 40
0.5781613763
 40
0.63843236
 40
0.6983683683
 40
0.7581576623
 40
0.8180008182
 40
0.8781109933
 40
0.9387051312
 40
1.0
 40
1.0
 40
1.0
 40
1.0
 10
7.699652204
 20
4.6297222667
 30
0.0
 10
7.7018697524
 20
4.6297222823
 30
0.0
 10
7.7051723472
 20
4.6298567198
 30
0.0
 10
7.7095131513
 20
4.63032633
 30
0.0
 10
7.7136919442
 20
4.630974481
 30
0.0
 10
7.7187377179
 20
4.6321301234
 30
0.0
 10
7.7235718023
 20
4.6337801154
 30
0.0
 10
7.7272406431
 20
4.6353872645
 30
0.0
 10
7.7298827475
 20
4.6367297894
 30
0.0
 10
7.7324276153
 20
4.6382169085
 30
0.0
 10
7.7348734064
 20
4.6398494339
 30
0.0
 10
7.7372185082
 20
4.6416283016
 30
0.0
 10
7.7394618778
 20
4.6435541882
 30
0.0
 10
7.7416025857
 20
4.6456276872
 30
0.0
 10
7.7429520476
 20
4.6470986064
 30
0.0
 10
7.7436088329
 20
4.6478568547
 30
0.0
  0
SPLINE
  5
27F
100
AcDbEntity
  8
0
100
AcDbSpline
 62
7
  6
CONTINUOUS
 70
0
 71
3
 72
19
 73
15
 74
0
 42
0.0000001
 43
0.0000001
 44
0.0000000001
 40
0.0
 40
0.0
 40
0.0
 40
0.0
 40
0.1218652325
 40
0.2465213608
 40
0.3733464904
 40
0.5015936246
 40
0.5659384748
 40
0.6302102724
 40
0.6942034156
 40
0.7576719166
 40
0.8203219254
 40
0.8818356267
 40
0.9418568386
 40
1.0
 40
1.0
 40
1.0
 40
1.0
 10
3.7821522567
 20
4.7991675002
 30
0.0
 10
3.7821521165
 20
4.7932137923
 30
0.0
 10
3.782070159
 20
4.7811700724
 30
0.0
 10
3.7818423819
 20
4.7629317421
 30
0.0
 10
3.7816186
 20
4.7443814948
 30
0.0
 10
3.7815131305
 20
4.728776632
 30
0.0
 10
3.7815060943
 20
4.7162275535
 30
0.0
 10
3.7815428958
 20
4.7068176707
 30
0.0
 10
3.7816202445
 20
4.697450855
 30
0.0
 10
3.7817316384
 20
4.6881636296
 30
0.0
 10
3.7818655861
 20
4.6789978618
 30
0.0
 10
3.7820019462
 20
4.6700005659
 30
0.0
 10
3.7821141767
 20
4.6612231286
 30
0.0
 10
3.7821510993
 20
4.6554502431
 30
0.0
 10
3.7821521583
 20
4.6526096678
 30
0.0
  0
SPLINE
  5
280
100
AcDbEntity
  8
0
100
AcDbSpline
 62
7
  6
CONTINUOUS
 70
0
 71
3
 72
42
 73
38
 74
0
 42
0.0000001
 43
0.0000001
 44
0.0000000001
 40
0.0
 40
0.0
 40
0.0
 40
0.0
 40
0.0311520413
 40
0.062363342
 40
0.0936401848
 40
0.124986385
 40
0.1564057203
 40
0.1878987443
 40
0.2194628196
 40
0.2510912085
 40
0.3144896076
 40
0.346237709
 40
0.3779827502
 40
0.4096971543
 40
0.4413485688
 40
0.4729011366
 40
0.5043226501
 40
0.5355856588
 40
0.5666719254
 40
0.5821483837
 40
0.5975800038
 40
0.6129693208
 40
0.6283197761
 40
0.6436348045
 40
0.6589193879
 40
0.674180041
 40
0.6894240492
 40
0.7198856977
 40
0.7503751892
 40
0.7809566105
 40
0.8116864353
 40
0.8426064536
 40
0.873737916
 40
0.9050792318
 40
0.9366044452
 40
0.9682657868
 40
1.0
 40
1.0
 40
1.0
 40
1.0
 10
3.5071376682
 20
4.8160224128
 30
0.0
 10
3.5060011672
 20
4.8132705726
 30
0.0
 10
3.5038305131
 20
4.8077178906
 30
0.0
 10
3.5008767489
 20
4.7992680415
 30
0.0
 10
3.498213327
 20
4.7907027889
 30
0.0
 10
3.4958376631
 20
4.7820327574
 30
0.0
 10
3.4937531004
 20
4.7732668993
 30
0.0
 10
3.4919628909
 20
4.7644150454
 30
0.0
 10
3.4904703306
 20
4.755487679
 30
0.0
 10
3.4888892095
 20
4.7434910436
 30
0.0
 10
3.4879580861
 20
4.7313969626
 30
0.0
 10
3.4877338754
 20
4.7192690356
 30
0.0
 10
3.4879463389
 20
4.7101692616
 30
0.0
 10
3.4885655088
 20
4.7010971909
 30
0.0
 10
3.4896110746
 20
4.6920823151
 30
0.0
 10
3.4911160147
 20
4.6831603614
 30
0.0
 10
3.4931088086
 20
4.6743718979
 30
0.0
 10
3.4956104342
 20
4.6657604066
 30
0.0
 10
3.4981437112
 20
4.6587605118
 30
0.0
 10
3.5004485417
 20
4.6533010532
 30
0.0
 10
3.5023153851
 20
4.6492882619
 30
0.0
 10
3.5043228083
 20
4.6453574454
 30
0.0
 10
3.5064710454
 20
4.6415144697
 30
0.0
 10
3.5087614429
 20
4.63776612
 30
0.0
 10
3.5111956955
 20
4.6341198188
 30
0.0
 10
3.5137732646
 20
4.6305816307
 30
0.0
 10
3.5173968999
 20
4.6260170173
 30
0.0
 10
3.5222811838
 20
4.6206027422
 30
0.0
 10
3.5286897106
 20
4.6146319231
 30
0.0
 10
3.5356197136
 20
4.6092323688
 30
0.0
 10
3.5430363489
 20
4.6044470885
 30
0.0
 10
3.5508951623
 20
4.6003145274
 30
0.0
 10
3.5591447981
 20
4.5968760209
 30
0.0
 10
3.5677204208
 20
4.5941605256
 30
0.0
 10
3.576551889
 20
4.5922014055
 30
0.0
 10
3.5855571286
 20
4.5910173478
 30
0.0
 10
3.5916192736
 20
4.5907512654
 30
0.0
 10
3.594652204
 20
4.5907511236
 30
0.0
  0
LINE
  5
281
100
AcDbEntity
  8
0
100
AcDbLine
 62
7
  6
CONTINUOUS
 10
7.9418448352
 20
4.8667505003
 11
7.9092839232
 21
4.867304684
  0
LINE
  5
282
100
AcDbEntity
  8
0
100
AcDbLine
 62
7
  6
CONTINUOUS
 10
3.594652204
 20
4.867304684
 11
3.5500305373
 21
4.8667504831
  0
LINE
  5
283
100
AcDbEntity
  8
0
100
AcDbLine
 62
7
  6
CONTINUOUS
 10
3.6392073665
 20
4.8667504981
 11
3.594652204
 21
4.867304684
  0
SPLINE
  5
284
100
AcDbEntity
  8
0
100
AcDbSpline
 62
7
  6
CONTINUOUS
 70
0
 71
3
 72
34
 73
30
 74
0
 42
0.0000001
 43
0.0000001
 44
0.0000000001
 40
0.0
 40
0.0
 40
0.0
 40
0.0
 40
0.0511244741
 40
0.1009272967
 40
0.1250493084
 40
0.1485675882
 40
0.1937689635
 40
0.2366213205
 40
0.2773298862
 40
0.3161392015
 40
0.3532968268
 40
0.3889800416
 40
0.4233386535
 40
0.4565127672
 40
0.4886091741
 40
0.5498845639
 40
0.6077019277
 40
0.6624747433
 40
0.7145553258
 40
0.7643027501
 40
0.7884359598
 40
0.8121567882
 40
0.8586479127
 40
0.8816439843
 40
0.9046303494
 40
0.9277626447
 40
0.9512221687
 40
0.9752206985
 40
1.0
 40
1.0
 40
1.0
 40
1.0
 10
3.594652204
 20
4.8615252161
 30
0.0
 10
3.5931902096
 20
4.8615252348
 30
0.0
 10
3.5903037513
 20
4.8614652693
 30
0.0
 10
3.5867329878
 20
4.8612586531
 30
0.0
 10
3.5839559059
 20
4.8610278201
 30
0.0
 10
3.5813136379
 20
4.8607675273
 30
0.0
 10
3.5781447034
 20
4.86039382
 30
0.0
 10
3.5744964485
 20
4.8598940979
 30
0.0
 10
3.571035859
 20
4.8593739879
 30
0.0
 10
3.5677402698
 20
4.8588527814
 30
0.0
 10
3.5645873488
 20
4.8583495331
 30
0.0
 10
3.5615591628
 20
4.8578722802
 30
0.0
 10
3.5586410507
 20
4.8574284941
 30
0.0
 10
3.5558203457
 20
4.8570269511
 30
0.0
 10
3.5522313807
 20
4.8565627094
 30
0.0
 10
3.5479310402
 20
4.8561060327
 30
0.0
 10
3.5429670543
 20
4.8557922279
 30
0.0
 10
3.5382551885
 20
4.8557527706
 30
0.0
 10
3.5337809333
 20
4.8560199814
 30
0.0
 10
3.530209835
 20
4.8565328155
 30
0.0
 10
3.5274842485
 20
4.8571401251
 30
0.0
 10
3.5248863076
 20
4.8578713067
 30
0.0
 10
3.5223878441
 20
4.8588262559
 30
0.0
 10
3.5200314455
 20
4.8600310426
 30
0.0
 10
3.5183445771
 20
4.8610651741
 30
0.0
 10
3.5167373537
 20
4.8622420758
 30
0.0
 10
3.5152163365
 20
4.8635733855
 30
0.0
 10
3.513789338
 20
4.8650708522
 30
0.0
 10
3.5129233513
 20
4.86616744
 30
0.0
 10
3.5125102716
 20
4.8667431918
 30
0.0
  0
SPLINE
  5
285
100
AcDbEntity
  8
0
100
AcDbSpline
 62
7
  6
CONTINUOUS
 70
0
 71
3
 72
30
 73
26
 74
0
 42
0.0000001
 43
0.0000001
 44
0.0000000001
 40
0.0
 40
0.0
 40
0.0
 40
0.0
 40
0.0636464091
 40
0.1270513835
 40
0.190012169
 40
0.2212905024
 40
0.2524162746
 40
0.3141980224
 40
0.3754650876
 40
0.4059772859
 40
0.4364474906
 40
0.4669163183
 40
0.4974272973
 40
0.5280232261
 40
0.5587420215
 40
0.5896152351
 40
0.6206660616
 40
0.6519045493
 40
0.6833220534
 40
0.7148991613
 40
0.7466060704
 40
0.8102290331
 40
0.8738638692
 40
0.9371951785
 40
1.0
 40
1.0
 40
1.0
 40
1.0
 10
3.594652204
 20
4.6297222667
 30
0.0
 10
3.5976657966
 20
4.6297223273
 30
0.0
 10
3.6036847205
 20
4.6299713639
 30
0.0
 10
3.6126207249
 20
4.6310990284
 30
0.0
 10
3.6199288319
 20
4.6326701373
 30
0.0
 10
3.6256350462
 20
4.634312203
 30
0.0
 10
3.6312055195
 20
4.6362007866
 30
0.0
 10
3.6379436892
 20
4.6390418869
 30
0.0
 10
3.6443288207
 20
4.6425513667
 30
0.0
 10
3.6491549385
 20
4.6457520594
 30
0.0
 10
3.6526232913
 20
4.6483486228
 30
0.0
 10
3.6559335469
 20
4.6511438801
 30
0.0
 10
3.659074881
 20
4.6541365483
 30
0.0
 10
3.6620363267
 20
4.657323592
 30
0.0
 10
3.664807959
 20
4.6606992722
 30
0.0
 10
3.6673804109
 20
4.6642557021
 30
0.0
 10
3.6697454254
 20
4.6679824353
 30
0.0
 10
3.6718966091
 20
4.6718659156
 30
0.0
 10
3.6738307627
 20
4.6758893777
 30
0.0
 10
3.6755470826
 20
4.6800343841
 30
0.0
 10
3.6775488685
 20
4.6857025622
 30
0.0
 10
3.6795156674
 20
4.6929808374
 30
0.0
 10
3.681091685
 20
4.7018764571
 30
0.0
 10
3.6819705157
 20
4.7108265372
 30
0.0
 10
3.6821512978
 20
4.7168008345
 30
0.0
 10
3.6821522021
 20
4.7197745787
 30
0.0
  0
SPLINE
  5
286
100
AcDbEntity
  8
0
100
AcDbSpline
 62
7
  6
CONTINUOUS
 70
0
 71
3
 72
15
 73
11
 74
0
 42
0.0000001
 43
0.0000001
 44
0.0000000001
 40
0.0
 40
0.0
 40
0.0
 40
0.0
 40
0.1011639224
 40
0.2090874385
 40
0.3240132103
 40
0.4460058748
 40
0.5749532909
 40
0.7105886485
 40
0.8524611096
 40
1.0
 40
1.0
 40
1.0
 40
1.0
 10
3.3738157261
 20
4.8577756231
 30
0.0
 10
3.3742959376
 20
4.8577755835
 30
0.0
 10
3.3752889921
 20
4.8577162191
 30
0.0
 10
3.3768094562
 20
4.8574711706
 30
0.0
 10
3.3783987215
 20
4.8570716312
 30
0.0
 10
3.3800482226
 20
4.8565238788
 30
0.0
 10
3.3817501779
 20
4.8558349478
 30
0.0
 10
3.3834965681
 20
4.8550127848
 30
0.0
 10
3.385279421
 20
4.8540667937
 30
0.0
 10
3.3864654729
 20
4.8533727392
 30
0.0
 10
3.3870634718
 20
4.8530082071
 30
0.0
  0
SPLINE
  5
287
100
AcDbEntity
  8
0
100
AcDbSpline
 62
7
  6
CONTINUOUS
 70
0
 71
3
 72
42
 73
38
 74
0
 42
0.0000001
 43
0.0000001
 44
0.0000000001
 40
0.0
 40
0.0
 40
0.0
 40
0.0
 40
0.0317239283
 40
0.0633576512
 40
0.0949066102
 40
0.1263796962
 40
0.1577874159
 40
0.1891421193
 40
0.2204577658
 40
0.2517507417
 40
0.2830342454
 40
0.3143234794
 40
0.3456353744
 40
0.3769868229
 40
0.4083910454
 40
0.4398614956
 40
0.4714087721
 40
0.5030367948
 40
0.5347439822
 40
0.5506296565
 40
0.5665317708
 40
0.5824477573
 40
0.5983753141
 40
0.6143118991
 40
0.6302558226
 40
0.6621397116
 40
0.694021171
 40
0.7258769019
 40
0.7576719558
 40
0.773536111
 40
0.7893638729
 40
0.8208630084
 40
0.8520860043
 40
0.8829239325
 40
0.9132558162
 40
0.9429603923
 40
1.0
 40
1.0
 40
1.0
 40
1.0
 10
7.6613570836
 20
4.8201976221
 30
0.0
 10
7.6596040718
 20
4.8181719324
 30
0.0
 10
7.6561872926
 20
4.8140526409
 30
0.0
 10
7.6513147772
 20
4.8076873838
 30
0.0
 10
7.6466947502
 20
4.8011625139
 30
0.0
 10
7.642323247
 20
4.7944915372
 30
0.0
 10
7.6382006187
 20
4.7876831496
 30
0.0
 10
7.6343286286
 20
4.7807443478
 30
0.0
 10
7.630716185
 20
4.7736777216
 30
0.0
 10
7.6273740728
 20
4.7664857585
 30
0.0
 10
7.6243198346
 20
4.7591690872
 30
0.0
 10
7.6215734959
 20
4.7517293123
 30
0.0
 10
7.6191673459
 20
4.7441661047
 30
0.0
 10
7.6171385759
 20
4.7364823972
 30
0.0
 10
7.615531825
 20
4.7286849252
 30
0.0
 10
7.614406518
 20
4.720785659
 30
0.0
 10
7.6138308355
 20
4.7128068348
 30
0.0
 10
7.6138808827
 20
4.7047858781
 30
0.0
 10
7.6145125547
 20
4.6981152373
 30
0.0
 10
7.6154093822
 20
4.6928270138
 30
0.0
 10
7.6162870489
 20
4.6888935331
 30
0.0
 10
7.6173742899
 20
4.6850090241
 30
0.0
 10
7.6186746592
 20
4.6811873694
 30
0.0
 10
7.6201916474
 20
4.6774435808
 30
0.0
 10
7.6225009675
 20
4.6725766822
 30
0.0
 10
7.625912439
 20
4.6667550779
 30
0.0
 10
7.6307833231
 20
4.6602934956
 30
0.0
 10
7.6363343462
 20
4.6544185785
 30
0.0
 10
7.6414381374
 20
4.6500367599
 30
0.0
 10
7.6457508123
 20
4.646849293
 30
0.0
 10
7.650187233
 20
4.6438810763
 30
0.0
 10
7.6559442541
 20
4.6405680314
 30
0.0
 10
7.6631076841
 20
4.6372151543
 30
0.0
 10
7.6704237138
 20
4.634482045
 30
0.0
 10
7.6778070358
 20
4.6323597328
 30
0.0
 10
7.6874963096
 20
4.6303678253
 30
0.0
 10
7.6948355554
 20
4.6297223698
 30
0.0
 10
7.699652204
 20
4.6297222667
 30
0.0
  0
SPLINE
  5
288
100
AcDbEntity
  8
0
100
AcDbSpline
 62
7
  6
CONTINUOUS
 70
0
 71
3
 72
24
 73
20
 74
0
 42
0.0000001
 43
0.0000001
 44
0.0000000001
 40
0.0
 40
0.0
 40
0.0
 40
0.0
 40
0.0070442302
 40
0.0146344627
 40
0.0312812439
 40
0.049707866
 40
0.0697098363
 40
0.0911022701
 40
0.1137115824
 40
0.1374244321
 40
0.1621535487
 40
0.21437106
 40
0.2699238479
 40
0.3285506592
 40
0.3901155191
 40
0.5219556863
 40
0.6661352958
 40
0.8244680817
 40
1.0
 40
1.0
 40
1.0
 40
1.0
 10
4.1270252759
 20
4.8592684113
 30
0.0
 10
4.1269160657
 20
4.8591955984
 30
0.0
 10
4.126684512
 20
4.8590512739
 30
0.0
 10
4.1261754044
 20
4.8587671263
 30
0.0
 10
4.1254578094
 20
4.8584232396
 30
0.0
 10
4.1245065554
 20
4.8580369583
 30
0.0
 10
4.1234538134
 20
4.8576693625
 30
0.0
 10
4.1223116008
 20
4.8573252071
 30
0.0
 10
4.1210898958
 20
4.8570086713
 30
0.0
 10
4.1197969006
 20
4.8567229048
 30
0.0
 10
4.1179526276
 20
4.8563798114
 30
0.0
 10
4.1155045848
 20
4.8560463629
 30
0.0
 10
4.1124112155
 20
4.8558120205
 30
0.0
 10
4.1091351302
 20
4.8557539877
 30
0.0
 10
4.1044404336
 20
4.8559389442
 30
0.0
 10
4.0981854522
 20
4.8567353471
 30
0.0
 10
4.0903129416
 20
4.858695731
 30
0.0
 10
4.0819834893
 20
4.861918901
 30
0.0
 10
4.0765214596
 20
4.8649513246
 30
0.0
 10
4.0737851321
 20
4.8667430613
 30
0.0
  0
SPLINE
  5
289
100
AcDbEntity
  8
0
100
AcDbSpline
 62
7
  6
CONTINUOUS
 70
0
 71
3
 72
24
 73
20
 74
0
 42
0.0000001
 43
0.0000001
 44
0.0000000001
 40
0.0
 40
0.0
 40
0.0
 40
0.0
 40
0.175524669
 40
0.3338508328
 40
0.4780237985
 40
0.5454426822
 40
0.6099108018
 40
0.6714727872
 40
0.7300991238
 40
0.7856503435
 40
0.8378639653
 40
0.8863012222
 40
0.9089086915
 40
0.9302946681
 40
0.9502929063
 40
0.9687233761
 40
0.9853722935
 40
0.992959761
 40
1.0
 40
1.0
 40
1.0
 40
1.0
 10
3.1155196924
 20
4.8667433366
 30
0.0
 10
3.1127833212
 20
4.8649515894
 30
0.0
 10
3.1073209774
 20
4.8619192181
 30
0.0
 10
3.0989921724
 20
4.8586960939
 30
0.0
 10
3.0922852537
 20
4.8570259762
 30
0.0
 10
3.0871996258
 20
4.8562363705
 30
0.0
 10
3.0836094903
 20
4.8558893481
 30
0.0
 10
3.0801693622
 20
4.8557538279
 30
0.0
 10
3.0768932858
 20
4.8558120412
 30
0.0
 10
3.0737997557
 20
4.8560464418
 30
0.0
 10
3.070913948
 20
4.8564395194
 30
0.0
 10
3.0686604099
 20
4.8568933518
 30
0.0
 10
3.066992704
 20
4.8573253516
 30
0.0
 10
3.0658505989
 20
4.8576693324
 30
0.0
 10
3.064797883
 20
4.8580368303
 30
0.0
 10
3.0638465748
 20
4.8584232436
 30
0.0
 10
3.0631289072
 20
4.8587672123
 30
0.0
 10
3.0626198391
 20
4.8590513185
 30
0.0
 10
3.062388378
 20
4.8591955816
 30
0.0
 10
3.0622792241
 20
4.8592683577
 30
0.0
  0
SPLINE
  5
28A
100
AcDbEntity
  8
0
100
AcDbSpline
 62
7
  6
CONTINUOUS
 70
0
 71
3
 72
63
 73
59
 74
0
 42
0.0000001
 43
0.0000001
 44
0.0000000001
 40
0.0
 40
0.0
 40
0.0
 40
0.0
 40
0.0083868655
 40
0.0168974556
 40
0.0256897756
 40
0.0349154423
 40
0.0397335684
 40
0.0447063518
 40
0.0551623846
 40
0.0663723259
 40
0.0784014869
 40
0.0912946442
 40
0.1050768292
 40
0.1197546257
 40
0.1353137869
 40
0.1517233529
 40
0.1689341838
 40
0.1868724272
 40
0.205454074
 40
0.2245873099
 40
0.2441707396
 40
0.2641043117
 40
0.284293729
 40
0.3046547884
 40
0.3251143815
 40
0.3660886596
 40
0.4471721632
 40
0.5260323125
 40
0.5644457318
 40
0.6021291642
 40
0.6390471101
 40
0.675157183
 40
0.7104039973
 40
0.7447109196
 40
0.7779783051
 40
0.7941804525
 40
0.8100696431
 40
0.8256193996
 40
0.8408019199
 40
0.855586017
 40
0.8699333615
 40
0.8838042709
 40
0.8971481043
 40
0.9099154517
 40
0.9220517186
 40
0.933507397
 40
0.9442449429
 40
0.9542616579
 40
0.9590199301
 40
0.963629776
 40
0.9681169858
 40
0.9725172749
 40
0.9768775801
 40
0.9812499189
 40
0.985690373
 40
0.9902582659
 40
0.9950117269
 40
1.0
 40
1.0
 40
1.0
 40
1.0
 10
3.4024198921
 20
4.63250797
 30
0.0
 10
3.4018702586
 20
4.6328743861
 30
0.0
 10
3.4008118058
 20
4.6336891368
 30
0.0
 10
3.3993847045
 20
4.6351313968
 30
0.0
 10
3.3981123898
 20
4.6367953358
 30
0.0
 10
3.3971893477
 20
4.6383433435
 30
0.0
 10
3.3965196854
 20
4.6396835795
 30
0.0
 10
3.3958737949
 20
4.6411422142
 30
0.0
 10
3.3951505417
 20
4.6431143207
 30
0.0
 10
3.3944148132
 20
4.6456659852
 30
0.0
 10
3.39378424
 20
4.6484424207
 30
0.0
 10
3.3932446575
 20
4.6514435724
 30
0.0
 10
3.3927807391
 20
4.6546679543
 30
0.0
 10
3.3923763371
 20
4.6581116397
 30
0.0
 10
3.3920152756
 20
4.6617680037
 30
0.0
 10
3.3916796107
 20
4.6656269984
 30
0.0
 10
3.3913504674
 20
4.6696745509
 30
0.0
 10
3.3910153984
 20
4.6738932507
 30
0.0
 10
3.3906593961
 20
4.6782621811
 30
0.0
 10
3.3902680201
 20
4.6827581928
 30
0.0
 10
3.3898325399
 20
4.6873571359
 30
0.0
 10
3.389347724
 20
4.692034796
 30
0.0
 10
3.3888103589
 20
4.696768376
 30
0.0
 10
3.3882159548
 20
4.7015369052
 30
0.0
 10
3.3873481741
 20
4.7079207109
 30
0.0
 10
3.3856594686
 20
4.7190188743
 30
0.0
 10
3.3828081675
 20
4.7345884973
 30
0.0
 10
3.3795488077
 20
4.7498690509
 30
0.0
 10
3.37686245
 20
4.7617746165
 30
0.0
 10
3.3748631221
 20
4.7704485713
 30
0.0
 10
3.3728934716
 20
4.7789431561
 30
0.0
 10
3.3709860049
 20
4.7872551559
 30
0.0
 10
3.369175327
 20
4.795378287
 30
0.0
 10
3.3674977807
 20
4.80330132
 30
0.0
 10
3.3662311263
 20
4.8097775381
 30
0.0
 10
3.3653282021
 20
4.8148456954
 30
0.0
 10
3.3647183143
 20
4.8185482789
 30
0.0
 10
3.3641783036
 20
4.8221805763
 30
0.0
 10
3.3637172534
 20
4.8257360512
 30
0.0
 10
3.3633444894
 20
4.829206718
 30
0.0
 10
3.3630703043
 20
4.8325830296
 30
0.0
 10
3.3629049121
 20
4.8358530197
 30
0.0
 10
3.3628649894
 20
4.8390027902
 30
0.0
 10
3.3629675144
 20
4.8420148701
 30
0.0
 10
3.3632290596
 20
4.8448685449
 30
0.0
 10
3.3636681376
 20
4.8475396452
 30
0.0
 10
3.3643118571
 20
4.8499980265
 30
0.0
 10
3.3650538784
 20
4.8518733035
 30
0.0
 10
3.3657811682
 20
4.8532176418
 30
0.0
 10
3.3663842059
 20
4.8541291148
 30
0.0
 10
3.3670570047
 20
4.8549547201
 30
0.0
 10
3.3678031284
 20
4.8556875083
 30
0.0
 10
3.3686252845
 20
4.8563195624
 30
0.0
 10
3.3695228737
 20
4.8568454938
 30
0.0
 10
3.3704948797
 20
4.8572599866
 30
0.0
 10
3.371539649
 20
4.8575587482
 30
0.0
 10
3.372654816
 20
4.8577378726
 30
0.0
 10
3.3734228353
 20
4.8577755827
 30
0.0
 10
3.3738157261
 20
4.8577756231
 30
0.0
  0
SPLINE
  5
28B
100
AcDbEntity
  8
0
100
AcDbSpline
 62
7
  6
CONTINUOUS
 70
0
 71
3
 72
64
 73
60
 74
0
 42
0.0000001
 43
0.0000001
 44
0.0000000001
 40
0.0
 40
0.0
 40
0.0
 40
0.0
 40
0.0049883494
 40
0.0097420098
 40
0.0143101469
 40
0.0187506263
 40
0.0231227141
 40
0.0274827527
 40
0.0318828944
 40
0.036370073
 40
0.0409799682
 40
0.0457382805
 40
0.0557549615
 40
0.0664924863
 40
0.0779481177
 40
0.0900842908
 40
0.1028514639
 40
0.1161951654
 40
0.1300659847
 40
0.1444133196
 40
0.1591974136
 40
0.174379835
 40
0.1899295726
 40
0.2058186746
 40
0.2220207514
 40
0.2552877962
 40
0.289594447
 40
0.3248411792
 40
0.3609513659
 40
0.3978694006
 40
0.435552629
 40
0.4739653591
 40
0.5130730259
 40
0.552827176
 40
0.5931508452
 40
0.6339130402
 40
0.6748871525
 40
0.695346521
 40
0.715707726
 40
0.7358973415
 40
0.7558303757
 40
0.7945469282
 40
0.813128334
 40
0.8310660392
 40
0.8482767201
 40
0.8646866154
 40
0.880245892
 40
0.8949233802
 40
0.9087054111
 40
0.9215986476
 40
0.9336279283
 40
0.944837741
 40
0.9552935357
 40
0.9602662594
 40
0.9650843706
 40
0.9743101111
 40
0.9831025576
 40
0.9916131883
 40
1.0
 40
1.0
 40
1.0
 40
1.0
 10
3.815488682
 20
4.8577756231
 30
0.0
 10
3.8158815805
 20
4.8577755859
 30
0.0
 10
3.816649625
 20
4.8577378851
 30
0.0
 10
3.8177648424
 20
4.857558794
 30
0.0
 10
3.8188096731
 20
4.857260097
 30
0.0
 10
3.8197817013
 20
4.8568456284
 30
0.0
 10
3.820679209
 20
4.8563196166
 30
0.0
 10
3.8215012364
 20
4.8556874757
 30
0.0
 10
3.8222472774
 20
4.8549546509
 30
0.0
 10
3.822920061
 20
4.8541290442
 30
0.0
 10
3.8235231736
 20
4.8532176128
 30
0.0
 10
3.8242506236
 20
4.8518733473
 30
0.0
 10
3.8249926719
 20
4.8499980579
 30
0.0
 10
3.8256362024
 20
4.8475396225
 30
0.0
 10
3.8260751646
 20
4.8448685098
 30
0.0
 10
3.8263368284
 20
4.8420148626
 30
0.0
 10
3.8264396062
 20
4.8390028095
 30
0.0
 10
3.8263998559
 20
4.8358530526
 30
0.0
 10
3.8262345578
 20
4.8325830603
 30
0.0
 10
3.825960317
 20
4.8292067448
 30
0.0
 10
3.8255873041
 20
4.8257360961
 30
0.0
 10
3.8251257564
 20
4.8221806785
 30
0.0
 10
3.8245853095
 20
4.818548448
 30
0.0
 10
3.8239755716
 20
4.814845841
 30
0.0
 10
3.8230739292
 20
4.8097774765
 30
0.0
 10
3.821808818
 20
4.8033009636
 30
0.0
 10
3.8201284535
 20
4.7953785366
 30
0.0
 10
3.818316664
 20
4.7872556473
 30
0.0
 10
3.816411055
 20
4.7789431748
 30
0.0
 10
3.8144425649
 20
4.7704482775
 30
0.0
 10
3.812442912
 20
4.7617744372
 30
0.0
 10
3.8104435354
 20
4.7529235867
 30
0.0
 10
3.8084815902
 20
4.7438972814
 30
0.0
 10
3.8065902245
 20
4.7347021105
 30
0.0
 10
3.8048040175
 20
4.7253530587
 30
0.0
 10
3.8031671693
 20
4.71587902
 30
0.0
 10
3.8019553769
 20
4.7079208463
 30
0.0
 10
3.8010885295
 20
4.7015369079
 30
0.0
 10
3.8004940848
 20
4.6967683578
 30
0.0
 10
3.7999557573
 20
4.6920348782
 30
0.0
 10
3.7993164824
 20
4.6858581535
 30
0.0
 10
3.7987697885
 20
4.6797995409
 30
0.0
 10
3.798288784
 20
4.6738932949
 30
0.0
 10
3.7979541176
 20
4.6696746144
 30
0.0
 10
3.7976249833
 20
4.665627072
 30
0.0
 10
3.7972891095
 20
4.6617680545
 30
0.0
 10
3.7969279587
 20
4.6581116737
 30
0.0
 10
3.7965237052
 20
4.6546679833
 30
0.0
 10
3.7960598173
 20
4.6514436117
 30
0.0
 10
3.7955201905
 20
4.6484424502
 30
0.0
 10
3.7948895671
 20
4.6456660083
 30
0.0
 10
3.7941538676
 20
4.643114345
 30
0.0
 10
3.7934306615
 20
4.6411422466
 30
0.0
 10
3.7927847855
 20
4.6396836245
 30
0.0
 10
3.7921151207
 20
4.6383433823
 30
0.0
 10
3.7911920563
 20
4.6367953611
 30
0.0
 10
3.7899197138
 20
4.6351314083
 30
0.0
 10
3.7884925994
 20
4.6336891367
 30
0.0
 10
3.7874341434
 20
4.632874382
 30
0.0
 10
3.786884511
 20
4.6325079668
 30
0.0
  0
SPLINE
  5
28C
100
AcDbEntity
  8
0
100
AcDbSpline
 62
7
  6
CONTINUOUS
 70
0
 71
3
 72
33
 73
29
 74
0
 42
0.0000001
 43
0.0000001
 44
0.0000000001
 40
0.0
 40
0.0
 40
0.0
 40
0.0
 40
0.0247811668
 40
0.0487804421
 40
0.0722397519
 40
0.0953714425
 40
0.1183573625
 40
0.1413529547
 40
0.164486697
 40
0.1878683224
 40
0.211588249
 40
0.235720588
 40
0.2854666604
 40
0.3375456837
 40
0.3923170821
 40
0.4501334843
 40
0.5114051394
 40
0.5766737074
 40
0.6467150769
 40
0.6838661201
 40
0.7226790421
 40
0.7633871197
 40
0.8062343832
 40
0.8514334883
 40
0.8749519289
 40
0.8990743416
 40
0.9488765608
 40
1.0
 40
1.0
 40
1.0
 40
1.0
 10
3.6767964672
 20
4.8667464398
 30
0.0
 10
3.6763834269
 20
4.8661705326
 30
0.0
 10
3.6755175129
 20
4.8650736694
 30
0.0
 10
3.6740906592
 20
4.8635757616
 30
0.0
 10
3.6725696627
 20
4.8622442211
 30
0.0
 10
3.6709625328
 20
4.8610669869
 30
0.0
 10
3.6692757429
 20
4.8600326685
 30
0.0
 10
3.6675142737
 20
4.8591318873
 30
0.0
 10
3.6656829314
 20
4.8583545527
 30
0.0
 10
3.6637848183
 20
4.8576933276
 30
0.0
 10
3.6618227834
 20
4.857140772
 30
0.0
 10
3.6590972885
 20
4.8565332683
 30
0.0
 10
3.6555259922
 20
4.8560202194
 30
0.0
 10
3.6510515859
 20
4.8557527558
 30
0.0
 10
3.6463394943
 20
4.8557920113
 30
0.0
 10
3.6413753052
 20
4.8561055503
 30
0.0
 10
3.6361312454
 20
4.8566625472
 30
0.0
 10
3.6305612721
 20
4.8574296958
 30
0.0
 10
3.6256885405
 20
4.8581937064
 30
0.0
 10
3.621565376
 20
4.8588531286
 30
0.0
 10
3.6182694895
 20
4.8593733424
 30
0.0
 10
3.614808726
 20
4.8598935409
 30
0.0
 10
3.6111605233
 20
4.8603939056
 30
0.0
 10
3.6079915759
 20
4.860767697
 30
0.0
 10
3.6053491583
 20
4.8610278868
 30
0.0
 10
3.6025718579
 20
4.8612584504
 30
0.0
 10
3.599000885
 20
4.8614650773
 30
0.0
 10
3.5961142719
 20
4.8615252564
 30
0.0
 10
3.594652204
 20
4.8615252161
 30
0.0
  0
SPLINE
  5
28D
100
AcDbEntity
  8
0
100
AcDbSpline
 62
7
  6
CONTINUOUS
 70
0
 71
3
 72
29
 73
25
 74
0
 42
0.0000001
 43
0.0000001
 44
0.0000000001
 40
0.0
 40
0.0
 40
0.0
 40
0.0
 40
0.0628045137
 40
0.1261359881
 40
0.1897717811
 40
0.2533968429
 40
0.3166639953
 40
0.3792958541
 40
0.4103503236
 40
0.4412261961
 40
0.4719461704
 40
0.5025430523
 40
0.5330551742
 40
0.5635256404
 40
0.5939970659
 40
0.6245100236
 40
0.6857781726
 40
0.7475616701
 40
0.7786880615
 40
0.8099671954
 40
0.8729299471
 40
0.9045959474
 40
0.9363512556
 40
1.0
 40
1.0
 40
1.0
 40
1.0
 10
3.5071521551
 20
4.7198185726
 30
0.0
 10
3.5071521552
 20
4.716844023
 30
0.0
 10
3.5073312062
 20
4.7108680034
 30
0.0
 10
3.5082075374
 20
4.7019152779
 30
0.0
 10
3.509780454
 20
4.6930160153
 30
0.0
 10
3.5121355469
 20
4.6842909354
 30
0.0
 10
3.5153370646
 20
4.6758874884
 30
0.0
 10
3.5187487832
 20
4.6692624088
 30
0.0
 10
3.5219092241
 20
4.6642772544
 30
0.0
 10
3.5244813254
 20
4.6607184969
 30
0.0
 10
3.52725283
 20
4.6573408918
 30
0.0
 10
3.5302143165
 20
4.6541520254
 30
0.0
 10
3.5333558023
 20
4.6511575315
 30
0.0
 10
3.5366662783
 20
4.6483603874
 30
0.0
 10
3.5401350698
 20
4.6457621239
 30
0.0
 10
3.5449619648
 20
4.6425594424
 30
0.0
 10
3.5513484623
 20
4.6390479097
 30
0.0
 10
3.5580881441
 20
4.6362047918
 30
0.0
 10
3.5636601547
 20
4.6343151281
 30
0.0
 10
3.5693678423
 20
4.6326720788
 30
0.0
 10
3.575206849
 20
4.6314161786
 30
0.0
 10
3.5811293681
 20
4.6305382376
 30
0.0
 10
3.5871160972
 20
4.629909438
 30
0.0
 10
3.5916376699
 20
4.6297223238
 30
0.0
 10
3.594652204
 20
4.6297222667
 30
0.0
  0
SPLINE
  5
28E
100
AcDbEntity
  8
0
100
AcDbSpline
 62
7
  6
CONTINUOUS
 70
0
 71
3
 72
61
 73
57
 74
0
 42
0.0000001
 43
0.0000001
 44
0.0000000001
 40
0.0
 40
0.0
 40
0.0
 40
0.0
 40
0.0000092909
 40
0.0000208099
 40
0.0000369078
 40
0.0000828292
 40
0.0001470335
 40
0.0002294991
 40
0.0003302045
 40
0.0004491281
 40
0.0005862482
 40
0.0009149921
 40
0.0013162632
 40
0.0017898688
 40
0.0023355744
 40
0.0029531402
 40
0.0036423269
 40
0.0052346042
 40
0.007110336
 40
0.0092671022
 40
0.0117024374
 40
0.0144132207
 40
0.0173950081
 40
0.0206432055
 40
0.0279196967
 40
0.0362030827
 40
0.0454525258
 40
0.0556248119
 40
0.0666706691
 40
0.0785414548
 40
0.0911902943
 40
0.1045683657
 40
0.1333163787
 40
0.1643998106
 40
0.1806995891
 40
0.1974451663
 40
0.2145961874
 40
0.232110764
 40
0.2499435615
 40
0.2680566111
 40
0.2864187113
 40
0.3049965072
 40
0.342664263
 40
0.3808336721
 40
0.4193233475
 40
0.4579803476
 40
0.4966825095
 40
0.5353336366
 40
0.5738548852
 40
0.6121804983
 40
0.6502525676
 40
0.7254072569
 40
0.7988360263
 40
0.8698830884
 40
0.9375232705
 40
1.0
 40
1.0
 40
1.0
 40
1.0
 10
7.407152204
 20
4.5907511236
 30
0.0
 10
7.4071524135
 20
4.5907519787
 30
0.0
 10
7.4071536979
 20
4.5907535771
 30
0.0
 10
7.4071552167
 20
4.5907567055
 30
0.0
 10
7.4071586833
 20
4.5907627678
 30
0.0
 10
7.4071643983
 20
4.5907732639
 30
0.0
 10
7.4071732667
 20
4.5907892207
 30
0.0
 10
7.4071846029
 20
4.5908097372
 30
0.0
 10
7.4071984711
 20
4.590834782
 30
0.0
 10
7.407214844
 20
4.590864359
 30
0.0
 10
7.4072416907
 20
4.5909128381
 30
0.0
 10
7.4072815073
 20
4.5909847194
 30
0.0
 10
7.4073367914
 20
4.5910844844
 30
0.0
 10
7.4074020494
 20
4.591202228
 30
0.0
 10
7.4074772157
 20
4.5913379144
 30
0.0
 10
7.407562228
 20
4.5914915007
 30
0.0
 10
7.4076951574
 20
4.5917319196
 30
0.0
 10
7.4078854902
 20
4.5920768381
 30
0.0
 10
7.4081423624
 20
4.5925438796
 30
0.0
 10
7.4084366587
 20
4.5930815137
 30
0.0
 10
7.4087675227
 20
4.5936893407
 30
0.0
 10
7.4091339959
 20
4.5943667953
 30
0.0
 10
7.4095350311
 20
4.5951131276
 30
0.0
 10
7.4101375477
 20
4.5962423563
 30
0.0
 10
7.4109688648
 20
4.5978189319
 30
0.0
 10
7.4120501676
 20
4.5999065437
 30
0.0
 10
7.4132377106
 20
4.602248074
 30
0.0
 10
7.4145184333
 20
4.6048357288
 30
0.0
 10
7.4158796346
 20
4.607660539
 30
0.0
 10
7.4173074537
 20
4.6107135293
 30
0.0
 10
7.4187871609
 20
4.613985944
 30
0.0
 10
7.4208604713
 20
4.6187446794
 30
0.0
 10
7.4234867801
 20
4.6251671995
 30
0.0
 10
7.4259943143
 20
4.6319335184
 30
0.0
 10
7.4279528328
 20
4.6376866127
 30
0.0
 10
7.4294005477
 20
4.6422180389
 30
0.0
 10
7.4307905308
 20
4.6468877689
 30
0.0
 10
7.4321119743
 20
4.6516843178
 30
0.0
 10
7.4333589652
 20
4.656594874
 30
0.0
 10
7.4345228842
 20
4.6616083
 30
0.0
 10
7.435593267
 20
4.6667147254
 30
0.0
 10
7.436895014
 20
4.6736643586
 30
0.0
 10
7.4382602232
 20
4.6825095135
 30
0.0
 10
7.4394718282
 20
4.6932784889
 30
0.0
 10
7.4402493817
 20
4.7041814102
 30
0.0
 10
7.4406106529
 20
4.71515614
 30
0.0
 10
7.4405786418
 20
4.7261517723
 30
0.0
 10
7.440180504
 20
4.7371270482
 30
0.0
 10
7.4394484864
 20
4.7480490335
 30
0.0
 10
7.4384168984
 20
4.7588914462
 30
0.0
 10
7.4366936292
 20
4.7731505018
 30
0.0
 10
7.4339688471
 20
4.7906332323
 30
0.0
 10
7.42999524
 20
4.8110669946
 30
0.0
 10
7.4255596659
 20
4.8306748634
 30
0.0
 10
7.4208977357
 20
4.8491604492
 30
0.0
 10
7.4176482348
 20
4.8610555699
 30
0.0
 10
7.4160414584
 20
4.8667538474
 30
0.0
  0
SPLINE
  5
28F
100
AcDbEntity
  8
0
100
AcDbSpline
 62
7
  6
CONTINUOUS
 70
0
 71
3
 72
58
 73
54
 74
0
 42
0.0000001
 43
0.0000001
 44
0.0000000001
 40
0.0
 40
0.0
 40
0.0
 40
0.0
 40
0.0156783584
 40
0.0313916729
 40
0.0471333454
 40
0.0628966557
 40
0.0786763358
 40
0.0944689767
 40
0.1260779637
 40
0.1418928212
 40
0.1577110065
 40
0.1893519117
 40
0.2209966134
 40
0.2368205022
 40
0.2526441939
 40
0.2842884328
 40
0.3159318507
 40
0.3317545855
 40
0.3475774826
 40
0.3792202468
 40
0.4108639273
 40
0.4266876584
 40
0.4425115244
 40
0.4741555749
 40
0.5057987934
 40
0.5216221529
 40
0.5374453601
 40
0.5532683127
 40
0.569090496
 40
0.5849128072
 40
0.6007353994
 40
0.6165581211
 40
0.6323809572
 40
0.6640208968
 40
0.6798446306
 40
0.6956674518
 40
0.7114872066
 40
0.7273016094
 40
0.7431071833
 40
0.7588987687
 40
0.774669932
 40
0.7904130073
 40
0.8217657895
 40
0.8373595693
 40
0.8528764694
 40
0.8683001266
 40
0.883613242
 40
0.8987974641
 40
0.9138341591
 40
0.943381748
 40
0.9578688566
 40
0.9721422347
 40
1.0
 40
1.0
 40
1.0
 40
1.0
 10
7.6345555549
 20
4.8667561598
 30
0.0
 10
7.6333354453
 20
4.8654095482
 30
0.0
 10
7.6309410243
 20
4.8626689645
 30
0.0
 10
7.6274879293
 20
4.8584347206
 30
0.0
 10
7.6241649188
 20
4.8540853153
 30
0.0
 10
7.6209666429
 20
4.8496340817
 30
0.0
 10
7.6178899474
 20
4.8450908395
 30
0.0
 10
7.6139470652
 20
4.8389193521
 30
0.0
 10
7.6102409681
 20
4.8325947614
 30
0.0
 10
7.6067618584
 20
4.8261426616
 30
0.0
 10
7.6034297789
 20
4.8196091366
 30
0.0
 10
7.5995428611
 20
4.8113019917
 30
0.0
 10
7.5960257864
 20
4.8028311229
 30
0.0
 10
7.5934330621
 20
4.7959683819
 30
0.0
 10
7.5909879651
 20
4.7890517218
 30
0.0
 10
7.5882148982
 20
4.7803086656
 30
0.0
 10
7.5858358482
 20
4.7714501898
 30
0.0
 10
7.5841770018
 20
4.7643043216
 30
0.0
 10
7.5826839625
 20
4.7571220658
 30
0.0
 10
7.5811417755
 20
4.7480797597
 30
0.0
 10
7.5800664927
 20
4.7389694109
 30
0.0
 10
7.579502009
 20
4.7316547628
 30
0.0
 10
7.5791417787
 20
4.7243271716
 30
0.0
 10
7.5790932085
 20
4.7151523074
 30
0.0
 10
7.5796242831
 20
4.7059915086
 30
0.0
 10
7.5804199993
 20
4.69869815
 30
0.0
 10
7.5812071982
 20
4.6932517548
 30
0.0
 10
7.582190738
 20
4.6878374528
 30
0.0
 10
7.5833791792
 20
4.6824643693
 30
0.0
 10
7.5847784976
 20
4.6771422865
 30
0.0
 10
7.5863880568
 20
4.6718799278
 30
0.0
 10
7.5882093796
 20
4.666686722
 30
0.0
 10
7.5909271527
 20
4.6598721406
 30
0.0
 10
7.5940868534
 20
4.6532400209
 30
0.0
 10
7.5976759875
 20
4.6468409957
 30
0.0
 10
7.6005792003
 20
4.6421656842
 30
0.0
 10
7.6036901999
 20
4.6376273613
 30
0.0
 10
7.6070065888
 20
4.6332393037
 30
0.0
 10
7.6105191891
 20
4.6290109735
 30
0.0
 10
7.614218356
 20
4.6249516762
 30
0.0
 10
7.6180962265
 20
4.6210726776
 30
0.0
 10
7.6234827382
 20
4.6161629874
 30
0.0
 10
7.6291895082
 20
4.6116452745
 30
0.0
 10
7.6351703767
 20
4.6075623009
 30
0.0
 10
7.6397645105
 20
4.6047328701
 30
0.0
 10
7.6444590652
 20
4.6021402043
 30
0.0
 10
7.6492386166
 20
4.5997939572
 30
0.0
 10
7.6540861413
 20
4.5977016778
 30
0.0
 10
7.6605766114
 20
4.5952749734
 30
0.0
 10
7.66716632
 20
4.5933638056
 30
0.0
 10
7.6737909004
 20
4.5920123753
 30
0.0
 10
7.6802850593
 20
4.5910553557
 30
0.0
 10
7.6851734407
 20
4.5907512948
 30
0.0
 10
7.688402204
 20
4.5907511236
 30
0.0
  0
SPLINE
  5
290
100
AcDbEntity
  8
0
100
AcDbSpline
 62
7
  6
CONTINUOUS
 70
0
 71
3
 72
24
 73
20
 74
0
 42
0.0000001
 43
0.0000001
 44
0.0000000001
 40
0.0
 40
0.0
 40
0.0
 40
0.0
 40
0.0638807941
 40
0.1261101025
 40
0.1566650781
 40
0.1868792466
 40
0.246414404
 40
0.3050990147
 40
0.3633585754
 40
0.4216484866
 40
0.4804175661
 40
0.5400743669
 40
0.6009601059
 40
0.6633303063
 40
0.7273465164
 40
0.7930765583
 40
0.8605020574
 40
0.9295285231
 40
1.0
 40
1.0
 40
1.0
 40
1.0
 10
7.688402204
 20
4.5907511236
 30
0.0
 10
7.6908564118
 20
4.5907511606
 30
0.0
 10
7.6957047985
 20
4.5909796918
 30
0.0
 10
7.7016694713
 20
4.5918651716
 30
0.0
 10
7.7062757023
 20
4.5929290776
 30
0.0
 10
7.7107185959
 20
4.5942097239
 30
0.0
 10
7.7160629579
 20
4.5962350324
 30
0.0
 10
7.7221071143
 20
4.5993380148
 30
0.0
 10
7.7277244734
 20
4.6030742342
 30
0.0
 10
7.7328959746
 20
4.6074103674
 30
0.0
 10
7.7376130067
 20
4.6123101619
 30
0.0
 10
7.7418757558
 20
4.6177354555
 30
0.0
 10
7.7456920453
 20
4.6236470497
 30
0.0
 10
7.7490758988
 20
4.6300049694
 30
0.0
 10
7.7520459798
 20
4.636768594
 30
0.0
 10
7.75462432
 20
4.6438965809
 30
0.0
 10
7.7568349613
 20
4.6513469863
 30
0.0
 10
7.7587032159
 20
4.6590770498
 30
0.0
 10
7.7597286541
 20
4.6643391803
 30
0.0
 10
7.7601950651
 20
4.6670061152
 30
0.0
  0
ENDSEC
  0
SECTION
  2
OBJECTS
  0
DICTIONARY
  5
C
100
AcDbDictionary
280
0
281
1
  3
ACAD_GROUP
350
D
  3
ACAD_MLINESTYLE
350
17
  3
ACAD_LAYOUT
350
1A
  3
ACAD_PLOTSETTINGS
350
19
  3
ACAD_PLOTSTYLENAME
350
E
  0
DICTIONARY
  5
D
102
{ACAD_REACTORS
330
C
102
}
100
AcDbDictionary
280
0
281
1
  0
ACDBDICTIONARYWDFLT
  5
E
102
{ACAD_REACTORS
330
C
102
}
100
AcDbDictionary
281
1
  3
Normal
350
F
100
AcDbDictionaryWithDefault
340
F
  0
DICTIONARY
  5
17
102
{ACAD_REACTORS
330
C
102
}
100
AcDbDictionary
280
0
281
1
  3
Standard
350
18
  0
DICTIONARY
  5
19
102
{ACAD_REACTORS
330
C
102
}
100
AcDbDictionary
281
1
  0
DICTIONARY
  5
1A
102
{ACAD_REACTORS
330
C
102
}
100
AcDbDictionary
281
1
  3
Model
350
291
  3
Layout1
350
292
  0
ACDBPLACEHOLDER
  5
F
102
{ACAD_REACTORS
330
E
102
}
  0
MLINESTYLE
  5
18
102
{ACAD_REACTORS
330
17
102
}
100
AcDbMlineStyle
  2
STANDARD
 70
0
  3

 62
256
 51
90.0
 52
90.0
 71
2
 49
0.5
 62
256
  6
BYLAYER
 49
-0.5
 62
256
  6
BYLAYER
  0
LAYOUT
  5
291
102
{ACAD_REACTORS
330
1A
102
}
100
AcDbPlotSettings
  1

  2
none_device
  4
ANSI_A_(11.00_x_8.50_Inches)
  6

 40
0.0
 41
0.0
 42
0.0
 43
0.0
 44
279.4
 45
215.9
 46
0.0
 47
0.0
 48
0.0
 49
0.0
140
0.0
141
0.0
142
1.0
143
1.0
 70
1024
 72
0
 73
0
 74
0
  7

 75
0
147
1.0
148
0.0
149
0.0
100
AcDbLayout
  1
Model
 70
0
 71
0
 10
0.0
 20
0.0
 11
11.0
 21
8.5
 12
0.0
 22
0.0
 32
0.0
 14
0.0
 24
0.0
 34
0.0
 15
0.0
 25
0.0
 35
0.0
146
0.0
 13
0.0
 23
0.0
 33
0.0
 16
1.0
 26
0.0
 36
0.0
 17
0.0
 27
1.0
 37
0.0
 76
0
330
202
345
0
346
0
  0
LAYOUT
  5
292
102
{ACAD_REACTORS
330
1A
102
}
100
AcDbPlotSettings
  1

  2
none_device
  4
ANSI_A_(11.00_x_8.50_Inches)
  6

 40
0.0
 41
0.0
 42
0.0
 43
0.0
 44
279.4
 45
215.9
 46
0.0
 47
0.0
 48
0.0
 49
0.0
140
0.0
141
0.0
142
1.0
143
1.0
 70
0
 72
0
 73
0
 74
0
  7

 75
0
147
1.0
148
0.0
149
0.0
100
AcDbLayout
  1
Layout1
 70
0
 71
1
 10
0.0
 20
0.0
 11
11.0
 21
8.5
 12
0.0
 22
0.0
 32
0.0
 14
0.0
 24
0.0
 34
0.0
 15
0.0
 25
0.0
 35
0.0
146
0.0
 13
0.0
 23
0.0
 33
0.0
 16
1.0
 26
0.0
 36
0.0
 17
0.0
 27
1.0
 37
0.0
 76
0
330
203
345
0
346
0
  0
ENDSEC
  0
EOF
