  0
SECTION
  2
HEADER
  9
$ACADVER
  1
AC1021
  9
$DWGCODEPAGE
  3
ANSI_1252
  9
$EXTMAX
 10
33.1102362205
 20
46.811023622
 30
0.0
  9
$EXTMIN
 10
0.0
 20
0.0
 30
0.0
  9
$LIMMIN
 10
0.0
 20
0.0
  9
$LIMMAX
 10
33.1102362205
 20
46.811023622
  9
$VIEWCTR
 10
16.5551181102
 20
23.405511811
  9
$VIEWSIZE
 40
46.811023622
  9
$CLAYER
  8
0
  9
$LTSCALE
 40
3.0513852435
  9
$CELTYPE
  6
BYLAYER
  9
$DIMSCALE
 40
1.0
  9
$DIMASZ
 40
0.1875
  9
$DIMEXO
 40
0.3467483231
  9
$DIMDLI
 40
2.1082298046
  9
$DIMEXE
 40
0.9986351706
  9
$DIMCEN
 40
0.4993175853
  9
$DIMLFAC
 40
1.0
  9
$DIMBLK
  1
_CLOSED
  9
$DIMTXT
 40
0.15625
  9
$DIMTOL
 70
0
  9
$DIMLIM
 70
0
  9
$DIMTFAC
 40
1.0
  9
$PDMODE
 70
3
  9
$PDSIZE
 40
0.3125
  9
$HANDSEED
  5
47B
  9
$TILEMODE
 70
1
  9
$MEASUREMENT
 70
0
  9
$INSUNITS
 70
1
  0
ENDSEC
  0
SECTION
  2
CLASSES
  0
CLASS
  1
ACDBDICTIONARYWDFLT
  2
AcDbDictionaryWithDefault
  3
AutoCAD 2000
 90
0
 91
1
280
0
281
0
  0
CLASS
  1
ACDBPLACEHOLDER
  2
AcDbPlaceHolder
  3
AutoCAD 2000
 90
0
 91
1
280
0
281
0
  0
CLASS
  1
LAYOUT
  2
AcDbLayout
  3
AutoCAD 2000
 90
0
 91
0
280
0
281
0
  0
ENDSEC
  0
SECTION
  2
TABLES
  0
TABLE
  2
VPORT
  5
8
100
AcDbSymbolTable
 70
2
  0
VPORT
  5
1F4
100
AcDbSymbolTableRecord
100
AcDbViewportTableRecord
  2
*ACTIVE
 70
0
 10
0.0
 20
0.0
 11
1.0
 21
1.0
 12
16.5551181102
 22
23.405511811
 13
0.0
 23
0.0
 14
1.0
 24
1.0
 15
0.0
 25
0.0
 16
0.0
 26
0.0
 36
1.0
 17
0.0
 27
0.0
 37
0.0
 40
46.811023622
 41
0.7073170732
 42
50.0
 43
0.0
 44
0.0
 50
0.0
 51
0.0
 71
0
 72
100
 73
1
 74
1
 75
0
 76
0
 77
0
 78
0
  0
ENDTAB
  0
TABLE
  2
LTYPE
  5
5
100
AcDbSymbolTable
 70
6
  0
LTYPE
  5
14
100
AcDbSymbolTableRecord
100
AcDbLinetypeTableRecord
  2
BYBLOCK
 70
0
  3

 72
65
 73
0
 40
0.0
  0
LTYPE
  5
15
100
AcDbSymbolTableRecord
100
AcDbLinetypeTableRecord
  2
BYLAYER
 70
0
  3

 72
65
 73
0
 40
0.0
  0
LTYPE
  5
16
100
AcDbSymbolTableRecord
100
AcDbLinetypeTableRecord
  2
CONTINUOUS
 70
64
  3
Solid line
 72
65
 73
0
 40
0.0
  0
LTYPE
  5
1F5
100
AcDbSymbolTableRecord
100
AcDbLinetypeTableRecord
  2
CENTER
 70
64
  3
____ _ ____ _ ____ _ ____ _ ____ _ ____ _ ____
 72
65
 73
4
 40
0.6
 49
0.375
 74
0
 49
-0.075
 74
0
 49
0.075
 74
0
 49
-0.075
 74
0
  0
LTYPE
  5
1F6
100
AcDbSymbolTableRecord
100
AcDbLinetypeTableRecord
  2
HIDDEN
 70
64
  3
- - - - - - - - - - - - - - - - - - - -
 72
65
 73
2
 40
0.2
 49
0.1
 74
0
 49
-0.1
 74
0
  0
LTYPE
  5
1F7
100
AcDbSymbolTableRecord
100
AcDbLinetypeTableRecord
  2
PHANTOM
 70
64
  3
_____ _ _ _____ _ _ _____ _ _ _____
 72
65
 73
6
 40
0.8
 49
0.45
 74
0
 49
-0.05
 74
0
 49
0.1
 74
0
 49
-0.05
 74
0
 49
0.1
 74
0
 49
-0.05
 74
0
  0
LTYPE
  5
1F8
100
AcDbSymbolTableRecord
100
AcDbLinetypeTableRecord
  2
DOT
 70
64
  3
. . . . . . . . . . . . . . . . . . . .
 72
65
 73
2
 40
0.2
 49
0.1
 74
0
 49
-0.1
 74
0
  0
LTYPE
  5
1F9
100
AcDbSymbolTableRecord
100
AcDbLinetypeTableRecord
  2
DASHED
 70
64
  3
- - - - - - - - - - - - - - - - - - - -
 72
65
 73
2
 40
0.2
 49
0.1
 74
0
 49
-0.1
 74
0
  0
ENDTAB
  0
TABLE
  2
LAYER
  5
2
100
AcDbSymbolTable
 70
36
  0
LAYER
  5
10
100
AcDbSymbolTableRecord
100
AcDbLayerTableRecord
  2
0
 70
0
 62
7
  6
CONTINUOUS
370
-3
390
F
  0
LAYER
  5
1FA
100
AcDbSymbolTableRecord
100
AcDbLayerTableRecord
  2
DEFAULT_1
 70
0
 62
7
  6
CENTER
370
-3
390
F
  0
LAYER
  5
1FB
100
AcDbSymbolTableRecord
100
AcDbLayerTableRecord
  2
DEFAULT_2
 70
0
 62
8
  6
HIDDEN
370
-3
390
F
  0
LAYER
  5
1FC
100
AcDbSymbolTableRecord
100
AcDbLayerTableRecord
  2
DEFAULT_3
 70
0
 62
7
  6
PHANTOM
370
-3
390
F
  0
LAYER
  5
1FD
100
AcDbSymbolTableRecord
100
AcDbLayerTableRecord
  2
DEFAULT_COORDINATE_SYSTEM
 70
0
 62
7
  6
CONTINUOUS
370
-3
390
F
  0
LAYER
  5
1FE
100
AcDbSymbolTableRecord
100
AcDbLayerTableRecord
  2
DEFAULT_DATUM_AXES
 70
0
 62
7
  6
CONTINUOUS
370
-3
390
F
  0
LAYER
  5
1FF
100
AcDbSymbolTableRecord
100
AcDbLayerTableRecord
  2
DEFAULT_DATUM_CURVES
 70
0
 62
7
  6
CONTINUOUS
370
-3
390
F
  0
LAYER
  5
200
100
AcDbSymbolTableRecord
100
AcDbLayerTableRecord
  2
DEFAULT_DATUM_PLANES
 70
0
 62
7
  6
CONTINUOUS
370
-3
390
F
  0
ENDTAB
  0
TABLE
  2
STYLE
  5
3
100
AcDbSymbolTable
 70
1
  0
STYLE
  5
11
100
AcDbSymbolTableRecord
100
AcDbTextStyleTableRecord
  2
STANDARD
 70
0
 40
0.0
 41
0.8
 50
0.0
 71
0
 42
0.2
  3
txt
  4

  0
STYLE
  5
201
100
AcDbSymbolTableRecord
100
AcDbTextStyleTableRecord
  2
TEXTSTYLE_1
 70
0
 40
0.0
 41
0.8
 50
0.0
 71
0
 42
0.2
  3
gdt
  4

  0
ENDTAB
  0
TABLE
  2
VIEW
  5
6
100
AcDbSymbolTable
 70
0
  0
ENDTAB
  0
TABLE
  2
UCS
  5
7
100
AcDbSymbolTable
 70
0
  0
ENDTAB
  0
TABLE
  2
APPID
  5
9
100
AcDbSymbolTable
 70
1
  0
APPID
  5
202
100
AcDbSymbolTableRecord
100
AcDbRegAppTableRecord
  2
ACAD
 70
0
  0
ENDTAB
  0
TABLE
  2
BLOCK_RECORD
  5
1
100
AcDbSymbolTable
 70
0
  0
BLOCK_RECORD
  5
203
100
AcDbSymbolTableRecord
100
AcDbBlockTableRecord
  2
*Model_Space
  0
BLOCK_RECORD
  5
204
100
AcDbSymbolTableRecord
100
AcDbBlockTableRecord
  2
*Paper_Space
  0
ENDTAB
  0
TABLE
  2
DIMSTYLE
  5
A
100
AcDbSymbolTable
 70
1
100
AcDbDimStyleTable
 71
0
  0
DIMSTYLE
105
205
100
AcDbSymbolTableRecord
100
AcDbDimStyleTableRecord
  2
STANDARD
 70
0
  3

  4

 40
1.0
 41
0.1875
 42
0.0625
 43
0.38
 44
0.18
 45
0.0
 46
0.0
 47
0.001
 48
0.001
140
0.15625
141
0.09
142
0.0
143
25.4
144
1.0
145
0.0
146
1.0
147
0.09
 71
0.0
 72
0.0
 73
1
 74
1
 75
0
 76
0
 77
0
 78
4
170
0
171
2
172
0
173
0
174
0
175
0
176
0
177
0
178
0
270
2
271
3
272
3
273
2
274
2
275
0
280
0
281
0
282
0
283
1
284
4
285
0
286
0
287
3
288
0
340
11
  0
ENDTAB
  0
ENDSEC
  0
SECTION
  2
BLOCKS
  0
BLOCK
  5
20
100
AcDbEntity
  8
0
100
AcDbBlockBegin
  2
*Model_Space
 70
0
 10
0.0
 20
0.0
 30
0.0
  3
*Model_Space
  1

  0
ENDBLK
  5
21
100
AcDbEntity
  8
0
100
AcDbBlockEnd
  0
BLOCK
  5
1C
100
AcDbEntity
  8
0
100
AcDbBlockBegin
  2
*Paper_Space
 70
0
 10
0.0
 20
0.0
 30
0.0
  3
*Paper_Space
  1

  0
ENDBLK
  5
1D
100
AcDbEntity
  8
0
100
AcDbBlockEnd
  0
ENDSEC
  0
SECTION
  2
ENTITIES
  0
LINE
  5
206
100
AcDbEntity
  8
0
100
AcDbLine
 62
6
  6
CONTINUOUS
 10
14.8709485252
 20
22.8766669859
 11
14.8709485252
 21
24.2374266832
  0
LINE
  5
207
100
AcDbEntity
  8
0
100
AcDbLine
 62
6
  6
CONTINUOUS
 10
14.9479485252
 20
23.508817208
 11
14.9479485252
 21
23.5053549499
  0
LINE
  5
208
100
AcDbEntity
  8
0
100
AcDbLine
 62
6
  6
CONTINUOUS
 10
14.9479485252
 20
23.4590679831
 11
14.9479485252
 21
23.4556289373
  0
LINE
  5
209
100
AcDbEntity
  8
0
100
AcDbLine
 62
6
  6
CONTINUOUS
 10
14.9479485252
 20
23.4097563555
 11
14.9479485252
 21
23.4063558815
  0
LINE
  5
20A
100
AcDbEntity
  8
0
100
AcDbLine
 62
6
  6
CONTINUOUS
 10
14.9479485252
 20
23.361102563
 11
14.9479485252
 21
23.3577558482
  0
LINE
  5
20B
100
AcDbEntity
  8
0
100
AcDbLine
 62
6
  6
CONTINUOUS
 10
14.9479485252
 20
23.3133239052
 11
14.9479485252
 21
23.3100458968
  0
LINE
  5
20C
100
AcDbEntity
  8
0
100
AcDbLine
 62
6
  6
CONTINUOUS
 10
14.9479485252
 20
23.2666337731
 11
14.9479485252
 21
23.2634391115
  0
LINE
  5
20D
100
AcDbEntity
  8
0
100
AcDbLine
 62
6
  6
CONTINUOUS
 10
14.9479485252
 20
23.2212406962
 11
14.9479485252
 21
23.2181436496
  0
LINE
  5
20E
100
AcDbEntity
  8
0
100
AcDbLine
 62
6
  6
CONTINUOUS
 10
14.9479485252
 20
23.1773474111
 11
14.9479485252
 21
23.1743618116
  0
LINE
  5
20F
100
AcDbEntity
  8
0
100
AcDbLine
 62
6
  6
CONTINUOUS
 10
14.9479485252
 20
23.1351499558
 11
14.9479485252
 21
23.1322891378
  0
LINE
  5
210
100
AcDbEntity
  8
0
100
AcDbLine
 62
6
  6
CONTINUOUS
 10
14.9479485252
 20
23.0948367944
 11
14.9479485252
 21
23.092113535
  0
LINE
  5
211
100
AcDbEntity
  8
0
100
AcDbLine
 62
6
  6
CONTINUOUS
 10
14.9479485252
 20
23.0565879752
 11
14.9479485252
 21
23.0540144372
  0
LINE
  5
212
100
AcDbEntity
  8
0
100
AcDbLine
 62
6
  6
CONTINUOUS
 10
14.9479485252
 20
23.0205743268
 11
14.9479485252
 21
23.0181620042
  0
LINE
  5
213
100
AcDbEntity
  8
0
100
AcDbLine
 62
6
  6
CONTINUOUS
 10
14.9479485252
 20
22.9869566948
 11
14.9479485252
 21
22.9847163616
  0
LINE
  5
214
100
AcDbEntity
  8
0
100
AcDbLine
 62
6
  6
CONTINUOUS
 10
14.9479485252
 20
22.9558852237
 11
14.9479485252
 21
22.9538268859
  0
LINE
  5
215
100
AcDbEntity
  8
0
100
AcDbLine
 62
6
  6
CONTINUOUS
 10
14.9479485252
 20
22.9274986864
 11
14.9479485252
 21
22.9256315369
  0
LINE
  5
216
100
AcDbEntity
  8
0
100
AcDbLine
 62
6
  6
CONTINUOUS
 10
14.9479485252
 20
22.9019238639
 11
14.9479485252
 21
22.9002562419
  0
LINE
  5
217
100
AcDbEntity
  8
0
100
AcDbLine
 62
6
  6
CONTINUOUS
 10
14.9479485252
 20
22.8792749796
 11
14.9479485252
 21
22.8778143331
  0
LINE
  5
218
100
AcDbEntity
  8
0
100
AcDbLine
 62
6
  6
CONTINUOUS
 10
14.9479485252
 20
22.859653189
 11
14.9479485252
 21
22.8584060415
  0
LINE
  5
219
100
AcDbEntity
  8
0
100
AcDbLine
 62
6
  6
CONTINUOUS
 10
14.9479485252
 20
22.8431461277
 11
14.9479485252
 21
22.8421180494
  0
LINE
  5
21A
100
AcDbEntity
  8
0
100
AcDbLine
 62
6
  6
CONTINUOUS
 10
14.9479485252
 20
22.8298275202
 11
14.9479485252
 21
22.8290231027
  0
LINE
  5
21B
100
AcDbEntity
  8
0
100
AcDbLine
 62
6
  6
CONTINUOUS
 10
14.9479485252
 20
22.8197568508
 11
14.9479485252
 21
22.8191796868
  0
LINE
  5
21C
100
AcDbEntity
  8
0
100
AcDbLine
 62
6
  6
CONTINUOUS
 10
14.9479485252
 20
22.8129790974
 11
14.9479485252
 21
22.8126317646
  0
LINE
  5
21D
100
AcDbEntity
  8
0
100
AcDbLine
 62
6
  6
CONTINUOUS
 10
14.9479485252
 20
22.8095245311
 11
14.9479485252
 21
22.8094085809
  0
LINE
  5
21E
100
AcDbEntity
  8
0
100
AcDbLine
 62
6
  6
CONTINUOUS
 10
14.9479485252
 20
23.5553118311
 11
14.9479485252
 21
23.5587818381
  0
LINE
  5
21F
100
AcDbEntity
  8
0
100
AcDbLine
 62
6
  6
CONTINUOUS
 10
14.9479485252
 20
23.6052764612
 11
14.9479485252
 21
23.6087387193
  0
LINE
  5
220
100
AcDbEntity
  8
0
100
AcDbLine
 62
6
  6
CONTINUOUS
 10
14.9479485252
 20
23.6550256861
 11
14.9479485252
 21
23.6584647319
  0
LINE
  5
221
100
AcDbEntity
  8
0
100
AcDbLine
 62
6
  6
CONTINUOUS
 10
14.9479485252
 20
23.7043373137
 11
14.9479485252
 21
23.7077377876
  0
LINE
  5
222
100
AcDbEntity
  8
0
100
AcDbLine
 62
6
  6
CONTINUOUS
 10
14.9479485252
 20
23.7529911062
 11
14.9479485252
 21
23.756337821
  0
LINE
  5
223
100
AcDbEntity
  8
0
100
AcDbLine
 62
6
  6
CONTINUOUS
 10
14.9479485252
 20
23.8474598961
 11
14.9479485252
 21
23.8506545577
  0
LINE
  5
224
100
AcDbEntity
  8
0
100
AcDbLine
 62
6
  6
CONTINUOUS
 10
14.9479485252
 20
23.800769764
 11
14.9479485252
 21
23.8040477724
  0
LINE
  5
225
100
AcDbEntity
  8
0
100
AcDbLine
 62
6
  6
CONTINUOUS
 10
14.9479485252
 20
23.8928529729
 11
14.9479485252
 21
23.8959500196
  0
LINE
  5
226
100
AcDbEntity
  8
0
100
AcDbLine
 62
6
  6
CONTINUOUS
 10
14.9479485252
 20
23.936746258
 11
14.9479485252
 21
23.9397318576
  0
LINE
  5
227
100
AcDbEntity
  8
0
100
AcDbLine
 62
6
  6
CONTINUOUS
 10
14.9479485252
 20
24.0192568748
 11
14.9479485252
 21
24.0219801342
  0
LINE
  5
228
100
AcDbEntity
  8
0
100
AcDbLine
 62
6
  6
CONTINUOUS
 10
14.9479485252
 20
23.9789437134
 11
14.9479485252
 21
23.9818045314
  0
LINE
  5
229
100
AcDbEntity
  8
0
100
AcDbLine
 62
6
  6
CONTINUOUS
 10
14.9479485252
 20
24.057505694
 11
14.9479485252
 21
24.060079232
  0
LINE
  5
22A
100
AcDbEntity
  8
0
100
AcDbLine
 62
6
  6
CONTINUOUS
 10
14.9479485252
 20
24.1271369744
 11
14.9479485252
 21
24.1293773076
  0
LINE
  5
22B
100
AcDbEntity
  8
0
100
AcDbLine
 62
6
  6
CONTINUOUS
 10
14.9479485252
 20
24.0935193424
 11
14.9479485252
 21
24.095931665
  0
LINE
  5
22C
100
AcDbEntity
  8
0
100
AcDbLine
 62
6
  6
CONTINUOUS
 10
14.9479485252
 20
24.1582084454
 11
14.9479485252
 21
24.1602667833
  0
LINE
  5
22D
100
AcDbEntity
  8
0
100
AcDbLine
 62
6
  6
CONTINUOUS
 10
14.9479485252
 20
24.1865949828
 11
14.9479485252
 21
24.1884621323
  0
LINE
  5
22E
100
AcDbEntity
  8
0
100
AcDbLine
 62
6
  6
CONTINUOUS
 10
14.9479485252
 20
24.2348186895
 11
14.9479485252
 21
24.2362793361
  0
LINE
  5
22F
100
AcDbEntity
  8
0
100
AcDbLine
 62
6
  6
CONTINUOUS
 10
14.9479485252
 20
24.2121698053
 11
14.9479485252
 21
24.2138374273
  0
LINE
  5
230
100
AcDbEntity
  8
0
100
AcDbLine
 62
6
  6
CONTINUOUS
 10
14.9479485252
 20
24.2943368184
 11
14.9479485252
 21
24.2949139824
  0
LINE
  5
231
100
AcDbEntity
  8
0
100
AcDbLine
 62
6
  6
CONTINUOUS
 10
14.9479485252
 20
24.2842661489
 11
14.9479485252
 21
24.2850705665
  0
LINE
  5
232
100
AcDbEntity
  8
0
100
AcDbLine
 62
6
  6
CONTINUOUS
 10
14.9479485252
 20
24.2709475415
 11
14.9479485252
 21
24.2719756198
  0
LINE
  5
233
100
AcDbEntity
  8
0
100
AcDbLine
 62
6
  6
CONTINUOUS
 10
14.9479485252
 20
24.2544404802
 11
14.9479485252
 21
24.2556876277
  0
LINE
  5
234
100
AcDbEntity
  8
0
100
AcDbLine
 62
6
  6
CONTINUOUS
 10
14.9479485252
 20
24.3045691381
 11
14.9479485252
 21
24.3046850883
  0
LINE
  5
235
100
AcDbEntity
  8
0
100
AcDbLine
 62
6
  6
CONTINUOUS
 10
14.9479485252
 20
24.3011145718
 11
14.9479485252
 21
24.3014619046
  0
LINE
  5
236
100
AcDbEntity
  8
0
100
AcDbLine
 62
6
  6
CONTINUOUS
 10
15.1359485252
 20
23.508817208
 11
15.1359485252
 21
23.5053549499
  0
LINE
  5
237
100
AcDbEntity
  8
0
100
AcDbLine
 62
6
  6
CONTINUOUS
 10
15.1359485252
 20
23.4590679831
 11
15.1359485252
 21
23.4556289373
  0
LINE
  5
238
100
AcDbEntity
  8
0
100
AcDbLine
 62
6
  6
CONTINUOUS
 10
15.1359485252
 20
23.4097563555
 11
15.1359485252
 21
23.4063558815
  0
LINE
  5
239
100
AcDbEntity
  8
0
100
AcDbLine
 62
6
  6
CONTINUOUS
 10
15.1359485252
 20
23.361102563
 11
15.1359485252
 21
23.3577558482
  0
LINE
  5
23A
100
AcDbEntity
  8
0
100
AcDbLine
 62
6
  6
CONTINUOUS
 10
15.1359485252
 20
23.3133239052
 11
15.1359485252
 21
23.3100458968
  0
LINE
  5
23B
100
AcDbEntity
  8
0
100
AcDbLine
 62
6
  6
CONTINUOUS
 10
15.1359485252
 20
23.2666337731
 11
15.1359485252
 21
23.2634391115
  0
LINE
  5
23C
100
AcDbEntity
  8
0
100
AcDbLine
 62
6
  6
CONTINUOUS
 10
15.1359485252
 20
23.2212406962
 11
15.1359485252
 21
23.2181436496
  0
LINE
  5
23D
100
AcDbEntity
  8
0
100
AcDbLine
 62
6
  6
CONTINUOUS
 10
15.1359485252
 20
23.1773474111
 11
15.1359485252
 21
23.1743618116
  0
LINE
  5
23E
100
AcDbEntity
  8
0
100
AcDbLine
 62
6
  6
CONTINUOUS
 10
15.1359485252
 20
23.1351499558
 11
15.1359485252
 21
23.1322891378
  0
LINE
  5
23F
100
AcDbEntity
  8
0
100
AcDbLine
 62
6
  6
CONTINUOUS
 10
15.1359485252
 20
23.0948367944
 11
15.1359485252
 21
23.092113535
  0
LINE
  5
240
100
AcDbEntity
  8
0
100
AcDbLine
 62
6
  6
CONTINUOUS
 10
15.1359485252
 20
23.0565879752
 11
15.1359485252
 21
23.0540144372
  0
LINE
  5
241
100
AcDbEntity
  8
0
100
AcDbLine
 62
6
  6
CONTINUOUS
 10
15.1359485252
 20
23.0205743268
 11
15.1359485252
 21
23.0181620042
  0
LINE
  5
242
100
AcDbEntity
  8
0
100
AcDbLine
 62
6
  6
CONTINUOUS
 10
15.1359485252
 20
22.9869566948
 11
15.1359485252
 21
22.9847163616
  0
LINE
  5
243
100
AcDbEntity
  8
0
100
AcDbLine
 62
6
  6
CONTINUOUS
 10
15.1359485252
 20
22.9558852237
 11
15.1359485252
 21
22.9538268859
  0
LINE
  5
244
100
AcDbEntity
  8
0
100
AcDbLine
 62
6
  6
CONTINUOUS
 10
15.1359485252
 20
22.9274986864
 11
15.1359485252
 21
22.9256315369
  0
LINE
  5
245
100
AcDbEntity
  8
0
100
AcDbLine
 62
6
  6
CONTINUOUS
 10
15.1359485252
 20
22.9019238639
 11
15.1359485252
 21
22.9002562419
  0
LINE
  5
246
100
AcDbEntity
  8
0
100
AcDbLine
 62
6
  6
CONTINUOUS
 10
15.1359485252
 20
22.8792749796
 11
15.1359485252
 21
22.8778143331
  0
LINE
  5
247
100
AcDbEntity
  8
0
100
AcDbLine
 62
6
  6
CONTINUOUS
 10
15.1359485252
 20
22.859653189
 11
15.1359485252
 21
22.8584060415
  0
LINE
  5
248
100
AcDbEntity
  8
0
100
AcDbLine
 62
6
  6
CONTINUOUS
 10
15.1359485252
 20
22.8431461277
 11
15.1359485252
 21
22.8421180494
  0
LINE
  5
249
100
AcDbEntity
  8
0
100
AcDbLine
 62
6
  6
CONTINUOUS
 10
15.1359485252
 20
22.8298275202
 11
15.1359485252
 21
22.8290231027
  0
LINE
  5
24A
100
AcDbEntity
  8
0
100
AcDbLine
 62
6
  6
CONTINUOUS
 10
15.1359485252
 20
22.8197568508
 11
15.1359485252
 21
22.8191796868
  0
LINE
  5
24B
100
AcDbEntity
  8
0
100
AcDbLine
 62
6
  6
CONTINUOUS
 10
15.1359485252
 20
22.8129790974
 11
15.1359485252
 21
22.8126317646
  0
LINE
  5
24C
100
AcDbEntity
  8
0
100
AcDbLine
 62
6
  6
CONTINUOUS
 10
15.1359485252
 20
22.8095245311
 11
15.1359485252
 21
22.8094085809
  0
LINE
  5
24D
100
AcDbEntity
  8
0
100
AcDbLine
 62
6
  6
CONTINUOUS
 10
15.1359485252
 20
23.5553118311
 11
15.1359485252
 21
23.5587818381
  0
LINE
  5
24E
100
AcDbEntity
  8
0
100
AcDbLine
 62
6
  6
CONTINUOUS
 10
15.1359485252
 20
23.6052764612
 11
15.1359485252
 21
23.6087387193
  0
LINE
  5
24F
100
AcDbEntity
  8
0
100
AcDbLine
 62
6
  6
CONTINUOUS
 10
15.1359485252
 20
23.6550256861
 11
15.1359485252
 21
23.6584647319
  0
LINE
  5
250
100
AcDbEntity
  8
0
100
AcDbLine
 62
6
  6
CONTINUOUS
 10
15.1359485252
 20
23.7043373137
 11
15.1359485252
 21
23.7077377876
  0
LINE
  5
251
100
AcDbEntity
  8
0
100
AcDbLine
 62
6
  6
CONTINUOUS
 10
15.1359485252
 20
23.7529911062
 11
15.1359485252
 21
23.756337821
  0
LINE
  5
252
100
AcDbEntity
  8
0
100
AcDbLine
 62
6
  6
CONTINUOUS
 10
15.1359485252
 20
23.8474598961
 11
15.1359485252
 21
23.8506545577
  0
LINE
  5
253
100
AcDbEntity
  8
0
100
AcDbLine
 62
6
  6
CONTINUOUS
 10
15.1359485252
 20
23.800769764
 11
15.1359485252
 21
23.8040477724
  0
LINE
  5
254
100
AcDbEntity
  8
0
100
AcDbLine
 62
6
  6
CONTINUOUS
 10
15.1359485252
 20
23.8928529729
 11
15.1359485252
 21
23.8959500196
  0
LINE
  5
255
100
AcDbEntity
  8
0
100
AcDbLine
 62
6
  6
CONTINUOUS
 10
15.1359485252
 20
23.936746258
 11
15.1359485252
 21
23.9397318576
  0
LINE
  5
256
100
AcDbEntity
  8
0
100
AcDbLine
 62
6
  6
CONTINUOUS
 10
15.1359485252
 20
24.0192568748
 11
15.1359485252
 21
24.0219801342
  0
LINE
  5
257
100
AcDbEntity
  8
0
100
AcDbLine
 62
6
  6
CONTINUOUS
 10
15.1359485252
 20
23.9789437134
 11
15.1359485252
 21
23.9818045314
  0
LINE
  5
258
100
AcDbEntity
  8
0
100
AcDbLine
 62
6
  6
CONTINUOUS
 10
15.1359485252
 20
24.057505694
 11
15.1359485252
 21
24.060079232
  0
LINE
  5
259
100
AcDbEntity
  8
0
100
AcDbLine
 62
6
  6
CONTINUOUS
 10
15.1359485252
 20
24.1271369744
 11
15.1359485252
 21
24.1293773076
  0
LINE
  5
25A
100
AcDbEntity
  8
0
100
AcDbLine
 62
6
  6
CONTINUOUS
 10
15.1359485252
 20
24.0935193424
 11
15.1359485252
 21
24.095931665
  0
LINE
  5
25B
100
AcDbEntity
  8
0
100
AcDbLine
 62
6
  6
CONTINUOUS
 10
15.1359485252
 20
24.1865949828
 11
15.1359485252
 21
24.1884621323
  0
LINE
  5
25C
100
AcDbEntity
  8
0
100
AcDbLine
 62
6
  6
CONTINUOUS
 10
15.1359485252
 20
24.1582084454
 11
15.1359485252
 21
24.1602667833
  0
LINE
  5
25D
100
AcDbEntity
  8
0
100
AcDbLine
 62
6
  6
CONTINUOUS
 10
15.1359485252
 20
24.2348186895
 11
15.1359485252
 21
24.2362793361
  0
LINE
  5
25E
100
AcDbEntity
  8
0
100
AcDbLine
 62
6
  6
CONTINUOUS
 10
15.1359485252
 20
24.2121698053
 11
15.1359485252
 21
24.2138374273
  0
LINE
  5
25F
100
AcDbEntity
  8
0
100
AcDbLine
 62
6
  6
CONTINUOUS
 10
15.1359485252
 20
24.2943368184
 11
15.1359485252
 21
24.2949139824
  0
LINE
  5
260
100
AcDbEntity
  8
0
100
AcDbLine
 62
6
  6
CONTINUOUS
 10
15.1359485252
 20
24.2842661489
 11
15.1359485252
 21
24.2850705665
  0
LINE
  5
261
100
AcDbEntity
  8
0
100
AcDbLine
 62
6
  6
CONTINUOUS
 10
15.1359485252
 20
24.2709475415
 11
15.1359485252
 21
24.2719756198
  0
LINE
  5
262
100
AcDbEntity
  8
0
100
AcDbLine
 62
6
  6
CONTINUOUS
 10
15.1359485252
 20
24.2544404802
 11
15.1359485252
 21
24.2556876277
  0
LINE
  5
263
100
AcDbEntity
  8
0
100
AcDbLine
 62
6
  6
CONTINUOUS
 10
15.1359485252
 20
24.3045691381
 11
15.1359485252
 21
24.3046850883
  0
LINE
  5
264
100
AcDbEntity
  8
0
100
AcDbLine
 62
6
  6
CONTINUOUS
 10
15.1359485252
 20
24.3011145718
 11
15.1359485252
 21
24.3014619046
  0
LINE
  5
265
100
AcDbEntity
  8
0
100
AcDbLine
 62
6
  6
CONTINUOUS
 10
15.2059485252
 20
22.8670468346
 11
15.2059485252
 21
24.2470468346
  0
LINE
  5
266
100
AcDbEntity
  8
0
100
AcDbLine
 62
9
  6
CONTINUOUS
 10
15.2424008751
 20
22.8670468346
 11
15.2424008751
 21
24.2470468345
  0
LINE
  5
267
100
AcDbEntity
  8
0
100
AcDbLine
 62
9
  6
CONTINUOUS
 10
15.319581879
 20
22.9387603633
 11
15.319581879
 21
24.1753333059
  0
LINE
  5
268
100
AcDbEntity
  8
0
100
AcDbLine
 62
9
  6
CONTINUOUS
 10
15.5257815241
 20
23.7445468346
 11
15.5257815241
 21
23.3695468346
  0
LINE
  5
269
100
AcDbEntity
  8
0
100
AcDbLine
 62
6
  6
CONTINUOUS
 10
15.5409485252
 20
25.7013152487
 11
15.5409485252
 21
25.6608349337
  0
LINE
  5
26A
100
AcDbEntity
  8
0
100
AcDbLine
 62
6
  6
CONTINUOUS
 10
15.1359485252
 20
22.8094085809
 11
14.9479485252
 21
22.8094085809
  0
LINE
  5
26B
100
AcDbEntity
  8
0
100
AcDbLine
 62
6
  6
CONTINUOUS
 10
15.1359485252
 20
22.8095245311
 11
14.9479485252
 21
22.8095245311
  0
LINE
  5
26C
100
AcDbEntity
  8
0
100
AcDbLine
 62
6
  6
CONTINUOUS
 10
15.1359485252
 20
22.8126317646
 11
14.9479485252
 21
22.8126317646
  0
LINE
  5
26D
100
AcDbEntity
  8
0
100
AcDbLine
 62
6
  6
CONTINUOUS
 10
15.1359485252
 20
22.8129790974
 11
14.9479485252
 21
22.8129790974
  0
LINE
  5
26E
100
AcDbEntity
  8
0
100
AcDbLine
 62
6
  6
CONTINUOUS
 10
15.1359485252
 20
22.8191796868
 11
14.9479485252
 21
22.8191796868
  0
LINE
  5
26F
100
AcDbEntity
  8
0
100
AcDbLine
 62
7
  6
CONTINUOUS
 10
15.1359485252
 20
22.8197568508
 11
14.9479485252
 21
22.8197568508
  0
LINE
  5
270
100
AcDbEntity
  8
0
100
AcDbLine
 62
6
  6
CONTINUOUS
 10
15.1359485252
 20
22.8290231027
 11
14.9479485252
 21
22.8290231027
  0
LINE
  5
271
100
AcDbEntity
  8
0
100
AcDbLine
 62
6
  6
CONTINUOUS
 10
15.1359485252
 20
22.8298275202
 11
14.9479485252
 21
22.8298275202
  0
LINE
  5
272
100
AcDbEntity
  8
0
100
AcDbLine
 62
7
  6
CONTINUOUS
 10
15.6459485252
 20
23.7445468346
 11
15.6459485252
 21
23.3695468346
  0
LINE
  5
273
100
AcDbEntity
  8
0
100
AcDbLine
 62
6
  6
CONTINUOUS
 10
15.6539485252
 20
25.5028349337
 11
15.6539485252
 21
25.5478349337
  0
LINE
  5
274
100
AcDbEntity
  8
0
100
AcDbLine
 62
6
  6
CONTINUOUS
 10
15.6689485252
 20
23.2370468346
 11
15.6689485252
 21
23.8770468346
  0
LINE
  5
275
100
AcDbEntity
  8
0
100
AcDbLine
 62
6
  6
CONTINUOUS
 10
14.9206814859
 20
22.8391321527
 11
14.9256948995
 21
22.8391321527
  0
LINE
  5
276
100
AcDbEntity
  8
0
100
AcDbLine
 62
6
  6
CONTINUOUS
 10
15.1582021696
 20
22.8391321527
 11
15.163215543
 21
22.8391321527
  0
LINE
  5
277
100
AcDbEntity
  8
0
100
AcDbLine
 62
6
  6
CONTINUOUS
 10
15.1359485252
 20
22.8421180494
 11
14.9479485252
 21
22.8421180494
  0
LINE
  5
278
100
AcDbEntity
  8
0
100
AcDbLine
 62
6
  6
CONTINUOUS
 10
15.1359485252
 20
22.8431461277
 11
14.9479485252
 21
22.8431461277
  0
LINE
  5
279
100
AcDbEntity
  8
0
100
AcDbLine
 62
6
  6
CONTINUOUS
 10
15.1359485252
 20
22.8584060415
 11
14.9479485252
 21
22.8584060415
  0
LINE
  5
27A
100
AcDbEntity
  8
0
100
AcDbLine
 62
7
  6
CONTINUOUS
 10
15.1359485252
 20
22.859653189
 11
14.9479485252
 21
22.859653189
  0
LINE
  5
27B
100
AcDbEntity
  8
0
100
AcDbLine
 62
6
  6
CONTINUOUS
 10
15.2059485252
 20
22.8670468346
 11
15.2424008751
 21
22.8670468346
  0
LINE
  5
27C
100
AcDbEntity
  8
0
100
AcDbLine
 62
6
  6
CONTINUOUS
 10
14.930342876
 20
22.872749372
 11
15.1535541781
 21
22.872749372
  0
LINE
  5
27D
100
AcDbEntity
  8
0
100
AcDbLine
 62
7
  6
CONTINUOUS
 10
15.1359485252
 20
22.8778143331
 11
14.9479485252
 21
22.8778143331
  0
LINE
  5
27E
100
AcDbEntity
  8
0
100
AcDbLine
 62
7
  6
CONTINUOUS
 10
15.1359485252
 20
22.8792749796
 11
14.9479485252
 21
22.8792749796
  0
LINE
  5
27F
100
AcDbEntity
  8
0
100
AcDbLine
 62
7
  6
CONTINUOUS
 10
14.9333219289
 20
22.8901483545
 11
15.150575114
 21
22.8901483545
  0
LINE
  5
280
100
AcDbEntity
  8
0
100
AcDbLine
 62
6
  6
CONTINUOUS
 10
15.1359485252
 20
22.9002562419
 11
14.9479485252
 21
22.9002562419
  0
LINE
  5
281
100
AcDbEntity
  8
0
100
AcDbLine
 62
6
  6
CONTINUOUS
 10
15.1359485252
 20
22.9019238639
 11
14.9479485252
 21
22.9019238639
  0
LINE
  5
282
100
AcDbEntity
  8
0
100
AcDbLine
 62
6
  6
CONTINUOUS
 10
17.7980230111
 20
22.9070468346
 11
17.7699485252
 21
22.9070468346
  0
LINE
  5
283
100
AcDbEntity
  8
0
100
AcDbLine
 62
6
  6
CONTINUOUS
 10
17.6549485252
 20
22.9070468346
 11
17.6099485252
 21
22.9070468346
  0
LINE
  5
284
100
AcDbEntity
  8
0
100
AcDbLine
 62
6
  6
CONTINUOUS
 10
15.1359485252
 20
22.9256315369
 11
14.9479485252
 21
22.9256315369
  0
LINE
  5
285
100
AcDbEntity
  8
0
100
AcDbLine
 62
6
  6
CONTINUOUS
 10
15.1359485252
 20
22.9274986864
 11
14.9479485252
 21
22.9274986864
  0
LINE
  5
286
100
AcDbEntity
  8
0
100
AcDbLine
 62
6
  6
CONTINUOUS
 10
15.1359485252
 20
22.9538268859
 11
14.9479485252
 21
22.9538268859
  0
LINE
  5
287
100
AcDbEntity
  8
0
100
AcDbLine
 62
7
  6
CONTINUOUS
 10
15.1359485252
 20
22.9558852237
 11
14.9479485252
 21
22.9558852237
  0
LINE
  5
288
100
AcDbEntity
  8
0
100
AcDbLine
 62
6
  6
CONTINUOUS
 10
14.9427228016
 20
22.9598395449
 11
15.1411742562
 21
22.9598395449
  0
LINE
  5
289
100
AcDbEntity
  8
0
100
AcDbLine
 62
6
  6
CONTINUOUS
 10
17.197128912
 20
22.9720468346
 11
17.5949485252
 21
22.9720468346
  0
LINE
  5
28A
100
AcDbEntity
  8
0
100
AcDbLine
 62
6
  6
CONTINUOUS
 10
15.1359485252
 20
22.9847163616
 11
14.9479485252
 21
22.9847163616
  0
LINE
  5
28B
100
AcDbEntity
  8
0
100
AcDbLine
 62
7
  6
CONTINUOUS
 10
15.1359485252
 20
22.9869566948
 11
14.9479485252
 21
22.9869566948
  0
LINE
  5
28C
100
AcDbEntity
  8
0
100
AcDbLine
 62
7
  6
CONTINUOUS
 10
14.9458475166
 20
22.9885554626
 11
15.1380495368
 21
22.9885554626
  0
LINE
  5
28D
100
AcDbEntity
  8
0
100
AcDbLine
 62
6
  6
CONTINUOUS
 10
15.1359485252
 20
23.0181620042
 11
14.9479485252
 21
23.0181620042
  0
LINE
  5
28E
100
AcDbEntity
  8
0
100
AcDbLine
 62
6
  6
CONTINUOUS
 10
15.1359485252
 20
23.0205743268
 11
14.9479485252
 21
23.0205743268
  0
LINE
  5
28F
100
AcDbEntity
  8
0
100
AcDbLine
 62
7
  6
CONTINUOUS
 10
14.9115510774
 20
23.0534647671
 11
15.1723459731
 21
23.0534647671
  0
LINE
  5
290
100
AcDbEntity
  8
0
100
AcDbLine
 62
7
  6
CONTINUOUS
 10
15.1359485252
 20
23.0540144372
 11
14.9479485252
 21
23.0540144372
  0
LINE
  5
291
100
AcDbEntity
  8
0
100
AcDbLine
 62
6
  6
CONTINUOUS
 10
15.1359485252
 20
23.0565879752
 11
14.9479485252
 21
23.0565879752
  0
LINE
  5
292
100
AcDbEntity
  8
0
100
AcDbLine
 62
7
  6
CONTINUOUS
 10
14.9115510774
 20
23.0893682532
 11
15.1723459731
 21
23.0893682532
  0
LINE
  5
293
100
AcDbEntity
  8
0
100
AcDbLine
 62
7
  6
CONTINUOUS
 10
15.1359485252
 20
23.092113535
 11
14.9479485252
 21
23.092113535
  0
LINE
  5
294
100
AcDbEntity
  8
0
100
AcDbLine
 62
6
  6
CONTINUOUS
 10
15.1359485252
 20
23.0948367944
 11
14.9479485252
 21
23.0948367944
  0
LINE
  5
295
100
AcDbEntity
  8
0
100
AcDbLine
 62
6
  6
CONTINUOUS
 10
14.9115510774
 20
23.1273605055
 11
15.1723459731
 21
23.1273605055
  0
LINE
  5
296
100
AcDbEntity
  8
0
100
AcDbLine
 62
6
  6
CONTINUOUS
 10
15.1359485252
 20
23.1322891378
 11
14.9479485252
 21
23.1322891378
  0
LINE
  5
297
100
AcDbEntity
  8
0
100
AcDbLine
 62
6
  6
CONTINUOUS
 10
15.1359485252
 20
23.1351499558
 11
14.9479485252
 21
23.1351499558
  0
LINE
  5
298
100
AcDbEntity
  8
0
100
AcDbLine
 62
6
  6
CONTINUOUS
 10
14.9115510774
 20
23.1672718412
 11
15.1723459731
 21
23.1672718412
  0
LINE
  5
299
100
AcDbEntity
  8
0
100
AcDbLine
 62
6
  6
CONTINUOUS
 10
15.1359485252
 20
23.1743618116
 11
14.9479485252
 21
23.1743618116
  0
LINE
  5
29A
100
AcDbEntity
  8
0
100
AcDbLine
 62
6
  6
CONTINUOUS
 10
15.1359485252
 20
23.1773474111
 11
14.9479485252
 21
23.1773474111
  0
LINE
  5
29B
100
AcDbEntity
  8
0
100
AcDbLine
 62
7
  6
CONTINUOUS
 10
19.130613357
 20
23.1953984835
 11
19.0820428661
 21
23.1953984835
  0
LINE
  5
29C
100
AcDbEntity
  8
0
100
AcDbLine
 62
6
  6
CONTINUOUS
 10
16.0559485252
 20
25.2139052326
 11
16.0559485252
 21
25.1639052326
  0
LINE
  5
29D
100
AcDbEntity
  8
0
100
AcDbLine
 62
6
  6
CONTINUOUS
 10
16.0559485252
 20
25.3639052326
 11
16.0559485252
 21
25.4139052326
  0
LINE
  5
29E
100
AcDbEntity
  8
0
100
AcDbLine
 62
6
  6
CONTINUOUS
 10
16.1213815961
 20
25.1639052326
 11
16.1213815961
 21
24.5895333667
  0
LINE
  5
29F
100
AcDbEntity
  8
0
100
AcDbLine
 62
7
  6
CONTINUOUS
 10
14.9115510774
 20
23.2089240066
 11
15.1723459731
 21
23.2089240066
  0
LINE
  5
2A0
100
AcDbEntity
  8
0
100
AcDbLine
 62
7
  6
CONTINUOUS
 10
15.1359485252
 20
23.2181436496
 11
14.9479485252
 21
23.2181436496
  0
LINE
  5
2A1
100
AcDbEntity
  8
0
100
AcDbLine
 62
9
  6
CONTINUOUS
 10
19.0761514237
 20
23.2196651502
 11
19.1306119139
 21
23.2196651502
  0
LINE
  5
2A2
100
AcDbEntity
  8
0
100
AcDbLine
 62
7
  6
CONTINUOUS
 10
19.1306119139
 20
23.2203834748
 11
19.0820384658
 21
23.2203834748
  0
LINE
  5
2A3
100
AcDbEntity
  8
0
100
AcDbLine
 62
7
  6
CONTINUOUS
 10
15.1359485252
 20
23.2212406962
 11
14.9479485252
 21
23.2212406962
  0
LINE
  5
2A4
100
AcDbEntity
  8
0
100
AcDbLine
 62
6
  6
CONTINUOUS
 10
15.6689485252
 20
23.2370468346
 11
16.0548286509
 21
23.2370468346
  0
LINE
  5
2A5
100
AcDbEntity
  8
0
100
AcDbLine
 62
9
  6
CONTINUOUS
 10
19.0730368944
 20
23.2446501415
 11
19.1489375072
 21
23.2446501415
  0
LINE
  5
2A6
100
AcDbEntity
  8
0
100
AcDbLine
 62
7
  6
CONTINUOUS
 10
14.9115510774
 20
23.2521309731
 11
15.1723459731
 21
23.2521309731
  0
LINE
  5
2A7
100
AcDbEntity
  8
0
100
AcDbLine
 62
7
  6
CONTINUOUS
 10
15.1359485252
 20
23.2634391115
 11
14.9479485252
 21
23.2634391115
  0
LINE
  5
2A8
100
AcDbEntity
  8
0
100
AcDbLine
 62
6
  6
CONTINUOUS
 10
15.1359485252
 20
23.2666337731
 11
14.9479485252
 21
23.2666337731
  0
LINE
  5
2A9
100
AcDbEntity
  8
0
100
AcDbLine
 62
6
  6
CONTINUOUS
 10
14.9115510774
 20
23.2966997679
 11
15.1723459731
 21
23.2966997679
  0
LINE
  5
2AA
100
AcDbEntity
  8
0
100
AcDbLine
 62
6
  6
CONTINUOUS
 10
15.1359485252
 20
23.3100458968
 11
14.9479485252
 21
23.3100458968
  0
LINE
  5
2AB
100
AcDbEntity
  8
0
100
AcDbLine
 62
6
  6
CONTINUOUS
 10
15.1359485252
 20
23.3133239052
 11
14.9479485252
 21
23.3133239052
  0
LINE
  5
2AC
100
AcDbEntity
  8
0
100
AcDbLine
 62
6
  6
CONTINUOUS
 10
14.9115510774
 20
23.3424313359
 11
15.1723459731
 21
23.3424313359
  0
LINE
  5
2AD
100
AcDbEntity
  8
0
100
AcDbLine
 62
6
  6
CONTINUOUS
 10
15.1359485252
 20
23.3577558482
 11
14.9479485252
 21
23.3577558482
  0
LINE
  5
2AE
100
AcDbEntity
  8
0
100
AcDbLine
 62
6
  6
CONTINUOUS
 10
15.1359485252
 20
23.361102563
 11
14.9479485252
 21
23.361102563
  0
LINE
  5
2AF
100
AcDbEntity
  8
0
100
AcDbLine
 62
6
  6
CONTINUOUS
 10
15.5257815241
 20
23.3695468346
 11
15.6459485252
 21
23.3695468346
  0
LINE
  5
2B0
100
AcDbEntity
  8
0
100
AcDbLine
 62
6
  6
CONTINUOUS
 10
19.1538701942
 20
23.2446540963
 11
19.0730369675
 21
23.2446651502
  0
LINE
  5
2B1
100
AcDbEntity
  8
0
100
AcDbLine
 62
6
  6
CONTINUOUS
 10
19.1586322144
 20
23.2446214013
 11
19.1538701942
 21
23.2446540963
  0
LINE
  5
2B2
100
AcDbEntity
  8
0
100
AcDbLine
 62
6
  6
CONTINUOUS
 10
19.1623551981
 20
23.2445788502
 11
19.1586322144
 21
23.2446214013
  0
LINE
  5
2B3
100
AcDbEntity
  8
0
100
AcDbLine
 62
9
  6
CONTINUOUS
 10
19.1765276166
 20
23.2441869723
 11
19.1752038813
 21
23.2442070337
  0
LINE
  5
2B4
100
AcDbEntity
  8
0
100
AcDbLine
 62
6
  6
CONTINUOUS
 10
19.16581246
 20
23.244523486
 11
19.1623551981
 21
23.2445788502
  0
LINE
  5
2B5
100
AcDbEntity
  8
0
100
AcDbLine
 62
6
  6
CONTINUOUS
 10
19.1683664326
 20
23.2444706047
 11
19.16581246
 21
23.244523486
  0
LINE
  5
2B6
100
AcDbEntity
  8
0
100
AcDbLine
 62
6
  6
CONTINUOUS
 10
19.1707327299
 20
23.2444101091
 11
19.1683664326
 21
23.2444706047
  0
LINE
  5
2B7
100
AcDbEntity
  8
0
100
AcDbLine
 62
6
  6
CONTINUOUS
 10
19.1723951951
 20
23.2443592247
 11
19.1707327299
 21
23.2444101091
  0
LINE
  5
2B8
100
AcDbEntity
  8
0
100
AcDbLine
 62
6
  6
CONTINUOUS
 10
19.1739711624
 20
23.2443027268
 11
19.1723951951
 21
23.2443592247
  0
LINE
  5
2B9
100
AcDbEntity
  8
0
100
AcDbLine
 62
6
  6
CONTINUOUS
 10
19.1749998695
 20
23.2442603581
 11
19.1739711624
 21
23.2443027268
  0
LINE
  5
2BA
100
AcDbEntity
  8
0
100
AcDbLine
 62
6
  6
CONTINUOUS
 10
19.1765276199
 20
23.2441869375
 11
19.1749998695
 21
23.2442603581
  0
LINE
  5
2BB
100
AcDbEntity
  8
0
100
AcDbLine
 62
7
  6
CONTINUOUS
 10
14.9115510774
 20
23.3891214287
 11
15.1723459731
 21
23.3891214287
  0
LINE
  5
2BC
100
AcDbEntity
  8
0
100
AcDbLine
 62
7
  6
CONTINUOUS
 10
15.1359485252
 20
23.4063558815
 11
14.9479485252
 21
23.4063558815
  0
LINE
  5
2BD
100
AcDbEntity
  8
0
100
AcDbLine
 62
6
  6
CONTINUOUS
 10
15.1359485252
 20
23.4097563555
 11
14.9479485252
 21
23.4097563555
  0
LINE
  5
2BE
100
AcDbEntity
  8
0
100
AcDbLine
 62
6
  6
CONTINUOUS
 10
14.9115510774
 20
23.4365615172
 11
15.1723459731
 21
23.4365615172
  0
LINE
  5
2BF
100
AcDbEntity
  8
0
100
AcDbLine
 62
6
  6
CONTINUOUS
 10
15.1359485252
 20
23.4556289373
 11
14.9479485252
 21
23.4556289373
  0
LINE
  5
2C0
100
AcDbEntity
  8
0
100
AcDbLine
 62
6
  6
CONTINUOUS
 10
15.1359485252
 20
23.4590679831
 11
14.9479485252
 21
23.4590679831
  0
LINE
  5
2C1
100
AcDbEntity
  8
0
100
AcDbLine
 62
6
  6
CONTINUOUS
 10
14.9115510774
 20
23.4845397224
 11
15.1723459731
 21
23.4845397224
  0
LINE
  5
2C2
100
AcDbEntity
  8
0
100
AcDbLine
 62
6
  6
CONTINUOUS
 10
15.1359485252
 20
23.5053549499
 11
14.9479485252
 21
23.5053549499
  0
LINE
  5
2C3
100
AcDbEntity
  8
0
100
AcDbLine
 62
6
  6
CONTINUOUS
 10
15.1359485252
 20
23.508817208
 11
14.9479485252
 21
23.508817208
  0
LINE
  5
2C4
100
AcDbEntity
  8
0
100
AcDbLine
 62
6
  6
CONTINUOUS
 10
14.9115510774
 20
23.532841762
 11
15.1723459731
 21
23.532841762
  0
LINE
  5
2C5
100
AcDbEntity
  8
0
100
AcDbLine
 62
6
  6
CONTINUOUS
 10
15.1359485252
 20
23.5553118311
 11
14.9479485252
 21
23.5553118311
  0
LINE
  5
2C6
100
AcDbEntity
  8
0
100
AcDbLine
 62
6
  6
CONTINUOUS
 10
15.1359485252
 20
23.5587818381
 11
14.9479485252
 21
23.5587818381
  0
LINE
  5
2C7
100
AcDbEntity
  8
0
100
AcDbLine
 62
7
  6
CONTINUOUS
 10
14.9115510774
 20
23.5812519072
 11
15.1723459731
 21
23.5812519072
  0
LINE
  5
2C8
100
AcDbEntity
  8
0
100
AcDbLine
 62
7
  6
CONTINUOUS
 10
15.1359485252
 20
23.6052764612
 11
14.9479485252
 21
23.6052764612
  0
LINE
  5
2C9
100
AcDbEntity
  8
0
100
AcDbLine
 62
7
  6
CONTINUOUS
 10
15.1359485252
 20
23.6087387193
 11
14.9479485252
 21
23.6087387193
  0
LINE
  5
2CA
100
AcDbEntity
  8
0
100
AcDbLine
 62
7
  6
CONTINUOUS
 10
14.9115510774
 20
23.6295539468
 11
15.1723459731
 21
23.6295539468
  0
LINE
  5
2CB
100
AcDbEntity
  8
0
100
AcDbLine
 62
6
  6
CONTINUOUS
 10
15.1359485252
 20
23.6550256861
 11
14.9479485252
 21
23.6550256861
  0
LINE
  5
2CC
100
AcDbEntity
  8
0
100
AcDbLine
 62
6
  6
CONTINUOUS
 10
15.1359485252
 20
23.6584647319
 11
14.9479485252
 21
23.6584647319
  0
LINE
  5
2CD
100
AcDbEntity
  8
0
100
AcDbLine
 62
6
  6
CONTINUOUS
 10
14.9115510774
 20
23.6775321519
 11
15.1723459731
 21
23.6775321519
  0
LINE
  5
2CE
100
AcDbEntity
  8
0
100
AcDbLine
 62
6
  6
CONTINUOUS
 10
15.1359485252
 20
23.7043373137
 11
14.9479485252
 21
23.7043373137
  0
LINE
  5
2CF
100
AcDbEntity
  8
0
100
AcDbLine
 62
6
  6
CONTINUOUS
 10
15.1359485252
 20
23.7077377876
 11
14.9479485252
 21
23.7077377876
  0
LINE
  5
2D0
100
AcDbEntity
  8
0
100
AcDbLine
 62
6
  6
CONTINUOUS
 10
14.9115510774
 20
23.7249722404
 11
15.1723459731
 21
23.7249722404
  0
LINE
  5
2D1
100
AcDbEntity
  8
0
100
AcDbLine
 62
6
  6
CONTINUOUS
 10
19.1750021677
 20
23.8698334115
 11
19.1765276446
 21
23.869906733
  0
LINE
  5
2D2
100
AcDbEntity
  8
0
100
AcDbLine
 62
6
  6
CONTINUOUS
 10
19.1739734913
 20
23.8697910329
 11
19.1750021677
 21
23.8698334115
  0
LINE
  5
2D3
100
AcDbEntity
  8
0
100
AcDbLine
 62
6
  6
CONTINUOUS
 10
19.1723976817
 20
23.8697345266
 11
19.1739734913
 21
23.8697910329
  0
LINE
  5
2D4
100
AcDbEntity
  8
0
100
AcDbLine
 62
6
  6
CONTINUOUS
 10
19.1707353836
 20
23.8696836351
 11
19.1723976817
 21
23.8697345266
  0
LINE
  5
2D5
100
AcDbEntity
  8
0
100
AcDbLine
 62
6
  6
CONTINUOUS
 10
19.1683693216
 20
23.869623131
 11
19.1707353836
 21
23.8696836351
  0
LINE
  5
2D6
100
AcDbEntity
  8
0
100
AcDbLine
 62
6
  6
CONTINUOUS
 10
19.1658155837
 20
23.8695702411
 11
19.1683693216
 21
23.869623131
  0
LINE
  5
2D7
100
AcDbEntity
  8
0
100
AcDbLine
 62
9
  6
CONTINUOUS
 10
19.1765276443
 20
23.8699066983
 11
19.1752038813
 21
23.8698866354
  0
LINE
  5
2D8
100
AcDbEntity
  8
0
100
AcDbLine
 62
6
  6
CONTINUOUS
 10
19.1623586038
 20
23.8695148655
 11
19.1658155837
 21
23.8695702411
  0
LINE
  5
2D9
100
AcDbEntity
  8
0
100
AcDbLine
 62
6
  6
CONTINUOUS
 10
19.1578624391
 20
23.8694654152
 11
19.1623586038
 21
23.8695148655
  0
LINE
  5
2DA
100
AcDbEntity
  8
0
100
AcDbLine
 62
6
  6
CONTINUOUS
 10
19.1530553425
 20
23.8694362033
 11
19.1578624391
 21
23.8694654152
  0
LINE
  5
2DB
100
AcDbEntity
  8
0
100
AcDbLine
 62
6
  6
CONTINUOUS
 10
19.1489375073
 20
23.8694285265
 11
19.1530553425
 21
23.8694362033
  0
LINE
  5
2DC
100
AcDbEntity
  8
0
100
AcDbLine
 62
6
  6
CONTINUOUS
 10
15.5257815241
 20
23.7445468346
 11
15.6459485252
 21
23.7445468346
  0
LINE
  5
2DD
100
AcDbEntity
  8
0
100
AcDbLine
 62
6
  6
CONTINUOUS
 10
15.1359485252
 20
23.7529911062
 11
14.9479485252
 21
23.7529911062
  0
LINE
  5
2DE
100
AcDbEntity
  8
0
100
AcDbLine
 62
7
  6
CONTINUOUS
 10
15.1359485252
 20
23.756337821
 11
14.9479485252
 21
23.756337821
  0
LINE
  5
2DF
100
AcDbEntity
  8
0
100
AcDbLine
 62
7
  6
CONTINUOUS
 10
14.9115510774
 20
23.7716623333
 11
15.1723459731
 21
23.7716623333
  0
LINE
  5
2E0
100
AcDbEntity
  8
0
100
AcDbLine
 62
6
  6
CONTINUOUS
 10
15.1359485252
 20
23.800769764
 11
14.9479485252
 21
23.800769764
  0
LINE
  5
2E1
100
AcDbEntity
  8
0
100
AcDbLine
 62
6
  6
CONTINUOUS
 10
15.1359485252
 20
23.8040477724
 11
14.9479485252
 21
23.8040477724
  0
LINE
  5
2E2
100
AcDbEntity
  8
0
100
AcDbLine
 62
6
  6
CONTINUOUS
 10
14.9115510774
 20
23.8173939013
 11
15.1723459731
 21
23.8173939013
  0
LINE
  5
2E3
100
AcDbEntity
  8
0
100
AcDbLine
 62
6
  6
CONTINUOUS
 10
15.1359485252
 20
23.8474598961
 11
14.9479485252
 21
23.8474598961
  0
LINE
  5
2E4
100
AcDbEntity
  8
0
100
AcDbLine
 62
6
  6
CONTINUOUS
 10
15.1359485252
 20
23.8506545577
 11
14.9479485252
 21
23.8506545577
  0
LINE
  5
2E5
100
AcDbEntity
  8
0
100
AcDbLine
 62
6
  6
CONTINUOUS
 10
14.9115510774
 20
23.861962696
 11
15.1723459731
 21
23.861962696
  0
LINE
  5
2E6
100
AcDbEntity
  8
0
100
AcDbLine
 62
6
  6
CONTINUOUS
 10
19.1489375072
 20
23.869428519
 11
19.0730369675
 21
23.869428519
  0
LINE
  5
2E7
100
AcDbEntity
  8
0
100
AcDbLine
 62
9
  6
CONTINUOUS
 10
19.1489375072
 20
23.8694435277
 11
19.0730368942
 21
23.8694435277
  0
LINE
  5
2E8
100
AcDbEntity
  8
0
100
AcDbLine
 62
6
  6
CONTINUOUS
 10
15.6689485252
 20
23.8770468346
 11
16.0548286509
 21
23.8770468346
  0
LINE
  5
2E9
100
AcDbEntity
  8
0
100
AcDbLine
 62
6
  6
CONTINUOUS
 10
15.1359485252
 20
23.8928529729
 11
14.9479485252
 21
23.8928529729
  0
LINE
  5
2EA
100
AcDbEntity
  8
0
100
AcDbLine
 62
7
  6
CONTINUOUS
 10
19.0820384658
 20
23.8937101943
 11
19.1306119139
 21
23.8937101943
  0
LINE
  5
2EB
100
AcDbEntity
  8
0
100
AcDbLine
 62
9
  6
CONTINUOUS
 10
19.1306119188
 20
23.894428519
 11
19.0761514237
 21
23.894428519
  0
LINE
  5
2EC
100
AcDbEntity
  8
0
100
AcDbLine
 62
7
  6
CONTINUOUS
 10
15.1359485252
 20
23.8959500196
 11
14.9479485252
 21
23.8959500196
  0
LINE
  5
2ED
100
AcDbEntity
  8
0
100
AcDbLine
 62
7
  6
CONTINUOUS
 10
14.9115510774
 20
23.9051696625
 11
15.1723459731
 21
23.9051696625
  0
LINE
  5
2EE
100
AcDbEntity
  8
0
100
AcDbLine
 62
7
  6
CONTINUOUS
 10
19.0820427289
 20
23.9186951856
 11
19.1306133683
 21
23.9186951856
  0
LINE
  5
2EF
100
AcDbEntity
  8
0
100
AcDbLine
 62
6
  6
CONTINUOUS
 10
15.1359485252
 20
23.936746258
 11
14.9479485252
 21
23.936746258
  0
LINE
  5
2F0
100
AcDbEntity
  8
0
100
AcDbLine
 62
6
  6
CONTINUOUS
 10
15.1359485252
 20
23.9397318576
 11
14.9479485252
 21
23.9397318576
  0
LINE
  5
2F1
100
AcDbEntity
  8
0
100
AcDbLine
 62
6
  6
CONTINUOUS
 10
14.9115510774
 20
23.946821828
 11
15.1723459731
 21
23.946821828
  0
LINE
  5
2F2
100
AcDbEntity
  8
0
100
AcDbLine
 62
6
  6
CONTINUOUS
 10
15.1359485252
 20
23.9789437134
 11
14.9479485252
 21
23.9789437134
  0
LINE
  5
2F3
100
AcDbEntity
  8
0
100
AcDbLine
 62
6
  6
CONTINUOUS
 10
15.1359485252
 20
23.9818045314
 11
14.9479485252
 21
23.9818045314
  0
LINE
  5
2F4
100
AcDbEntity
  8
0
100
AcDbLine
 62
7
  6
CONTINUOUS
 10
14.9115510774
 20
23.9867331637
 11
15.1723459731
 21
23.9867331637
  0
LINE
  5
2F5
100
AcDbEntity
  8
0
100
AcDbLine
 62
7
  6
CONTINUOUS
 10
15.1359485252
 20
24.0192568748
 11
14.9479485252
 21
24.0192568748
  0
LINE
  5
2F6
100
AcDbEntity
  8
0
100
AcDbLine
 62
7
  6
CONTINUOUS
 10
15.1359485252
 20
24.0219801342
 11
14.9479485252
 21
24.0219801342
  0
LINE
  5
2F7
100
AcDbEntity
  8
0
100
AcDbLine
 62
7
  6
CONTINUOUS
 10
15.1359485252
 20
24.057505694
 11
14.9479485252
 21
24.057505694
  0
LINE
  5
2F8
100
AcDbEntity
  8
0
100
AcDbLine
 62
6
  6
CONTINUOUS
 10
15.1359485252
 20
24.060079232
 11
14.9479485252
 21
24.060079232
  0
LINE
  5
2F9
100
AcDbEntity
  8
0
100
AcDbLine
 62
6
  6
CONTINUOUS
 10
14.9115510774
 20
24.0606289021
 11
15.1723459731
 21
24.0606289021
  0
LINE
  5
2FA
100
AcDbEntity
  8
0
100
AcDbLine
 62
6
  6
CONTINUOUS
 10
15.1359485252
 20
24.0935193424
 11
14.9479485252
 21
24.0935193424
  0
LINE
  5
2FB
100
AcDbEntity
  8
0
100
AcDbLine
 62
7
  6
CONTINUOUS
 10
15.1359485252
 20
24.095931665
 11
14.9479485252
 21
24.095931665
  0
LINE
  5
2FC
100
AcDbEntity
  8
0
100
AcDbLine
 62
6
  6
CONTINUOUS
 10
14.9458475816
 20
24.1255382066
 11
15.1380494722
 21
24.1255382066
  0
LINE
  5
2FD
100
AcDbEntity
  8
0
100
AcDbLine
 62
7
  6
CONTINUOUS
 10
15.1359485252
 20
24.1271369744
 11
14.9479485252
 21
24.1271369744
  0
LINE
  5
2FE
100
AcDbEntity
  8
0
100
AcDbLine
 62
6
  6
CONTINUOUS
 10
15.1359485252
 20
24.1293773076
 11
14.9479485252
 21
24.1293773076
  0
LINE
  5
2FF
100
AcDbEntity
  8
0
100
AcDbLine
 62
6
  6
CONTINUOUS
 10
17.197128912
 20
24.1420468346
 11
17.5949485252
 21
24.1420468346
  0
LINE
  5
300
100
AcDbEntity
  8
0
100
AcDbLine
 62
6
  6
CONTINUOUS
 10
15.1359485252
 20
24.1582084454
 11
14.9479485252
 21
24.1582084454
  0
LINE
  5
301
100
AcDbEntity
  8
0
100
AcDbLine
 62
6
  6
CONTINUOUS
 10
15.1359485252
 20
24.1602667833
 11
14.9479485252
 21
24.1602667833
  0
LINE
  5
302
100
AcDbEntity
  8
0
100
AcDbLine
 62
7
  6
CONTINUOUS
 10
15.1359485252
 20
24.1865949828
 11
14.9479485252
 21
24.1865949828
  0
LINE
  5
303
100
AcDbEntity
  8
0
100
AcDbLine
 62
7
  6
CONTINUOUS
 10
15.1359485252
 20
24.1884621323
 11
14.9479485252
 21
24.1884621323
  0
LINE
  5
304
100
AcDbEntity
  8
0
100
AcDbLine
 62
6
  6
CONTINUOUS
 10
14.936293345
 20
24.2035678017
 11
15.14760372
 21
24.2035678017
  0
LINE
  5
305
100
AcDbEntity
  8
0
100
AcDbLine
 62
6
  6
CONTINUOUS
 10
17.798023011
 20
24.2070468346
 11
17.7699485252
 21
24.2070468346
  0
LINE
  5
306
100
AcDbEntity
  8
0
100
AcDbLine
 62
6
  6
CONTINUOUS
 10
17.6549485252
 20
24.2070468346
 11
17.6099485252
 21
24.2070468346
  0
LINE
  5
307
100
AcDbEntity
  8
0
100
AcDbLine
 62
7
  6
CONTINUOUS
 10
15.1359485252
 20
24.2121698053
 11
14.9479485252
 21
24.2121698053
  0
LINE
  5
308
100
AcDbEntity
  8
0
100
AcDbLine
 62
6
  6
CONTINUOUS
 10
15.1359485252
 20
24.2138374273
 11
14.9479485252
 21
24.2138374273
  0
LINE
  5
309
100
AcDbEntity
  8
0
100
AcDbLine
 62
6
  6
CONTINUOUS
 10
15.1359485252
 20
24.2348186895
 11
14.9479485252
 21
24.2348186895
  0
LINE
  5
30A
100
AcDbEntity
  8
0
100
AcDbLine
 62
6
  6
CONTINUOUS
 10
15.1359485252
 20
24.2362793361
 11
14.9479485252
 21
24.2362793361
  0
LINE
  5
30B
100
AcDbEntity
  8
0
100
AcDbLine
 62
6
  6
CONTINUOUS
 10
14.9303427743
 20
24.2413442972
 11
15.1535542774
 21
24.2413442972
  0
LINE
  5
30C
100
AcDbEntity
  8
0
100
AcDbLine
 62
7
  6
CONTINUOUS
 10
16.3934485252
 20
24.2419752487
 11
17.0684485252
 21
24.2419752487
  0
LINE
  5
30D
100
AcDbEntity
  8
0
100
AcDbLine
 62
6
  6
CONTINUOUS
 10
15.2059485252
 20
24.2470468346
 11
15.2424008751
 21
24.2470468346
  0
LINE
  5
30E
100
AcDbEntity
  8
0
100
AcDbLine
 62
7
  6
CONTINUOUS
 10
15.1359485252
 20
24.2544404802
 11
14.9479485252
 21
24.2544404802
  0
LINE
  5
30F
100
AcDbEntity
  8
0
100
AcDbLine
 62
6
  6
CONTINUOUS
 10
15.1359485252
 20
24.2556876277
 11
14.9479485252
 21
24.2556876277
  0
LINE
  5
310
100
AcDbEntity
  8
0
100
AcDbLine
 62
6
  6
CONTINUOUS
 10
15.1359485252
 20
24.2709475415
 11
14.9479485252
 21
24.2709475415
  0
LINE
  5
311
100
AcDbEntity
  8
0
100
AcDbLine
 62
6
  6
CONTINUOUS
 10
15.1359485252
 20
24.2719756198
 11
14.9479485252
 21
24.2719756198
  0
LINE
  5
312
100
AcDbEntity
  8
0
100
AcDbLine
 62
7
  6
CONTINUOUS
 10
14.9206813147
 20
24.2749615165
 11
14.9256947757
 21
24.2749615165
  0
LINE
  5
313
100
AcDbEntity
  8
0
100
AcDbLine
 62
7
  6
CONTINUOUS
 10
15.1582022959
 20
24.2749615165
 11
15.1632157161
 21
24.2749615165
  0
LINE
  5
314
100
AcDbEntity
  8
0
100
AcDbLine
 62
6
  6
CONTINUOUS
 10
15.1359485252
 20
24.2842661489
 11
14.9479485252
 21
24.2842661489
  0
LINE
  5
315
100
AcDbEntity
  8
0
100
AcDbLine
 62
7
  6
CONTINUOUS
 10
15.1359485252
 20
24.2850705665
 11
14.9479485252
 21
24.2850705665
  0
LINE
  5
316
100
AcDbEntity
  8
0
100
AcDbLine
 62
7
  6
CONTINUOUS
 10
15.1359485252
 20
24.2943368184
 11
14.9479485252
 21
24.2943368184
  0
LINE
  5
317
100
AcDbEntity
  8
0
100
AcDbLine
 62
7
  6
CONTINUOUS
 10
15.1359485252
 20
24.2949139824
 11
14.9479485252
 21
24.2949139824
  0
LINE
  5
318
100
AcDbEntity
  8
0
100
AcDbLine
 62
6
  6
CONTINUOUS
 10
15.1359485252
 20
24.3011145718
 11
14.9479485252
 21
24.3011145718
  0
LINE
  5
319
100
AcDbEntity
  8
0
100
AcDbLine
 62
6
  6
CONTINUOUS
 10
15.1359485252
 20
24.3014619046
 11
14.9479485252
 21
24.3014619046
  0
LINE
  5
31A
100
AcDbEntity
  8
0
100
AcDbLine
 62
6
  6
CONTINUOUS
 10
15.1359485252
 20
24.3045691381
 11
14.9479485252
 21
24.3045691381
  0
LINE
  5
31B
100
AcDbEntity
  8
0
100
AcDbLine
 62
6
  6
CONTINUOUS
 10
14.9479485252
 20
24.3046850883
 11
15.1359485252
 21
24.3046850883
  0
LWPOLYLINE
  5
31C
100
AcDbEntity
  8
0
100
AcDbPolyline
 62
6
  6
CONTINUOUS
 90
11
 70
0
 10
17.9871507939
 20
23.9212760405
 10
17.9853128748
 20
23.9222964651
 10
17.9834641968
 20
23.923360396
 10
17.981604139
 20
23.9244691233
 10
17.9797321206
 20
23.9256239792
 10
17.9778475706
 20
23.9268263564
 10
17.9759498508
 20
23.92807776
 10
17.9740383669
 20
23.9293797407
 10
17.9721124928
 20
23.9307339459
 10
17.9701716232
 20
23.9321420871
 10
17.9682151327
 20
23.9336059717
  0
LINE
  5
31D
100
AcDbEntity
  8
0
100
AcDbLine
 62
6
  6
CONTINUOUS
 10
17.3405154544
 20
25.1639052326
 11
17.3405154544
 21
24.5895333667
  0
LINE
  5
31E
100
AcDbEntity
  8
0
100
AcDbLine
 62
6
  6
CONTINUOUS
 10
16.1213815961
 20
24.5895333667
 11
17.3405154544
 21
24.5895333667
  0
LWPOLYLINE
  5
31F
100
AcDbEntity
  8
0
100
AcDbPolyline
 62
6
  6
CONTINUOUS
 90
48
 70
0
 10
17.9682151327
 20
23.9336059717
 10
17.9662423427
 20
23.9351275335
 10
17.9642526294
 20
23.9367087549
 10
17.9622453384
 20
23.9383517347
 10
17.9602198629
 20
23.9400586284
 10
17.9581755113
 20
23.9418317617
 10
17.9561115602
 20
23.9436735977
 10
17.9540273406
 20
23.945586664
 10
17.9519221756
 20
23.9475736104
 10
17.949795439
 20
23.9496371561
 10
17.9476463547
 20
23.9517802908
 10
17.945474168
 20
23.9540061219
 10
17.9432781533
 20
23.9563178697
 10
17.9410576106
 20
23.9587188718
 10
17.9388117823
 20
23.9612126808
 10
17.9365396692
 20
23.96380329
 10
17.9342405895
 20
23.9664945159
 10
17.9319145836
 20
23.9692894643
 10
17.9295614523
 20
23.9721916232
 10
17.9271799342
 20
23.97520596
 10
17.924768744
 20
23.9783377374
 10
17.9223267744
 20
23.9815922582
 10
17.9198530004
 20
23.9849749799
 10
17.9173464793
 20
23.9884915141
 10
17.9148064352
 20
23.9921475004
 10
17.9122321122
 20
23.9959488092
 10
17.9096225008
 20
23.9999019697
 10
17.9069767019
 20
24.0040136606
 10
17.9042938905
 20
24.0082907637
 10
17.901573238
 20
24.0127404934
 10
17.8988139316
 20
24.0173703816
 10
17.8960146009
 20
24.0221892924
 10
17.8931742114
 20
24.0272059691
 10
17.8902936515
 20
24.0324260705
 10
17.8873733434
 20
24.0378562355
 10
17.884410979
 20
24.0435085736
 10
17.8814041203
 20
24.0493962065
 10
17.8783508076
 20
24.0555321135
 10
17.8752500683
 20
24.0619279914
 10
17.8721014215
 20
24.0685950949
 10
17.8689051822
 20
24.0755434638
 10
17.8656623415
 20
24.0827819886
 10
17.862372475
 20
24.0903230824
 10
17.8590329374
 20
24.0981850542
 10
17.8556412888
 20
24.106386922
 10
17.8521956817
 20
24.1149474556
 10
17.8486956991
 20
24.1238828929
 10
17.8451415877
 20
24.1332085483
  0
LINE
  5
320
100
AcDbEntity
  8
0
100
AcDbLine
 62
6
  6
CONTINUOUS
 10
17.4059485252
 20
25.2139052326
 11
17.4059485252
 21
25.1639052326
  0
LINE
  5
321
100
AcDbEntity
  8
0
100
AcDbLine
 62
6
  6
CONTINUOUS
 10
17.4059485252
 20
25.3639052326
 11
17.4059485252
 21
25.4139052326
  0
LWPOLYLINE
  5
322
100
AcDbEntity
  8
0
100
AcDbPolyline
 62
6
  6
CONTINUOUS
 90
14
 70
0
 10
17.995972695
 20
23.9151811998
 10
17.9954816591
 20
23.9156527702
 10
17.9949800488
 20
23.9161130766
 10
17.9944681223
 20
23.9165618819
 10
17.9939461433
 20
23.916998955
 10
17.9934143807
 20
23.9174240709
 10
17.9928731083
 20
23.9178370104
 10
17.9923226048
 20
23.9182375611
 10
17.9917631537
 20
23.9186255166
 10
17.9911950432
 20
23.9190006771
 10
17.9906185659
 20
23.9193628494
 10
17.9900340185
 20
23.919711847
 10
17.9894417022
 20
23.9200474902
 10
17.9871507939
 20
23.9212760405
  0
LINE
  5
323
100
AcDbEntity
  8
0
100
AcDbLine
 62
6
  6
CONTINUOUS
 10
17.5949485252
 20
24.1920468346
 11
17.5949485252
 21
22.9220468346
  0
LINE
  5
324
100
AcDbEntity
  8
0
100
AcDbLine
 62
9
  6
CONTINUOUS
 10
17.6099485252
 20
24.2070468346
 11
17.6099485252
 21
22.9070468346
  0
LINE
  5
325
100
AcDbEntity
  8
0
100
AcDbLine
 62
6
  6
CONTINUOUS
 10
17.6549485252
 20
22.9070468346
 11
17.6549485252
 21
24.2070468346
  0
LINE
  5
326
100
AcDbEntity
  8
0
100
AcDbLine
 62
6
  6
CONTINUOUS
 10
17.8232305558
 20
24.1933126721
 11
17.8234552029
 21
24.1929591396
  0
LINE
  5
327
100
AcDbEntity
  8
0
100
AcDbLine
 62
6
  6
CONTINUOUS
 10
17.8237810731
 20
24.1924260459
 11
17.8234284829
 21
24.1930017657
  0
LWPOLYLINE
  5
328
100
AcDbEntity
  8
0
100
AcDbPolyline
 62
6
  6
CONTINUOUS
 90
13
 70
0
 10
18.0009540979
 20
23.9087375769
 10
18.0006079981
 20
23.9093238447
 10
18.0002486839
 20
23.9099021078
 10
17.9998763402
 20
23.9104720684
 10
17.9994911589
 20
23.9110334331
 10
17.9990933382
 20
23.9115859126
 10
17.9986830831
 20
23.9121292226
 10
17.9982606048
 20
23.9126630831
 10
17.997826121
 20
23.9131872192
 10
17.9973798553
 20
23.9137013611
 10
17.9969220375
 20
23.9142052439
 10
17.9964529036
 20
23.9146986082
 10
17.995972695
 20
23.9151811998
  0
LINE
  5
329
100
AcDbEntity
  8
0
100
AcDbLine
 62
6
  6
CONTINUOUS
 10
17.8234552029
 20
24.1929591396
 11
17.8265406716
 21
24.1863603599
  0
LWPOLYLINE
  5
32A
100
AcDbEntity
  8
0
100
AcDbPolyline
 62
6
  6
CONTINUOUS
 90
6
 70
0
 10
17.8451415877
 20
24.1332085483
 10
17.8415334591
 20
24.1429408057
 10
17.8378692035
 20
24.1531030792
 10
17.83414612
 20
24.1637220407
 10
17.8303620529
 20
24.1748246039
 10
17.82654071
 20
24.1863603118
  0
LINE
  5
32B
100
AcDbEntity
  8
0
100
AcDbLine
 62
6
  6
CONTINUOUS
 10
17.7699485252
 20
22.9070468346
 11
17.7699485252
 21
24.2070468346
  0
LINE
  5
32C
100
AcDbEntity
  8
0
100
AcDbLine
 62
9
  6
CONTINUOUS
 10
17.7980230111
 20
22.9070468346
 11
17.798023011
 21
24.2070468346
  0
LINE
  5
32D
100
AcDbEntity
  8
0
100
AcDbLine
 62
6
  6
CONTINUOUS
 10
17.8079485252
 20
25.5028349337
 11
17.8079485252
 21
25.5478349337
  0
LINE
  5
32E
100
AcDbEntity
  8
0
100
AcDbLine
 62
6
  6
CONTINUOUS
 10
17.9209485252
 20
25.7013152487
 11
17.9209485252
 21
25.6608349337
  0
LINE
  5
32F
100
AcDbEntity
  8
0
100
AcDbLine
 62
6
  6
CONTINUOUS
 10
16.0559485252
 20
25.1639052326
 11
17.4059485252
 21
25.1639052326
  0
LINE
  5
330
100
AcDbEntity
  8
0
100
AcDbLine
 62
7
  6
CONTINUOUS
 10
19.0565565286
 20
23.2384439927
 11
19.0565466287
 21
23.2384552733
  0
LINE
  5
331
100
AcDbEntity
  8
0
100
AcDbLine
 62
7
  6
CONTINUOUS
 10
19.082038401
 20
23.1953984835
 11
19.0659278769
 21
23.2144956248
  0
LWPOLYLINE
  5
332
100
AcDbEntity
  8
0
100
AcDbPolyline
 62
6
  6
CONTINUOUS
 90
10
 70
0
 10
17.8263481224
 20
24.1869304995
 10
17.8261185675
 20
24.1875653135
 10
17.8258747788
 20
24.188194823
 10
17.8256168813
 20
24.1888187019
 10
17.8253450074
 20
24.1894366279
 10
17.8250592953
 20
24.1900482853
 10
17.8247598902
 20
24.1906533628
 10
17.8244469439
 20
24.1912515527
 10
17.8241206154
 20
24.1918425509
 10
17.8237810699
 20
24.1924260578
  0
LINE
  5
333
100
AcDbEntity
  8
0
100
AcDbLine
 62
6
  6
CONTINUOUS
 10
17.826540691
 20
24.1863603006
 11
17.8263481233
 21
24.1869304907
  0
LWPOLYLINE
  5
334
100
AcDbEntity
  8
0
100
AcDbPolyline
 62
6
  6
CONTINUOUS
 90
13
 70
0
 10
18.0040187555
 20
23.9011915506
 10
18.0038431015
 20
23.901849304
 10
18.0036525668
 20
23.9025029026
 10
18.0034472496
 20
23.9031520095
 10
18.0032272556
 20
23.9037962904
 10
18.0029926983
 20
23.9044354132
 10
18.0027436984
 20
23.9050690488
 10
18.0024803842
 20
23.9056968709
 10
18.0022028912
 20
23.9063185561
 10
18.0019113624
 20
23.9069337845
 10
18.0016059479
 20
23.907542239
 10
18.0012868049
 20
23.9081436064
 10
18.0009540979
 20
23.9087375769
  0
LWPOLYLINE
  5
335
100
AcDbEntity
  8
0
100
AcDbPolyline
 62
6
  6
CONTINUOUS
 90
12
 70
0
 10
18.0049485252
 20
23.8937806494
 10
18.0049408093
 20
23.8944609993
 10
18.0049176554
 20
23.8951412346
 10
18.0048790656
 20
23.8958209148
 10
18.0048250581
 20
23.8964996002
 10
18.0047556651
 20
23.8971768678
 10
18.0046709233
 20
23.8978523708
 10
18.0045708743
 20
23.8985257811
 10
18.0044555692
 20
23.8991967523
 10
18.0043250682
 20
23.8998649337
 10
18.0041794387
 20
23.9005299804
 10
18.0040187555
 20
23.9011915506
  0
LINE
  5
336
100
AcDbEntity
  8
0
100
AcDbLine
 62
7
  6
CONTINUOUS
 10
18.0049485252
 20
23.8937806488
 11
18.0049485252
 21
23.2203130204
  0
LINE
  5
337
100
AcDbEntity
  8
0
100
AcDbLine
 62
7
  6
CONTINUOUS
 10
18.0149485252
 20
23.2868968762
 11
18.0149485252
 21
23.8271967929
  0
LINE
  5
338
100
AcDbEntity
  8
0
100
AcDbLine
 62
6
  6
CONTINUOUS
 10
16.0559485252
 20
25.2139052326
 11
17.4059485252
 21
25.2139052326
  0
LWPOLYLINE
  5
339
100
AcDbEntity
  8
0
100
AcDbPolyline
 62
6
  6
CONTINUOUS
 90
13
 70
0
 10
18.003843133
 20
23.212244476
 10
18.0040187852
 20
23.2129022332
 10
18.0041794664
 20
23.2135638069
 10
18.0043250939
 20
23.2142288574
 10
18.0044555927
 20
23.214897043
 10
18.0045708955
 20
23.2155680184
 10
18.0046709418
 20
23.2162414317
 10
18.0047556807
 20
23.2169169365
 10
18.0048250711
 20
23.21759421
 10
18.0048790761
 20
23.2182729058
 10
18.0049176621
 20
23.2189525816
 10
18.0049408117
 20
23.2196327736
 10
18.0049485252
 20
23.2203130179
  0
LWPOLYLINE
  5
33A
100
AcDbEntity
  8
0
100
AcDbPolyline
 62
6
  6
CONTINUOUS
 90
6
 70
0
 10
17.8265407121
 20
22.9277333635
 10
17.8303620529
 20
22.9392690651
 10
17.8341461199
 20
22.9503716284
 10
17.8378692035
 20
22.9609905899
 10
17.8415334591
 20
22.9711528634
 10
17.8451415877
 20
22.9808851208
  0
LWPOLYLINE
  5
33B
100
AcDbEntity
  8
0
100
AcDbPolyline
 62
6
  6
CONTINUOUS
 90
48
 70
0
 10
17.8451415877
 20
22.9808851208
 10
17.8486956991
 20
22.9902107762
 10
17.8521956816
 20
22.9991462134
 10
17.8556412888
 20
23.0077067471
 10
17.8590329374
 20
23.0159086149
 10
17.8623724749
 20
23.0237705867
 10
17.8656623415
 20
23.0313116804
 10
17.8689051822
 20
23.0385502053
 10
17.8721014215
 20
23.0454985741
 10
17.8752500682
 20
23.0521656777
 10
17.8783508075
 20
23.0585615556
 10
17.8814041203
 20
23.0646974626
 10
17.8844109789
 20
23.0705850955
 10
17.8873733434
 20
23.0762374336
 10
17.8902936515
 20
23.0816675986
 10
17.8931742113
 20
23.0868877
 10
17.8960146009
 20
23.0919043767
 10
17.8988139316
 20
23.0967232875
 10
17.9015732379
 20
23.1013531757
 10
17.9042938905
 20
23.1058029054
 10
17.9069767018
 20
23.1100800085
 10
17.9096225007
 20
23.1141916994
 10
17.9122321122
 20
23.1181448599
 10
17.9148064352
 20
23.1219461687
 10
17.9173464792
 20
23.125602155
 10
17.9198530004
 20
23.1291186892
 10
17.9223267743
 20
23.1325014109
 10
17.9247687439
 20
23.1357559317
 10
17.9271799341
 20
23.1388877091
 10
17.9295614523
 20
23.1419020459
 10
17.9319145835
 20
23.1448042048
 10
17.9342405895
 20
23.1475991532
 10
17.9365396692
 20
23.1502903792
 10
17.9388117822
 20
23.1528809883
 10
17.9410576106
 20
23.1553747973
 10
17.9432781532
 20
23.1577757995
 10
17.9454741679
 20
23.1600875472
 10
17.9476463546
 20
23.1623133784
 10
17.9497954389
 20
23.164456513
 10
17.9519221756
 20
23.1665200587
 10
17.9540273405
 20
23.1685070051
 10
17.9561115601
 20
23.1704200714
 10
17.9581755112
 20
23.1722619074
 10
17.9602198628
 20
23.1740350408
 10
17.9622453384
 20
23.1757419344
 10
17.9642526293
 20
23.1773849142
 10
17.9662423426
 20
23.1789661356
 10
17.9682151327
 20
23.1804876974
  0
LINE
  5
33C
100
AcDbEntity
  8
0
100
AcDbLine
 62
6
  6
CONTINUOUS
 10
16.0559485252
 20
25.3639052326
 11
17.4059485252
 21
25.3639052326
  0
LINE
  5
33D
100
AcDbEntity
  8
0
100
AcDbLine
 62
6
  6
CONTINUOUS
 10
16.0559485252
 20
25.4139052326
 11
17.4059485252
 21
25.4139052326
  0
LINE
  5
33E
100
AcDbEntity
  8
0
100
AcDbLine
 62
6
  6
CONTINUOUS
 10
17.8079485252
 20
25.5028349337
 11
15.6539485252
 21
25.5028349337
  0
LINE
  5
33F
100
AcDbEntity
  8
0
100
AcDbLine
 62
6
  6
CONTINUOUS
 10
17.8234048202
 20
22.9210542867
 11
17.8265406717
 21
22.9277333093
  0
LWPOLYLINE
  5
340
100
AcDbEntity
  8
0
100
AcDbPolyline
 62
6
  6
CONTINUOUS
 90
11
 70
0
 10
17.8237810729
 20
22.9216676228
 10
17.8241206183
 20
22.9222511298
 10
17.8244469467
 20
22.9228421281
 10
17.8247598929
 20
22.9234403179
 10
17.8250592978
 20
22.9240453953
 10
17.8253450097
 20
22.9246570526
 10
17.8256168834
 20
22.9252749783
 10
17.8258747806
 20
22.9258988568
 10
17.8261185689
 20
22.9265283656
 10
17.8263481233
 20
22.9271631783
 10
17.8265406911
 20
22.9277333686
  0
LWPOLYLINE
  5
341
100
AcDbEntity
  8
0
100
AcDbPolyline
 62
6
  6
CONTINUOUS
 90
13
 70
0
 10
18.0006080386
 20
23.2047698894
 10
18.0009541385
 20
23.2053561609
 10
18.0012868454
 20
23.2059501352
 10
18.0016059882
 20
23.2065515063
 10
18.0019114024
 20
23.2071599647
 10
18.0022029307
 20
23.2077751968
 10
18.002480423
 20
23.208396886
 10
18.0027437364
 20
23.2090247119
 10
18.0029927353
 20
23.2096583513
 10
18.0032272915
 20
23.2102974781
 10
18.0034472842
 20
23.2109417629
 10
18.0036525999
 20
23.2115908737
 10
18.003843133
 20
23.212244476
  0
LINE
  5
342
100
AcDbEntity
  8
0
100
AcDbLine
 62
6
  6
CONTINUOUS
 10
17.8234048202
 20
22.9210542867
 11
17.8237810729
 21
22.9216676228
  0
LINE
  5
343
100
AcDbEntity
  8
0
100
AcDbLine
 62
6
  6
CONTINUOUS
 10
17.8232948704
 20
22.920881095
 11
17.8234284793
 21
22.9210918912
  0
LWPOLYLINE
  5
344
100
AcDbEntity
  8
0
100
AcDbPolyline
 62
6
  6
CONTINUOUS
 90
13
 70
0
 10
17.9954816876
 20
23.1984409238
 10
17.9959727252
 20
23.1989124972
 10
17.9964529354
 20
23.1993950918
 10
17.9969220708
 20
23.1998884591
 10
17.9973798898
 20
23.2003923451
 10
17.9978261568
 20
23.2009064902
 10
17.9982606417
 20
23.2014306297
 10
17.9986831209
 20
23.2019644936
 10
17.9990933769
 20
23.202507807
 10
17.9994911982
 20
23.2030602901
 10
17.9998763801
 20
23.2036216583
 10
18.0002487241
 20
23.2041916226
 10
18.0006080386
 20
23.2047698894
  0
LINE
  5
345
100
AcDbEntity
  8
0
100
AcDbLine
 62
6
  6
CONTINUOUS
 10
17.9949800486
 20
23.1979805924
 11
17.9954816589
 21
23.1984408988
  0
LWPOLYLINE
  5
346
100
AcDbEntity
  8
0
100
AcDbPolyline
 62
6
  6
CONTINUOUS
 90
3
 70
0
 10
17.993946166
 20
23.1970947308
 10
17.994468147
 20
23.1975318065
 10
17.9949800754
 20
23.1979806146
  0
LWPOLYLINE
  5
347
100
AcDbEntity
  8
0
100
AcDbPolyline
 62
6
  6
CONTINUOUS
 90
12
 70
0
 10
17.9682151327
 20
23.1804876974
 10
17.9701716231
 20
23.181951582
 10
17.9721124928
 20
23.1833597233
 10
17.9740383669
 20
23.1847139284
 10
17.9759498508
 20
23.1860159091
 10
17.9778475706
 20
23.1872673127
 10
17.9797321206
 20
23.1884696899
 10
17.981604139
 20
23.1896245459
 10
17.9834641968
 20
23.1907332731
 10
17.9853128748
 20
23.1917972041
 10
17.9871507939
 20
23.1928176287
 10
17.9894417051
 20
23.1940461786
  0
LWPOLYLINE
  5
348
100
AcDbEntity
  8
0
100
AcDbPolyline
 62
6
  6
CONTINUOUS
 90
9
 70
0
 10
17.9894417022
 20
23.1940461789
 10
17.9900340185
 20
23.1943818221
 10
17.9906185658
 20
23.1947308197
 10
17.9911950432
 20
23.195092992
 10
17.9917631536
 20
23.1954681525
 10
17.9923226047
 20
23.195856108
 10
17.9928731081
 20
23.1962566586
 10
17.9934143806
 20
23.1966695982
 10
17.9939461432
 20
23.197094714
  0
LINE
  5
349
100
AcDbEntity
  8
0
100
AcDbLine
 62
6
  6
CONTINUOUS
 10
17.8079485252
 20
25.5478349337
 11
15.6539485252
 21
25.5478349337
  0
LINE
  5
34A
100
AcDbEntity
  8
0
100
AcDbLine
 62
9
  6
CONTINUOUS
 10
17.9209485252
 20
25.6608349337
 11
15.5409485252
 21
25.6608349337
  0
LINE
  5
34B
100
AcDbEntity
  8
0
100
AcDbLine
 62
6
  6
CONTINUOUS
 10
17.9209485252
 20
25.7013152487
 11
15.5409485252
 21
25.7013152487
  0
LINE
  5
34C
100
AcDbEntity
  8
0
100
AcDbLine
 62
7
  6
CONTINUOUS
 10
19.0659278769
 20
23.8995980444
 11
19.082038401
 21
23.9186951856
  0
LINE
  5
34D
100
AcDbEntity
  8
0
100
AcDbLine
 62
7
  6
CONTINUOUS
 10
19.0565565286
 20
23.8756496765
 11
19.0565466287
 21
23.8756383959
  0
LINE
  5
34E
100
AcDbEntity
  8
0
100
AcDbLine
 62
7
  6
CONTINUOUS
 10
19.0730369675
 20
23.8694435277
 11
19.0730369675
 21
23.869428519
  0
LINE
  5
34F
100
AcDbEntity
  8
0
100
AcDbLine
 62
7
  6
CONTINUOUS
 10
19.0730369675
 20
23.2446651502
 11
19.0730369675
 21
23.2446501415
  0
LINE
  5
350
100
AcDbEntity
  8
0
100
AcDbLine
 62
7
  6
CONTINUOUS
 10
19.1306119139
 20
23.1953984835
 11
19.1306119139
 21
23.2203834748
  0
LINE
  5
351
100
AcDbEntity
  8
0
100
AcDbLine
 62
9
  6
CONTINUOUS
 10
19.1489375072
 20
23.869428519
 11
19.1489375072
 21
23.8694435277
  0
LINE
  5
352
100
AcDbEntity
  8
0
100
AcDbLine
 62
9
  6
CONTINUOUS
 10
19.148937509
 20
23.2446651502
 11
19.1489375072
 21
23.2446501415
  0
ARC
  5
353
100
AcDbEntity
  8
0
100
AcDbCircle
 62
9
  6
CONTINUOUS
 10
16.6023534276
 20
22.3143733927
 40
2.6400173401
100
AcDbArc
 50
20.0709411956
 51
20.6326644146
  0
ARC
  5
354
100
AcDbEntity
  8
0
100
AcDbCircle
 62
9
  6
CONTINUOUS
 10
16.9047324957
 20
22.3826438173
 40
2.3157594403
100
AcDbArc
 50
21.051891627
 51
21.6881719867
  0
ARC
  5
355
100
AcDbEntity
  8
0
100
AcDbCircle
 62
6
  6
CONTINUOUS
 10
16.095768811
 20
23.5570468346
 40
1.3823202857
100
AcDbArc
 50
152.3823895067
 51
207.6176104933
  0
ARC
  5
356
100
AcDbEntity
  8
0
100
AcDbCircle
 62
6
  6
CONTINUOUS
 10
16.2947443886
 20
22.8670468346
 40
0.9777958633
100
AcDbArc
 50
153.4404132909
 51
175.7940350537
  0
ARC
  5
357
100
AcDbEntity
  8
0
100
AcDbCircle
 62
6
  6
CONTINUOUS
 10
16.7309485252
 20
23.5570468346
 40
0.7480314961
100
AcDbArc
 50
113.7028610941
 51
66.2971389059
  0
ARC
  5
358
100
AcDbEntity
  8
0
100
AcDbCircle
 62
6
  6
CONTINUOUS
 10
16.7309485252
 20
23.5570468346
 40
0.73172517
100
AcDbArc
 50
68.6886997094
 51
69.3979785183
  0
ARC
  5
359
100
AcDbEntity
  8
0
100
AcDbCircle
 62
6
  6
CONTINUOUS
 10
15.0419485252
 20
22.9937364898
 40
0.2072348154
100
AcDbArc
 50
214.3962040358
 51
231.0069893618
  0
ARC
  5
35A
100
AcDbEntity
  8
0
100
AcDbCircle
 62
6
  6
CONTINUOUS
 10
15.0419485252
 20
22.9937364898
 40
0.2072348154
100
AcDbArc
 50
308.9930106382
 51
322.3139892221
  0
ARC
  5
35B
100
AcDbEntity
  8
0
100
AcDbCircle
 62
6
  6
CONTINUOUS
 10
15.0361165491
 20
22.9879647246
 40
0.199137884
100
AcDbArc
 50
239.667064787
 51
243.7206140019
  0
ARC
  5
35C
100
AcDbEntity
  8
0
100
AcDbCircle
 62
6
  6
CONTINUOUS
 10
15.0480746076
 20
22.9874186514
 40
0.1985180359
100
AcDbArc
 50
296.2730549084
 51
300.3391826976
  0
ARC
  5
35D
100
AcDbEntity
  8
0
100
AcDbCircle
 62
6
  6
CONTINUOUS
 10
15.0354227672
 20
22.990580025
 40
0.1982683344
100
AcDbArc
 50
310.1636547401
 51
313.6772609255
  0
ARC
  5
35E
100
AcDbEntity
  8
0
100
AcDbCircle
 62
6
  6
CONTINUOUS
 10
15.0435424939
 20
22.9841332557
 40
0.1960792032
100
AcDbArc
 50
227.6890717094
 51
229.8793954238
  0
ARC
  5
35F
100
AcDbEntity
  8
0
100
AcDbCircle
 62
6
  6
CONTINUOUS
 10
15.0404597077
 20
22.9840132095
 40
0.1959196459
100
AcDbArc
 50
310.1197102747
 51
312.3118202559
  0
ARC
  5
360
100
AcDbEntity
  8
0
100
AcDbCircle
 62
6
  6
CONTINUOUS
 10
15.0334957661
 20
22.9835713331
 40
0.1940209365
100
AcDbArc
 50
235.4056628475
 51
237.0360874874
  0
ARC
  5
361
100
AcDbEntity
  8
0
100
AcDbCircle
 62
6
  6
CONTINUOUS
 10
15.0505238023
 20
22.9833880443
 40
0.1938004935
100
AcDbArc
 50
302.9388149568
 51
304.5951190426
  0
ARC
  5
362
100
AcDbEntity
  8
0
100
AcDbCircle
 62
6
  6
CONTINUOUS
 10
15.0401227876
 20
23.6295177027
 40
0.1937762087
100
AcDbArc
 50
228.4322296861
 51
241.5967636952
  0
ARC
  5
363
100
AcDbEntity
  8
0
100
AcDbCircle
 62
6
  6
CONTINUOUS
 10
15.0437742627
 20
23.6295177021
 40
0.1937762083
100
AcDbArc
 50
298.4032364347
 51
311.5677704735
  0
ARC
  5
364
100
AcDbEntity
  8
0
100
AcDbCircle
 62
6
  6
CONTINUOUS
 10
15.0401227832
 20
23.484575973
 40
0.1937762008
100
AcDbArc
 50
118.4032360613
 51
131.5677706065
  0
ARC
  5
365
100
AcDbEntity
  8
0
100
AcDbCircle
 62
6
  6
CONTINUOUS
 10
15.0437742673
 20
23.4845759733
 40
0.1937762006
100
AcDbArc
 50
48.4322293361
 51
61.5967638955
  0
ARC
  5
366
100
AcDbEntity
  8
0
100
AcDbCircle
 62
6
  6
CONTINUOUS
 10
15.5257815241
 20
23.2514365984
 40
0.1181102362
100
AcDbArc
 50
90.0
 51
153.4404132933
  0
ARC
  5
367
100
AcDbEntity
  8
0
100
AcDbCircle
 62
6
  6
CONTINUOUS
 10
15.5257815241
 20
23.8626570708
 40
0.1181102362
100
AcDbArc
 50
206.5595867067
 51
270.0
  0
ARC
  5
368
100
AcDbEntity
  8
0
100
AcDbCircle
 62
6
  6
CONTINUOUS
 10
15.242400875
 20
22.94443626
 40
0.0773894254
100
AcDbArc
 50
270.0
 51
355.7940354162
  0
ARC
  5
369
100
AcDbEntity
  8
0
100
AcDbCircle
 62
6
  6
CONTINUOUS
 10
15.6539485252
 20
24.5497647583
 40
0.9530701754
100
AcDbArc
 50
65.0520502472
 51
90.0
  0
ARC
  5
36A
100
AcDbEntity
  8
0
100
AcDbCircle
 62
6
  6
CONTINUOUS
 10
15.0419485252
 20
24.1203571794
 40
0.2072348154
100
AcDbArc
 50
128.9930106382
 51
145.6037959642
  0
ARC
  5
36B
100
AcDbEntity
  8
0
100
AcDbCircle
 62
6
  6
CONTINUOUS
 10
15.0419485252
 20
24.1203571794
 40
0.2072348154
100
AcDbArc
 50
37.6860107779
 51
51.0069893619
  0
ARC
  5
36C
100
AcDbEntity
  8
0
100
AcDbCircle
 62
6
  6
CONTINUOUS
 10
15.047780463
 20
24.1261288733
 40
0.1991379651
100
AcDbArc
 50
59.667148787
 51
63.7206131655
  0
ARC
  5
36D
100
AcDbEntity
  8
0
100
AcDbCircle
 62
6
  6
CONTINUOUS
 10
15.0358225071
 20
24.1266749007
 40
0.1985181694
100
AcDbArc
 50
116.2730565844
 51
120.3392650734
  0
ARC
  5
36E
100
AcDbEntity
  8
0
100
AcDbCircle
 62
6
  6
CONTINUOUS
 10
15.0484742743
 20
24.1235136535
 40
0.1982683214
100
AcDbArc
 50
130.1636261643
 51
133.6772608977
  0
ARC
  5
36F
100
AcDbEntity
  8
0
100
AcDbCircle
 62
6
  6
CONTINUOUS
 10
15.0403545802
 20
24.1299604392
 40
0.1960791682
100
AcDbArc
 50
47.689071748
 51
49.8794177698
  0
ARC
  5
370
100
AcDbEntity
  8
0
100
AcDbCircle
 62
6
  6
CONTINUOUS
 10
15.0434373319
 20
24.1300804714
 40
0.1959196298
100
AcDbArc
 50
130.1196928208
 51
132.3118202194
  0
ARC
  5
371
100
AcDbEntity
  8
0
100
AcDbCircle
 62
6
  6
CONTINUOUS
 10
15.0503946723
 20
24.1305124941
 40
0.1940327925
100
AcDbArc
 50
55.4058721708
 51
57.0601931514
  0
ARC
  5
372
100
AcDbEntity
  8
0
100
AcDbCircle
 62
6
  6
CONTINUOUS
 10
15.0333685151
 20
24.1307125734
 40
0.1937920863
100
AcDbArc
 50
122.9629501488
 51
124.595300263
  0
ARC
  5
373
100
AcDbEntity
  8
0
100
AcDbCircle
 62
6
  6
CONTINUOUS
 10
15.242400875
 20
24.1696574091
 40
0.0773894254
100
AcDbArc
 50
4.2059645837
 51
90.0
  0
ARC
  5
374
100
AcDbEntity
  8
0
100
AcDbCircle
 62
6
  6
CONTINUOUS
 10
15.6539485252
 20
25.6608349337
 40
0.113
100
AcDbArc
 50
180.0
 51
270.0
  0
ARC
  5
375
100
AcDbEntity
  8
0
100
AcDbCircle
 62
9
  6
CONTINUOUS
 10
16.5827698807
 20
24.8069846015
 40
2.6609046715
100
AcDbArc
 50
339.3695399598
 51
339.9268538069
  0
ARC
  5
376
100
AcDbEntity
  8
0
100
AcDbCircle
 62
9
  6
CONTINUOUS
 10
16.9077530384
 20
24.7302676028
 40
2.3125158314
100
AcDbArc
 50
338.3113894627
 51
338.9485623058
  0
ARC
  5
377
100
AcDbEntity
  8
0
100
AcDbCircle
 62
6
  6
CONTINUOUS
 10
16.2947443886
 20
24.2470468346
 40
0.9777958633
100
AcDbArc
 50
184.2059649463
 51
206.5595867091
  0
ARC
  5
378
100
AcDbEntity
  8
0
100
AcDbCircle
 62
6
  6
CONTINUOUS
 10
16.0354170292
 20
24.2419752487
 40
0.3580314961
100
AcDbArc
 50
0.0
 51
76.107358882
  0
ARC
  5
379
100
AcDbEntity
  8
0
100
AcDbCircle
 62
6
  6
CONTINUOUS
 10
16.1346985252
 20
25.2889052326
 40
0.10875
100
AcDbArc
 50
136.3971810273
 51
223.6028189727
  0
ARC
  5
37A
100
AcDbEntity
  8
0
100
AcDbCircle
 62
6
  6
CONTINUOUS
 10
17.7124485252
 20
22.9241859711
 40
0.06
100
AcDbArc
 50
196.5978421359
 51
343.4021578641
  0
ARC
  5
37B
100
AcDbEntity
  8
0
100
AcDbCircle
 62
6
  6
CONTINUOUS
 10
17.974890266
 20
23.2203946515
 40
0.0300993549
100
AcDbArc
 50
297.7663840488
 51
313.2715169077
  0
ARC
  5
37C
100
AcDbEntity
  8
0
100
AcDbCircle
 62
6
  6
CONTINUOUS
 10
17.9748492435
 20
23.2203266077
 40
0.0300992849
100
AcDbArc
 50
344.4581862932
 51
359.9741366365
  0
ARC
  5
37D
100
AcDbEntity
  8
0
100
AcDbCircle
 62
6
  6
CONTINUOUS
 10
17.9749323469
 20
23.220326092
 40
0.0300205981
100
AcDbArc
 50
313.3200136075
 51
328.8594115772
  0
ARC
  5
37E
100
AcDbEntity
  8
0
100
AcDbCircle
 62
6
  6
CONTINUOUS
 10
17.9749294914
 20
23.2203212534
 40
0.0300205409
100
AcDbArc
 50
328.8819619774
 51
344.4269943613
  0
ARC
  5
37F
100
AcDbEntity
  8
0
100
AcDbCircle
 62
6
  6
CONTINUOUS
 10
17.6099485252
 20
22.9220468346
 40
0.015
100
AcDbArc
 50
180.0
 51
270.0
  0
ARC
  5
380
100
AcDbEntity
  8
0
100
AcDbCircle
 62
6
  6
CONTINUOUS
 10
17.9748902659
 20
23.8936990174
 40
0.0300993551
100
AcDbArc
 50
46.7285046778
 51
62.2336160093
  0
ARC
  5
381
100
AcDbEntity
  8
0
100
AcDbCircle
 62
6
  6
CONTINUOUS
 10
17.9748492436
 20
23.8937670613
 40
0.0300992847
100
AcDbArc
 50
0.0258635546
 51
15.5418362462
  0
ARC
  5
382
100
AcDbEntity
  8
0
100
AcDbCircle
 62
6
  6
CONTINUOUS
 10
17.9749323467
 20
23.8937675769
 40
0.0300205983
100
AcDbArc
 50
31.1406107196
 51
46.6799619713
  0
ARC
  5
383
100
AcDbEntity
  8
0
100
AcDbCircle
 62
6
  6
CONTINUOUS
 10
17.9749294912
 20
23.8937724155
 40
0.0300205412
100
AcDbArc
 50
15.5730282518
 51
31.1180127602
  0
ARC
  5
384
100
AcDbEntity
  8
0
100
AcDbCircle
 62
6
  6
CONTINUOUS
 10
19.0456312093
 20
22.5310570667
 40
1.2820037932
100
AcDbArc
 50
159.7859650167
 51
161.9757842677
  0
ARC
  5
385
100
AcDbEntity
  8
0
100
AcDbCircle
 62
7
  6
CONTINUOUS
 10
19.0820487913
 20
23.1953700532
 40
0.0250132052
100
AcDbArc
 50
90.0238001131
 51
130.1274867407
  0
ARC
  5
386
100
AcDbEntity
  8
0
100
AcDbCircle
 62
7
  6
CONTINUOUS
 10
19.0730476534
 20
23.2196367737
 40
0.0250131271
100
AcDbArc
 50
90.0244772622
 51
131.2459294624
  0
ARC
  5
387
100
AcDbEntity
  8
0
100
AcDbCircle
 62
6
  6
CONTINUOUS
 10
18.6769485252
 20
23.5570468346
 40
0.715
100
AcDbArc
 50
30.4338672969
 51
157.8005369732
  0
ARC
  5
388
100
AcDbEntity
  8
0
100
AcDbCircle
 62
6
  6
CONTINUOUS
 10
18.6769485252
 20
23.5570468346
 40
0.715
100
AcDbArc
 50
202.1994630268
 51
329.5661327031
  0
ARC
  5
389
100
AcDbEntity
  8
0
100
AcDbCircle
 62
9
  6
CONTINUOUS
 10
18.6769485252
 20
23.5570468346
 40
0.6237943722
100
AcDbArc
 50
36.871707484
 51
323.1282925228
  0
ARC
  5
38A
100
AcDbEntity
  8
0
100
AcDbCircle
 62
9
  6
CONTINUOUS
 10
18.7769485252
 20
23.5570468346
 40
0.473148351
100
AcDbArc
 50
49.8483125713
 51
310.1517001345
  0
ARC
  5
38B
100
AcDbEntity
  8
0
100
AcDbCircle
 62
9
  6
CONTINUOUS
 10
18.7769485252
 20
23.5570468346
 40
0.4488816844
100
AcDbArc
 50
310.1488955699
 51
310.7296043177
  0
ARC
  5
38C
100
AcDbEntity
  8
0
100
AcDbCircle
 62
9
  6
CONTINUOUS
 10
18.7769485252
 20
23.5570468346
 40
0.4488816844
100
AcDbArc
 50
49.2703852997
 51
49.8511024146
  0
ARC
  5
38D
100
AcDbEntity
  8
0
100
AcDbCircle
 62
9
  6
CONTINUOUS
 10
18.7769485252
 20
23.5570468346
 40
0.4481633597
100
AcDbArc
 50
49.8487410997
 51
310.1512589004
  0
ARC
  5
38E
100
AcDbEntity
  8
0
100
AcDbCircle
 62
9
  6
CONTINUOUS
 10
18.7769485252
 20
23.5570468346
 40
0.4238966931
100
AcDbArc
 50
48.7295607318
 51
311.2704392024
  0
ARC
  5
38F
100
AcDbEntity
  8
0
100
AcDbCircle
 62
6
  6
CONTINUOUS
 10
18.7769485252
 20
23.5570468346
 40
0.4238816844
100
AcDbArc
 50
48.7295932783
 51
311.2704067214
  0
ARC
  5
390
100
AcDbEntity
  8
0
100
AcDbCircle
 62
7
  6
CONTINUOUS
 10
19.0820487913
 20
23.9187236159
 40
0.0250132052
100
AcDbArc
 50
229.87251315
 51
269.9761999962
  0
ARC
  5
391
100
AcDbEntity
  8
0
100
AcDbCircle
 62
7
  6
CONTINUOUS
 10
19.0730476534
 20
23.8944568953
 40
0.0250131271
100
AcDbArc
 50
228.7540704051
 51
269.9755228703
  0
ARC
  5
392
100
AcDbEntity
  8
0
100
AcDbCircle
 62
6
  6
CONTINUOUS
 10
17.4264800213
 20
24.2419752487
 40
0.3580314961
100
AcDbArc
 50
103.8926411181
 51
180.0
  0
ARC
  5
393
100
AcDbEntity
  8
0
100
AcDbCircle
 62
6
  6
CONTINUOUS
 10
17.6099485252
 20
24.1920468346
 40
0.015
100
AcDbArc
 50
90.0
 51
180.0
  0
ARC
  5
394
100
AcDbEntity
  8
0
100
AcDbCircle
 62
6
  6
CONTINUOUS
 10
17.7124485252
 20
24.1899076981
 40
0.06
100
AcDbArc
 50
16.5978421359
 51
163.4021578641
  0
ARC
  5
395
100
AcDbEntity
  8
0
100
AcDbCircle
 62
6
  6
CONTINUOUS
 10
17.7980230105
 20
24.1770467673
 40
0.03
100
AcDbArc
 50
32.8333119421
 51
89.9999990164
  0
ARC
  5
396
100
AcDbEntity
  8
0
100
AcDbCircle
 62
6
  6
CONTINUOUS
 10
17.8079485252
 20
24.5497647583
 40
0.9530701754
100
AcDbArc
 50
90.0
 51
114.9479497528
  0
ARC
  5
397
100
AcDbEntity
  8
0
100
AcDbCircle
 62
6
  6
CONTINUOUS
 10
17.8079485252
 20
25.6608349337
 40
0.113
100
AcDbArc
 50
270.0
 51
360.0
  0
ARC
  5
398
100
AcDbEntity
  8
0
100
AcDbCircle
 62
6
  6
CONTINUOUS
 10
17.3271985252
 20
25.2889052326
 40
0.10875
100
AcDbArc
 50
316.3971810273
 51
43.6028189727
  0
ARC
  5
399
100
AcDbEntity
  8
0
100
AcDbCircle
 62
6
  6
CONTINUOUS
 10
19.0456312165
 20
24.5830366049
 40
1.2820038008
100
AcDbArc
 50
198.0242157339
 51
200.2140349124
  0
SPLINE
  5
39A
100
AcDbEntity
  8
0
100
AcDbSpline
 62
6
  6
CONTINUOUS
 70
0
 71
3
 72
55
 73
51
 74
49
 42
0.0000001
 43
0.0000001
 44
0.0000000001
 12
0.0758979093
 22
-0.1291898323
 32
0.0
 13
-0.149624416
 23
-0.007939745
 33
0.0
 40
0.0
 40
0.0
 40
0.0
 40
0.0
 40
0.0137083137
 40
0.0207592058
 40
0.027923777
 40
0.0425402221
 40
0.0574606968
 40
0.0650063022
 40
0.0725918387
 40
0.0878326832
 40
0.1030956441
 40
0.1182899639
 40
0.133323371
 40
0.1481005439
 40
0.1625227719
 40
0.1764894949
 40
0.1899022917
 40
0.202671288
 40
0.2147230223
 40
0.2260078449
 40
0.2365045919
 40
0.2462210533
 40
0.2551902805
 40
0.2634641354
 40
0.2781819799
 40
0.2909178861
 40
0.3021703401
 40
0.3123483526
 40
0.3306735741
 40
0.347626513
 40
0.364207127
 40
0.3810122858
 40
0.3984129808
 40
0.4166490554
 40
0.4358803573
 40
0.4562164665
 40
0.4777337782
 40
0.5004862121
 40
0.5245119078
 40
0.5498376814
 40
0.5764819623
 40
0.6044568381
 40
0.6337694984
 40
0.6644232607
 40
0.6964183213
 40
0.729752315
 40
0.7644207374
 40
0.8377339158
 40
0.9162896828
 40
1.0
 40
1.0
 40
1.0
 40
1.0
 10
19.2934318242
 20
23.9192254399
 30
0.0
 10
19.293778635
 20
23.918635115
 30
0.0
 10
19.294268925
 20
23.9177199442
 30
0.0
 10
19.2948528915
 20
23.9164531279
 30
0.0
 10
19.2954016804
 20
23.9151213879
 30
0.0
 10
19.2959926334
 20
23.9133837536
 30
0.0
 10
19.2964371002
 20
23.9115832353
 30
0.0
 10
19.2967009527
 20
23.9101052505
 30
0.0
 10
19.2969016179
 20
23.9086012266
 30
0.0
 10
19.2970275441
 20
23.906700301
 30
0.0
 10
19.2969755056
 20
23.9044155559
 30
0.0
 10
19.2967223244
 20
23.9021546674
 30
0.0
 10
19.2962762251
 20
23.8999486866
 30
0.0
 10
19.2956517989
 20
23.8978267312
 30
0.0
 10
19.2948695175
 20
23.8958150401
 30
0.0
 10
19.2939549074
 20
23.8939357335
 30
0.0
 10
19.2929372266
 20
23.8922056539
 30
0.0
 10
19.2918476223
 20
23.890635405
 30
0.0
 10
19.2907169072
 20
23.8892288557
 30
0.0
 10
19.2895732874
 20
23.8879833171
 30
0.0
 10
19.2884404752
 20
23.8868904427
 30
0.0
 10
19.2873365761
 20
23.8859376976
 30
0.0
 10
19.2862738082
 20
23.8851100513
 30
0.0
 10
19.284970686
 20
23.8841873544
 30
0.0
 10
19.2834542019
 20
23.8832434825
 30
0.0
 10
19.2817472873
 20
23.882333607
 30
0.0
 10
19.2801993531
 20
23.8816137339
 30
0.0
 10
19.2783629292
 20
23.8808573692
 30
0.0
 10
19.2762186999
 20
23.8801063229
 30
0.0
 10
19.2737315798
 20
23.8793805041
 30
0.0
 10
19.2712919913
 20
23.8787706774
 30
0.0
 10
19.2688136369
 20
23.8782292144
 30
0.0
 10
19.2662421282
 20
23.8777305945
 30
0.0
 10
19.2635422572
 20
23.8772603374
 30
0.0
 10
19.2606905285
 20
23.8768098382
 30
0.0
 10
19.2576709061
 20
23.8763737446
 30
0.0
 10
19.2544722353
 20
23.8759486307
 30
0.0
 10
19.2510866844
 20
23.8755322393
 30
0.0
 10
19.2475087402
 20
23.8751230571
 30
0.0
 10
19.2437345581
 20
23.8747200543
 30
0.0
 10
19.2397615224
 20
23.8743225264
 30
0.0
 10
19.2355879464
 20
23.8739299923
 30
0.0
 10
19.2312128605
 20
23.8735421272
 30
0.0
 10
19.226635861
 20
23.8731587177
 30
0.0
 10
19.2218569993
 20
23.872779633
 30
0.0
 10
19.216876701
 20
23.8724047956
 30
0.0
 10
19.2098366711
 20
23.8719012206
 30
0.0
 10
19.2005404003
 20
23.8712849541
 30
0.0
 10
19.1887957544
 20
23.8705755075
 30
0.0
 10
19.1807036897
 20
23.8701282981
 30
0.0
 10
19.176528654
 20
23.8699067519
 30
0.0
 11
19.2934318242
 21
23.9192254399
 31
0.0
 11
19.2944016726
 21
23.9174148474
 31
0.0
 11
19.2948439435
 21
23.9164554075
 31
0.0
 11
19.2952529299
 21
23.9154628658
 31
0.0
 11
19.295957969
 21
23.913389401
 31
0.0
 11
19.2964937266
 21
23.9112189384
 31
0.0
 11
19.2966924252
 21
23.9101059405
 31
0.0
 11
19.2968427192
 21
23.9089793429
 31
0.0
 11
19.2969936241
 21
23.9067007236
 31
0.0
 11
19.2969415681
 21
23.9044143915
 31
0.0
 11
19.2966882306
 21
23.9021518909
 31
0.0
 11
19.2962418091
 21
23.899944042
 31
0.0
 11
19.2956168315
 21
23.8978199413
 31
0.0
 11
19.2948337347
 21
23.8958058709
 31
0.0
 11
19.293918078
 21
23.8939241222
 31
0.0
 11
19.2928992578
 21
23.8921918054
 31
0.0
 11
19.2918086681
 21
23.8906198297
 31
0.0
 11
19.2906774255
 21
23.8892123148
 31
0.0
 11
19.2895340034
 21
23.8879666843
 31
0.0
 11
19.2884022575
 21
23.8868745368
 31
0.0
 11
19.2873002598
 21
23.8859231459
 31
0.0
 11
19.2862400906
 21
23.8850972416
 31
0.0
 11
19.2852284403
 21
23.884380687
 31
0.0
 11
19.2833570305
 21
23.8832140935
 31
0.0
 11
19.2816737099
 21
23.8823152175
 31
0.0
 11
19.2801454343
 21
23.8816031742
 31
0.0
 11
19.2787357144
 21
23.881021469
 31
0.0
 11
19.2761464653
 21
23.880107698
 31
0.0
 11
19.2737094039
 21
23.8793914194
 31
0.0
 11
19.2713001064
 21
23.8787853616
 31
0.0
 11
19.2688407515
 21
23.8782450875
 31
0.0
 11
19.2662816364
 21
23.8777465015
 31
0.0
 11
19.2635900902
 21
23.8772757642
 31
0.0
 11
19.2607441138
 21
23.8768245661
 31
0.0
 11
19.2577285341
 21
23.8763877014
 31
0.0
 11
19.2545327427
 21
23.8759618115
 31
0.0
 11
19.2511492503
 21
23.8755446725
 31
0.0
 11
19.2475727731
 21
23.8751347852
 31
0.0
 11
19.2437996185
 21
23.8747311245
 31
0.0
 11
19.239827277
 21
23.8743329862
 31
0.0
 11
19.2356541371
 21
23.873939887
 31
0.0
 11
19.231279283
 21
23.873551499
 31
0.0
 11
19.2267023502
 21
23.8731676056
 31
0.0
 11
19.2219234199
 21
23.8727880713
 31
0.0
 11
19.2169429399
 21
23.8724128204
 31
0.0
 11
19.2117616648
 21
23.8720418216
 31
0.0
 11
19.2008010201
 21
23.871312616
 31
0.0
 11
19.189052169
 21
23.8706007461
 31
0.0
 11
19.176528654
 21
23.8699067519
 31
0.0
  0
SPLINE
  5
39B
100
AcDbEntity
  8
0
100
AcDbSpline
 62
7
  6
CONTINUOUS
 70
0
 71
3
 72
15
 73
11
 74
9
 42
0.0000001
 43
0.0000001
 44
0.0000000001
 12
-0.0322388673
 22
0.0078870926
 32
0.0
 13
-0.0316971494
 23
0.0098408087
 33
0.0
 40
0.0
 40
0.0
 40
0.0
 40
0.0
 40
0.1499007687
 40
0.2933593728
 40
0.4299919253
 40
0.5594559502
 40
0.6814608028
 40
0.7957249334
 40
0.9019866444
 40
1.0
 40
1.0
 40
1.0
 40
1.0
 10
16.4995884357
 20
24.2335921359
 30
0.0
 10
16.4979775587
 20
24.2339862296
 30
0.0
 10
16.4948247987
 20
24.2347565172
 30
0.0
 10
16.4902047215
 20
24.2358900108
 30
0.0
 10
16.4858072991
 20
24.2369821069
 30
0.0
 10
16.4816452084
 20
24.238036903
 30
0.0
 10
16.4777297071
 20
24.2390570698
 30
0.0
 10
16.4740714367
 20
24.2400459159
 30
0.0
 10
16.4706804625
 20
24.2410055841
 30
0.0
 10
16.4685153221
 20
24.2416537385
 30
0.0
 10
16.4674797408
 20
24.2419752487
 30
0.0
 11
16.4995884357
 21
24.2335921359
 31
0.0
 11
16.4947557575
 21
24.2347742242
 31
0.0
 11
16.4901319295
 21
24.235910243
 31
0.0
 11
16.4857312306
 21
24.2370048207
 31
0.0
 11
16.4815664365
 21
24.2380619441
 31
0.0
 11
16.4776484596
 21
24.2390848047
 31
0.0
 11
16.4739880263
 21
24.2400764679
 31
0.0
 11
16.470595212
 21
24.2410392911
 31
0.0
 11
16.4674797408
 21
24.2419752487
 31
0.0
  0
LINE
  5
39C
100
AcDbEntity
  8
0
100
AcDbLine
 62
7
  6
CONTINUOUS
 10
16.7309485252
 20
24.2335921359
 11
16.4995884357
 21
24.2335921359
  0
LINE
  5
39D
100
AcDbEntity
  8
0
100
AcDbLine
 62
7
  6
CONTINUOUS
 10
16.9544160779
 20
24.2335921359
 11
16.7309485252
 21
24.2335921359
  0
SPLINE
  5
39E
100
AcDbEntity
  8
0
100
AcDbSpline
 62
7
  6
CONTINUOUS
 70
0
 71
3
 72
45
 73
41
 74
39
 42
0.0000001
 43
0.0000001
 44
0.0000000001
 12
0.2546619346
 22
-0.0032449278
 32
0.0
 13
0.2313022615
 23
-0.1065950014
 33
0.0
 40
0.0
 40
0.0
 40
0.0
 40
0.0
 40
0.1013398083
 40
0.2004188112
 40
0.2964701249
 40
0.3887838788
 40
0.4766694649
 40
0.5594789662
 40
0.6366045111
 40
0.6728592855
 40
0.7074852791
 40
0.7404197995
 40
0.7716056466
 40
0.8009859279
 40
0.8285055192
 40
0.8541182602
 40
0.8777808576
 40
0.8994500541
 40
0.91908593
 40
0.9366586282
 40
0.9446625803
 40
0.9521403031
 40
0.9590883427
 40
0.9655032652
 40
0.971382177
 40
0.9767235247
 40
0.9815260098
 40
0.9857884118
 40
0.9895096336
 40
0.9926887873
 40
0.9940749297
 40
0.9953254197
 40
0.9964403217
 40
0.9974198059
 40
0.9982642635
 40
0.9989745524
 40
0.9992798396
 40
0.9995522209
 40
0.9997920852
 40
1.0
 40
1.0
 40
1.0
 40
1.0
 10
16.7888121368
 20
24.2419752487
 30
0.0
 10
16.7974146007
 20
24.2418656353
 30
0.0
 10
16.814427596
 20
24.2416473785
 30
0.0
 10
16.8395940288
 20
24.2413174526
 30
0.0
 10
16.8639941388
 20
24.2409878603
 30
0.0
 10
16.8874439082
 20
24.2406586383
 30
0.0
 10
16.9097694148
 20
24.2403298071
 30
0.0
 10
16.9308053896
 20
24.2400014031
 30
0.0
 10
16.9474584413
 20
24.2397227061
 30
0.0
 10
16.9600213205
 20
24.2394985342
 30
0.0
 10
16.9688331012
 20
24.2393339685
 30
0.0
 10
16.9772144824
 20
24.2391694857
 30
0.0
 10
16.985150445
 20
24.2390051066
 30
0.0
 10
16.9926266098
 20
24.2388408424
 30
0.0
 10
16.9996295313
 20
24.238676678
 30
0.0
 10
17.0061469157
 20
24.2385126519
 30
0.0
 10
17.012167471
 20
24.2383487956
 30
0.0
 10
17.017680428
 20
24.2381851419
 30
0.0
 10
17.0226761443
 20
24.2380216794
 30
0.0
 10
17.0265118866
 20
24.2378817174
 30
0.0
 10
17.0293157439
 20
24.2377688587
 30
0.0
 10
17.0312181357
 20
24.2376869185
 30
0.0
 10
17.0329854966
 20
24.2376050325
 30
0.0
 10
17.0346169741
 20
24.2375232045
 30
0.0
 10
17.0361118703
 20
24.2374414387
 30
0.0
 10
17.0374696622
 20
24.2373597614
 30
0.0
 10
17.0386899558
 20
24.2372781957
 30
0.0
 10
17.0397723825
 20
24.2371967901
 30
0.0
 10
17.040716571
 20
24.237115576
 30
0.0
 10
17.0414165747
 20
24.2370453448
 30
0.0
 10
17.041907002
 20
24.2369882754
 30
0.0
 10
17.042222875
 20
24.2369475006
 30
0.0
 10
17.0425039156
 20
24.2369067894
 30
0.0
 10
17.0427501
 20
24.2368661663
 30
0.0
 10
17.0429614169
 20
24.2368256441
 30
0.0
 10
17.0431154188
 20
24.2367904844
 30
0.0
 10
17.0432209543
 20
24.2367618365
 30
0.0
 10
17.0432873203
 20
24.2367414717
 30
0.0
 10
17.0433449967
 20
24.2367211377
 30
0.0
 10
17.0433801474
 20
24.2367065821
 30
0.0
 10
17.0433961778
 20
24.2366991945
 30
0.0
 11
16.7888121368
 21
24.2419752487
 31
0.0
 11
16.8146194937
 21
24.2416436947
 31
0.0
 11
16.8398510174
 21
24.2413123837
 31
0.0
 11
16.8643113767
 21
24.2409813648
 31
0.0
 11
16.8878197573
 21
24.2406505937
 31
0.0
 11
16.910200247
 21
24.2403200714
 31
0.0
 11
16.9312878003
 21
24.2399897814
 31
0.0
 11
16.9509275618
 21
24.2396597124
 31
0.0
 11
16.9601595487
 21
24.2394947586
 31
0.0
 11
16.9689766451
 21
24.239329858
 31
0.0
 11
16.9773628746
 21
24.2391650108
 31
0.0
 11
16.9853036577
 21
24.2390002178
 31
0.0
 11
16.9927844907
 21
24.2388354801
 31
0.0
 11
16.999791317
 21
24.2386707985
 31
0.0
 11
17.006312359
 21
24.2385061735
 31
0.0
 11
17.0123365636
 21
24.2383416056
 31
0.0
 11
17.0178528785
 21
24.238177095
 31
0.0
 11
17.0228510899
 21
24.2380126423
 31
0.0
 11
17.0273235302
 21
24.2378482482
 31
0.0
 11
17.0293603406
 21
24.2377660735
 31
0.0
 11
17.0312630135
 21
24.2376839138
 31
0.0
 11
17.0330306507
 21
24.2376017693
 31
0.0
 11
17.0346623542
 21
24.23751964
 31
0.0
 11
17.0361573574
 21
24.2374375261
 31
0.0
 11
17.0375152262
 21
24.2373554275
 31
0.0
 11
17.0387355782
 21
24.2372733444
 31
0.0
 11
17.0398180312
 21
24.2371912766
 31
0.0
 11
17.0407622031
 21
24.2371092243
 31
0.0
 11
17.0415677115
 21
24.2370271874
 31
0.0
 11
17.0419183475
 21
24.2369861747
 31
0.0
 11
17.0422341742
 21
24.2369451659
 31
0.0
 11
17.042515144
 21
24.236904161
 31
0.0
 11
17.042761209
 21
24.23686316
 31
0.0
 11
17.042972334
 21
24.2368221628
 31
0.0
 11
17.0431485263
 21
24.2367811695
 31
0.0
 11
17.0432235277
 21
24.2367606743
 31
0.0
 11
17.0432898021
 21
24.2367401801
 31
0.0
 11
17.0433473514
 21
24.2367196868
 31
0.0
 11
17.0433961778
 21
24.2366991945
 31
0.0
  0
SPLINE
  5
39F
100
AcDbEntity
  8
0
100
AcDbSpline
 62
6
  6
CONTINUOUS
 70
0
 71
3
 72
55
 73
51
 74
49
 42
0.0000001
 43
0.0000001
 44
0.0000000001
 12
0.1496244402
 22
-0.007939745
 32
0.0
 13
-0.0758979211
 23
-0.1291898534
 33
0.0
 40
0.0
 40
0.0
 40
0.0
 40
0.0
 40
0.0837103302
 40
0.1622661089
 40
0.2355792979
 40
0.2702477251
 40
0.3035817233
 40
0.3355767879
 40
0.366230554
 40
0.3955432177
 40
0.4235180967
 40
0.4501623803
 40
0.4754881562
 40
0.499513854
 40
0.5222662897
 40
0.5437836023
 40
0.5641197135
 40
0.5833510144
 40
0.6015870909
 40
0.6189877901
 40
0.6357929433
 40
0.6523735599
 40
0.6693265
 40
0.6876517244
 40
0.6978297393
 40
0.7090821945
 40
0.7218181026
 40
0.7365359467
 40
0.744809801
 40
0.7537790223
 40
0.763495481
 40
0.7739922206
 40
0.7852770318
 40
0.7973287502
 40
0.8100977267
 40
0.823510502
 40
0.8374772031
 40
0.8518994126
 40
0.8666765745
 40
0.881709972
 40
0.8969042879
 40
0.912167248
 40
0.9274080973
 40
0.9349936383
 40
0.9425392492
 40
0.9574597357
 40
0.9720761949
 40
0.9792407744
 40
0.9862916724
 40
1.0
 40
1.0
 40
1.0
 40
1.0
 10
19.1765286298
 20
23.2441869186
 30
0.0
 10
19.1807036669
 20
23.2439653724
 30
0.0
 10
19.1887957341
 20
23.2435181629
 30
0.0
 10
19.2005403837
 20
23.2428087161
 30
0.0
 10
19.2098366573
 20
23.2421924495
 30
0.0
 10
19.2168766894
 20
23.2416888745
 30
0.0
 10
19.2218569891
 20
23.2413140369
 30
0.0
 10
19.2266358522
 20
23.2409349522
 30
0.0
 10
19.2312128531
 20
23.2405515426
 30
0.0
 10
19.2355879401
 20
23.2401636775
 30
0.0
 10
19.2397615173
 20
23.2397711433
 30
0.0
 10
19.243734554
 20
23.2393736153
 30
0.0
 10
19.2475087371
 20
23.2389706124
 30
0.0
 10
19.2510866822
 20
23.2385614302
 30
0.0
 10
19.2544722339
 20
23.2381450386
 30
0.0
 10
19.2576709054
 20
23.2377199247
 30
0.0
 10
19.2606905284
 20
23.2372838309
 30
0.0
 10
19.2635422577
 20
23.2368333318
 30
0.0
 10
19.2662421294
 20
23.2363630745
 30
0.0
 10
19.2688136384
 20
23.2358644541
 30
0.0
 10
19.2712919934
 20
23.2353229916
 30
0.0
 10
19.2737315821
 20
23.2347131644
 30
0.0
 10
19.276218703
 20
23.2339873453
 30
0.0
 10
19.2783629328
 20
23.2332362987
 30
0.0
 10
19.2801993572
 20
23.2324799333
 30
0.0
 10
19.2817472918
 20
23.23176006
 30
0.0
 10
19.2834542066
 20
23.2308501837
 30
0.0
 10
19.2849706907
 20
23.2299063112
 30
0.0
 10
19.286273813
 20
23.2289836147
 30
0.0
 10
19.2873365803
 20
23.2281559679
 30
0.0
 10
19.288440479
 20
23.2272032233
 30
0.0
 10
19.2895732903
 20
23.2261103491
 30
0.0
 10
19.2907169089
 20
23.2248648114
 30
0.0
 10
19.2918476226
 20
23.2234582636
 30
0.0
 10
19.2929372256
 20
23.2218880168
 30
0.0
 10
19.2939549051
 20
23.2201579398
 30
0.0
 10
19.2948695144
 20
23.218278636
 30
0.0
 10
19.2956517958
 20
23.2162669473
 30
0.0
 10
19.2962762222
 20
23.2141449935
 30
0.0
 10
19.2967223225
 20
23.2119390138
 30
0.0
 10
19.296975505
 20
23.2096781258
 30
0.0
 10
19.2970275441
 20
23.2073933804
 30
0.0
 10
19.2969016192
 20
23.2054924539
 30
0.0
 10
19.296700954
 20
23.203988429
 30
0.0
 10
19.2964371025
 20
23.2025104427
 30
0.0
 10
19.2959926352
 20
23.2007099226
 30
0.0
 10
19.2954016822
 20
23.1989722862
 30
0.0
 10
19.2948528929
 20
23.1976405446
 30
0.0
 10
19.2942689261
 20
23.1963737267
 30
0.0
 10
19.2937786354
 20
23.1954585549
 30
0.0
 10
19.2934318242
 20
23.1948682293
 30
0.0
 11
19.1765286298
 21
23.2441869186
 31
0.0
 11
19.1890521488
 21
23.2434929243
 31
0.0
 11
19.2008010036
 21
23.2427810542
 31
0.0
 11
19.2117616516
 21
23.2420518485
 31
0.0
 11
19.2169429283
 21
23.2416808497
 31
0.0
 11
19.2219234097
 21
23.2413055986
 31
0.0
 11
19.2267023414
 21
23.2409260643
 31
0.0
 11
19.2312792755
 21
23.2405421708
 31
0.0
 11
19.2356541309
 21
23.2401537827
 31
0.0
 11
19.2398272719
 21
23.2397606835
 31
0.0
 11
19.2437996145
 21
23.2393625451
 31
0.0
 11
19.24757277
 21
23.2389588844
 31
0.0
 11
19.251149248
 21
23.2385489969
 31
0.0
 11
19.2545327413
 21
23.2381318578
 31
0.0
 11
19.2577285334
 21
23.2377059679
 31
0.0
 11
19.2607441138
 21
23.237269103
 31
0.0
 11
19.2635900906
 21
23.236817905
 31
0.0
 11
19.2662816375
 21
23.2363471675
 31
0.0
 11
19.2688407536
 21
23.235848581
 31
0.0
 11
19.2713001081
 21
23.2353083072
 31
0.0
 11
19.2737094063
 21
23.2347022491
 31
0.0
 11
19.2761464682
 21
23.2339859703
 31
0.0
 11
19.278735718
 21
23.2330721987
 31
0.0
 11
19.2801454384
 21
23.232490493
 31
0.0
 11
19.2816737144
 21
23.2317784494
 31
0.0
 11
19.2833570352
 21
23.2308795727
 31
0.0
 11
19.2852284451
 21
23.2297129787
 31
0.0
 11
19.2862400955
 21
23.228996424
 31
0.0
 11
19.2873002639
 21
23.2281705198
 31
0.0
 11
19.2884022615
 21
23.2272191289
 31
0.0
 11
19.2895340065
 21
23.2261269818
 31
0.0
 11
19.2906774274
 21
23.2248813521
 31
0.0
 11
19.2918086686
 21
23.2234738388
 31
0.0
 11
19.2928992569
 21
23.2219018653
 31
0.0
 11
19.2939180758
 21
23.2201695512
 31
0.0
 11
19.2948337317
 21
23.2182878053
 31
0.0
 11
19.2956168283
 21
23.2162737375
 31
0.0
 11
19.2962418062
 21
23.2141496382
 31
0.0
 11
19.2966882287
 21
23.2119417906
 31
0.0
 11
19.2969415674
 21
23.2096792904
 31
0.0
 11
19.2969936243
 21
23.2073929581
 31
0.0
 11
19.2968427204
 21
23.2051143375
 31
0.0
 11
19.2966924267
 21
23.2039877391
 31
0.0
 11
19.2964937286
 21
23.2028747401
 31
0.0
 11
19.295957971
 21
23.2007042752
 31
0.0
 11
19.2952529316
 21
23.1986308079
 31
0.0
 11
19.2948439449
 21
23.1976382649
 31
0.0
 11
19.2944016737
 21
23.1966788239
 31
0.0
 11
19.2934318242
 21
23.1948682293
 31
0.0
  0
SPLINE
  5
3A0
100
AcDbEntity
  8
0
100
AcDbSpline
 62
6
  6
CONTINUOUS
 70
0
 71
3
 72
11
 73
7
 74
5
 42
0.0000001
 43
0.0000001
 44
0.0000000001
 12
-0.0336368873
 22
0.0272318209
 32
0.0
 13
-0.0388043812
 23
0.019163305
 33
0.0
 40
0.0
 40
0.0
 40
0.0
 40
0.0
 40
0.2427497758
 40
0.4902870612
 40
0.7427005246
 40
1.0
 40
1.0
 40
1.0
 40
1.0
 10
15.1723459731
 20
24.2814247873
 30
0.0
 10
15.1696241908
 20
24.2836282935
 30
0.0
 10
15.1640029213
 20
24.287927926
 30
0.0
 10
15.1551425052
 20
24.2939613368
 30
0.0
 10
15.1457807965
 20
24.2996018088
 30
0.0
 10
15.1392766409
 20
24.3030415189
 30
0.0
 10
15.1359485252
 20
24.3046850883
 30
0.0
 11
15.1723459731
 21
24.2814247873
 31
0.0
 11
15.1640019548
 21
24.2878082975
 31
0.0
 11
15.1551476371
 21
24.2938389971
 31
0.0
 11
15.1457914947
 21
24.2994778799
 31
0.0
 11
15.1359485252
 21
24.3046850883
 31
0.0
  0
SPLINE
  5
3A1
100
AcDbEntity
  8
0
100
AcDbSpline
 62
6
  6
CONTINUOUS
 70
0
 71
3
 72
11
 73
7
 74
5
 42
0.0000001
 43
0.0000001
 44
0.0000000001
 12
0.0388043812
 22
0.019163305
 32
0.0
 13
0.0336368873
 23
0.0272318209
 33
0.0
 40
0.0
 40
0.0
 40
0.0
 40
0.0
 40
0.2572995213
 40
0.5097130171
 40
0.7572502459
 40
1.0
 40
1.0
 40
1.0
 40
1.0
 10
15.1359485252
 20
22.8094085809
 30
0.0
 10
15.1392766415
 20
22.8110521506
 30
0.0
 10
15.145780798
 20
22.8144918615
 30
0.0
 10
15.155142507
 20
22.8201323334
 30
0.0
 10
15.1640029225
 20
22.8261657441
 30
0.0
 10
15.169624191
 20
22.8304653759
 30
0.0
 10
15.1723459731
 20
22.8326688818
 30
0.0
 11
15.1359485252
 21
22.8094085809
 31
0.0
 11
15.1457914964
 21
22.8146157904
 31
0.0
 11
15.15514764
 21
22.8202546739
 31
0.0
 11
15.1640019556
 21
22.8262853722
 31
0.0
 11
15.1723459731
 21
22.8326688818
 31
0.0
  0
SPLINE
  5
3A2
100
AcDbEntity
  8
0
100
AcDbSpline
 62
6
  6
CONTINUOUS
 70
0
 71
3
 72
11
 73
7
 74
5
 42
0.0000001
 43
0.0000001
 44
0.0000000001
 12
0.0385496026
 22
0.0177234074
 32
0.0
 13
0.0338826552
 23
0.0255373592
 33
0.0
 40
0.0
 40
0.0
 40
0.0
 40
0.0
 40
0.2585994767
 40
0.5114546427
 40
0.7585584809
 40
1.0
 40
1.0
 40
1.0
 40
1.0
 10
15.1359485252
 20
22.8126317646
 30
0.0
 10
15.1392714943
 20
22.8141595192
 30
0.0
 10
15.1457649703
 20
22.8173558613
 30
0.0
 10
15.1551265727
 20
22.8226058032
 30
0.0
 10
15.1639872023
 20
22.8282216938
 30
0.0
 10
15.1696190798
 20
22.8322312461
 30
0.0
 10
15.1723459731
 20
22.8342865057
 30
0.0
 11
15.1359485252
 21
22.8126317646
 31
0.0
 11
15.1457915114
 21
22.8174795516
 31
0.0
 11
15.1551476647
 21
22.8227292119
 31
0.0
 11
15.1640019613
 21
22.8283436263
 31
0.0
 11
15.1723459731
 21
22.8342865057
 31
0.0
  0
SPLINE
  5
3A3
100
AcDbEntity
  8
0
100
AcDbSpline
 62
6
  6
CONTINUOUS
 70
0
 71
3
 72
11
 73
7
 74
5
 42
0.0000001
 43
0.0000001
 44
0.0000000001
 12
0.0382832758
 22
0.0162173538
 32
0.0
 13
0.0341496335
 23
0.0237152757
 33
0.0
 40
0.0
 40
0.0
 40
0.0
 40
0.0
 40
0.2599795966
 40
0.5133078721
 40
0.7599543224
 40
1.0
 40
1.0
 40
1.0
 40
1.0
 10
15.1359485252
 20
22.8191796868
 30
0.0
 10
15.1392661488
 20
22.8205850805
 30
0.0
 10
15.1457483511
 20
22.8235243897
 30
0.0
 10
15.1551096016
 20
22.8283603538
 30
0.0
 10
15.1639702166
 20
22.8335335896
 30
0.0
 10
15.1696134825
 20
22.8372345696
 30
0.0
 10
15.1723459731
 20
22.8391321527
 30
0.0
 11
15.1359485252
 21
22.8191796868
 31
0.0
 11
15.1457915114
 21
22.8236463901
 31
0.0
 11
15.1551476647
 21
22.8284833756
 31
0.0
 11
15.1640019613
 21
22.8336564419
 31
0.0
 11
15.1723459731
 21
22.8391321527
 31
0.0
  0
SPLINE
  5
3A4
100
AcDbEntity
  8
0
100
AcDbSpline
 62
7
  6
CONTINUOUS
 70
0
 71
3
 72
13
 73
9
 74
7
 42
0.0000001
 43
0.0000001
 44
0.0000000001
 12
-0.0330383992
 22
-0.0315390119
 32
0.0
 13
-0.0394709599
 23
-0.0229845255
 33
0.0
 40
0.0
 40
0.0
 40
0.0
 40
0.0
 40
0.2460277851
 40
0.3700303222
 40
0.4946847677
 40
0.6200052629
 40
0.746010627
 40
1.0
 40
1.0
 40
1.0
 40
1.0
 10
15.1723459731
 20
22.8471841809
 30
0.0
 10
15.1696365184
 20
22.8445976898
 30
0.0
 10
15.1654509447
 20
22.8408207796
 30
0.0
 10
15.1596475833
 20
22.8360189504
 30
0.0
 10
15.1551564504
 20
22.8325175882
 30
0.0
 10
15.1505397301
 20
22.8291316791
 30
0.0
 10
15.14420263
 20
22.8247678876
 30
0.0
 10
15.13929026
 20
22.8217027925
 30
0.0
 10
15.1359485252
 20
22.8197568508
 30
0.0
 11
15.1723459731
 21
22.8471841809
 31
0.0
 11
15.1640019605
 21
22.8396570843
 31
0.0
 11
15.1596380606
 21
22.8360465726
 31
0.0
 11
15.1551476622
 21
22.8325460123
 31
0.0
 11
15.1505317843
 21
22.8291609534
 31
0.0
 11
15.14579151
 21
22.8258969303
 31
0.0
 11
15.1359485252
 21
22.8197568508
 31
0.0
  0
SPLINE
  5
3A5
100
AcDbEntity
  8
0
100
AcDbSpline
 62
6
  6
CONTINUOUS
 70
0
 71
3
 72
11
 73
7
 74
5
 42
0.0000001
 43
0.0000001
 44
0.0000000001
 12
0.0380099148
 22
0.0146559119
 32
0.0
 13
0.0344350263
 23
0.0217664499
 33
0.0
 40
0.0
 40
0.0
 40
0.0
 40
0.0
 40
0.2614197201
 40
0.5152464208
 40
0.7614182222
 40
1.0
 40
1.0
 40
1.0
 40
1.0
 10
15.1359485252
 20
22.8290231027
 30
0.0
 10
15.1392607057
 20
22.8303002175
 30
0.0
 10
15.1457312322
 20
22.8329701991
 30
0.0
 10
15.1550918612
 20
22.8373706477
 30
0.0
 10
15.1639521804
 20
22.8420781264
 30
0.0
 10
15.1696074498
 20
22.8454531548
 30
0.0
 10
15.1723459731
 20
22.8471841809
 30
0.0
 11
15.1359485252
 21
22.8290231027
 31
0.0
 11
15.1457915114
 21
22.8330887731
 31
0.0
 11
15.1551476647
 21
22.8374914806
 31
0.0
 11
15.1640019613
 21
22.8422000947
 31
0.0
 11
15.1723459731
 21
22.8471841809
 31
0.0
  0
SPLINE
  5
3A6
100
AcDbEntity
  8
0
100
AcDbSpline
 62
6
  6
CONTINUOUS
 70
0
 71
3
 72
11
 73
7
 74
5
 42
0.0000001
 43
0.0000001
 44
0.0000000001
 12
0.0377351347
 22
0.0130497868
 32
0.0
 13
0.0347342498
 23
0.0196918567
 33
0.0
 40
0.0
 40
0.0
 40
0.0
 40
0.0
 40
0.2628919186
 40
0.5172331517
 40
0.762922572
 40
1.0
 40
1.0
 40
1.0
 40
1.0
 10
15.1359485252
 20
22.8421180494
 30
0.0
 10
15.1392552792
 20
22.8432616105
 30
0.0
 10
15.1457139665
 20
22.8456513758
 30
0.0
 10
15.1550736966
 20
22.8495967924
 30
0.0
 10
15.1639334091
 20
22.8538175701
 30
0.0
 10
15.1696010709
 20
22.8568504632
 30
0.0
 10
15.1723459731
 20
22.8584066281
 30
0.0
 11
15.1359485252
 21
22.8421180494
 31
0.0
 11
15.1457915114
 21
22.8457645284
 31
0.0
 11
15.1551476647
 21
22.8497132944
 31
0.0
 11
15.1640019613
 21
22.8539364264
 31
0.0
 11
15.1723459731
 21
22.8584066281
 31
0.0
  0
SPLINE
  5
3A7
100
AcDbEntity
  8
0
100
AcDbSpline
 62
6
  6
CONTINUOUS
 70
0
 71
3
 72
11
 73
7
 74
5
 42
0.0000001
 43
0.0000001
 44
0.0000000001
 12
0.0374656513
 22
0.0114092635
 32
0.0
 13
0.0350405279
 23
0.0174930766
 33
0.0
 40
0.0
 40
0.0
 40
0.0
 40
0.0
 40
0.264360251
 40
0.5192197032
 40
0.764430939
 40
1.0
 40
1.0
 40
1.0
 40
1.0
 10
15.1359485252
 20
22.8584060415
 30
0.0
 10
15.1392500016
 20
22.8594114268
 30
0.0
 10
15.1456969814
 20
22.8615115134
 30
0.0
 10
15.1550555547
 20
22.8649844996
 30
0.0
 10
15.1639143475
 20
22.8686999022
 30
0.0
 10
15.169594485
 20
22.8713757628
 30
0.0
 10
15.1723459731
 20
22.872749372
 30
0.0
 11
15.1359485252
 21
22.8584060415
 31
0.0
 11
15.1457915114
 21
22.8616170433
 31
0.0
 11
15.1551476647
 21
22.8650942315
 31
0.0
 11
15.1640019613
 21
22.86881302
 31
0.0
 11
15.1723459731
 21
22.872749372
 31
0.0
  0
SPLINE
  5
3A8
100
AcDbEntity
  8
0
100
AcDbSpline
 62
7
  6
CONTINUOUS
 70
0
 71
3
 72
13
 73
9
 74
7
 42
0.0000001
 43
0.0000001
 44
0.0000000001
 12
-0.0326374964
 22
-0.0346412364
 32
0.0
 13
-0.0399516851
 23
-0.0258666637
 33
0.0
 40
0.0
 40
0.0
 40
0.0
 40
0.0
 40
0.2483050712
 40
0.3728887299
 40
0.4977440389
 40
0.6228809841
 40
0.7483156619
 40
1.0
 40
1.0
 40
1.0
 40
1.0
 10
15.1723459731
 20
22.8901483545
 30
0.0
 10
15.1696446211
 20
22.8872811562
 30
0.0
 10
15.1654661468
 20
22.8830874741
 30
0.0
 10
15.1596543707
 20
22.8777403197
 30
0.0
 10
15.155163457
 20
22.8738471486
 30
0.0
 10
15.1505469171
 20
22.8700823033
 30
0.0
 10
15.1442197457
 20
22.8652375297
 30
0.0
 10
15.1393002631
 20
22.8618232671
 30
0.0
 10
15.1359485252
 20
22.859653189
 30
0.0
 11
15.1723459731
 21
22.8901483545
 31
0.0
 11
15.1640019605
 21
22.8817793278
 31
0.0
 11
15.1596380606
 21
22.8777649688
 31
0.0
 11
15.1551476622
 21
22.8738728595
 31
0.0
 11
15.1505317843
 21
22.8701091708
 31
0.0
 11
15.14579151
 21
22.8664800562
 31
0.0
 11
15.1359485252
 21
22.859653189
 31
0.0
  0
SPLINE
  5
3A9
100
AcDbEntity
  8
0
100
AcDbSpline
 62
7
  6
CONTINUOUS
 70
0
 71
3
 72
11
 73
7
 74
5
 42
0.0000001
 43
0.0000001
 44
0.0000000001
 12
0.0372091636
 22
0.0097438127
 32
0.0
 13
0.035344613
 23
0.0151730707
 33
0.0
 40
0.0
 40
0.0
 40
0.0
 40
0.0
 40
0.2657808372
 40
0.521146442
 40
0.7658978958
 40
1.0
 40
1.0
 40
1.0
 40
1.0
 10
15.1359485252
 20
22.8778143331
 30
0.0
 10
15.1392450195
 20
22.8786775726
 30
0.0
 10
15.1456807714
 20
22.880479939
 30
0.0
 10
15.1550379829
 20
22.8834652915
 30
0.0
 10
15.1638955794
 20
22.8866590078
 30
0.0
 10
15.1695878903
 20
22.8889643385
 30
0.0
 10
15.1723459731
 20
22.8901483545
 30
0.0
 11
15.1359485252
 21
22.8778143331
 31
0.0
 11
15.1457915114
 21
22.8805755163
 31
0.0
 11
15.1551476647
 21
22.883565597
 31
0.0
 11
15.1640019613
 21
22.8867634328
 31
0.0
 11
15.1723459731
 21
22.8901483545
 31
0.0
  0
SPLINE
  5
3AA
100
AcDbEntity
  8
0
100
AcDbSpline
 62
7
  6
CONTINUOUS
 70
0
 71
3
 72
13
 73
9
 74
7
 42
0.0000001
 43
0.0000001
 44
0.0000000001
 12
-0.0325444002
 22
-0.035398445
 32
0.0
 13
-0.0400679011
 23
-0.0265847924
 33
0.0
 40
0.0
 40
0.0
 40
0.0
 40
0.0
 40
0.2488433315
 40
0.3735651565
 40
0.4984688863
 40
0.6235631807
 40
0.7488631418
 40
1.0
 40
1.0
 40
1.0
 40
1.0
 10
15.1723459731
 20
22.9105258675
 30
0.0
 10
15.1696464874
 20
22.9075896451
 30
0.0
 10
15.1654696924
 20
22.9032934225
 30
0.0
 10
15.1596559662
 20
22.897811801
 30
0.0
 10
15.1551651166
 20
22.8938221204
 30
0.0
 10
15.1505486327
 20
22.889963935
 30
0.0
 10
15.1442238632
 20
22.8850008674
 30
0.0
 10
15.1393027008
 20
22.8815004534
 30
0.0
 10
15.1359485252
 20
22.8792749796
 30
0.0
 11
15.1723459731
 21
22.9105258675
 31
0.0
 11
15.1640019605
 21
22.901949442
 31
0.0
 11
15.1596380606
 21
22.8978356003
 31
0.0
 11
15.1551476622
 21
22.8938470378
 31
0.0
 11
15.1505317843
 21
22.8899900786
 31
0.0
 11
15.14579151
 21
22.8862710283
 31
0.0
 11
15.1359485252
 21
22.8792749796
 31
0.0
  0
SPLINE
  5
3AB
100
AcDbEntity
  8
0
100
AcDbSpline
 62
6
  6
CONTINUOUS
 70
0
 71
3
 72
11
 73
7
 74
5
 42
0.0000001
 43
0.0000001
 44
0.0000000001
 12
0.0369740876
 22
0.0080616956
 32
0.0
 13
0.0356347809
 23
0.0127372085
 33
0.0
 40
0.0
 40
0.0
 40
0.0
 40
0.0
 40
0.2671030211
 40
0.5229439431
 40
0.7672700438
 40
1.0
 40
1.0
 40
1.0
 40
1.0
 10
15.1359485252
 20
22.9002562419
 30
0.0
 10
15.1392404887
 20
22.9009740096
 30
0.0
 10
15.1456658803
 20
22.9024720016
 30
0.0
 10
15.1550216143
 20
22.9049567677
 30
0.0
 10
15.1638778202
 20
22.9076149153
 30
0.0
 10
15.1695815461
 20
22.9095377575
 30
0.0
 10
15.1723459731
 20
22.9105258675
 30
0.0
 11
15.1359485252
 21
22.9002562419
 31
0.0
 11
15.1457915114
 21
22.9025552745
 31
0.0
 11
15.1551476647
 21
22.9050448931
 31
0.0
 11
15.1640019613
 21
22.9077074941
 31
0.0
 11
15.1723459731
 21
22.9105258675
 31
0.0
  0
SPLINE
  5
3AC
100
AcDbEntity
  8
0
100
AcDbSpline
 62
6
  6
CONTINUOUS
 70
0
 71
3
 72
11
 73
7
 74
5
 42
0.0000001
 43
0.0000001
 44
0.0000000001
 12
0.0367691233
 22
0.0063696249
 32
0.0
 13
0.0358972702
 23
0.0101944369
 33
0.0
 40
0.0
 40
0.0
 40
0.0
 40
0.0
 40
0.2682719187
 40
0.5245364426
 40
0.7684886201
 40
1.0
 40
1.0
 40
1.0
 40
1.0
 10
15.1359485252
 20
22.9256315369
 30
0.0
 10
15.1392365663
 20
22.926201134
 30
0.0
 10
15.1456528724
 20
22.927389428
 30
0.0
 10
15.1550071346
 20
22.9293629342
 30
0.0
 10
15.1638618842
 20
22.931474095
 30
0.0
 10
15.1695757642
 20
22.9330041907
 30
0.0
 10
15.1723459731
 20
22.9337909001
 30
0.0
 11
15.1359485252
 21
22.9256315369
 31
0.0
 11
15.1457915114
 21
22.9274581509
 31
0.0
 11
15.1551476647
 21
22.9294361882
 31
0.0
 11
15.1640019613
 21
22.9315516624
 31
0.0
 11
15.1723459731
 21
22.9337909001
 31
0.0
  0
SPLINE
  5
3AD
100
AcDbEntity
  8
0
100
AcDbSpline
 62
6
  6
CONTINUOUS
 70
0
 71
3
 72
11
 73
7
 74
5
 42
0.0000001
 43
0.0000001
 44
0.0000000001
 12
0.0366026661
 22
0.0046725464
 32
0.0
 13
0.0361172965
 23
0.0075583564
 33
0.0
 40
0.0
 40
0.0
 40
0.0
 40
0.0
 40
0.2692324272
 40
0.5258474141
 40
0.7694938458
 40
1.0
 40
1.0
 40
1.0
 40
1.0
 10
15.1359485252
 20
22.9538268859
 30
0.0
 10
15.1392334001
 20
22.9542462195
 30
0.0
 10
15.1456422932
 20
22.9551207467
 30
0.0
 10
15.1549952318
 20
22.9565746037
 30
0.0
 10
15.1638486225
 20
22.9581298254
 30
0.0
 10
15.1695708867
 20
22.9592587957
 30
0.0
 10
15.1723459731
 20
22.9598395449
 30
0.0
 11
15.1359485252
 21
22.9538268859
 31
0.0
 11
15.1457915114
 21
22.9551729232
 31
0.0
 11
15.1551476647
 21
22.9566305448
 31
0.0
 11
15.1640019613
 21
22.958189444
 31
0.0
 11
15.1723459731
 21
22.9598395449
 31
0.0
  0
SPLINE
  5
3AE
100
AcDbEntity
  8
0
100
AcDbSpline
 62
7
  6
CONTINUOUS
 70
0
 71
3
 72
13
 73
9
 74
7
 42
0.0000001
 43
0.0000001
 44
0.0000000001
 12
-0.032375629
 22
-0.0368142602
 32
0.0
 13
-0.0402832363
 23
-0.0279415815
 33
0.0
 40
0.0
 40
0.0
 40
0.0
 40
0.0
 40
0.249828392
 40
0.3748038735
 40
0.4997971549
 40
0.6248141292
 40
0.7498677269
 40
1.0
 40
1.0
 40
1.0
 40
1.0
 10
15.1723459731
 20
22.9885554626
 30
0.0
 10
15.169649856
 20
22.9854897134
 30
0.0
 10
15.1654761344
 20
22.9810010244
 30
0.0
 10
15.1596588773
 20
22.9752667356
 30
0.0
 10
15.1551681572
 20
22.9710958061
 30
0.0
 10
15.150551789
 20
22.9670623228
 30
0.0
 10
15.1442314709
 20
22.9618772698
 30
0.0
 10
15.1393072377
 20
22.9582149208
 30
0.0
 10
15.1359485252
 20
22.9558852237
 30
0.0
 11
15.1723459731
 21
22.9885554626
 31
0.0
 11
15.1640019605
 21
22.9795895135
 31
0.0
 11
15.1596380606
 21
22.9752888296
 31
0.0
 11
15.1551476622
 21
22.9711191148
 31
0.0
 11
15.1505317843
 21
22.9670869804
 31
0.0
 11
15.14579151
 21
22.9631990185
 31
0.0
 11
15.1359485252
 21
22.9558852237
 31
0.0
  0
SPLINE
  5
3AF
100
AcDbEntity
  8
0
100
AcDbSpline
 62
6
  6
CONTINUOUS
 70
0
 71
3
 72
11
 73
7
 74
5
 42
0.0000001
 43
0.0000001
 44
0.0000000001
 12
0.0364821145
 22
0.002973609
 32
0.0
 13
0.0362806461
 23
0.0048478603
 33
0.0
 40
0.0
 40
0.0
 40
0.0
 40
0.0
 40
0.2699344132
 40
0.5268068927
 40
0.7702307486
 40
1.0
 40
1.0
 40
1.0
 40
1.0
 10
15.1359485252
 20
22.9847163616
 30
0.0
 10
15.139231118
 20
22.9849839214
 30
0.0
 10
15.1456346238
 20
22.9855417856
 30
0.0
 10
15.1549865308
 20
22.9864698732
 30
0.0
 10
15.1638388346
 20
22.9874626433
 30
0.0
 10
15.1695672475
 20
22.9881841661
 30
0.0
 10
15.1723459731
 20
22.9885554626
 30
0.0
 11
15.1359485252
 21
22.9847163616
 31
0.0
 11
15.1457915114
 21
22.9855758105
 31
0.0
 11
15.1551476647
 21
22.9865065063
 31
0.0
 11
15.1640019613
 21
22.9875018682
 31
0.0
 11
15.1723459731
 21
22.9885554626
 31
0.0
  0
SPLINE
  5
3B0
100
AcDbEntity
  8
0
100
AcDbSpline
 62
7
  6
CONTINUOUS
 70
0
 71
3
 72
13
 73
9
 74
7
 42
0.0000001
 43
0.0000001
 44
0.0000000001
 12
-0.0323543897
 22
-0.0369967121
 32
0.0
 13
-0.0403107705
 23
-0.0281176994
 33
0.0
 40
0.0
 40
0.0
 40
0.0
 40
0.0
 40
0.2499532129
 40
0.37496091
 40
0.4999656254
 40
0.6249728704
 40
0.7499952673
 40
1.0
 40
1.0
 40
1.0
 40
1.0
 10
15.1723459731
 20
23.0198104006
 30
0.0
 10
15.1696502785
 20
23.0167279183
 30
0.0
 10
15.1654769464
 20
23.0122143615
 30
0.0
 10
15.1596592454
 20
23.0064474021
 30
0.0
 10
15.1551685428
 20
23.0022530451
 30
0.0
 10
15.1505521905
 20
22.9981969034
 30
0.0
 10
15.1442324417
 20
22.9929831734
 30
0.0
 10
15.1393078197
 20
22.9892998808
 30
0.0
 10
15.1359485252
 20
22.9869566948
 30
0.0
 11
15.1723459731
 21
23.0198104006
 31
0.0
 11
15.1640019605
 21
23.0107941013
 31
0.0
 11
15.1596380606
 21
23.0064692659
 31
0.0
 11
15.1551476622
 21
23.0022761352
 31
0.0
 11
15.1505317843
 21
22.9982213574
 31
0.0
 11
15.14579151
 21
22.9943115618
 31
0.0
 11
15.1359485252
 21
22.9869566948
 31
0.0
  0
SPLINE
  5
3B1
100
AcDbEntity
  8
0
100
AcDbSpline
 62
6
  6
CONTINUOUS
 70
0
 71
3
 72
11
 73
7
 74
5
 42
0.0000001
 43
0.0000001
 44
0.0000000001
 12
0.0364131627
 22
0.0012743667
 32
0.0
 13
0.0363756368
 23
0.0020869778
 33
0.0
 40
0.0
 40
0.0
 40
0.0
 40
0.0
 40
0.2703383574
 40
0.5273595255
 40
0.7706556443
 40
1.0
 40
1.0
 40
1.0
 40
1.0
 10
15.1359485252
 20
23.0181620042
 30
0.0
 10
15.1392298168
 20
23.0182768409
 30
0.0
 10
15.1456302344
 20
23.0185162424
 30
0.0
 10
15.1549815235
 20
23.0189146843
 30
0.0
 10
15.1638331656
 20
23.0193408884
 30
0.0
 10
15.1695651241
 20
23.0196508551
 30
0.0
 10
15.1723459731
 20
23.0198104006
 30
0.0
 11
15.1359485252
 21
23.0181620042
 31
0.0
 11
15.1457915114
 21
23.0185310261
 31
0.0
 11
15.1551476647
 21
23.0189306394
 31
0.0
 11
15.1640019613
 21
23.0193580183
 31
0.0
 11
15.1723459731
 21
23.0198104006
 31
0.0
  0
LINE
  5
3B2
100
AcDbEntity
  8
0
100
AcDbLine
 62
7
  6
CONTINUOUS
 10
15.1359485252
 20
23.0540144372
 11
15.1723459731
 21
23.0534647671
  0
SPLINE
  5
3B3
100
AcDbEntity
  8
0
100
AcDbSpline
 62
7
  6
CONTINUOUS
 70
0
 71
3
 72
11
 73
7
 74
5
 42
0.0000001
 43
0.0000001
 44
0.0000000001
 12
0.0364409171
 22
-0.0021239806
 32
0.0
 13
0.0363372628
 23
-0.0034720398
 33
0.0
 40
0.0
 40
0.0
 40
0.0
 40
0.0
 40
0.2701755488
 40
0.5271367428
 40
0.7704843156
 40
1.0
 40
1.0
 40
1.0
 40
1.0
 10
15.1359485252
 20
23.092113535
 30
0.0
 10
15.1392303402
 20
23.0919222525
 30
0.0
 10
15.1456320015
 20
23.0915234606
 30
0.0
 10
15.1549835417
 20
23.0908598505
 30
0.0
 10
15.1638354537
 20
23.0901499974
 30
0.0
 10
15.1695659825
 20
23.0896338824
 30
0.0
 10
15.1723459731
 20
23.0893682532
 30
0.0
 11
15.1359485252
 21
23.092113535
 31
0.0
 11
15.1457915114
 21
23.0914989564
 31
0.0
 11
15.1551476647
 21
23.0908334302
 31
0.0
 11
15.1640019613
 21
23.0901216623
 31
0.0
 11
15.1723459731
 21
23.0893682532
 31
0.0
  0
SPLINE
  5
3B4
100
AcDbEntity
  8
0
100
AcDbSpline
 62
7
  6
CONTINUOUS
 70
0
 71
3
 72
11
 73
7
 74
5
 42
0.0000001
 43
0.0000001
 44
0.0000000001
 12
0.0368673019
 22
-0.0072165526
 32
0.0
 13
0.0357704015
 23
-0.011478456
 33
0.0
 40
0.0
 40
0.0
 40
0.0
 40
0.0
 40
0.2677101258
 40
0.5237706621
 40
0.7679023032
 40
1.0
 40
1.0
 40
1.0
 40
1.0
 10
15.1359485252
 20
23.2181436496
 30
0.0
 10
15.1392384419
 20
23.2174996682
 30
0.0
 10
15.1456591059
 20
23.2161559401
 30
0.0
 10
15.1550140946
 20
23.2139256127
 30
0.0
 10
15.163869571
 20
23.2115396857
 30
0.0
 10
15.1695785638
 20
23.2098120477
 30
0.0
 10
15.1723459731
 20
23.2089240066
 30
0.0
 11
15.1359485252
 21
23.2181436496
 31
0.0
 11
15.1457915114
 21
23.2160796736
 31
0.0
 11
15.1551476647
 21
23.2138445976
 31
0.0
 11
15.1640019613
 21
23.2114542251
 31
0.0
 11
15.1723459731
 21
23.2089240066
 31
0.0
  0
SPLINE
  5
3B5
100
AcDbEntity
  8
0
100
AcDbSpline
 62
7
  6
CONTINUOUS
 70
0
 71
3
 72
13
 73
9
 74
7
 42
0.0000001
 43
0.0000001
 44
0.0000000001
 12
-0.0325885423
 22
-0.0350374337
 32
0.0
 13
-0.0400125732
 23
-0.0262417385
 33
0.0
 40
0.0
 40
0.0
 40
0.0
 40
0.0
 40
0.2485876622
 40
0.3732438207
 40
0.4981245059
 40
0.6232390239
 40
0.7486029659
 40
1.0
 40
1.0
 40
1.0
 40
1.0
 10
15.1723459731
 20
23.2521309731
 30
0.0
 10
15.1696456032
 20
23.2492276819
 30
0.0
 10
15.1654680105
 20
23.2449803831
 30
0.0
 10
15.1596552088
 20
23.2395629317
 30
0.0
 10
15.1551643281
 20
23.2356193025
 30
0.0
 10
15.150547817
 20
23.2318056562
 30
0.0
 10
15.1442219039
 20
23.2268990265
 30
0.0
 10
15.1393015393
 20
23.223439728
 30
0.0
 10
15.1359485252
 20
23.2212406962
 30
0.0
 11
15.1723459731
 21
23.2521309731
 31
0.0
 11
15.1640019605
 21
23.243653513
 31
0.0
 11
15.1596380606
 21
23.2395871418
 31
0.0
 11
15.1551476622
 21
23.2356446042
 31
0.0
 11
15.1505317843
 21
23.2318321513
 31
0.0
 11
15.14579151
 21
23.2281560159
 31
0.0
 11
15.1359485252
 21
23.2212406962
 31
0.0
  0
SPLINE
  5
3B6
100
AcDbEntity
  8
0
100
AcDbSpline
 62
7
  6
CONTINUOUS
 70
0
 71
3
 72
11
 73
7
 74
5
 42
0.0000001
 43
0.0000001
 44
0.0000000001
 12
0.0370884058
 22
-0.0089043783
 32
0.0
 13
0.0354922578
 23
-0.0139691601
 33
0.0
 40
0.0
 40
0.0
 40
0.0
 40
0.0
 40
0.2664576006
 40
0.5220659892
 40
0.7665994104
 40
1.0
 40
1.0
 40
1.0
 40
1.0
 10
15.1359485252
 20
23.2634391115
 30
0.0
 10
15.1392426878
 20
23.2626482318
 30
0.0
 10
15.1456731258
 20
23.2609973055
 30
0.0
 10
15.1550296061
 20
23.2582607692
 30
0.0
 10
15.1638865245
 20
23.2553332556
 30
0.0
 10
15.1695846685
 20
23.2532177765
 30
0.0
 10
15.1723459731
 20
23.2521309731
 30
0.0
 11
15.1359485252
 21
23.2634391115
 31
0.0
 11
15.1457915114
 21
23.2609075898
 31
0.0
 11
15.1551476647
 21
23.2581662094
 31
0.0
 11
15.1640019613
 21
23.2552343537
 31
0.0
 11
15.1723459731
 21
23.2521309731
 31
0.0
  0
SPLINE
  5
3B7
100
AcDbEntity
  8
0
100
AcDbSpline
 62
7
  6
CONTINUOUS
 70
0
 71
3
 72
10
 73
6
 74
4
 42
0.0000001
 43
0.0000001
 44
0.0000000001
 12
0.0378669619
 22
-0.0138558216
 32
0.0
 13
0.0345783957
 23
-0.0207418693
 33
0.0
 40
0.0
 40
0.0
 40
0.0
 40
0.0
 40
0.2621908727
 40
0.5163093924
 40
1.0
 40
1.0
 40
1.0
 40
1.0
 10
15.1359485252
 20
23.4063558815
 30
0.0
 10
15.1392579825
 20
23.4051449249
 30
0.0
 10
15.1457229174
 20
23.4026136146
 30
0.0
 10
15.158000383
 20
23.3971372089
 30
0.0
 10
15.1667708913
 20
23.3924656445
 30
0.0
 10
15.1723459731
 20
23.3891214287
 30
0.0
 11
15.1359485252
 21
23.4063558815
 31
0.0
 11
15.1457915114
 21
23.4024976522
 31
0.0
 11
15.1551476647
 21
23.3983195823
 31
0.0
 11
15.1723459731
 21
23.3891214287
 31
0.0
  0
SPLINE
  5
3B8
100
AcDbEntity
  8
0
100
AcDbSpline
 62
7
  6
CONTINUOUS
 70
0
 71
3
 72
10
 73
6
 74
4
 42
0.0000001
 43
0.0000001
 44
0.0000000001
 12
0.0345783957
 22
0.0207418693
 32
0.0
 13
0.0378669619
 23
0.0138558216
 33
0.0
 40
0.0
 40
0.0
 40
0.0
 40
0.0
 40
0.4836906023
 40
0.7378091256
 40
1.0
 40
1.0
 40
1.0
 40
1.0
 10
14.9115510774
 20
23.3891214287
 30
0.0
 10
14.9171261591
 20
23.3924656445
 30
0.0
 10
14.9258966674
 20
23.3971372088
 30
0.0
 10
14.938174133
 20
23.4026136145
 30
0.0
 10
14.944639068
 20
23.4051449249
 30
0.0
 10
14.9479485252
 20
23.4063558815
 30
0.0
 11
14.9115510774
 21
23.3891214287
 31
0.0
 11
14.9287493856
 21
23.3983195822
 31
0.0
 11
14.938105539
 21
23.4024976522
 31
0.0
 11
14.9479485252
 21
23.4063558815
 31
0.0
  0
SPLINE
  5
3B9
100
AcDbEntity
  8
0
100
AcDbSpline
 62
7
  6
CONTINUOUS
 70
0
 71
3
 72
11
 73
7
 74
5
 42
0.0000001
 43
0.0000001
 44
0.0000000001
 12
0.0354922578
 22
0.0139691601
 32
0.0
 13
0.0370884058
 23
0.0089043783
 33
0.0
 40
0.0
 40
0.0
 40
0.0
 40
0.0
 40
0.2334005866
 40
0.4779340056
 40
0.7335423976
 40
1.0
 40
1.0
 40
1.0
 40
1.0
 10
14.9115510774
 20
23.2521309731
 30
0.0
 10
14.914312382
 20
23.2532177765
 30
0.0
 10
14.9200105259
 20
23.2553332556
 30
0.0
 10
14.9288674443
 20
23.2582607692
 30
0.0
 10
14.9382239246
 20
23.2609973055
 30
0.0
 10
14.9446543627
 20
23.2626482318
 30
0.0
 10
14.9479485252
 20
23.2634391115
 30
0.0
 11
14.9115510774
 21
23.2521309731
 31
0.0
 11
14.9198950891
 21
23.2552343537
 31
0.0
 11
14.9287493856
 21
23.2581662093
 31
0.0
 11
14.938105539
 21
23.2609075898
 31
0.0
 11
14.9479485252
 21
23.2634391115
 31
0.0
  0
SPLINE
  5
3BA
100
AcDbEntity
  8
0
100
AcDbSpline
 62
7
  6
CONTINUOUS
 70
0
 71
3
 72
13
 73
9
 74
7
 42
0.0000001
 43
0.0000001
 44
0.0000000001
 12
-0.0400125732
 22
0.0262417385
 32
0.0
 13
-0.0325885423
 23
0.0350374337
 33
0.0
 40
0.0
 40
0.0
 40
0.0
 40
0.0
 40
0.2513970356
 40
0.3767609798
 40
0.5018754994
 40
0.6267561846
 40
0.7514123412
 40
1.0
 40
1.0
 40
1.0
 40
1.0
 10
14.9479485252
 20
23.2212406962
 30
0.0
 10
14.9445955112
 20
23.223439728
 30
0.0
 10
14.9396751465
 20
23.2268990266
 30
0.0
 10
14.9333492334
 20
23.2318056563
 30
0.0
 10
14.9287327222
 20
23.2356193026
 30
0.0
 10
14.9242418416
 20
23.2395629318
 30
0.0
 10
14.9184290399
 20
23.2449803832
 30
0.0
 10
14.9142514472
 20
23.2492276819
 30
0.0
 10
14.9115510774
 20
23.2521309731
 30
0.0
 11
14.9479485252
 21
23.2212406962
 31
0.0
 11
14.9381055404
 21
23.228156016
 31
0.0
 11
14.933365266
 21
23.2318321514
 31
0.0
 11
14.9287493881
 21
23.2356446044
 31
0.0
 11
14.9242589897
 21
23.239587142
 31
0.0
 11
14.9198950899
 21
23.2436535131
 31
0.0
 11
14.9115510774
 21
23.2521309731
 31
0.0
  0
SPLINE
  5
3BB
100
AcDbEntity
  8
0
100
AcDbSpline
 62
7
  6
CONTINUOUS
 70
0
 71
3
 72
11
 73
7
 74
5
 42
0.0000001
 43
0.0000001
 44
0.0000000001
 12
0.0357704015
 22
0.011478456
 32
0.0
 13
0.0368673019
 23
0.0072165526
 33
0.0
 40
0.0
 40
0.0
 40
0.0
 40
0.0
 40
0.2320976938
 40
0.4762293326
 40
0.7322898724
 40
1.0
 40
1.0
 40
1.0
 40
1.0
 10
14.9115510774
 20
23.2089240066
 30
0.0
 10
14.9143184866
 20
23.2098120477
 30
0.0
 10
14.9200274794
 20
23.2115396857
 30
0.0
 10
14.9288829557
 20
23.2139256127
 30
0.0
 10
14.9382379445
 20
23.2161559401
 30
0.0
 10
14.9446586086
 20
23.2174996682
 30
0.0
 10
14.9479485252
 20
23.2181436496
 30
0.0
 11
14.9115510774
 21
23.2089240066
 31
0.0
 11
14.9198950891
 21
23.2114542251
 31
0.0
 11
14.9287493856
 21
23.2138445975
 31
0.0
 11
14.938105539
 21
23.2160796736
 31
0.0
 11
14.9479485252
 21
23.2181436496
 31
0.0
  0
SPLINE
  5
3BC
100
AcDbEntity
  8
0
100
AcDbSpline
 62
7
  6
CONTINUOUS
 70
0
 71
3
 72
11
 73
7
 74
5
 42
0.0000001
 43
0.0000001
 44
0.0000000001
 12
0.0363372628
 22
0.0034720398
 32
0.0
 13
0.0364409171
 23
0.0021239806
 33
0.0
 40
0.0
 40
0.0
 40
0.0
 40
0.0
 40
0.2295156814
 40
0.4728632519
 40
0.7298244494
 40
1.0
 40
1.0
 40
1.0
 40
1.0
 10
14.9115510774
 20
23.0893682532
 30
0.0
 10
14.9143310679
 20
23.0896338824
 30
0.0
 10
14.9200615967
 20
23.0901499974
 30
0.0
 10
14.9289135087
 20
23.0908598505
 30
0.0
 10
14.9382650489
 20
23.0915234606
 30
0.0
 10
14.9446667103
 20
23.0919222525
 30
0.0
 10
14.9479485252
 20
23.092113535
 30
0.0
 11
14.9115510774
 21
23.0893682532
 31
0.0
 11
14.9198950891
 21
23.0901216623
 31
0.0
 11
14.9287493856
 21
23.0908334302
 31
0.0
 11
14.938105539
 21
23.0914989564
 31
0.0
 11
14.9479485252
 21
23.092113535
 31
0.0
  0
LINE
  5
3BD
100
AcDbEntity
  8
0
100
AcDbLine
 62
7
  6
CONTINUOUS
 10
14.9115510774
 20
23.0534647671
 11
14.9479485252
 21
23.0540144372
  0
SPLINE
  5
3BE
100
AcDbEntity
  8
0
100
AcDbSpline
 62
6
  6
CONTINUOUS
 70
0
 71
3
 72
11
 73
7
 74
5
 42
0.0000001
 43
0.0000001
 44
0.0000000001
 12
0.0363756368
 22
-0.0020869778
 32
0.0
 13
0.0364131627
 23
-0.0012743667
 33
0.0
 40
0.0
 40
0.0
 40
0.0
 40
0.0
 40
0.2293443528
 40
0.4726404692
 40
0.7296616409
 40
1.0
 40
1.0
 40
1.0
 40
1.0
 10
14.9115510774
 20
23.0198104006
 30
0.0
 10
14.9143319264
 20
23.0196508551
 30
0.0
 10
14.9200638848
 20
23.0193408884
 30
0.0
 10
14.9289155269
 20
23.0189146843
 30
0.0
 10
14.938266816
 20
23.0185162424
 30
0.0
 10
14.9446672337
 20
23.0182768409
 30
0.0
 10
14.9479485252
 20
23.0181620042
 30
0.0
 11
14.9115510774
 21
23.0198104006
 31
0.0
 11
14.9198950891
 21
23.0193580184
 31
0.0
 11
14.9287493856
 21
23.0189306394
 31
0.0
 11
14.938105539
 21
23.0185310261
 31
0.0
 11
14.9479485252
 21
23.0181620042
 31
0.0
  0
SPLINE
  5
3BF
100
AcDbEntity
  8
0
100
AcDbSpline
 62
7
  6
CONTINUOUS
 70
0
 71
3
 72
13
 73
9
 74
7
 42
0.0000001
 43
0.0000001
 44
0.0000000001
 12
-0.0403107705
 22
0.0281176994
 32
0.0
 13
-0.0323543897
 23
0.0369967121
 33
0.0
 40
0.0
 40
0.0
 40
0.0
 40
0.0
 40
0.2500047341
 40
0.3750271333
 40
0.5000343799
 40
0.6250390953
 40
0.7500467905
 40
1.0
 40
1.0
 40
1.0
 40
1.0
 10
14.9479485252
 20
22.9869566948
 30
0.0
 10
14.9445892308
 20
22.9892998808
 30
0.0
 10
14.9396646088
 20
22.9929831734
 30
0.0
 10
14.9333448599
 20
22.9981969035
 30
0.0
 10
14.9287285075
 20
23.0022530452
 30
0.0
 10
14.9242378049
 20
23.0064474022
 30
0.0
 10
14.918420104
 20
23.0122143616
 30
0.0
 10
14.9142467719
 20
23.0167279183
 30
0.0
 10
14.9115510774
 20
23.0198104006
 30
0.0
 11
14.9479485252
 21
22.9869566948
 31
0.0
 11
14.9381055404
 21
22.9943115619
 31
0.0
 11
14.933365266
 21
22.9982213575
 31
0.0
 11
14.9287493881
 21
23.0022761354
 31
0.0
 11
14.9242589897
 21
23.0064692661
 31
0.0
 11
14.9198950899
 21
23.0107941014
 31
0.0
 11
14.9115510774
 21
23.0198104006
 31
0.0
  0
SPLINE
  5
3C0
100
AcDbEntity
  8
0
100
AcDbSpline
 62
6
  6
CONTINUOUS
 70
0
 71
3
 72
11
 73
7
 74
5
 42
0.0000001
 43
0.0000001
 44
0.0000000001
 12
0.0362806461
 22
-0.0048478603
 32
0.0
 13
0.0364821145
 23
-0.002973609
 33
0.0
 40
0.0
 40
0.0
 40
0.0
 40
0.0
 40
0.2297692484
 40
0.473193102
 40
0.730065585
 40
1.0
 40
1.0
 40
1.0
 40
1.0
 10
14.9115510774
 20
22.9885554626
 30
0.0
 10
14.914329803
 20
22.9881841661
 30
0.0
 10
14.9200582158
 20
22.9874626433
 30
0.0
 10
14.9289105196
 20
22.9864698732
 30
0.0
 10
14.9382624266
 20
22.9855417856
 30
0.0
 10
14.9446659325
 20
22.9849839214
 30
0.0
 10
14.9479485252
 20
22.9847163616
 30
0.0
 11
14.9115510774
 21
22.9885554626
 31
0.0
 11
14.9198950891
 21
22.9875018682
 31
0.0
 11
14.9287493856
 21
22.9865065063
 31
0.0
 11
14.938105539
 21
22.9855758105
 31
0.0
 11
14.9479485252
 21
22.9847163616
 31
0.0
  0
SPLINE
  5
3C1
100
AcDbEntity
  8
0
100
AcDbSpline
 62
7
  6
CONTINUOUS
 70
0
 71
3
 72
13
 73
9
 74
7
 42
0.0000001
 43
0.0000001
 44
0.0000000001
 12
-0.0402832363
 22
0.0279415815
 32
0.0
 13
-0.032375629
 23
0.0368142602
 33
0.0
 40
0.0
 40
0.0
 40
0.0
 40
0.0
 40
0.2501322745
 40
0.3751858744
 40
0.5002028504
 40
0.6251961318
 40
0.7501716114
 40
1.0
 40
1.0
 40
1.0
 40
1.0
 10
14.9479485252
 20
22.9558852237
 30
0.0
 10
14.9445898127
 20
22.9582149209
 30
0.0
 10
14.9396655795
 20
22.9618772699
 30
0.0
 10
14.9333452614
 20
22.967062323
 30
0.0
 10
14.9287288931
 20
22.9710958063
 30
0.0
 10
14.924238173
 20
22.9752667357
 30
0.0
 10
14.9184209159
 20
22.9810010244
 30
0.0
 10
14.9142471945
 20
22.9854897135
 30
0.0
 10
14.9115510774
 20
22.9885554626
 30
0.0
 11
14.9479485252
 21
22.9558852237
 31
0.0
 11
14.9381055404
 21
22.9631990186
 31
0.0
 11
14.933365266
 21
22.9670869805
 31
0.0
 11
14.9287493881
 21
22.971119115
 31
0.0
 11
14.9242589897
 21
22.9752888298
 31
0.0
 11
14.9198950899
 21
22.9795895137
 31
0.0
 11
14.9115510774
 21
22.9885554626
 31
0.0
  0
SPLINE
  5
3C2
100
AcDbEntity
  8
0
100
AcDbSpline
 62
6
  6
CONTINUOUS
 70
0
 71
3
 72
11
 73
7
 74
5
 42
0.0000001
 43
0.0000001
 44
0.0000000001
 12
0.0361172965
 22
-0.0075583564
 32
0.0
 13
0.0366026661
 23
-0.0046725464
 33
0.0
 40
0.0
 40
0.0
 40
0.0
 40
0.0
 40
0.2305061512
 40
0.4741525807
 40
0.730767571
 40
1.0
 40
1.0
 40
1.0
 40
1.0
 10
14.9115510774
 20
22.9598395449
 30
0.0
 10
14.9143261637
 20
22.9592587957
 30
0.0
 10
14.9200484279
 20
22.9581298254
 30
0.0
 10
14.9289018186
 20
22.9565746037
 30
0.0
 10
14.9382547572
 20
22.9551207467
 30
0.0
 10
14.9446636503
 20
22.9542462195
 30
0.0
 10
14.9479485252
 20
22.9538268859
 30
0.0
 11
14.9115510774
 21
22.9598395449
 31
0.0
 11
14.9198950891
 21
22.9581894441
 31
0.0
 11
14.9287493856
 21
22.9566305448
 31
0.0
 11
14.938105539
 21
22.9551729232
 31
0.0
 11
14.9479485252
 21
22.9538268859
 31
0.0
  0
SPLINE
  5
3C3
100
AcDbEntity
  8
0
100
AcDbSpline
 62
6
  6
CONTINUOUS
 70
0
 71
3
 72
11
 73
7
 74
5
 42
0.0000001
 43
0.0000001
 44
0.0000000001
 12
0.0358972702
 22
-0.0101944369
 32
0.0
 13
0.0367691233
 23
-0.0063696249
 33
0.0
 40
0.0
 40
0.0
 40
0.0
 40
0.0
 40
0.231511377
 40
0.4754635522
 40
0.7317280795
 40
1.0
 40
1.0
 40
1.0
 40
1.0
 10
14.9115510774
 20
22.9337909001
 30
0.0
 10
14.9143212862
 20
22.9330041907
 30
0.0
 10
14.9200351662
 20
22.931474095
 30
0.0
 10
14.9288899158
 20
22.9293629342
 30
0.0
 10
14.938244178
 20
22.927389428
 30
0.0
 10
14.9446604841
 20
22.926201134
 30
0.0
 10
14.9479485252
 20
22.9256315369
 30
0.0
 11
14.9115510774
 21
22.9337909001
 31
0.0
 11
14.9198950891
 21
22.9315516624
 31
0.0
 11
14.9287493856
 21
22.9294361883
 31
0.0
 11
14.938105539
 21
22.927458151
 31
0.0
 11
14.9479485252
 21
22.9256315369
 31
0.0
  0
SPLINE
  5
3C4
100
AcDbEntity
  8
0
100
AcDbSpline
 62
6
  6
CONTINUOUS
 70
0
 71
3
 72
11
 73
7
 74
5
 42
0.0000001
 43
0.0000001
 44
0.0000000001
 12
0.0356347809
 22
-0.0127372085
 32
0.0
 13
0.0369740876
 23
-0.0080616956
 33
0.0
 40
0.0
 40
0.0
 40
0.0
 40
0.0
 40
0.2327299532
 40
0.4770560517
 40
0.7328969772
 40
1.0
 40
1.0
 40
1.0
 40
1.0
 10
14.9115510774
 20
22.9105258675
 30
0.0
 10
14.9143155044
 20
22.9095377575
 30
0.0
 10
14.9200192302
 20
22.9076149153
 30
0.0
 10
14.9288754361
 20
22.9049567677
 30
0.0
 10
14.9382311701
 20
22.9024720017
 30
0.0
 10
14.9446565617
 20
22.9009740096
 30
0.0
 10
14.9479485252
 20
22.9002562419
 30
0.0
 11
14.9115510774
 21
22.9105258675
 31
0.0
 11
14.9198950891
 21
22.9077074941
 31
0.0
 11
14.9287493856
 21
22.9050448932
 31
0.0
 11
14.938105539
 21
22.9025552746
 31
0.0
 11
14.9479485252
 21
22.9002562419
 31
0.0
  0
SPLINE
  5
3C5
100
AcDbEntity
  8
0
100
AcDbSpline
 62
7
  6
CONTINUOUS
 70
0
 71
3
 72
13
 73
9
 74
7
 42
0.0000001
 43
0.0000001
 44
0.0000000001
 12
-0.0400679011
 22
0.0265847924
 32
0.0
 13
-0.0325444002
 23
0.035398445
 33
0.0
 40
0.0
 40
0.0
 40
0.0
 40
0.0
 40
0.2511368596
 40
0.376436823
 40
0.501531119
 40
0.6264348488
 40
0.7511566719
 40
1.0
 40
1.0
 40
1.0
 40
1.0
 10
14.9479485252
 20
22.8792749796
 30
0.0
 10
14.9445943496
 20
22.8815004534
 30
0.0
 10
14.9396731873
 20
22.8850008675
 30
0.0
 10
14.9333484177
 20
22.8899639352
 30
0.0
 10
14.9287319337
 20
22.8938221206
 30
0.0
 10
14.9242410841
 20
22.8978118012
 30
0.0
 10
14.918427358
 20
22.9032934225
 30
0.0
 10
14.914250563
 20
22.9075896452
 30
0.0
 10
14.9115510774
 20
22.9105258675
 30
0.0
 11
14.9479485252
 21
22.8792749796
 31
0.0
 11
14.9381055404
 21
22.8862710283
 31
0.0
 11
14.933365266
 21
22.8899900787
 31
0.0
 11
14.9287493881
 21
22.893847038
 31
0.0
 11
14.9242589897
 21
22.8978356005
 31
0.0
 11
14.9198950899
 21
22.9019494422
 31
0.0
 11
14.9115510774
 21
22.9105258675
 31
0.0
  0
SPLINE
  5
3C6
100
AcDbEntity
  8
0
100
AcDbSpline
 62
7
  6
CONTINUOUS
 70
0
 71
3
 72
11
 73
7
 74
5
 42
0.0000001
 43
0.0000001
 44
0.0000000001
 12
0.035344613
 22
-0.0151730707
 32
0.0
 13
0.0372091636
 23
-0.0097438127
 33
0.0
 40
0.0
 40
0.0
 40
0.0
 40
0.0
 40
0.2341021012
 40
0.4788535527
 40
0.7342191611
 40
1.0
 40
1.0
 40
1.0
 40
1.0
 10
14.9115510774
 20
22.8901483545
 30
0.0
 10
14.9143091601
 20
22.8889643386
 30
0.0
 10
14.920001471
 20
22.8866590078
 30
0.0
 10
14.9288590675
 20
22.8834652916
 30
0.0
 10
14.938216279
 20
22.880479939
 30
0.0
 10
14.944652031
 20
22.8786775726
 30
0.0
 10
14.9479485252
 20
22.8778143331
 30
0.0
 11
14.9115510774
 21
22.8901483545
 31
0.0
 11
14.9198950891
 21
22.8867634329
 31
0.0
 11
14.9287493856
 21
22.8835655971
 31
0.0
 11
14.938105539
 21
22.8805755164
 31
0.0
 11
14.9479485252
 21
22.8778143331
 31
0.0
  0
SPLINE
  5
3C7
100
AcDbEntity
  8
0
100
AcDbSpline
 62
7
  6
CONTINUOUS
 70
0
 71
3
 72
13
 73
9
 74
7
 42
0.0000001
 43
0.0000001
 44
0.0000000001
 12
-0.0399516851
 22
0.0258666637
 32
0.0
 13
-0.0326374964
 23
0.0346412364
 33
0.0
 40
0.0
 40
0.0
 40
0.0
 40
0.0
 40
0.2516843395
 40
0.3771190195
 40
0.5022559664
 40
0.6271112754
 40
0.7516949322
 40
1.0
 40
1.0
 40
1.0
 40
1.0
 10
14.9479485252
 20
22.859653189
 30
0.0
 10
14.9445967874
 20
22.8618232671
 30
0.0
 10
14.9396773048
 20
22.8652375298
 30
0.0
 10
14.9333501333
 20
22.8700823034
 30
0.0
 10
14.9287335934
 20
22.8738471487
 30
0.0
 10
14.9242426796
 20
22.8777403198
 30
0.0
 10
14.9184309036
 20
22.8830874742
 30
0.0
 10
14.9142524293
 20
22.8872811563
 30
0.0
 10
14.9115510774
 20
22.8901483545
 30
0.0
 11
14.9479485252
 21
22.859653189
 31
0.0
 11
14.9381055404
 21
22.8664800563
 31
0.0
 11
14.933365266
 21
22.8701091709
 31
0.0
 11
14.9287493881
 21
22.8738728596
 31
0.0
 11
14.9242589897
 21
22.877764969
 31
0.0
 11
14.9198950899
 21
22.8817793279
 31
0.0
 11
14.9115510774
 21
22.8901483545
 31
0.0
  0
SPLINE
  5
3C8
100
AcDbEntity
  8
0
100
AcDbSpline
 62
6
  6
CONTINUOUS
 70
0
 71
3
 72
11
 73
7
 74
5
 42
0.0000001
 43
0.0000001
 44
0.0000000001
 12
0.0350405279
 22
-0.0174930766
 32
0.0
 13
0.0374656513
 23
-0.0114092635
 33
0.0
 40
0.0
 40
0.0
 40
0.0
 40
0.0
 40
0.235569058
 40
0.4807802915
 40
0.7356397472
 40
1.0
 40
1.0
 40
1.0
 40
1.0
 10
14.9115510774
 20
22.872749372
 30
0.0
 10
14.9143025655
 20
22.8713757628
 30
0.0
 10
14.9199827029
 20
22.8686999023
 30
0.0
 10
14.9288414957
 20
22.8649844996
 30
0.0
 10
14.938200069
 20
22.8615115135
 30
0.0
 10
14.9446470489
 20
22.8594114268
 30
0.0
 10
14.9479485252
 20
22.8584060415
 30
0.0
 11
14.9115510774
 21
22.872749372
 31
0.0
 11
14.9198950891
 21
22.86881302
 31
0.0
 11
14.9287493856
 21
22.8650942316
 31
0.0
 11
14.938105539
 21
22.8616170433
 31
0.0
 11
14.9479485252
 21
22.8584060415
 31
0.0
  0
SPLINE
  5
3C9
100
AcDbEntity
  8
0
100
AcDbSpline
 62
6
  6
CONTINUOUS
 70
0
 71
3
 72
11
 73
7
 74
5
 42
0.0000001
 43
0.0000001
 44
0.0000000001
 12
0.0347342498
 22
-0.0196918567
 32
0.0
 13
0.0377351347
 23
-0.0130497868
 33
0.0
 40
0.0
 40
0.0
 40
0.0
 40
0.0
 40
0.237077425
 40
0.482766843
 40
0.7371080797
 40
1.0
 40
1.0
 40
1.0
 40
1.0
 10
14.9115510774
 20
22.8584066281
 30
0.0
 10
14.9142959796
 20
22.8568504632
 30
0.0
 10
14.9199636413
 20
22.8538175701
 30
0.0
 10
14.9288233538
 20
22.8495967925
 30
0.0
 10
14.9381830839
 20
22.8456513758
 30
0.0
 10
14.9446417712
 20
22.8432616105
 30
0.0
 10
14.9479485252
 20
22.8421180494
 30
0.0
 11
14.9115510774
 21
22.8584066281
 31
0.0
 11
14.9198950891
 21
22.8539364265
 31
0.0
 11
14.9287493856
 21
22.8497132945
 31
0.0
 11
14.938105539
 21
22.8457645285
 31
0.0
 11
14.9479485252
 21
22.8421180494
 31
0.0
  0
SPLINE
  5
3CA
100
AcDbEntity
  8
0
100
AcDbSpline
 62
6
  6
CONTINUOUS
 70
0
 71
3
 72
11
 73
7
 74
5
 42
0.0000001
 43
0.0000001
 44
0.0000000001
 12
0.0344350263
 22
-0.0217664499
 32
0.0
 13
0.0380099148
 23
-0.0146559119
 33
0.0
 40
0.0
 40
0.0
 40
0.0
 40
0.0
 40
0.2385817748
 40
0.484753574
 40
0.7385802781
 40
1.0
 40
1.0
 40
1.0
 40
1.0
 10
14.9115510774
 20
22.8471841809
 30
0.0
 10
14.9142896006
 20
22.8454531548
 30
0.0
 10
14.91994487
 20
22.8420781264
 30
0.0
 10
14.9288051892
 20
22.8373706478
 30
0.0
 10
14.9381658182
 20
22.8329701991
 30
0.0
 10
14.9446363448
 20
22.8303002175
 30
0.0
 10
14.9479485252
 20
22.8290231027
 30
0.0
 11
14.9115510774
 21
22.8471841809
 31
0.0
 11
14.9198950891
 21
22.8422000947
 31
0.0
 11
14.9287493856
 21
22.8374914807
 31
0.0
 11
14.938105539
 21
22.8330887731
 31
0.0
 11
14.9479485252
 21
22.8290231027
 31
0.0
  0
SPLINE
  5
3CB
100
AcDbEntity
  8
0
100
AcDbSpline
 62
7
  6
CONTINUOUS
 70
0
 71
3
 72
13
 73
9
 74
7
 42
0.0000001
 43
0.0000001
 44
0.0000000001
 12
-0.0394709599
 22
0.0229845255
 32
0.0
 13
-0.0330383992
 23
0.0315390119
 33
0.0
 40
0.0
 40
0.0
 40
0.0
 40
0.0
 40
0.2539893744
 40
0.3799947408
 40
0.5053152376
 40
0.629969683
 40
0.7539722183
 40
1.0
 40
1.0
 40
1.0
 40
1.0
 10
14.9479485252
 20
22.8197568508
 30
0.0
 10
14.9446067904
 20
22.8217027925
 30
0.0
 10
14.9396944205
 20
22.8247678876
 30
0.0
 10
14.9333573203
 20
22.8291316792
 30
0.0
 10
14.9287405999
 20
22.8325175884
 30
0.0
 10
14.924249467
 20
22.8360189505
 30
0.0
 10
14.9184461057
 20
22.8408207796
 30
0.0
 10
14.9142605321
 20
22.8445976899
 30
0.0
 10
14.9115510774
 20
22.8471841809
 30
0.0
 11
14.9479485252
 21
22.8197568508
 31
0.0
 11
14.9381055404
 21
22.8258969303
 31
0.0
 11
14.933365266
 21
22.8291609535
 31
0.0
 11
14.9287493881
 21
22.8325460124
 31
0.0
 11
14.9242589897
 21
22.8360465728
 31
0.0
 11
14.9198950899
 21
22.8396570844
 31
0.0
 11
14.9115510774
 21
22.8471841809
 31
0.0
  0
SPLINE
  5
3CC
100
AcDbEntity
  8
0
100
AcDbSpline
 62
6
  6
CONTINUOUS
 70
0
 71
3
 72
11
 73
7
 74
5
 42
0.0000001
 43
0.0000001
 44
0.0000000001
 12
0.0341496335
 22
-0.0237152757
 32
0.0
 13
0.0382832758
 23
-0.0162173538
 33
0.0
 40
0.0
 40
0.0
 40
0.0
 40
0.0
 40
0.2400456746
 40
0.4866921226
 40
0.7400204016
 40
1.0
 40
1.0
 40
1.0
 40
1.0
 10
14.9115510774
 20
22.8391321527
 30
0.0
 10
14.914283568
 20
22.8372345696
 30
0.0
 10
14.9199268338
 20
22.8335335896
 30
0.0
 10
14.9287874488
 20
22.8283603539
 30
0.0
 10
14.9381486993
 20
22.8235243897
 30
0.0
 10
14.9446309017
 20
22.8205850805
 30
0.0
 10
14.9479485252
 20
22.8191796868
 30
0.0
 11
14.9115510774
 21
22.8391321527
 31
0.0
 11
14.9198950891
 21
22.833656442
 31
0.0
 11
14.9287493856
 21
22.8284833757
 31
0.0
 11
14.938105539
 21
22.8236463902
 31
0.0
 11
14.9479485252
 21
22.8191796868
 31
0.0
  0
SPLINE
  5
3CD
100
AcDbEntity
  8
0
100
AcDbSpline
 62
6
  6
CONTINUOUS
 70
0
 71
3
 72
11
 73
7
 74
5
 42
0.0000001
 43
0.0000001
 44
0.0000000001
 12
0.0338826552
 22
-0.0255373592
 32
0.0
 13
0.0385496026
 23
-0.0177234074
 33
0.0
 40
0.0
 40
0.0
 40
0.0
 40
0.0
 40
0.2414415161
 40
0.4885453521
 40
0.7414005216
 40
1.0
 40
1.0
 40
1.0
 40
1.0
 10
14.9115510774
 20
22.8342865057
 30
0.0
 10
14.9142779706
 20
22.8322312462
 30
0.0
 10
14.9199098481
 20
22.8282216938
 30
0.0
 10
14.9287704777
 20
22.8226058033
 30
0.0
 10
14.9381320801
 20
22.8173558614
 30
0.0
 10
14.9446255562
 20
22.8141595193
 30
0.0
 10
14.9479485252
 20
22.8126317646
 30
0.0
 11
14.9115510774
 21
22.8342865057
 31
0.0
 11
14.9198950891
 21
22.8283436264
 31
0.0
 11
14.9287493856
 21
22.822729212
 31
0.0
 11
14.938105539
 21
22.8174795517
 31
0.0
 11
14.9479485252
 21
22.8126317646
 31
0.0
  0
SPLINE
  5
3CE
100
AcDbEntity
  8
0
100
AcDbSpline
 62
6
  6
CONTINUOUS
 70
0
 71
3
 72
11
 73
7
 74
5
 42
0.0000001
 43
0.0000001
 44
0.0000000001
 12
0.0336368873
 22
-0.0272318209
 32
0.0
 13
0.0388043812
 23
-0.019163305
 33
0.0
 40
0.0
 40
0.0
 40
0.0
 40
0.0
 40
0.24274975
 40
0.4902869761
 40
0.7427004766
 40
1.0
 40
1.0
 40
1.0
 40
1.0
 10
14.9115510774
 20
22.8326688818
 30
0.0
 10
14.9142728594
 20
22.8304653759
 30
0.0
 10
14.9198941279
 20
22.8261657442
 30
0.0
 10
14.9287545433
 20
22.8201323335
 30
0.0
 10
14.9381162524
 20
22.8144918616
 30
0.0
 10
14.944620409
 20
22.8110521506
 30
0.0
 10
14.9479485252
 20
22.8094085809
 30
0.0
 11
14.9115510774
 21
22.8326688818
 31
0.0
 11
14.9198950948
 21
22.8262853723
 31
0.0
 11
14.9287494102
 21
22.8202546741
 31
0.0
 11
14.938105554
 21
22.8146157904
 31
0.0
 11
14.9479485252
 21
22.8094085809
 31
0.0
  0
SPLINE
  5
3CF
100
AcDbEntity
  8
0
100
AcDbSpline
 62
7
  6
CONTINUOUS
 70
0
 71
3
 72
11
 73
7
 74
5
 42
0.0000001
 43
0.0000001
 44
0.0000000001
 12
0.0389263118
 22
-0.019855138
 32
0.0
 13
0.0335224474
 23
-0.0280308718
 33
0.0
 40
0.0
 40
0.0
 40
0.0
 40
0.0
 40
0.2566850513
 40
0.508891323
 40
0.7566335929
 40
1.0
 40
1.0
 40
1.0
 40
1.0
 10
15.1359485252
 20
23.6052764612
 30
0.0
 10
15.139279126
 20
23.6035776222
 30
0.0
 10
15.1457883702
 20
23.6000217469
 30
0.0
 10
15.1551500587
 20
23.5941953692
 30
0.0
 10
15.164010286
 20
23.5879632255
 30
0.0
 10
15.1696265606
 20
23.5835258314
 30
0.0
 10
15.1723459731
 20
23.5812519072
 30
0.0
 11
15.1359485252
 21
23.6052764612
 31
0.0
 11
15.1457915114
 21
23.5998981507
 31
0.0
 11
15.1551476647
 21
23.5940739875
 31
0.0
 11
15.1640019613
 21
23.5878451528
 31
0.0
 11
15.1723459731
 21
23.5812519072
 31
0.0
  0
SPLINE
  5
3D0
100
AcDbEntity
  8
0
100
AcDbSpline
 62
7
  6
CONTINUOUS
 70
0
 71
3
 72
11
 73
7
 74
5
 42
0.0000001
 43
0.0000001
 44
0.0000000001
 12
-0.0340136309
 22
-0.0246422132
 32
0.0
 13
-0.0384176258
 23
-0.0169779795
 33
0.0
 40
0.0
 40
0.0
 40
0.0
 40
0.0
 40
0.2407535291
 40
0.4876313824
 40
0.740719449
 40
1.0
 40
1.0
 40
1.0
 40
1.0
 10
15.1723459731
 20
23.6295539468
 30
0.0
 10
15.1696163392
 20
23.6275763802
 30
0.0
 10
15.1639788549
 20
23.6237188695
 30
0.0
 10
15.1551181995
 20
23.6183212883
 30
0.0
 10
15.145756741
 20
23.6132755209
 30
0.0
 10
15.1392688396
 20
23.6102060726
 30
0.0
 10
15.1359485252
 20
23.6087387193
 30
0.0
 11
15.1723459731
 21
23.6295539468
 31
0.0
 11
15.1640019605
 21
23.6238414612
 31
0.0
 11
15.1551476622
 21
23.6184447061
 31
0.0
 11
15.14579151
 21
23.6133985659
 31
0.0
 11
15.1359485252
 21
23.6087387193
 31
0.0
  0
SPLINE
  5
3D1
100
AcDbEntity
  8
0
100
AcDbSpline
 62
7
  6
CONTINUOUS
 70
0
 71
3
 72
11
 73
7
 74
5
 42
0.0000001
 43
0.0000001
 44
0.0000000001
 12
-0.0348870252
 22
-0.0186078483
 32
0.0
 13
-0.0375992705
 23
-0.0122332092
 33
0.0
 40
0.0
 40
0.0
 40
0.0
 40
0.0
 40
0.2363211338
 40
0.4817701473
 40
0.7363709062
 40
1.0
 40
1.0
 40
1.0
 40
1.0
 10
15.1723459731
 20
23.7716623333
 30
0.0
 10
15.1695977926
 20
23.7701965241
 30
0.0
 10
15.1639238803
 20
23.7673403693
 30
0.0
 10
15.1550645893
 20
23.7633700906
 30
0.0
 10
15.1457054081
 20
23.75965885
 30
0.0
 10
15.1392526124
 20
23.7574128309
 30
0.0
 10
15.1359485252
 20
23.756337821
 30
0.0
 11
15.1723459731
 21
23.7716623333
 31
0.0
 11
15.1640019605
 21
23.7674567076
 31
0.0
 11
15.1551476622
 21
23.7634835279
 31
0.0
 11
15.14579151
 21
23.7597684766
 31
0.0
 11
15.1359485252
 21
23.756337821
 31
0.0
  0
SPLINE
  5
3D2
100
AcDbEntity
  8
0
100
AcDbSpline
 62
7
  6
CONTINUOUS
 70
0
 71
3
 72
11
 73
7
 74
5
 42
0.0000001
 43
0.0000001
 44
0.0000000001
 12
-0.0357704015
 22
-0.011478456
 32
0.0
 13
-0.0368673019
 23
-0.0072165526
 33
0.0
 40
0.0
 40
0.0
 40
0.0
 40
0.0
 40
0.2320977174
 40
0.4762294068
 40
0.7322899123
 40
1.0
 40
1.0
 40
1.0
 40
1.0
 10
15.1723459731
 20
23.9051696625
 30
0.0
 10
15.1695785636
 20
23.9042816214
 30
0.0
 10
15.1638695699
 20
23.9025539831
 30
0.0
 10
15.1550140931
 20
23.9001680561
 30
0.0
 10
15.1456591046
 20
23.8979377287
 30
0.0
 10
15.1392384415
 20
23.8965940009
 30
0.0
 10
15.1359485252
 20
23.8959500196
 30
0.0
 11
15.1723459731
 21
23.9051696625
 31
0.0
 11
15.1640019605
 21
23.9026394438
 31
0.0
 11
15.1551476622
 21
23.900249071
 31
0.0
 11
15.14579151
 21
23.8980139952
 31
0.0
 11
15.1359485252
 21
23.8959500196
 31
0.0
  0
SPLINE
  5
3D3
100
AcDbEntity
  8
0
100
AcDbSpline
 62
7
  6
CONTINUOUS
 70
0
 71
3
 72
13
 73
9
 74
7
 42
0.0000001
 43
0.0000001
 44
0.0000000001
 12
0.0402611948
 22
-0.027801042
 32
0.0
 13
0.0323926864
 23
-0.0366684553
 33
0.0
 40
0.0
 40
0.0
 40
0.0
 40
0.0
 40
0.2502345577
 40
0.3753132117
 40
0.500337999
 40
0.625322102
 40
0.7502717343
 40
1.0
 40
1.0
 40
1.0
 40
1.0
 10
15.1359485252
 20
24.0192568748
 30
0.0
 10
15.1393067727
 20
24.0169379476
 30
0.0
 10
15.1442306947
 20
24.0132923228
 30
0.0
 10
15.1505514695
 20
24.0081301751
 30
0.0
 10
15.1551678503
 20
24.0041147881
 30
0.0
 10
15.1596585836
 20
23.9999625699
 30
0.0
 10
15.1654754833
 20
23.9942543729
 30
0.0
 10
15.1696495166
 20
23.9897855469
 30
0.0
 10
15.1723459731
 20
23.9867331637
 30
0.0
 11
15.1359485252
 21
24.0192568748
 31
0.0
 11
15.1457915114
 21
24.0119758815
 31
0.0
 11
15.1505317869
 21
24.0081053564
 31
0.0
 11
15.1551476647
 21
24.0040913063
 31
0.0
 11
15.1596380622
 21
23.9999402936
 31
0.0
 11
15.1640019613
 21
23.9956588993
 31
0.0
 11
15.1723459731
 21
23.9867331637
 31
0.0
  0
SPLINE
  5
3D4
100
AcDbEntity
  8
0
100
AcDbSpline
 62
7
  6
CONTINUOUS
 70
0
 71
3
 72
11
 73
7
 74
5
 42
0.0000001
 43
0.0000001
 44
0.0000000001
 12
-0.0363372628
 22
-0.0034720398
 32
0.0
 13
-0.0364409171
 23
-0.0021239806
 33
0.0
 40
0.0
 40
0.0
 40
0.0
 40
0.0
 40
0.2295157049
 40
0.4728633263
 40
0.7298244893
 40
1.0
 40
1.0
 40
1.0
 40
1.0
 10
15.1723459731
 20
24.0247254159
 30
0.0
 10
15.1695659823
 20
24.0244597867
 30
0.0
 10
15.1638354526
 20
24.0239436717
 30
0.0
 10
15.1549835401
 20
24.0232338185
 30
0.0
 10
15.1456320002
 20
24.0225702085
 30
0.0
 10
15.1392303397
 20
24.0221714167
 30
0.0
 10
15.1359485252
 20
24.0219801342
 30
0.0
 11
15.1723459731
 21
24.0247254159
 31
0.0
 11
15.1640019605
 21
24.0239720068
 31
0.0
 11
15.1551476622
 21
24.0232602388
 31
0.0
 11
15.14579151
 21
24.0225947127
 31
0.0
 11
15.1359485252
 21
24.0219801342
 31
0.0
  0
SPLINE
  5
3D5
100
AcDbEntity
  8
0
100
AcDbSpline
 62
7
  6
CONTINUOUS
 70
0
 71
3
 72
13
 73
9
 74
7
 42
0.0000001
 43
0.0000001
 44
0.0000000001
 12
0.0402997593
 22
-0.0280471931
 32
0.0
 13
0.0323628744
 23
-0.0369237051
 33
0.0
 40
0.0
 40
0.0
 40
0.0
 40
0.0
 40
0.2500557511
 40
0.3750906482
 40
0.5001017788
 40
0.6251018996
 40
0.7500966947
 40
1.0
 40
1.0
 40
1.0
 40
1.0
 10
15.1359485252
 20
24.057505694
 30
0.0
 10
15.1393075874
 20
24.0551679067
 30
0.0
 10
15.1442320548
 20
24.0514929956
 30
0.0
 10
15.1505520322
 20
24.0462907418
 30
0.0
 10
15.155168391
 20
24.0422436683
 30
0.0
 10
15.1596590999
 20
24.038058688
 30
0.0
 10
15.1654766228
 20
24.0323048052
 30
0.0
 10
15.16965011
 20
24.0278012013
 30
0.0
 10
15.1723459731
 20
24.0247254159
 30
0.0
 11
15.1359485252
 21
24.057505694
 31
0.0
 11
15.1457915114
 21
24.0501672638
 31
0.0
 11
15.1505317869
 21
24.0462662056
 31
0.0
 11
15.1551476647
 21
24.0422204902
 31
0.0
 11
15.1596380622
 21
24.0380367318
 31
0.0
 11
15.1640019613
 21
24.0337215632
 31
0.0
 11
15.1723459731
 21
24.0247254159
 31
0.0
  0
SPLINE
  5
3D6
100
AcDbEntity
  8
0
100
AcDbSpline
 62
7
  6
CONTINUOUS
 70
0
 71
3
 72
11
 73
7
 74
5
 42
0.0000001
 43
0.0000001
 44
0.0000000001
 12
-0.0363756368
 22
0.0020869778
 32
0.0
 13
-0.0364131627
 23
0.0012743667
 33
0.0
 40
0.0
 40
0.0
 40
0.0
 40
0.0
 40
0.2293443763
 40
0.4726405436
 40
0.7296616808
 40
1.0
 40
1.0
 40
1.0
 40
1.0
 10
15.1723459731
 20
24.0942832685
 30
0.0
 10
15.1695651238
 20
24.0944428141
 30
0.0
 10
15.1638331645
 20
24.0947527808
 30
0.0
 10
15.1549815219
 20
24.0951789849
 30
0.0
 10
15.1456302331
 20
24.0955774268
 30
0.0
 10
15.1392298163
 20
24.0958168283
 30
0.0
 10
15.1359485252
 20
24.095931665
 30
0.0
 11
15.1723459731
 21
24.0942832685
 31
0.0
 11
15.1640019605
 21
24.0947356509
 31
0.0
 11
15.1551476622
 21
24.0951630299
 31
0.0
 11
15.14579151
 21
24.0955626431
 31
0.0
 11
15.1359485252
 21
24.095931665
 31
0.0
  0
SPLINE
  5
3D7
100
AcDbEntity
  8
0
100
AcDbSpline
 62
7
  6
CONTINUOUS
 70
0
 71
3
 72
13
 73
9
 74
7
 42
0.0000001
 43
0.0000001
 44
0.0000000001
 12
0.0403107705
 22
-0.0281176994
 32
0.0
 13
0.0323543897
 23
-0.0369967121
 33
0.0
 40
0.0
 40
0.0
 40
0.0
 40
0.0
 40
0.2500047709
 40
0.3750271986
 40
0.5000344425
 40
0.6250391355
 40
0.7500468081
 40
1.0
 40
1.0
 40
1.0
 40
1.0
 10
15.1359485252
 20
24.1271369744
 30
0.0
 10
15.1393078202
 20
24.1247937881
 30
0.0
 10
15.1442324429
 20
24.1211104945
 30
0.0
 10
15.1505521927
 20
24.115896764
 30
0.0
 10
15.1551685451
 20
24.1118406221
 30
0.0
 10
15.159659247
 20
24.1076462656
 30
0.0
 10
15.1654769472
 20
24.101879307
 30
0.0
 10
15.1696502788
 20
24.0973657506
 30
0.0
 10
15.1723459731
 20
24.0942832685
 30
0.0
 11
15.1359485252
 21
24.1271369744
 31
0.0
 11
15.1457915114
 21
24.1197821061
 31
0.0
 11
15.1505317869
 21
24.1158723096
 31
0.0
 11
15.1551476647
 21
24.1118175318
 31
0.0
 11
15.1596380622
 21
24.1076244017
 31
0.0
 11
15.1640019613
 21
24.1032995671
 31
0.0
 11
15.1723459731
 21
24.0942832685
 31
0.0
  0
SPLINE
  5
3D8
100
AcDbEntity
  8
0
100
AcDbSpline
 62
6
  6
CONTINUOUS
 70
0
 71
3
 72
11
 73
7
 74
5
 42
0.0000001
 43
0.0000001
 44
0.0000000001
 12
-0.0362806461
 22
0.0048478603
 32
0.0
 13
-0.0364821145
 23
0.002973609
 33
0.0
 40
0.0
 40
0.0
 40
0.0
 40
0.0
 40
0.229769272
 40
0.4731931764
 40
0.7300656249
 40
1.0
 40
1.0
 40
1.0
 40
1.0
 10
15.1723459731
 20
24.1255382066
 30
0.0
 10
15.1695672472
 20
24.1259095031
 30
0.0
 10
15.1638388335
 20
24.126631026
 30
0.0
 10
15.1549865292
 20
24.1276237961
 30
0.0
 10
15.1456346225
 20
24.1285518837
 30
0.0
 10
15.1392311175
 20
24.1291097478
 30
0.0
 10
15.1359485252
 20
24.1293773076
 30
0.0
 11
15.1723459731
 21
24.1255382066
 31
0.0
 11
15.1640019605
 21
24.1265918011
 31
0.0
 11
15.1551476622
 21
24.1275871632
 31
0.0
 11
15.14579151
 21
24.1285178588
 31
0.0
 11
15.1359485252
 21
24.1293773076
 31
0.0
  0
SPLINE
  5
3D9
100
AcDbEntity
  8
0
100
AcDbSpline
 62
6
  6
CONTINUOUS
 70
0
 71
3
 72
11
 73
7
 74
5
 42
0.0000001
 43
0.0000001
 44
0.0000000001
 12
-0.0361172965
 22
0.0075583564
 32
0.0
 13
-0.0366026661
 23
0.0046725464
 33
0.0
 40
0.0
 40
0.0
 40
0.0
 40
0.0
 40
0.2305061748
 40
0.474152655
 40
0.7307676109
 40
1.0
 40
1.0
 40
1.0
 40
1.0
 10
15.1723459731
 20
24.1542541242
 30
0.0
 10
15.1695708865
 20
24.1548348735
 30
0.0
 10
15.1638486214
 20
24.155963844
 30
0.0
 10
15.1549952302
 20
24.1575190657
 30
0.0
 10
15.1456422919
 20
24.1589729228
 30
0.0
 10
15.1392333997
 20
24.1598474497
 30
0.0
 10
15.1359485252
 20
24.1602667833
 30
0.0
 11
15.1723459731
 21
24.1542541242
 31
0.0
 11
15.1640019605
 21
24.1559042253
 31
0.0
 11
15.1551476622
 21
24.1574631248
 31
0.0
 11
15.14579151
 21
24.1589207462
 31
0.0
 11
15.1359485252
 21
24.1602667833
 31
0.0
  0
SPLINE
  5
3DA
100
AcDbEntity
  8
0
100
AcDbSpline
 62
7
  6
CONTINUOUS
 70
0
 71
3
 72
13
 73
9
 74
7
 42
0.0000001
 43
0.0000001
 44
0.0000000001
 12
0.0402336263
 22
-0.0276258114
 32
0.0
 13
0.0324140902
 23
-0.0364863933
 33
0.0
 40
0.0
 40
0.0
 40
0.0
 40
0.0
 40
0.250362629
 40
0.375472645
 40
0.5005072377
 40
0.6254798854
 40
0.7503971727
 40
1.0
 40
1.0
 40
1.0
 40
1.0
 10
15.1359485252
 20
24.1865949828
 30
0.0
 10
15.1393061907
 20
24.1842894925
 30
0.0
 10
15.144229722
 20
24.1806647365
 30
0.0
 10
15.1505510666
 20
24.1755311766
 30
0.0
 10
15.1551674629
 20
24.1715383726
 30
0.0
 10
15.1596582134
 20
24.1674095038
 30
0.0
 10
15.1654746656
 20
24.1617338638
 30
0.0
 10
15.1696490902
 20
24.1572898265
 30
0.0
 10
15.1723459731
 20
24.1542541242
 30
0.0
 11
15.1359485252
 21
24.1865949828
 31
0.0
 11
15.1457915114
 21
24.1793549242
 31
0.0
 11
15.1505317869
 21
24.1755061597
 31
0.0
 11
15.1551476647
 21
24.1715146771
 31
0.0
 11
15.1596380622
 21
24.1673870019
 31
0.0
 11
15.1640019613
 21
24.1631296781
 31
0.0
 11
15.1723459731
 21
24.1542541242
 31
0.0
  0
SPLINE
  5
3DB
100
AcDbEntity
  8
0
100
AcDbSpline
 62
7
  6
CONTINUOUS
 70
0
 71
3
 72
11
 73
7
 74
5
 42
0.0000001
 43
0.0000001
 44
0.0000000001
 12
-0.0358972702
 22
0.0101944369
 32
0.0
 13
-0.0367691233
 23
0.0063696249
 33
0.0
 40
0.0
 40
0.0
 40
0.0
 40
0.0
 40
0.2315114005
 40
0.4754636265
 40
0.7317281194
 40
1.0
 40
1.0
 40
1.0
 40
1.0
 10
15.1723459731
 20
24.1803027691
 30
0.0
 10
15.169575764
 20
24.1810894786
 30
0.0
 10
15.1638618831
 20
24.1826195745
 30
0.0
 10
15.155007133
 20
24.1847307353
 30
0.0
 10
15.1456528711
 20
24.1867042415
 30
0.0
 10
15.1392365659
 20
24.1878925352
 30
0.0
 10
15.1359485252
 20
24.1884621323
 30
0.0
 11
15.1723459731
 21
24.1803027691
 31
0.0
 11
15.1640019605
 21
24.1825420069
 31
0.0
 11
15.1551476622
 21
24.1846574815
 31
0.0
 11
15.14579151
 21
24.1866355186
 31
0.0
 11
15.1359485252
 21
24.1884621323
 31
0.0
  0
SPLINE
  5
3DC
100
AcDbEntity
  8
0
100
AcDbSpline
 62
7
  6
CONTINUOUS
 70
0
 71
3
 72
13
 73
9
 74
7
 42
0.0000001
 43
0.0000001
 44
0.0000000001
 12
0.0401618708
 22
-0.0271725207
 32
0.0
 13
0.0324701635
 23
-0.0360140283
 33
0.0
 40
0.0
 40
0.0
 40
0.0
 40
0.0
 40
0.250696802
 40
0.3758886791
 40
0.5009490033
 40
0.6258919205
 40
0.7507248565
 40
1.0
 40
1.0
 40
1.0
 40
1.0
 10
15.1359485252
 20
24.2121698053
 30
0.0
 10
15.1393046761
 20
24.2098991173
 30
0.0
 10
15.1442271836
 20
24.2063284289
 30
0.0
 10
15.1505500086
 20
24.2012689674
 30
0.0
 10
15.1551664448
 20
24.1973346823
 30
0.0
 10
15.1596572418
 20
24.1932663176
 30
0.0
 10
15.1654725235
 20
24.1876750289
 30
0.0
 10
15.1696479715
 20
24.1832952365
 30
0.0
 10
15.1723459731
 20
24.1803027691
 30
0.0
 11
15.1359485252
 21
24.2121698053
 31
0.0
 11
15.1457915062
 21
24.2050358246
 31
0.0
 11
15.1505317781
 21
24.2012434504
 31
0.0
 11
15.1551476575
 21
24.1973104454
 31
0.0
 11
15.159638059
 21
24.1932432413
 31
0.0
 11
15.1640019607
 21
24.1890482889
 31
0.0
 11
15.1723459731
 21
24.1803027691
 31
0.0
  0
SPLINE
  5
3DD
100
AcDbEntity
  8
0
100
AcDbSpline
 62
6
  6
CONTINUOUS
 70
0
 71
3
 72
11
 73
7
 74
5
 42
0.0000001
 43
0.0000001
 44
0.0000000001
 12
-0.0356347809
 22
0.0127372085
 32
0.0
 13
-0.0369740876
 23
0.0080616956
 33
0.0
 40
0.0
 40
0.0
 40
0.0
 40
0.0
 40
0.2327299768
 40
0.4770561259
 40
0.732897017
 40
1.0
 40
1.0
 40
1.0
 40
1.0
 10
15.1723459731
 20
24.2035678017
 30
0.0
 10
15.1695815458
 20
24.2045559118
 30
0.0
 10
15.1638778191
 20
24.2064787543
 30
0.0
 10
15.1550216127
 20
24.2091369019
 30
0.0
 10
15.145665879
 20
24.2116216679
 30
0.0
 10
15.1392404883
 20
24.2131196597
 30
0.0
 10
15.1359485252
 20
24.2138374273
 30
0.0
 11
15.1723459731
 21
24.2035678017
 31
0.0
 11
15.1640019605
 21
24.2063861753
 31
0.0
 11
15.1551476622
 21
24.2090487767
 31
0.0
 11
15.14579151
 21
24.211538395
 31
0.0
 11
15.1359485252
 21
24.2138374273
 31
0.0
  0
SPLINE
  5
3DE
100
AcDbEntity
  8
0
100
AcDbSpline
 62
6
  6
CONTINUOUS
 70
0
 71
3
 72
11
 73
7
 74
5
 42
0.0000001
 43
0.0000001
 44
0.0000000001
 12
-0.035344613
 22
0.0151730707
 32
0.0
 13
-0.0372091636
 23
0.0097438127
 33
0.0
 40
0.0
 40
0.0
 40
0.0
 40
0.0
 40
0.2341021248
 40
0.4788536268
 40
0.734219201
 40
1.0
 40
1.0
 40
1.0
 40
1.0
 10
15.1723459731
 20
24.2239453147
 30
0.0
 10
15.1695878901
 20
24.2251293307
 30
0.0
 10
15.1638955783
 20
24.2274346618
 30
0.0
 10
15.1550379813
 20
24.2306283781
 30
0.0
 10
15.1456807701
 20
24.2336137307
 30
0.0
 10
15.139245019
 20
24.2354160967
 30
0.0
 10
15.1359485252
 20
24.2362793361
 30
0.0
 11
15.1723459731
 21
24.2239453147
 31
0.0
 11
15.1640019605
 21
24.2273302366
 31
0.0
 11
15.1551476622
 21
24.230528073
 31
0.0
 11
15.14579151
 21
24.2335181533
 31
0.0
 11
15.1359485252
 21
24.2362793361
 31
0.0
  0
SPLINE
  5
3DF
100
AcDbEntity
  8
0
100
AcDbSpline
 62
7
  6
CONTINUOUS
 70
0
 71
3
 72
13
 73
9
 74
7
 42
0.0000001
 43
0.0000001
 44
0.0000000001
 12
0.0399516851
 22
-0.0258666637
 32
0.0
 13
0.0326374964
 23
-0.0346412364
 33
0.0
 40
0.0
 40
0.0
 40
0.0
 40
0.0
 40
0.2516843762
 40
0.377119085
 40
0.5022560291
 40
0.6271113155
 40
0.7516949497
 40
1.0
 40
1.0
 40
1.0
 40
1.0
 10
15.1359485252
 20
24.2544404802
 30
0.0
 10
15.1393002636
 20
24.2522704018
 30
0.0
 10
15.1442197469
 20
24.2488561383
 30
0.0
 10
15.1505469193
 20
24.2440113642
 30
0.0
 10
15.1551634592
 20
24.2402465188
 30
0.0
 10
15.1596543723
 20
24.2363533481
 30
0.0
 10
15.1654661475
 20
24.2310061944
 30
0.0
 10
15.1696446214
 20
24.2268125127
 30
0.0
 10
15.1723459731
 20
24.2239453147
 30
0.0
 11
15.1359485252
 21
24.2544404802
 31
0.0
 11
15.1457915114
 21
24.2476136118
 31
0.0
 11
15.1505317869
 21
24.2439844963
 31
0.0
 11
15.1551476647
 21
24.2402208077
 31
0.0
 11
15.1596380622
 21
24.2363286989
 31
0.0
 11
15.1640019613
 21
24.2323143407
 31
0.0
 11
15.1723459731
 21
24.2239453147
 31
0.0
  0
SPLINE
  5
3E0
100
AcDbEntity
  8
0
100
AcDbSpline
 62
6
  6
CONTINUOUS
 70
0
 71
3
 72
11
 73
7
 74
5
 42
0.0000001
 43
0.0000001
 44
0.0000000001
 12
-0.0350405279
 22
0.0174930766
 32
0.0
 13
-0.0374656513
 23
0.0114092635
 33
0.0
 40
0.0
 40
0.0
 40
0.0
 40
0.0
 40
0.2355690817
 40
0.4807803655
 40
0.7356397871
 40
1.0
 40
1.0
 40
1.0
 40
1.0
 10
15.1723459731
 20
24.2413442972
 30
0.0
 10
15.1695944848
 20
24.2427179065
 30
0.0
 10
15.1639143464
 20
24.2453937674
 30
0.0
 10
15.1550555531
 20
24.2491091702
 30
0.0
 10
15.1456969801
 20
24.2525821563
 30
0.0
 10
15.1392500011
 20
24.2546822425
 30
0.0
 10
15.1359485252
 20
24.2556876277
 30
0.0
 11
15.1723459731
 21
24.2413442972
 31
0.0
 11
15.1640019605
 21
24.2452806495
 31
0.0
 11
15.1551476622
 21
24.2489994386
 31
0.0
 11
15.14579151
 21
24.2524766265
 31
0.0
 11
15.1359485252
 21
24.2556876277
 31
0.0
  0
SPLINE
  5
3E1
100
AcDbEntity
  8
0
100
AcDbSpline
 62
6
  6
CONTINUOUS
 70
0
 71
3
 72
11
 73
7
 74
5
 42
0.0000001
 43
0.0000001
 44
0.0000000001
 12
-0.0347342498
 22
0.0196918567
 32
0.0
 13
-0.0377351347
 23
0.0130497868
 33
0.0
 40
0.0
 40
0.0
 40
0.0
 40
0.0
 40
0.2370774487
 40
0.4827669169
 40
0.7371081196
 40
1.0
 40
1.0
 40
1.0
 40
1.0
 10
15.1723459731
 20
24.2556870411
 30
0.0
 10
15.1696010706
 20
24.2572432062
 30
0.0
 10
15.163933408
 20
24.2602760996
 30
0.0
 10
15.155073695
 20
24.2644968774
 30
0.0
 10
15.1457139652
 20
24.268442294
 30
0.0
 10
15.1392552788
 20
24.2708320588
 30
0.0
 10
15.1359485252
 20
24.2719756198
 30
0.0
 11
15.1723459731
 21
24.2556870411
 31
0.0
 11
15.1640019605
 21
24.2601572431
 31
0.0
 11
15.1551476622
 21
24.2643803759
 31
0.0
 11
15.14579151
 21
24.2683291414
 31
0.0
 11
15.1359485252
 21
24.2719756198
 31
0.0
  0
SPLINE
  5
3E2
100
AcDbEntity
  8
0
100
AcDbSpline
 62
7
  6
CONTINUOUS
 70
0
 71
3
 72
11
 73
7
 74
5
 42
0.0000001
 43
0.0000001
 44
0.0000000001
 12
-0.0344350263
 22
0.0217664499
 32
0.0
 13
-0.0380099148
 23
0.0146559119
 33
0.0
 40
0.0
 40
0.0
 40
0.0
 40
0.0
 40
0.2385817985
 40
0.4847536478
 40
0.738580318
 40
1.0
 40
1.0
 40
1.0
 40
1.0
 10
15.1723459731
 20
24.2669094883
 30
0.0
 10
15.1696074496
 20
24.2686405145
 30
0.0
 10
15.1639521793
 20
24.2720155434
 30
0.0
 10
15.1550918596
 20
24.2767230222
 30
0.0
 10
15.145731231
 20
24.2811234708
 30
0.0
 10
15.1392607052
 20
24.2837934519
 30
0.0
 10
15.1359485252
 20
24.2850705665
 30
0.0
 11
15.1723459731
 21
24.2669094883
 31
0.0
 11
15.1640019605
 21
24.2718935749
 31
0.0
 11
15.1551476622
 21
24.2766021898
 31
0.0
 11
15.14579151
 21
24.2810048968
 31
0.0
 11
15.1359485252
 21
24.2850705665
 31
0.0
  0
SPLINE
  5
3E3
100
AcDbEntity
  8
0
100
AcDbSpline
 62
7
  6
CONTINUOUS
 70
0
 71
3
 72
13
 73
9
 74
7
 42
0.0000001
 43
0.0000001
 44
0.0000000001
 12
0.0394709599
 22
-0.0229845255
 32
0.0
 13
0.0330383992
 23
-0.0315390119
 33
0.0
 40
0.0
 40
0.0
 40
0.0
 40
0.0
 40
0.2539894111
 40
0.3799948065
 40
0.5053153004
 40
0.6299697231
 40
0.7539722358
 40
1.0
 40
1.0
 40
1.0
 40
1.0
 10
15.1359485252
 20
24.2943368184
 30
0.0
 10
15.1392902605
 20
24.2923908764
 30
0.0
 10
15.1442026312
 20
24.2893257805
 30
0.0
 10
15.1505397323
 20
24.2849619885
 30
0.0
 10
15.1551564527
 20
24.2815760793
 30
0.0
 10
15.1596475849
 20
24.2780747175
 30
0.0
 10
15.1654509454
 20
24.273272889
 30
0.0
 10
15.1696365186
 20
24.2694959791
 30
0.0
 10
15.1723459731
 20
24.2669094883
 30
0.0
 11
15.1359485252
 21
24.2943368184
 31
0.0
 11
15.1457915114
 21
24.2881967378
 31
0.0
 11
15.1505317869
 21
24.284932714
 31
0.0
 11
15.1551476647
 21
24.2815476551
 31
0.0
 11
15.1596380622
 21
24.2780470952
 31
0.0
 11
15.1640019613
 21
24.2744365843
 31
0.0
 11
15.1723459731
 21
24.2669094883
 31
0.0
  0
SPLINE
  5
3E4
100
AcDbEntity
  8
0
100
AcDbSpline
 62
7
  6
CONTINUOUS
 70
0
 71
3
 72
11
 73
7
 74
5
 42
0.0000001
 43
0.0000001
 44
0.0000000001
 12
-0.0341496335
 22
0.0237152757
 32
0.0
 13
-0.0382832758
 23
0.0162173538
 33
0.0
 40
0.0
 40
0.0
 40
0.0
 40
0.0
 40
0.2400456983
 40
0.4866921963
 40
0.7400204415
 40
1.0
 40
1.0
 40
1.0
 40
1.0
 10
15.1723459731
 20
24.2749615165
 30
0.0
 10
15.1696134822
 20
24.2768590998
 30
0.0
 10
15.1639702155
 20
24.2805600803
 30
0.0
 10
15.1551096
 20
24.2857333161
 30
0.0
 10
15.1457483499
 20
24.2905692803
 30
0.0
 10
15.1392661483
 20
24.2935085889
 30
0.0
 10
15.1359485252
 20
24.2949139824
 30
0.0
 11
15.1723459731
 21
24.2749615165
 31
0.0
 11
15.1640019605
 21
24.2804372277
 31
0.0
 11
15.1551476622
 21
24.2856102949
 31
0.0
 11
15.14579151
 21
24.2904472798
 31
0.0
 11
15.1359485252
 21
24.2949139824
 31
0.0
  0
SPLINE
  5
3E5
100
AcDbEntity
  8
0
100
AcDbSpline
 62
6
  6
CONTINUOUS
 70
0
 71
3
 72
11
 73
7
 74
5
 42
0.0000001
 43
0.0000001
 44
0.0000000001
 12
-0.0338826552
 22
0.0255373592
 32
0.0
 13
-0.0385496026
 23
0.0177234075
 33
0.0
 40
0.0
 40
0.0
 40
0.0
 40
0.0
 40
0.2414415398
 40
0.4885454257
 40
0.7414005614
 40
1.0
 40
1.0
 40
1.0
 40
1.0
 10
15.1723459731
 20
24.2798071635
 30
0.0
 10
15.1696190796
 20
24.2818624232
 30
0.0
 10
15.1639872012
 20
24.2858719761
 30
0.0
 10
15.1551265711
 20
24.2914878668
 30
0.0
 10
15.145764969
 20
24.2967378087
 30
0.0
 10
15.1392714938
 20
24.2999341502
 30
0.0
 10
15.1359485252
 20
24.3014619046
 30
0.0
 11
15.1723459731
 21
24.2798071635
 31
0.0
 11
15.1640019605
 21
24.2857500433
 31
0.0
 11
15.1551476622
 21
24.2913644587
 31
0.0
 11
15.14579151
 21
24.2966141184
 31
0.0
 11
15.1359485252
 21
24.3014619046
 31
0.0
  0
SPLINE
  5
3E6
100
AcDbEntity
  8
0
100
AcDbSpline
 62
6
  6
CONTINUOUS
 70
0
 71
3
 72
11
 73
7
 74
5
 42
0.0000001
 43
0.0000001
 44
0.0000000001
 12
-0.0388043812
 22
-0.019163305
 32
0.0
 13
-0.0336368873
 23
-0.0272318209
 33
0.0
 40
0.0
 40
0.0
 40
0.0
 40
0.0
 40
0.2572994768
 40
0.5097129455
 40
0.7572502289
 40
1.0
 40
1.0
 40
1.0
 40
1.0
 10
14.9479485252
 20
24.3046850883
 30
0.0
 10
14.9446204096
 20
24.3030415188
 30
0.0
 10
14.9381162539
 20
24.2996018087
 30
0.0
 10
14.9287545452
 20
24.2939613367
 30
0.0
 10
14.919894129
 20
24.2879279259
 30
0.0
 10
14.9142728596
 20
24.2836282934
 30
0.0
 10
14.9115510774
 20
24.2814247873
 30
0.0
 11
14.9479485252
 21
24.3046850883
 31
0.0
 11
14.9381055557
 21
24.2994778798
 31
0.0
 11
14.9287494131
 21
24.2938389969
 31
0.0
 11
14.9198950955
 21
24.2878082974
 31
0.0
 11
14.9115510774
 21
24.2814247873
 31
0.0
  0
SPLINE
  5
3E7
100
AcDbEntity
  8
0
100
AcDbSpline
 62
6
  6
CONTINUOUS
 70
0
 71
3
 72
11
 73
7
 74
5
 42
0.0000001
 43
0.0000001
 44
0.0000000001
 12
-0.0385496026
 22
-0.0177234075
 32
0.0
 13
-0.0338826552
 23
-0.0255373592
 33
0.0
 40
0.0
 40
0.0
 40
0.0
 40
0.0
 40
0.25859944
 40
0.5114545796
 40
0.7585584635
 40
1.0
 40
1.0
 40
1.0
 40
1.0
 10
14.9479485252
 20
24.3014619046
 30
0.0
 10
14.9446255567
 20
24.2999341502
 30
0.0
 10
14.9381320814
 20
24.2967378087
 30
0.0
 10
14.9287704793
 20
24.2914878667
 30
0.0
 10
14.9199098491
 20
24.2858719761
 30
0.0
 10
14.9142779708
 20
24.2818624232
 30
0.0
 10
14.9115510774
 20
24.2798071635
 30
0.0
 11
14.9479485252
 21
24.3014619046
 31
0.0
 11
14.9381055404
 21
24.2966141183
 31
0.0
 11
14.9287493881
 21
24.2913644586
 31
0.0
 11
14.9198950899
 21
24.2857500433
 31
0.0
 11
14.9115510774
 21
24.2798071635
 31
0.0
  0
SPLINE
  5
3E8
100
AcDbEntity
  8
0
100
AcDbSpline
 62
7
  6
CONTINUOUS
 70
0
 71
3
 72
11
 73
7
 74
5
 42
0.0000001
 43
0.0000001
 44
0.0000000001
 12
-0.0382832758
 22
-0.0162173538
 32
0.0
 13
-0.0341496335
 23
-0.0237152757
 33
0.0
 40
0.0
 40
0.0
 40
0.0
 40
0.0
 40
0.2599795599
 40
0.513307809
 40
0.759954305
 40
1.0
 40
1.0
 40
1.0
 40
1.0
 10
14.9479485252
 20
24.2949139824
 30
0.0
 10
14.9446309022
 20
24.2935085889
 30
0.0
 10
14.9381487005
 20
24.2905692802
 30
0.0
 10
14.9287874504
 20
24.285733316
 30
0.0
 10
14.9199268348
 20
24.2805600802
 30
0.0
 10
14.9142835682
 20
24.2768590998
 30
0.0
 10
14.9115510774
 20
24.2749615165
 30
0.0
 11
14.9479485252
 21
24.2949139824
 31
0.0
 11
14.9381055404
 21
24.2904472798
 31
0.0
 11
14.9287493881
 21
24.2856102948
 31
0.0
 11
14.9198950899
 21
24.2804372276
 31
0.0
 11
14.9115510774
 21
24.2749615165
 31
0.0
  0
SPLINE
  5
3E9
100
AcDbEntity
  8
0
100
AcDbSpline
 62
7
  6
CONTINUOUS
 70
0
 71
3
 72
13
 73
9
 74
7
 42
0.0000001
 43
0.0000001
 44
0.0000000001
 12
0.0330383992
 22
0.0315390119
 32
0.0
 13
0.0394709599
 23
0.0229845255
 33
0.0
 40
0.0
 40
0.0
 40
0.0
 40
0.0
 40
0.2460277612
 40
0.370030272
 40
0.4946846943
 40
0.6200051895
 40
0.7460105871
 40
1.0
 40
1.0
 40
1.0
 40
1.0
 10
14.9115510774
 20
24.2669094883
 30
0.0
 10
14.9142605319
 20
24.2694959791
 30
0.0
 10
14.918446105
 20
24.2732728889
 30
0.0
 10
14.9242494655
 20
24.2780747174
 30
0.0
 10
14.9287405976
 20
24.2815760792
 30
0.0
 10
14.933357318
 20
24.2849619884
 30
0.0
 10
14.9396944192
 20
24.2893257805
 30
0.0
 10
14.9446067899
 20
24.2923908763
 30
0.0
 10
14.9479485252
 20
24.2943368184
 30
0.0
 11
14.9115510774
 21
24.2669094883
 31
0.0
 11
14.9198950891
 21
24.2744365842
 31
0.0
 11
14.9242589881
 21
24.2780470951
 31
0.0
 11
14.9287493856
 21
24.2815476549
 31
0.0
 11
14.9333652634
 21
24.2849327139
 31
0.0
 11
14.938105539
 21
24.2881967378
 31
0.0
 11
14.9479485252
 21
24.2943368184
 31
0.0
  0
SPLINE
  5
3EA
100
AcDbEntity
  8
0
100
AcDbSpline
 62
7
  6
CONTINUOUS
 70
0
 71
3
 72
11
 73
7
 74
5
 42
0.0000001
 43
0.0000001
 44
0.0000000001
 12
-0.0380099148
 22
-0.0146559119
 32
0.0
 13
-0.0344350263
 23
-0.0217664499
 33
0.0
 40
0.0
 40
0.0
 40
0.0
 40
0.0
 40
0.2614196834
 40
0.5152463575
 40
0.7614182049
 40
1.0
 40
1.0
 40
1.0
 40
1.0
 10
14.9479485252
 20
24.2850705665
 30
0.0
 10
14.9446363453
 20
24.2837934519
 30
0.0
 10
14.9381658194
 20
24.2811234708
 30
0.0
 10
14.9288051908
 20
24.2767230221
 30
0.0
 10
14.9199448711
 20
24.2720155434
 30
0.0
 10
14.9142896009
 20
24.2686405145
 30
0.0
 10
14.9115510774
 20
24.2669094883
 30
0.0
 11
14.9479485252
 21
24.2850705665
 31
0.0
 11
14.9381055404
 21
24.2810048968
 31
0.0
 11
14.9287493881
 21
24.2766021897
 31
0.0
 11
14.9198950899
 21
24.2718935749
 31
0.0
 11
14.9115510774
 21
24.2669094883
 31
0.0
  0
SPLINE
  5
3EB
100
AcDbEntity
  8
0
100
AcDbSpline
 62
6
  6
CONTINUOUS
 70
0
 71
3
 72
11
 73
7
 74
5
 42
0.0000001
 43
0.0000001
 44
0.0000000001
 12
-0.0377351347
 22
-0.0130497868
 32
0.0
 13
-0.0347342498
 23
-0.0196918567
 33
0.0
 40
0.0
 40
0.0
 40
0.0
 40
0.0
 40
0.2628918819
 40
0.5172330883
 40
0.7629225547
 40
1.0
 40
1.0
 40
1.0
 40
1.0
 10
14.9479485252
 20
24.2719756198
 30
0.0
 10
14.9446417717
 20
24.2708320588
 30
0.0
 10
14.9381830852
 20
24.268442294
 30
0.0
 10
14.9288233554
 20
24.2644968773
 30
0.0
 10
14.9199636424
 20
24.2602760996
 30
0.0
 10
14.9142959798
 20
24.2572432061
 30
0.0
 10
14.9115510774
 20
24.2556870411
 30
0.0
 11
14.9479485252
 21
24.2719756198
 31
0.0
 11
14.9381055404
 21
24.2683291413
 31
0.0
 11
14.9287493881
 21
24.2643803758
 31
0.0
 11
14.9198950899
 21
24.260157243
 31
0.0
 11
14.9115510774
 21
24.2556870411
 31
0.0
  0
SPLINE
  5
3EC
100
AcDbEntity
  8
0
100
AcDbSpline
 62
6
  6
CONTINUOUS
 70
0
 71
3
 72
11
 73
7
 74
5
 42
0.0000001
 43
0.0000001
 44
0.0000000001
 12
-0.0374656513
 22
-0.0114092635
 32
0.0
 13
-0.0350405279
 23
-0.0174930766
 33
0.0
 40
0.0
 40
0.0
 40
0.0
 40
0.0
 40
0.2643602143
 40
0.5192196397
 40
0.7644309217
 40
1.0
 40
1.0
 40
1.0
 40
1.0
 10
14.9479485252
 20
24.2556876277
 30
0.0
 10
14.9446470494
 20
24.2546822425
 30
0.0
 10
14.9382000703
 20
24.2525821563
 30
0.0
 10
14.9288414973
 20
24.2491091701
 30
0.0
 10
14.919982704
 20
24.2453937674
 30
0.0
 10
14.9143025657
 20
24.2427179065
 30
0.0
 10
14.9115510774
 20
24.2413442972
 30
0.0
 11
14.9479485252
 21
24.2556876277
 31
0.0
 11
14.9381055404
 21
24.2524766265
 31
0.0
 11
14.9287493881
 21
24.2489994385
 31
0.0
 11
14.9198950899
 21
24.2452806494
 31
0.0
 11
14.9115510774
 21
24.2413442972
 31
0.0
  0
SPLINE
  5
3ED
100
AcDbEntity
  8
0
100
AcDbSpline
 62
7
  6
CONTINUOUS
 70
0
 71
3
 72
13
 73
9
 74
7
 42
0.0000001
 43
0.0000001
 44
0.0000000001
 12
0.0326374964
 22
0.0346412364
 32
0.0
 13
0.0399516851
 23
0.0258666637
 33
0.0
 40
0.0
 40
0.0
 40
0.0
 40
0.0
 40
0.2483050473
 40
0.3728886796
 40
0.4977439656
 40
0.622880911
 40
0.748315622
 40
1.0
 40
1.0
 40
1.0
 40
1.0
 10
14.9115510774
 20
24.2239453147
 30
0.0
 10
14.9142524291
 20
24.2268125127
 30
0.0
 10
14.9184309029
 20
24.2310061943
 30
0.0
 10
14.9242426781
 20
24.2363533479
 30
0.0
 10
14.9287335911
 20
24.2402465187
 30
0.0
 10
14.9333501311
 20
24.2440113641
 30
0.0
 10
14.9396773035
 20
24.2488561382
 30
0.0
 10
14.9445967869
 20
24.2522704018
 30
0.0
 10
14.9479485252
 20
24.2544404802
 30
0.0
 11
14.9115510774
 21
24.2239453147
 31
0.0
 11
14.9198950891
 21
24.2323143406
 31
0.0
 11
14.9242589881
 21
24.2363286988
 31
0.0
 11
14.9287493856
 21
24.2402208075
 31
0.0
 11
14.9333652634
 21
24.2439844962
 31
0.0
 11
14.938105539
 21
24.2476136117
 31
0.0
 11
14.9479485252
 21
24.2544404802
 31
0.0
  0
SPLINE
  5
3EE
100
AcDbEntity
  8
0
100
AcDbSpline
 62
6
  6
CONTINUOUS
 70
0
 71
3
 72
11
 73
7
 74
5
 42
0.0000001
 43
0.0000001
 44
0.0000000001
 12
-0.0372091636
 22
-0.0097438127
 32
0.0
 13
-0.035344613
 23
-0.0151730707
 33
0.0
 40
0.0
 40
0.0
 40
0.0
 40
0.0
 40
0.2657808004
 40
0.5211463784
 40
0.7658978785
 40
1.0
 40
1.0
 40
1.0
 40
1.0
 10
14.9479485252
 20
24.2362793361
 30
0.0
 10
14.9446520315
 20
24.2354160967
 30
0.0
 10
14.9382162803
 20
24.2336137306
 30
0.0
 10
14.928859069
 20
24.2306283781
 30
0.0
 10
14.9200014721
 20
24.2274346618
 30
0.0
 10
14.9143091604
 20
24.2251293307
 30
0.0
 10
14.9115510774
 20
24.2239453147
 30
0.0
 11
14.9479485252
 21
24.2362793361
 31
0.0
 11
14.9381055404
 21
24.2335181533
 31
0.0
 11
14.9287493881
 21
24.230528073
 31
0.0
 11
14.9198950899
 21
24.2273302366
 31
0.0
 11
14.9115510774
 21
24.2239453147
 31
0.0
  0
SPLINE
  5
3EF
100
AcDbEntity
  8
0
100
AcDbSpline
 62
6
  6
CONTINUOUS
 70
0
 71
3
 72
11
 73
7
 74
5
 42
0.0000001
 43
0.0000001
 44
0.0000000001
 12
-0.0369740876
 22
-0.0080616956
 32
0.0
 13
-0.0356347809
 23
-0.0127372085
 33
0.0
 40
0.0
 40
0.0
 40
0.0
 40
0.0
 40
0.2671029844
 40
0.5229438794
 40
0.7672700266
 40
1.0
 40
1.0
 40
1.0
 40
1.0
 10
14.9479485252
 20
24.2138374273
 30
0.0
 10
14.9446565622
 20
24.2131196597
 30
0.0
 10
14.9382311714
 20
24.2116216679
 30
0.0
 10
14.9288754377
 20
24.2091369018
 30
0.0
 10
14.9200192313
 20
24.2064787542
 30
0.0
 10
14.9143155046
 20
24.2045559118
 30
0.0
 10
14.9115510774
 20
24.2035678017
 30
0.0
 11
14.9479485252
 21
24.2138374273
 31
0.0
 11
14.9381055404
 21
24.211538395
 31
0.0
 11
14.9287493881
 21
24.2090487767
 31
0.0
 11
14.9198950899
 21
24.2063861753
 31
0.0
 11
14.9115510774
 21
24.2035678017
 31
0.0
  0
SPLINE
  5
3F0
100
AcDbEntity
  8
0
100
AcDbSpline
 62
7
  6
CONTINUOUS
 70
0
 71
3
 72
13
 73
9
 74
7
 42
0.0000001
 43
0.0000001
 44
0.0000000001
 12
0.0324701635
 22
0.0360140283
 32
0.0
 13
0.0401618708
 23
0.0271725207
 33
0.0
 40
0.0
 40
0.0
 40
0.0
 40
0.0
 40
0.2492751398
 40
0.3741080738
 40
0.4990509913
 40
0.6241113174
 40
0.7493031969
 40
1.0
 40
1.0
 40
1.0
 40
1.0
 10
14.9115510774
 20
24.1803027691
 30
0.0
 10
14.9142490789
 20
24.1832952364
 30
0.0
 10
14.9184245269
 20
24.1876750289
 30
0.0
 10
14.9242398085
 20
24.1932663174
 30
0.0
 10
14.9287306055
 20
24.1973346822
 30
0.0
 10
14.9333470418
 20
24.2012689673
 30
0.0
 10
14.9396698669
 20
24.2063284288
 30
0.0
 10
14.9445923744
 20
24.2098991172
 30
0.0
 10
14.9479485252
 20
24.2121698053
 30
0.0
 11
14.9115510774
 21
24.1803027691
 31
0.0
 11
14.9198950897
 21
24.1890482888
 31
0.0
 11
14.9242589912
 21
24.1932432411
 31
0.0
 11
14.9287493928
 21
24.1973104452
 31
0.0
 11
14.9333652722
 21
24.2012434503
 31
0.0
 11
14.9381055442
 21
24.2050358246
 31
0.0
 11
14.9479485252
 21
24.2121698053
 31
0.0
  0
SPLINE
  5
3F1
100
AcDbEntity
  8
0
100
AcDbSpline
 62
7
  6
CONTINUOUS
 70
0
 71
3
 72
11
 73
7
 74
5
 42
0.0000001
 43
0.0000001
 44
0.0000000001
 12
-0.0367691233
 22
-0.0063696249
 32
0.0
 13
-0.0358972702
 23
-0.0101944369
 33
0.0
 40
0.0
 40
0.0
 40
0.0
 40
0.0
 40
0.268271882
 40
0.5245363788
 40
0.7684886028
 40
1.0
 40
1.0
 40
1.0
 40
1.0
 10
14.9479485252
 20
24.1884621323
 30
0.0
 10
14.9446604846
 20
24.1878925352
 30
0.0
 10
14.9382441793
 20
24.1867042415
 30
0.0
 10
14.9288899173
 20
24.1847307353
 30
0.0
 10
14.9200351673
 20
24.1826195745
 30
0.0
 10
14.9143212865
 20
24.1810894786
 30
0.0
 10
14.9115510774
 20
24.1803027691
 30
0.0
 11
14.9479485252
 21
24.1884621323
 31
0.0
 11
14.9381055404
 21
24.1866355185
 31
0.0
 11
14.9287493881
 21
24.1846574815
 31
0.0
 11
14.9198950899
 21
24.1825420069
 31
0.0
 11
14.9115510774
 21
24.1803027691
 31
0.0
  0
SPLINE
  5
3F2
100
AcDbEntity
  8
0
100
AcDbSpline
 62
7
  6
CONTINUOUS
 70
0
 71
3
 72
13
 73
9
 74
7
 42
0.0000001
 43
0.0000001
 44
0.0000000001
 12
0.0324140902
 22
0.0364863933
 32
0.0
 13
0.0402336263
 23
0.0276258114
 33
0.0
 40
0.0
 40
0.0
 40
0.0
 40
0.0
 40
0.2496028243
 40
0.3745201098
 40
0.499492757
 40
0.624527351
 40
0.7496373693
 40
1.0
 40
1.0
 40
1.0
 40
1.0
 10
14.9115510774
 20
24.1542541242
 30
0.0
 10
14.9142479602
 20
24.1572898265
 30
0.0
 10
14.9184223848
 20
24.1617338637
 30
0.0
 10
14.924238837
 20
24.1674095036
 30
0.0
 10
14.9287295874
 20
24.1715383724
 30
0.0
 10
14.9333459837
 20
24.1755311765
 30
0.0
 10
14.9396673285
 20
24.1806647364
 30
0.0
 10
14.9445908597
 20
24.1842894925
 30
0.0
 10
14.9479485252
 20
24.1865949828
 30
0.0
 11
14.9115510774
 21
24.1542541242
 31
0.0
 11
14.9198950891
 21
24.1631296781
 31
0.0
 11
14.9242589881
 21
24.1673870018
 31
0.0
 11
14.9287493856
 21
24.1715146769
 31
0.0
 11
14.9333652634
 21
24.1755061596
 31
0.0
 11
14.938105539
 21
24.1793549241
 31
0.0
 11
14.9479485252
 21
24.1865949828
 31
0.0
  0
SPLINE
  5
3F3
100
AcDbEntity
  8
0
100
AcDbSpline
 62
6
  6
CONTINUOUS
 70
0
 71
3
 72
11
 73
7
 74
5
 42
0.0000001
 43
0.0000001
 44
0.0000000001
 12
-0.0366026661
 22
-0.0046725464
 32
0.0
 13
-0.0361172965
 23
-0.0075583564
 33
0.0
 40
0.0
 40
0.0
 40
0.0
 40
0.0
 40
0.2692323905
 40
0.5258473502
 40
0.7694938286
 40
1.0
 40
1.0
 40
1.0
 40
1.0
 10
14.9479485252
 20
24.1602667833
 30
0.0
 10
14.9446636508
 20
24.1598474497
 30
0.0
 10
14.9382547585
 20
24.1589729227
 30
0.0
 10
14.9289018201
 20
24.1575190657
 30
0.0
 10
14.920048429
 20
24.1559638439
 30
0.0
 10
14.914326164
 20
24.1548348735
 30
0.0
 10
14.9115510774
 20
24.1542541242
 30
0.0
 11
14.9479485252
 21
24.1602667833
 31
0.0
 11
14.9381055404
 21
24.1589207462
 31
0.0
 11
14.9287493881
 21
24.1574631248
 31
0.0
 11
14.9198950899
 21
24.1559042252
 31
0.0
 11
14.9115510774
 21
24.1542541242
 31
0.0
  0
SPLINE
  5
3F4
100
AcDbEntity
  8
0
100
AcDbSpline
 62
6
  6
CONTINUOUS
 70
0
 71
3
 72
11
 73
7
 74
5
 42
0.0000001
 43
0.0000001
 44
0.0000000001
 12
-0.0364821145
 22
-0.002973609
 32
0.0
 13
-0.0362806461
 23
-0.0048478603
 33
0.0
 40
0.0
 40
0.0
 40
0.0
 40
0.0
 40
0.2699343765
 40
0.5268068289
 40
0.7702307314
 40
1.0
 40
1.0
 40
1.0
 40
1.0
 10
14.9479485252
 20
24.1293773076
 30
0.0
 10
14.944665933
 20
24.1291097478
 30
0.0
 10
14.9382624279
 20
24.1285518837
 30
0.0
 10
14.9289105211
 20
24.1276237961
 30
0.0
 10
14.9200582169
 20
24.126631026
 30
0.0
 10
14.9143298032
 20
24.1259095031
 30
0.0
 10
14.9115510774
 20
24.1255382066
 30
0.0
 11
14.9479485252
 21
24.1293773076
 31
0.0
 11
14.9381055404
 21
24.1285178588
 31
0.0
 11
14.9287493881
 21
24.1275871631
 31
0.0
 11
14.9198950899
 21
24.1265918011
 31
0.0
 11
14.9115510774
 21
24.1255382066
 31
0.0
  0
SPLINE
  5
3F5
100
AcDbEntity
  8
0
100
AcDbSpline
 62
7
  6
CONTINUOUS
 70
0
 71
3
 72
13
 73
9
 74
7
 42
0.0000001
 43
0.0000001
 44
0.0000000001
 12
0.0323543897
 22
0.0369967121
 32
0.0
 13
0.0403107705
 23
0.0281176994
 33
0.0
 40
0.0
 40
0.0
 40
0.0
 40
0.0
 40
0.2499531889
 40
0.3749608596
 40
0.4999655522
 40
0.6249727974
 40
0.7499952274
 40
1.0
 40
1.0
 40
1.0
 40
1.0
 10
14.9115510774
 20
24.0942832685
 30
0.0
 10
14.9142467717
 20
24.0973657506
 30
0.0
 10
14.9184201032
 20
24.1018793069
 30
0.0
 10
14.9242378034
 20
24.1076462654
 30
0.0
 10
14.9287285052
 20
24.111840622
 30
0.0
 10
14.9333448576
 20
24.1158967639
 30
0.0
 10
14.9396646075
 20
24.1211104945
 30
0.0
 10
14.9445892302
 20
24.1247937881
 30
0.0
 10
14.9479485252
 20
24.1271369744
 30
0.0
 11
14.9115510774
 21
24.0942832685
 31
0.0
 11
14.9198950891
 21
24.103299567
 31
0.0
 11
14.9242589881
 21
24.1076244015
 31
0.0
 11
14.9287493856
 21
24.1118175316
 31
0.0
 11
14.9333652634
 21
24.1158723094
 31
0.0
 11
14.938105539
 21
24.119782106
 31
0.0
 11
14.9479485252
 21
24.1271369744
 31
0.0
  0
SPLINE
  5
3F6
100
AcDbEntity
  8
0
100
AcDbSpline
 62
7
  6
CONTINUOUS
 70
0
 71
3
 72
11
 73
7
 74
5
 42
0.0000001
 43
0.0000001
 44
0.0000000001
 12
-0.0364131627
 22
-0.0012743667
 32
0.0
 13
-0.0363756368
 23
-0.0020869778
 33
0.0
 40
0.0
 40
0.0
 40
0.0
 40
0.0
 40
0.2703383206
 40
0.5273594616
 40
0.7706556271
 40
1.0
 40
1.0
 40
1.0
 40
1.0
 10
14.9479485252
 20
24.095931665
 30
0.0
 10
14.9446672342
 20
24.0958168283
 30
0.0
 10
14.9382668173
 20
24.0955774268
 30
0.0
 10
14.9289155285
 20
24.0951789849
 30
0.0
 10
14.9200638858
 20
24.0947527808
 30
0.0
 10
14.9143319266
 20
24.0944428141
 30
0.0
 10
14.9115510774
 20
24.0942832685
 30
0.0
 11
14.9479485252
 21
24.095931665
 31
0.0
 11
14.9381055404
 21
24.0955626431
 31
0.0
 11
14.9287493881
 21
24.0951630299
 31
0.0
 11
14.9198950899
 21
24.0947356509
 31
0.0
 11
14.9115510774
 21
24.0942832685
 31
0.0
  0
SPLINE
  5
3F7
100
AcDbEntity
  8
0
100
AcDbSpline
 62
7
  6
CONTINUOUS
 70
0
 71
3
 72
13
 73
9
 74
7
 42
0.0000001
 43
0.0000001
 44
0.0000000001
 12
0.0323628744
 22
0.0369237051
 32
0.0
 13
0.0402997593
 23
0.0280471931
 33
0.0
 40
0.0
 40
0.0
 40
0.0
 40
0.0
 40
0.2499033023
 40
0.3748980955
 40
0.4998982159
 40
0.6249093478
 40
0.7499442472
 40
1.0
 40
1.0
 40
1.0
 40
1.0
 10
14.9115510774
 20
24.0247254159
 30
0.0
 10
14.9142469405
 20
24.0278012012
 30
0.0
 10
14.9184204276
 20
24.0323048051
 30
0.0
 10
14.9242379504
 20
24.0380586878
 30
0.0
 10
14.9287286593
 20
24.0422436682
 30
0.0
 10
14.9333450181
 20
24.0462907417
 30
0.0
 10
14.9396649957
 20
24.0514929955
 30
0.0
 10
14.944589463
 20
24.0551679067
 30
0.0
 10
14.9479485252
 20
24.057505694
 30
0.0
 11
14.9115510774
 21
24.0247254159
 31
0.0
 11
14.9198950891
 21
24.0337215631
 31
0.0
 11
14.9242589881
 21
24.0380367316
 31
0.0
 11
14.9287493856
 21
24.0422204901
 31
0.0
 11
14.9333652634
 21
24.0462662055
 31
0.0
 11
14.938105539
 21
24.0501672637
 31
0.0
 11
14.9479485252
 21
24.057505694
 31
0.0
  0
SPLINE
  5
3F8
100
AcDbEntity
  8
0
100
AcDbSpline
 62
7
  6
CONTINUOUS
 70
0
 71
3
 72
11
 73
7
 74
5
 42
0.0000001
 43
0.0000001
 44
0.0000000001
 12
-0.0364409171
 22
0.0021239806
 32
0.0
 13
-0.0363372628
 23
0.0034720398
 33
0.0
 40
0.0
 40
0.0
 40
0.0
 40
0.0
 40
0.2701755121
 40
0.5271366789
 40
0.7704842985
 40
1.0
 40
1.0
 40
1.0
 40
1.0
 10
14.9479485252
 20
24.0219801342
 30
0.0
 10
14.9446667108
 20
24.0221714167
 30
0.0
 10
14.9382650502
 20
24.0225702085
 30
0.0
 10
14.9289135102
 20
24.0232338185
 30
0.0
 10
14.9200615977
 20
24.0239436717
 30
0.0
 10
14.9143310682
 20
24.0244597867
 30
0.0
 10
14.9115510774
 20
24.0247254159
 30
0.0
 11
14.9479485252
 21
24.0219801342
 31
0.0
 11
14.9381055404
 21
24.0225947127
 31
0.0
 11
14.9287493881
 21
24.0232602388
 31
0.0
 11
14.9198950899
 21
24.0239720068
 31
0.0
 11
14.9115510774
 21
24.0247254159
 31
0.0
  0
SPLINE
  5
3F9
100
AcDbEntity
  8
0
100
AcDbSpline
 62
7
  6
CONTINUOUS
 70
0
 71
3
 72
13
 73
9
 74
7
 42
0.0000001
 43
0.0000001
 44
0.0000000001
 12
0.0323926864
 22
0.0366684553
 32
0.0
 13
0.0402611948
 23
0.027801042
 33
0.0
 40
0.0
 40
0.0
 40
0.0
 40
0.0
 40
0.2497282627
 40
0.3746778931
 40
0.4996619957
 40
0.6246867843
 40
0.7497654405
 40
1.0
 40
1.0
 40
1.0
 40
1.0
 10
14.9115510774
 20
23.9867331637
 30
0.0
 10
14.9142475338
 20
23.9897855469
 30
0.0
 10
14.9184215671
 20
23.9942543728
 30
0.0
 10
14.9242384667
 20
23.9999625698
 30
0.0
 10
14.9287292
 20
24.004114788
 30
0.0
 10
14.9333455809
 20
24.0081301749
 30
0.0
 10
14.9396663557
 20
24.0132923227
 30
0.0
 10
14.9445902778
 20
24.0169379476
 30
0.0
 10
14.9479485252
 20
24.0192568748
 30
0.0
 11
14.9115510774
 21
23.9867331637
 31
0.0
 11
14.9198950891
 21
23.9956588992
 31
0.0
 11
14.9242589881
 21
23.9999402934
 31
0.0
 11
14.9287493856
 21
24.0040913062
 31
0.0
 11
14.9333652634
 21
24.0081053563
 31
0.0
 11
14.938105539
 21
24.0119758814
 31
0.0
 11
14.9479485252
 21
24.0192568748
 31
0.0
  0
SPLINE
  5
3FA
100
AcDbEntity
  8
0
100
AcDbSpline
 62
7
  6
CONTINUOUS
 70
0
 71
3
 72
11
 73
7
 74
5
 42
0.0000001
 43
0.0000001
 44
0.0000000001
 12
-0.0368673019
 22
0.0072165526
 32
0.0
 13
-0.0357704015
 23
0.011478456
 33
0.0
 40
0.0
 40
0.0
 40
0.0
 40
0.0
 40
0.2677100891
 40
0.5237705984
 40
0.767902286
 40
1.0
 40
1.0
 40
1.0
 40
1.0
 10
14.9479485252
 20
23.8959500196
 30
0.0
 10
14.944658609
 20
23.8965940009
 30
0.0
 10
14.9382379458
 20
23.8979377287
 30
0.0
 10
14.9288829573
 20
23.9001680561
 30
0.0
 10
14.9200274804
 20
23.9025539832
 30
0.0
 10
14.9143184869
 20
23.9042816214
 30
0.0
 10
14.9115510774
 20
23.9051696625
 30
0.0
 11
14.9479485252
 21
23.8959500196
 31
0.0
 11
14.9381055404
 21
23.8980139952
 31
0.0
 11
14.9287493881
 21
23.900249071
 31
0.0
 11
14.9198950899
 21
23.9026394439
 31
0.0
 11
14.9115510774
 21
23.9051696625
 31
0.0
  0
SPLINE
  5
3FB
100
AcDbEntity
  8
0
100
AcDbSpline
 62
7
  6
CONTINUOUS
 70
0
 71
3
 72
11
 73
7
 74
5
 42
0.0000001
 43
0.0000001
 44
0.0000000001
 12
-0.0375992705
 22
0.0122332092
 32
0.0
 13
-0.0348870252
 23
0.0186078483
 33
0.0
 40
0.0
 40
0.0
 40
0.0
 40
0.0
 40
0.2636290952
 40
0.518229858
 40
0.7636788695
 40
1.0
 40
1.0
 40
1.0
 40
1.0
 10
14.9479485252
 20
23.756337821
 30
0.0
 10
14.944644438
 20
23.7574128309
 30
0.0
 10
14.9381916423
 20
23.75965885
 30
0.0
 10
14.9288324611
 20
23.7633700906
 30
0.0
 10
14.9199731701
 20
23.7673403693
 30
0.0
 10
14.9142992578
 20
23.7701965241
 30
0.0
 10
14.9115510774
 20
23.7716623333
 30
0.0
 11
14.9479485252
 21
23.756337821
 31
0.0
 11
14.9381055404
 21
23.7597684766
 31
0.0
 11
14.9287493881
 21
23.763483528
 31
0.0
 11
14.9198950899
 21
23.7674567077
 31
0.0
 11
14.9115510774
 21
23.7716623333
 31
0.0
  0
SPLINE
  5
3FC
100
AcDbEntity
  8
0
100
AcDbSpline
 62
7
  6
CONTINUOUS
 70
0
 71
3
 72
11
 73
7
 74
5
 42
0.0000001
 43
0.0000001
 44
0.0000000001
 12
-0.0384176258
 22
0.0169779795
 32
0.0
 13
-0.0340136309
 23
0.0246422132
 33
0.0
 40
0.0
 40
0.0
 40
0.0
 40
0.0
 40
0.2592805524
 40
0.5123686229
 40
0.7592464742
 40
1.0
 40
1.0
 40
1.0
 40
1.0
 10
14.9479485252
 20
23.6087387193
 30
0.0
 10
14.9446282108
 20
23.6102060726
 30
0.0
 10
14.9381403094
 20
23.6132755209
 30
0.0
 10
14.9287788509
 20
23.6183212884
 30
0.0
 10
14.9199181955
 20
23.6237188695
 30
0.0
 10
14.9142807113
 20
23.6275763802
 30
0.0
 10
14.9115510774
 20
23.6295539468
 30
0.0
 11
14.9479485252
 21
23.6087387193
 31
0.0
 11
14.9381055404
 21
23.6133985659
 31
0.0
 11
14.9287493881
 21
23.6184447062
 31
0.0
 11
14.9198950899
 21
23.6238414612
 31
0.0
 11
14.9115510774
 21
23.6295539468
 31
0.0
  0
SPLINE
  5
3FD
100
AcDbEntity
  8
0
100
AcDbSpline
 62
7
  6
CONTINUOUS
 70
0
 71
3
 72
11
 73
7
 74
5
 42
0.0000001
 43
0.0000001
 44
0.0000000001
 12
0.0335224474
 22
0.0280308718
 32
0.0
 13
0.0389263118
 23
0.019855138
 33
0.0
 40
0.0
 40
0.0
 40
0.0
 40
0.0
 40
0.2433664041
 40
0.4911086717
 40
0.743314947
 40
1.0
 40
1.0
 40
1.0
 40
1.0
 10
14.9115510774
 20
23.5812519072
 30
0.0
 10
14.9142704899
 20
23.5835258314
 30
0.0
 10
14.9198867644
 20
23.5879632254
 30
0.0
 10
14.9287469917
 20
23.5941953691
 30
0.0
 10
14.9381086802
 20
23.6000217469
 30
0.0
 10
14.9446179244
 20
23.6035776221
 30
0.0
 10
14.9479485252
 20
23.6052764612
 30
0.0
 11
14.9115510774
 21
23.5812519072
 31
0.0
 11
14.9198950891
 21
23.5878451528
 31
0.0
 11
14.9287493856
 21
23.5940739874
 31
0.0
 11
14.938105539
 21
23.5998981507
 31
0.0
 11
14.9479485252
 21
23.6052764612
 31
0.0
  0
SPLINE
  5
3FE
100
AcDbEntity
  8
0
100
AcDbSpline
 62
6
  6
CONTINUOUS
 70
0
 71
3
 72
11
 73
7
 74
5
 42
0.0000001
 43
0.0000001
 44
0.0000000001
 12
-0.0203810906
 22
-0.010718723
 32
0.0
 13
-0.0184699522
 23
-0.013752845
 33
0.0
 40
0.0
 40
0.0
 40
0.0
 40
0.0
 40
0.2498195768
 40
0.4997993215
 40
0.7498955713
 40
1.0
 40
1.0
 40
1.0
 40
1.0
 10
17.988912586
 20
23.1937610904
 30
0.0
 10
17.9872153875
 20
23.1928685081
 30
0.0
 10
17.9838583928
 20
23.191008606
 30
0.0
 10
17.9789412323
 20
23.1880133381
 30
0.0
 10
17.9741425307
 20
23.1848280116
 30
0.0
 10
17.9710229419
 20
23.1825880839
 30
0.0
 10
17.9694831363
 20
23.1814415348
 30
0.0
 11
17.988912586
 21
23.1937610904
 31
0.0
 11
17.9838793926
 21
23.190975119
 31
0.0
 11
17.9789620396
 21
23.1879823341
 31
0.0
 11
17.9741625974
 21
23.1847990385
 31
0.0
 11
17.9694831363
 21
23.1814415348
 31
0.0
  0
SPLINE
  5
3FF
100
AcDbEntity
  8
0
100
AcDbSpline
 62
6
  6
CONTINUOUS
 70
0
 71
3
 72
36
 73
32
 74
30
 42
0.0000001
 43
0.0000001
 44
0.0000000001
 12
-0.1974489458
 22
-0.1470217527
 32
0.0
 13
-0.0851436912
 23
-0.2309805919
 33
0.0
 40
0.0
 40
0.0
 40
0.0
 40
0.0
 40
0.031268455
 40
0.0625302372
 40
0.0937922363
 40
0.1094226245
 40
0.1250512977
 40
0.1563067733
 40
0.1875647647
 40
0.2188233666
 40
0.2500770284
 40
0.2813284864
 40
0.3125806966
 40
0.3438331103
 40
0.3750829257
 40
0.4063312561
 40
0.4375799957
 40
0.4688293074
 40
0.5000777572
 40
0.5313244644
 40
0.5625707652
 40
0.5938174076
 40
0.6250642966
 40
0.6563105675
 40
0.6875558218
 40
0.7188008145
 40
0.7500459788
 40
0.8125358089
 40
0.8750236001
 40
0.937511386
 40
1.0
 40
1.0
 40
1.0
 40
1.0
 10
17.9694831363
 20
23.1814415348
 30
0.0
 10
17.9674251618
 20
23.1799091538
 30
0.0
 10
17.9633801177
 20
23.1767489644
 30
0.0
 10
17.95752245
 20
23.1717536651
 30
0.0
 10
17.9528095209
 20
23.1674018398
 30
0.0
 10
17.9491357554
 20
23.163820493
 30
0.0
 10
17.9455247858
 20
23.1601765684
 30
0.0
 10
17.9411259224
 20
23.1555094909
 30
0.0
 10
17.9360231245
 20
23.1497486461
 30
0.0
 10
17.931086798
 20
23.1438449049
 30
0.0
 10
17.9263066751
 20
23.1378148675
 30
0.0
 10
17.9216756331
 20
23.1316703699
 30
0.0
 10
17.9171859006
 20
23.1254221193
 30
0.0
 10
17.9128294833
 20
23.1190804731
 30
0.0
 10
17.9085977208
 20
23.1126554413
 30
0.0
 10
17.9044847188
 20
23.1061541584
 30
0.0
 10
17.9004847517
 20
23.0995828296
 30
0.0
 10
17.896591875
 20
23.0929475401
 30
0.0
 10
17.8927998993
 20
23.0862543143
 30
0.0
 10
17.8891032417
 20
23.0795082908
 30
0.0
 10
17.8854980533
 20
23.0727131385
 30
0.0
 10
17.8819800154
 20
23.0658724694
 30
0.0
 10
17.8785449247
 20
23.0589898011
 30
0.0
 10
17.8751883526
 20
23.05206865
 30
0.0
 10
17.8719064448
 20
23.0451119727
 30
0.0
 10
17.8686964596
 20
23.0381219242
 30
0.0
 10
17.8645083826
 20
23.0287602982
 30
0.0
 10
17.8594381506
 20
23.0169854653
 30
0.0
 10
17.853593416
 20
23.0027553446
 30
0.0
 10
17.8479717592
 20
22.9884358332
 30
0.0
 10
17.84436157
 20
22.9788365933
 30
0.0
 10
17.8425880662
 20
22.9740253743
 30
0.0
 11
17.9694831363
 21
23.1814415348
 31
0.0
 11
17.9634146441
 21
23.1767060878
 31
0.0
 11
17.9575560804
 21
23.1717157972
 31
0.0
 11
17.951899037
 21
23.1664980917
 31
0.0
 11
17.9491434575
 21
23.1638125245
 31
0.0
 11
17.9464350754
 21
23.1610799602
 31
0.0
 11
17.9411553815
 21
23.1554829335
 31
0.0
 11
17.9360508873
 21
23.1497248482
 31
0.0
 11
17.9311125199
 21
23.1438234715
 31
0.0
 11
17.9263313571
 21
23.1377955791
 31
0.0
 11
17.9216992109
 21
23.131653114
 31
0.0
 11
17.9172081169
 21
23.1254065484
 31
0.0
 11
17.9128501107
 21
23.1190663545
 31
0.0
 11
17.9086174206
 21
23.1126425884
 31
0.0
 11
17.9045035718
 21
23.1061425069
 31
0.0
 11
17.9005026251
 21
23.0995722111
 31
0.0
 11
17.8966086428
 21
23.0929377986
 31
0.0
 11
17.892815696
 21
23.0862453538
 31
0.0
 11
17.8891184589
 21
23.0795000516
 31
0.0
 11
17.8855125925
 21
23.0727055794
 31
0.0
 11
17.881993849
 21
23.0658654872
 31
0.0
 11
17.8785579805
 21
23.0589833247
 31
0.0
 11
17.8752007495
 21
23.0520626303
 31
0.0
 11
17.8719184164
 21
23.0451063777
 31
0.0
 11
17.868707951
 21
23.0381167366
 31
0.0
 11
17.8655663771
 21
23.0310958154
 31
0.0
 11
17.8594779994
 21
23.0169685664
 31
0.0
 11
17.853630589
 21
23.0027404304
 31
0.0
 11
17.8480061811
 21
22.9884226771
 31
0.0
 11
17.8425880662
 21
22.9740253743
 31
0.0
  0
SPLINE
  5
400
100
AcDbEntity
  8
0
100
AcDbSpline
 62
6
  6
CONTINUOUS
 70
0
 71
3
 72
11
 73
7
 74
5
 42
0.0000001
 43
0.0000001
 44
0.0000000001
 12
-0.0203810894
 22
0.0107187223
 32
0.0
 13
-0.0184699512
 23
0.013752844
 33
0.0
 40
0.0
 40
0.0
 40
0.0
 40
0.0
 40
0.2498195768
 40
0.4997993215
 40
0.7498955712
 40
1.0
 40
1.0
 40
1.0
 40
1.0
 10
17.9889125859
 20
23.9203325786
 30
0.0
 10
17.9872153876
 20
23.9212251609
 30
0.0
 10
17.9838583931
 20
23.9230850629
 30
0.0
 10
17.9789412329
 20
23.9260803306
 30
0.0
 10
17.9741425315
 20
23.9292656569
 30
0.0
 10
17.971022943
 20
23.9315055844
 30
0.0
 10
17.9694831374
 20
23.9326521334
 30
0.0
 11
17.9889125859
 21
23.9203325786
 31
0.0
 11
17.9838793929
 21
23.9231185499
 31
0.0
 11
17.9789620401
 21
23.9261113346
 31
0.0
 11
17.9741625982
 21
23.92929463
 31
0.0
 11
17.9694831374
 21
23.9326521334
 31
0.0
  0
SPLINE
  5
401
100
AcDbEntity
  8
0
100
AcDbSpline
 62
6
  6
CONTINUOUS
 70
0
 71
3
 72
36
 73
32
 74
30
 42
0.0000001
 43
0.0000001
 44
0.0000000001
 12
-0.1974489494
 22
0.1470217527
 32
0.0
 13
-0.0851436919
 23
0.2309805947
 33
0.0
 40
0.0
 40
0.0
 40
0.0
 40
0.0
 40
0.031268455
 40
0.0625302372
 40
0.0937922363
 40
0.1094226245
 40
0.1250512978
 40
0.1563067733
 40
0.1875647647
 40
0.2188233666
 40
0.2500770284
 40
0.2813284864
 40
0.3125806966
 40
0.3438331103
 40
0.3750829257
 40
0.4063312561
 40
0.4375799957
 40
0.4688293074
 40
0.5000777572
 40
0.5313244644
 40
0.5625707652
 40
0.5938174076
 40
0.6250642966
 40
0.6563105675
 40
0.6875558218
 40
0.7188008145
 40
0.7500459788
 40
0.8125358089
 40
0.8750236001
 40
0.937511386
 40
1.0
 40
1.0
 40
1.0
 40
1.0
 10
17.9694831374
 20
23.9326521334
 30
0.0
 10
17.9674251629
 20
23.9341845145
 30
0.0
 10
17.9633801187
 20
23.9373447039
 30
0.0
 10
17.9575224509
 20
23.9423400032
 30
0.0
 10
17.9528095217
 20
23.9466918285
 30
0.0
 10
17.9491357561
 20
23.9502731753
 30
0.0
 10
17.9455247865
 20
23.9539170999
 30
0.0
 10
17.941125923
 20
23.9585841774
 30
0.0
 10
17.936023125
 20
23.9643450223
 30
0.0
 10
17.9310867984
 20
23.9702487636
 30
0.0
 10
17.9263066755
 20
23.976278801
 30
0.0
 10
17.9216756334
 20
23.9824232986
 30
0.0
 10
17.9171859008
 20
23.9886715493
 30
0.0
 10
17.9128294836
 20
23.9950131956
 30
0.0
 10
17.908597721
 20
24.0014382274
 30
0.0
 10
17.9044847189
 20
24.0079395104
 30
0.0
 10
17.9004847517
 20
24.0145108393
 30
0.0
 10
17.896591875
 20
24.0211461289
 30
0.0
 10
17.8927998993
 20
24.0278393548
 30
0.0
 10
17.8891032417
 20
24.0345853784
 30
0.0
 10
17.8854980532
 20
24.0413805307
 30
0.0
 10
17.8819800152
 20
24.0482212
 30
0.0
 10
17.8785449246
 20
24.0551038683
 30
0.0
 10
17.8751883524
 20
24.0620250195
 30
0.0
 10
17.8719064446
 20
24.0689816969
 30
0.0
 10
17.8686964594
 20
24.0759717455
 30
0.0
 10
17.8645083823
 20
24.0853333716
 30
0.0
 10
17.8594381503
 20
24.0971082047
 30
0.0
 10
17.8535934156
 20
24.1113383255
 30
0.0
 10
17.8479717587
 20
24.1256578371
 30
0.0
 10
17.8443615695
 20
24.135257077
 30
0.0
 10
17.8425880657
 20
24.1400682961
 30
0.0
 11
17.9694831374
 21
23.9326521334
 31
0.0
 11
17.9634146451
 21
23.9373875804
 31
0.0
 11
17.9575560813
 21
23.942377871
 31
0.0
 11
17.9518990378
 21
23.9475955766
 31
0.0
 11
17.9491434582
 21
23.9502811438
 31
0.0
 11
17.9464350761
 21
23.9530137081
 31
0.0
 11
17.9411553821
 21
23.9586107349
 31
0.0
 11
17.9360508879
 21
23.9643688202
 31
0.0
 11
17.9311125204
 21
23.9702701969
 31
0.0
 11
17.9263313575
 21
23.9762980894
 31
0.0
 11
17.9216992112
 21
23.9824405546
 31
0.0
 11
17.9172081171
 21
23.9886871202
 31
0.0
 11
17.9128501109
 21
23.9950273143
 31
0.0
 11
17.9086174207
 21
24.0014510804
 31
0.0
 11
17.9045035719
 21
24.0079511619
 31
0.0
 11
17.9005026252
 21
24.0145214578
 31
0.0
 11
17.8966086428
 21
24.0211558704
 31
0.0
 11
17.8928156959
 21
24.0278483153
 31
0.0
 11
17.8891184588
 21
24.0345936175
 31
0.0
 11
17.8855125924
 21
24.0413880898
 31
0.0
 11
17.8819938488
 21
24.0482281821
 31
0.0
 11
17.8785579803
 21
24.0551103447
 31
0.0
 11
17.8752007493
 21
24.0620310392
 31
0.0
 11
17.8719184162
 21
24.0689872919
 31
0.0
 11
17.8687079507
 21
24.0759769331
 31
0.0
 11
17.8655663768
 21
24.0829978543
 31
0.0
 11
17.8594779991
 21
24.0971251035
 31
0.0
 11
17.8536305886
 21
24.1113532397
 31
0.0
 11
17.8480061807
 21
24.1256709932
 31
0.0
 11
17.8425880657
 21
24.1400682961
 31
0.0
  0
SPLINE
  5
402
100
AcDbEntity
  8
0
100
AcDbSpline
 62
6
  6
CONTINUOUS
 70
0
 71
3
 72
21
 73
17
 74
15
 42
0.0000001
 43
0.0000001
 44
0.0000000001
 12
0.0300424019
 22
0.0000000005
 32
0.0
 13
0.0161754611
 23
0.0253160102
 33
0.0
 40
0.0
 40
0.0
 40
0.0
 40
0.0
 40
0.0623280009
 40
0.1247889455
 40
0.1873369377
 40
0.2499248275
 40
0.3125081213
 40
0.3750565659
 40
0.4375749172
 40
0.5000719296
 40
0.6249654165
 40
0.7498580353
 40
0.8123541656
 40
0.8748712938
 40
0.9374179818
 40
1.0
 40
1.0
 40
1.0
 40
1.0
 10
17.7980230111
 20
22.9070469019
 30
0.0
 10
17.798647172
 20
22.907046902
 30
0.0
 10
17.7998971739
 20
22.9070865332
 30
0.0
 10
17.801766013
 20
22.9072631788
 30
0.0
 10
17.8036229156
 20
22.9075559732
 30
0.0
 10
17.8054592257
 20
22.9079638059
 30
0.0
 10
17.807266508
 20
22.9084855968
 30
0.0
 10
17.8090364941
 20
22.9091204277
 30
0.0
 10
17.8107623937
 20
22.9098647779
 30
0.0
 10
17.8129952514
 20
22.9109979984
 30
0.0
 10
17.8156469886
 20
22.9126721025
 30
0.0
 10
17.8180677704
 20
22.9146656236
 30
0.0
 10
17.8198435991
 20
22.9164308715
 30
0.0
 10
17.8210912987
 20
22.917836554
 30
0.0
 10
17.822248813
 20
22.9193183201
 30
0.0
 10
17.8229567356
 20
22.9203534357
 30
0.0
 10
17.8232941666
 20
22.9208815447
 30
0.0
 11
17.7980230111
 21
22.9070469019
 31
0.0
 11
17.7998945624
 21
22.9071059584
 31
0.0
 11
17.8017627276
 21
22.9072823786
 31
0.0
 11
17.8036188894
 21
22.9075750384
 31
0.0
 11
17.8054544306
 21
22.9079828139
 31
0.0
 11
17.8072607341
 21
22.9085045811
 31
0.0
 11
17.809029561
 21
22.9091388437
 31
0.0
 11
17.8107542431
 21
22.9098825588
 31
0.0
 11
17.8124285197
 21
22.9107322827
 31
0.0
 11
17.8156008134
 21
22.9127359818
 31
0.0
 11
17.8184976964
 21
22.9151205426
 31
0.0
 11
17.8198292745
 21
22.9164441865
 31
0.0
 11
17.8210759871
 21
22.9178488965
 31
0.0
 11
17.8222326172
 21
22.9193297902
 31
0.0
 11
17.8232941666
 21
22.9208815447
 31
0.0
  0
SPLINE
  5
403
100
AcDbEntity
  8
0
100
AcDbSpline
 62
6
  6
CONTINUOUS
 70
0
 71
3
 72
8
 73
4
 74
2
 42
0.0000001
 43
0.0000001
 44
0.0000000001
 12
0.0000065907
 22
0.0000062099
 32
0.0
 13
0.0000065907
 23
0.0000062099
 33
0.0
 40
0.0
 40
0.0
 40
0.0
 40
0.0
 40
1.0
 40
1.0
 40
1.0
 40
1.0
 10
17.9955220637
 20
23.1984789018
 30
0.0
 10
17.9955242606
 20
23.1984809717
 30
0.0
 10
17.9955264575
 20
23.1984830417
 30
0.0
 10
17.9955286544
 20
23.1984851116
 30
0.0
 11
17.9955220637
 21
23.1984789018
 31
0.0
 11
17.9955286544
 21
23.1984851116
 31
0.0
  0
SPLINE
  5
404
100
AcDbEntity
  8
0
100
AcDbSpline
 62
6
  6
CONTINUOUS
 70
0
 71
3
 72
8
 73
4
 74
2
 42
0.0000001
 43
0.0000001
 44
0.0000000001
 12
0.0000032039
 22
0.000005305
 32
0.0
 13
0.0000032039
 23
0.000005305
 33
0.0
 40
0.0
 40
0.0
 40
0.0
 40
0.0
 40
1.0
 40
1.0
 40
1.0
 40
1.0
 10
18.0006270055
 20
23.2048012465
 30
0.0
 10
18.0006280735
 20
23.2048030149
 30
0.0
 10
18.0006291414
 20
23.2048047832
 30
0.0
 10
18.0006302094
 20
23.2048065515
 30
0.0
 11
18.0006270055
 21
23.2048012465
 31
0.0
 11
18.0006302094
 21
23.2048065515
 31
0.0
  0
SPLINE
  5
405
100
AcDbEntity
  8
0
100
AcDbSpline
 62
6
  6
CONTINUOUS
 70
0
 71
3
 72
8
 73
4
 74
2
 42
0.0000001
 43
0.0000001
 44
0.0000000001
 12
0.0000066083
 22
-0.0000062264
 32
0.0
 13
0.0000066083
 23
-0.0000062264
 33
0.0
 40
0.0
 40
0.0
 40
0.0
 40
0.0
 40
1.0
 40
1.0
 40
1.0
 40
1.0
 10
17.9955220555
 20
23.9156147751
 30
0.0
 10
17.9955242582
 20
23.9156126996
 30
0.0
 10
17.995526461
 20
23.9156106241
 30
0.0
 10
17.9955286637
 20
23.9156085487
 30
0.0
 11
17.9955220555
 21
23.9156147751
 31
0.0
 11
17.9955286637
 21
23.9156085487
 31
0.0
  0
SPLINE
  5
406
100
AcDbEntity
  8
0
100
AcDbSpline
 62
6
  6
CONTINUOUS
 70
0
 71
3
 72
8
 73
4
 74
2
 42
0.0000001
 43
0.0000001
 44
0.0000000001
 12
0.0000032167
 22
-0.0000053263
 32
0.0
 13
0.0000032167
 23
-0.0000053263
 33
0.0
 40
0.0
 40
0.0
 40
0.0
 40
0.0
 40
1.0
 40
1.0
 40
1.0
 40
1.0
 10
18.0006269995
 20
23.9092924325
 30
0.0
 10
18.0006280717
 20
23.9092906571
 30
0.0
 10
18.000629144
 20
23.9092888816
 30
0.0
 10
18.0006302162
 20
23.9092871062
 30
0.0
 11
18.0006269995
 21
23.9092924325
 31
0.0
 11
18.0006302162
 21
23.9092871062
 31
0.0
  0
LINE
  5
407
100
AcDbEntity
  8
0
100
AcDbLine
 62
7
  6
CONTINUOUS
 10
19.1306119139
 20
23.9186951856
 11
19.1306119139
 21
23.8937101943
  0
SPLINE
  5
408
100
AcDbEntity
  8
0
100
AcDbSpline
 62
7
  6
CONTINUOUS
 70
0
 71
3
 72
53
 73
49
 74
47
 42
0.0000001
 43
0.0000001
 44
0.0000000001
 12
0.0811781756
 22
-0.0374107356
 32
0.0
 13
-0.0893697272
 23
-0.0015846727
 33
0.0
 40
0.0
 40
0.0
 40
0.0
 40
0.0
 40
0.0005892352
 40
0.001060585
 40
0.0012563838
 40
0.001429113
 40
0.0017225936
 40
0.0018588544
 40
0.0019986873
 40
0.0021500448
 40
0.0023192592
 40
0.0027274689
 40
0.00324634
 40
0.0038863752
 40
0.0046530939
 40
0.0055496609
 40
0.0065780279
 40
0.0077394687
 40
0.0090348522
 40
0.0104647924
 40
0.0120297347
 40
0.0155658011
 40
0.0196449251
 40
0.0242680425
 40
0.029434951
 40
0.0351448769
 40
0.0413968722
 40
0.0481898712
 40
0.0555227257
 40
0.0633942283
 40
0.0718031271
 40
0.0902279212
 40
0.1107865884
 40
0.1334683018
 40
0.1582596688
 40
0.1851412853
 40
0.2140927738
 40
0.2450936965
 40
0.2781235718
 40
0.3131618844
 40
0.3501880157
 40
0.3891788466
 40
0.4729501568
 40
0.5642660002
 40
0.6629153485
 40
0.7686401551
 40
0.8811128017
 40
1.0
 40
1.0
 40
1.0
 40
1.0
 10
17.0433961778
 20
24.2366991945
 30
0.0
 10
17.0434121221
 20
24.2366918466
 30
0.0
 10
17.0434403319
 20
24.2366775078
 30
0.0
 10
17.0434714736
 20
24.2366563836
 30
0.0
 10
17.0434896364
 20
24.2366390537
 30
0.0
 10
17.0435019469
 20
24.2366236283
 30
0.0
 10
17.0435094708
 20
24.2366065827
 30
0.0
 10
17.0435098282
 20
24.2365894258
 30
0.0
 10
17.0435068405
 20
24.2365769163
 30
0.0
 10
17.0435006905
 20
24.2365645465
 30
0.0
 10
17.0434875644
 20
24.2365471306
 30
0.0
 10
17.0434623897
 20
24.2365258131
 30
0.0
 10
17.0434222133
 20
24.2365018558
 30
0.0
 10
17.0433700104
 20
24.2364778468
 30
0.0
 10
17.0433057
 20
24.2364537877
 30
0.0
 10
17.0432291855
 20
24.2364296702
 30
0.0
 10
17.0431404404
 20
24.2364055107
 30
0.0
 10
17.0430394448
 20
24.2363813179
 30
0.0
 10
17.0429261913
 20
24.2363571009
 30
0.0
 10
17.0428006763
 20
24.2363328635
 30
0.0
 10
17.042609027
 20
24.2362991386
 30
0.0
 10
17.0423386642
 20
24.2362575144
 30
0.0
 10
17.0419772197
 20
24.236209259
 30
0.0
 10
17.0415668159
 20
24.2361609331
 30
0.0
 10
17.041107534
 20
24.2361125462
 30
0.0
 10
17.0405994836
 20
24.2360641176
 30
0.0
 10
17.0400427884
 20
24.2360156579
 30
0.0
 10
17.0394375734
 20
24.2359671754
 30
0.0
 10
17.0387839649
 20
24.2359186764
 30
0.0
 10
17.0380820895
 20
24.2358701634
 30
0.0
 10
17.0370502163
 20
24.2358034149
 30
0.0
 10
17.0356405968
 20
24.2357206238
 30
0.0
 10
17.0338058452
 20
24.235623948
 30
0.0
 10
17.0317811701
 20
24.2355272068
 30
0.0
 10
17.0295679125
 20
24.2354304215
 30
0.0
 10
17.0271676875
 20
24.2353335981
 30
0.0
 10
17.0245823134
 20
24.2352367495
 30
0.0
 10
17.0218136356
 20
24.2351398858
 30
0.0
 10
17.0188634999
 20
24.2350430147
 30
0.0
 10
17.0157337548
 20
24.2349461425
 30
0.0
 10
17.012426325
 20
24.2348492758
 30
0.0
 10
17.0076673366
 20
24.2347169462
 30
0.0
 10
17.0012910841
 20
24.2345524925
 30
0.0
 10
16.9931374971
 20
24.2343594494
 30
0.0
 10
16.9843296468
 20
24.2341663532
 30
0.0
 10
16.974891298
 20
24.2339732524
 30
0.0
 10
16.9648498521
 20
24.2337801916
 30
0.0
 10
16.9579577168
 20
24.233654935
 30
0.0
 10
16.9544160779
 20
24.2335921359
 30
0.0
 11
17.0433961778
 21
24.2366991945
 31
0.0
 11
17.0434428744
 21
24.2366748358
 31
0.0
 11
17.0434772509
 21
24.2366504784
 31
0.0
 11
17.0434898201
 21
24.2366383003
 31
0.0
 11
17.0434993106
 21
24.2366261224
 31
0.0
 11
17.043509057
 21
24.2366017678
 31
0.0
 11
17.0435093137
 21
24.236589591
 31
0.0
 11
17.0435064935
 21
24.2365774146
 31
0.0
 11
17.0435005965
 21
24.2365652385
 31
0.0
 11
17.0434916234
 21
24.2365530627
 31
0.0
 11
17.0434644503
 21
24.2365287122
 31
0.0
 11
17.0434249775
 21
24.2365043631
 31
0.0
 11
17.0433732085
 21
24.2364800153
 31
0.0
 11
17.0433091467
 21
24.236455669
 31
0.0
 11
17.0432327955
 21
24.236431324
 31
0.0
 11
17.0431441583
 21
24.2364069803
 31
0.0
 11
17.0430432386
 21
24.2363826381
 31
0.0
 11
17.0429300397
 21
24.2363582972
 31
0.0
 11
17.0428045651
 21
24.2363339577
 31
0.0
 11
17.0426668183
 21
24.2363096195
 31
0.0
 11
17.0423545214
 21
24.2362609474
 31
0.0
 11
17.0419931764
 21
24.2362122808
 31
0.0
 11
17.0415828198
 21
24.2361636196
 31
0.0
 11
17.0411235522
 21
24.236114964
 31
0.0
 11
17.0406155015
 21
24.2360663138
 31
0.0
 11
17.0400587958
 21
24.236017669
 31
0.0
 11
17.0394535632
 21
24.2359690296
 31
0.0
 11
17.0387999318
 21
24.2359203955
 31
0.0
 11
17.0380980297
 21
24.2358717667
 31
0.0
 11
17.037347985
 21
24.2358231432
 31
0.0
 11
17.0357039801
 21
24.2357259118
 31
0.0
 11
17.0338689419
 21
24.2356287011
 31
0.0
 11
17.0318438956
 21
24.2355315107
 31
0.0
 11
17.0296300811
 21
24.2354343407
 31
0.0
 11
17.0272292655
 21
24.2353371916
 31
0.0
 11
17.0246432956
 21
24.2352400641
 31
0.0
 11
17.021874018
 21
24.235142959
 31
0.0
 11
17.0189232797
 21
24.2350458769
 31
0.0
 11
17.0157929273
 21
24.2349488185
 31
0.0
 11
17.0124848147
 21
24.2348517845
 31
0.0
 11
17.0090010175
 21
24.234754774
 31
0.0
 11
17.0015157341
 21
24.2345608124
 31
0.0
 11
16.9933558827
 21
24.2343669115
 31
0.0
 11
16.9845403629
 21
24.2341730494
 31
0.0
 11
16.975092268
 21
24.2339792453
 31
0.0
 11
16.9650409037
 21
24.2337855792
 31
0.0
 11
16.9544160779
 21
24.2335921359
 31
0.0
  0
SPLINE
  5
409
100
AcDbEntity
  8
0
100
AcDbSpline
 62
6
  6
CONTINUOUS
 70
0
 71
3
 72
13
 73
9
 74
7
 42
0.0000001
 43
0.0000001
 44
0.0000000001
 12
0.032375629
 22
0.0368142602
 32
0.0
 13
0.0402832363
 23
0.0279415815
 33
0.0
 40
0.0
 40
0.0
 40
0.0
 40
0.0
 40
0.2498283681
 40
0.3748038231
 40
0.4997970816
 40
0.6248140562
 40
0.7498676869
 40
1.0
 40
1.0
 40
1.0
 40
1.0
 10
14.9115510774
 20
24.1255382066
 30
0.0
 10
14.9142471943
 20
24.1286039555
 30
0.0
 10
14.9184209152
 20
24.133092644
 30
0.0
 10
14.9242381714
 20
24.1388269319
 30
0.0
 10
14.9287288908
 20
24.1429978609
 30
0.0
 10
14.9333452591
 20
24.1470313444
 30
0.0
 10
14.9396655783
 20
24.152216398
 30
0.0
 10
14.9445898122
 20
24.155878748
 30
0.0
 10
14.9479485252
 20
24.1582084454
 30
0.0
 11
14.9115510774
 21
24.1255382066
 31
0.0
 11
14.9198950891
 21
24.1345041548
 31
0.0
 11
14.9242589881
 21
24.1388048379
 31
0.0
 11
14.9287493856
 21
24.142974552
 31
0.0
 11
14.9333652634
 21
24.1470066865
 31
0.0
 11
14.938105539
 21
24.1508946493
 31
0.0
 11
14.9479485252
 21
24.1582084454
 31
0.0
  0
SPLINE
  5
40A
100
AcDbEntity
  8
0
100
AcDbSpline
 62
6
  6
CONTINUOUS
 70
0
 71
3
 72
13
 73
9
 74
7
 42
0.0000001
 43
0.0000001
 44
0.0000000001
 12
0.0323501529
 22
0.0370332287
 32
0.0
 13
0.0403162749
 23
0.0281529821
 33
0.0
 40
0.0
 40
0.0
 40
0.0
 40
0.0
 40
0.2499781113
 40
0.3749922163
 40
0.4999991942
 40
0.6250044986
 40
0.7500206993
 40
1.0
 40
1.0
 40
1.0
 40
1.0
 10
14.9115510774
 20
24.0606289021
 30
0.0
 10
14.9142466874
 20
24.0637147343
 30
0.0
 10
14.9184199412
 20
24.0682332694
 30
0.0
 10
14.9242377299
 20
24.0740067697
 30
0.0
 10
14.9287284282
 20
24.0782058169
 30
0.0
 10
14.9333447774
 20
24.0822664956
 30
0.0
 10
14.9396644135
 20
24.0874859675
 30
0.0
 10
14.9445891138
 20
24.0911734548
 30
0.0
 10
14.9479485252
 20
24.0935193424
 30
0.0
 11
14.9115510774
 21
24.0606289021
 31
0.0
 11
14.9198950891
 21
24.0696552819
 31
0.0
 11
14.9242589881
 21
24.0739849521
 31
0.0
 11
14.9287493856
 21
24.0781827706
 31
0.0
 11
14.9333652634
 21
24.0822420822
 31
0.0
 11
14.938105539
 21
24.0861562504
 31
0.0
 11
14.9479485252
 21
24.0935193424
 31
0.0
  0
LINE
  5
40B
100
AcDbEntity
  8
0
100
AcDbLine
 62
6
  6
CONTINUOUS
 10
14.9479485252
 20
24.060079232
 11
14.9115510774
 21
24.0606289021
  0
SPLINE
  5
40C
100
AcDbEntity
  8
0
100
AcDbSpline
 62
6
  6
CONTINUOUS
 70
0
 71
3
 72
11
 73
7
 74
5
 42
0.0000001
 43
0.0000001
 44
0.0000000001
 12
-0.0365362484
 22
0.0038231795
 32
0.0
 13
-0.0362068692
 23
0.0062110203
 33
0.0
 40
0.0
 40
0.0
 40
0.0
 40
0.0
 40
0.2696184824
 40
0.5263749211
 40
0.7698988905
 40
1.0
 40
1.0
 40
1.0
 40
1.0
 10
14.9479485252
 20
23.9818045314
 30
0.0
 10
14.9446649093
 20
23.9821481313
 30
0.0
 10
14.9382589832
 20
23.9828646187
 30
0.0
 10
14.9289066055
 20
23.9840562152
 30
0.0
 10
14.9200538023
 20
23.9853308743
 30
0.0
 10
14.9143281577
 20
23.9862567761
 30
0.0
 10
14.9115510774
 20
23.9867331637
 30
0.0
 11
14.9479485252
 21
23.9818045314
 31
0.0
 11
14.9381055404
 21
23.9829078905
 31
0.0
 11
14.9287493881
 21
23.9841027162
 31
0.0
 11
14.9198950899
 21
23.9853805606
 31
0.0
 11
14.9115510774
 21
23.9867331637
 31
0.0
  0
SPLINE
  5
40D
100
AcDbEntity
  8
0
100
AcDbSpline
 62
6
  6
CONTINUOUS
 70
0
 71
3
 72
13
 73
9
 74
7
 42
0.0000001
 43
0.0000001
 44
0.0000000001
 12
0.0324398945
 22
0.036268201
 32
0.0
 13
0.0402005214
 23
0.0274161858
 33
0.0
 40
0.0
 40
0.0
 40
0.0
 40
0.0
 40
0.2494518546
 40
0.374330234
 40
0.4992891205
 40
0.6243355361
 40
0.749483305
 40
1.0
 40
1.0
 40
1.0
 40
1.0
 10
14.9115510774
 20
23.946821828
 30
0.0
 10
14.9142484747
 20
23.9498375513
 30
0.0
 10
14.9184233703
 20
23.9542518999
 30
0.0
 10
14.9242392828
 20
23.9598885546
 30
0.0
 10
14.9287300535
 20
23.9639894612
 30
0.0
 10
14.9333464681
 20
23.9679552211
 30
0.0
 10
14.9396684972
 20
23.9730545409
 30
0.0
 10
14.944591558
 20
23.9766543093
 30
0.0
 10
14.9479485252
 20
23.9789437134
 30
0.0
 11
14.9115510774
 21
23.946821828
 31
0.0
 11
14.9198950891
 21
23.9556372873
 31
0.0
 11
14.9242589881
 21
23.9598657856
 31
0.0
 11
14.9287493856
 21
23.9639655131
 31
0.0
 11
14.9333652634
 21
23.9679299703
 31
0.0
 11
14.938105539
 21
23.9717526756
 31
0.0
 11
14.9479485252
 21
23.9789437134
 31
0.0
  0
SPLINE
  5
40E
100
AcDbEntity
  8
0
100
AcDbSpline
 62
6
  6
CONTINUOUS
 70
0
 71
3
 72
11
 73
7
 74
5
 42
0.0000001
 43
0.0000001
 44
0.0000000001
 12
-0.0366805871
 22
0.0055214739
 32
0.0
 13
-0.036013515
 23
0.0088870063
 33
0.0
 40
0.0
 40
0.0
 40
0.0
 40
0.0
 40
0.268781501
 40
0.5252316763
 40
0.7690215084
 40
1.0
 40
1.0
 40
1.0
 40
1.0
 10
14.9479485252
 20
23.9397318576
 30
0.0
 10
14.9446621708
 20
23.9402265476
 30
0.0
 10
14.9382498046
 20
23.9412583913
 30
0.0
 10
14.9288962322
 20
23.9429729792
 30
0.0
 10
14.9200421848
 20
23.9448071362
 30
0.0
 10
14.9143238599
 20
23.9461375922
 30
0.0
 10
14.9115510774
 20
23.946821828
 30
0.0
 11
14.9479485252
 21
23.9397318576
 31
0.0
 11
14.9381055404
 21
23.9413190694
 31
0.0
 11
14.9287493881
 21
23.9430378584
 31
0.0
 11
14.9198950899
 21
23.944876072
 31
0.0
 11
14.9115510774
 21
23.946821828
 31
0.0
  0
SPLINE
  5
40F
100
AcDbEntity
  8
0
100
AcDbSpline
 62
6
  6
CONTINUOUS
 70
0
 71
3
 72
13
 73
9
 74
7
 42
0.0000001
 43
0.0000001
 44
0.0000000001
 12
0.032504971
 22
0.035724046
 32
0.0
 13
0.0401176661
 23
0.0268952313
 33
0.0
 40
0.0
 40
0.0
 40
0.0
 40
0.0
 40
0.2490723428
 40
0.3738530109
 40
0.4987774195
 40
0.623853655
 40
0.7490963677
 40
1.0
 40
1.0
 40
1.0
 40
1.0
 10
14.9115510774
 20
23.9051696625
 30
0.0
 10
14.9142497738
 20
23.9081356198
 30
0.0
 10
14.9184258529
 20
23.9124760214
 30
0.0
 10
14.924240403
 20
23.9180156092
 30
0.0
 10
14.9287312227
 20
23.9220468826
 30
0.0
 10
14.9333476816
 20
23.9259452961
 30
0.0
 10
14.9396714243
 20
23.9309593264
 30
0.0
 10
14.9445933025
 20
23.9344968876
 30
0.0
 10
14.9479485252
 20
23.936746258
 30
0.0
 11
14.9115510774
 21
23.9051696625
 31
0.0
 11
14.9198950882
 21
23.9138354729
 31
0.0
 11
14.9242589864
 21
23.9179921889
 31
0.0
 11
14.9287493834
 21
23.9220223206
 31
0.0
 11
14.9333652613
 21
23.9259194787
 31
0.0
 11
14.938105538
 21
23.9296772919
 31
0.0
 11
14.9479485252
 21
23.936746258
 31
0.0
  0
SPLINE
  5
410
100
AcDbEntity
  8
0
100
AcDbSpline
 62
6
  6
CONTINUOUS
 70
0
 71
3
 72
13
 73
9
 74
7
 42
0.0000001
 43
0.0000001
 44
0.0000000001
 12
0.0325885423
 22
0.0350374337
 32
0.0
 13
0.0400125732
 23
0.0262417385
 33
0.0
 40
0.0
 40
0.0
 40
0.0
 40
0.0
 40
0.2485876383
 40
0.3732437704
 40
0.4981244326
 40
0.6232389507
 40
0.7486029259
 40
1.0
 40
1.0
 40
1.0
 40
1.0
 10
14.9115510774
 20
23.861962696
 30
0.0
 10
14.914251447
 20
23.864865987
 30
0.0
 10
14.9184290391
 20
23.8691132853
 30
0.0
 10
14.92424184
 20
23.8745307359
 30
0.0
 10
14.9287327199
 20
23.8784743647
 30
0.0
 10
14.9333492312
 20
23.8822880112
 30
0.0
 10
14.9396751453
 20
23.8871946414
 30
0.0
 10
14.9445955106
 20
23.8906539408
 30
0.0
 10
14.9479485252
 20
23.8928529729
 30
0.0
 11
14.9115510774
 21
23.861962696
 31
0.0
 11
14.9198950891
 21
23.8704401554
 31
0.0
 11
14.9242589881
 21
23.8745065258
 31
0.0
 11
14.9287493856
 21
23.8784490627
 31
0.0
 11
14.9333652634
 21
23.8822615157
 31
0.0
 11
14.938105539
 21
23.885937652
 31
0.0
 11
14.9479485252
 21
23.8928529729
 31
0.0
  0
SPLINE
  5
411
100
AcDbEntity
  8
0
100
AcDbSpline
 62
6
  6
CONTINUOUS
 70
0
 71
3
 72
11
 73
7
 74
5
 42
0.0000001
 43
0.0000001
 44
0.0000000001
 12
-0.0370884058
 22
0.0089043783
 32
0.0
 13
-0.0354922578
 23
0.0139691601
 33
0.0
 40
0.0
 40
0.0
 40
0.0
 40
0.0
 40
0.2664575639
 40
0.5220659255
 40
0.7665993932
 40
1.0
 40
1.0
 40
1.0
 40
1.0
 10
14.9479485252
 20
23.8506545577
 30
0.0
 10
14.9446543632
 20
23.8514454373
 30
0.0
 10
14.9382239259
 20
23.8530963632
 30
0.0
 10
14.9288674459
 20
23.8558328996
 30
0.0
 10
14.9200105269
 20
23.8587604132
 30
0.0
 10
14.9143123822
 20
23.8608758926
 30
0.0
 10
14.9115510774
 20
23.861962696
 30
0.0
 11
14.9479485252
 21
23.8506545577
 31
0.0
 11
14.9381055404
 21
23.8531860789
 31
0.0
 11
14.9287493881
 21
23.8559274591
 31
0.0
 11
14.9198950899
 21
23.8588593153
 31
0.0
 11
14.9115510774
 21
23.861962696
 31
0.0
  0
SPLINE
  5
412
100
AcDbEntity
  8
0
100
AcDbSpline
 62
6
  6
CONTINUOUS
 70
0
 71
3
 72
13
 73
9
 74
7
 42
0.0000001
 43
0.0000001
 44
0.0000000001
 12
0.0326913677
 22
0.0342100904
 32
0.0
 13
0.0398852469
 23
0.0254602218
 33
0.0
 40
0.0
 40
0.0
 40
0.0
 40
0.0
 40
0.2479952193
 40
0.3724994622
 40
0.4973270406
 40
0.6224886641
 40
0.74800095
 40
1.0
 40
1.0
 40
1.0
 40
1.0
 10
14.9115510774
 20
23.8173939013
 30
0.0
 10
14.9142535117
 20
23.8202218809
 30
0.0
 10
14.918432952
 20
23.8243573095
 30
0.0
 10
14.924243598
 20
23.8296281215
 30
0.0
 10
14.9287345458
 20
23.8334664836
 30
0.0
 10
14.9333511156
 20
23.8371783206
 30
0.0
 10
14.939679661
 20
23.8419558839
 30
0.0
 10
14.9445981771
 20
23.8453212455
 30
0.0
 10
14.9479485252
 20
23.8474598961
 30
0.0
 11
14.9115510774
 21
23.8173939013
 31
0.0
 11
14.9198950891
 21
23.8256451465
 31
0.0
 11
14.9242589881
 21
23.8296030091
 31
0.0
 11
14.9287493856
 21
23.8334403426
 31
0.0
 11
14.9333652634
 21
23.8371510634
 31
0.0
 11
14.938105539
 21
23.8407291049
 31
0.0
 11
14.9479485252
 21
23.8474598961
 31
0.0
  0
SPLINE
  5
413
100
AcDbEntity
  8
0
100
AcDbSpline
 62
6
  6
CONTINUOUS
 70
0
 71
3
 72
11
 73
7
 74
5
 42
0.0000001
 43
0.0000001
 44
0.0000000001
 12
-0.0373352695
 22
0.010579105
 32
0.0
 13
-0.0351935218
 23
0.0163479611
 33
0.0
 40
0.0
 40
0.0
 40
0.0
 40
0.0
 40
0.2650795054
 40
0.5201946253
 40
0.7651727491
 40
1.0
 40
1.0
 40
1.0
 40
1.0
 10
14.9479485252
 20
23.8040477724
 30
0.0
 10
14.944649587
 20
23.8049825404
 30
0.0
 10
14.9382083053
 20
23.8069346839
 30
0.0
 10
14.9288503923
 20
23.810165614
 30
0.0
 10
14.9199921666
 20
23.8136220618
 30
0.0
 10
14.9143058767
 20
23.8161142524
 30
0.0
 10
14.9115510774
 20
23.8173939013
 30
0.0
 11
14.9479485252
 21
23.8040477724
 31
0.0
 11
14.9381055404
 21
23.8070355329
 31
0.0
 11
14.9287493881
 21
23.8102709738
 31
0.0
 11
14.9198950899
 21
23.8137312189
 31
0.0
 11
14.9115510774
 21
23.8173939013
 31
0.0
  0
SPLINE
  5
414
100
AcDbEntity
  8
0
100
AcDbSpline
 62
6
  6
CONTINUOUS
 70
0
 71
3
 72
13
 73
9
 74
7
 42
0.0000001
 43
0.0000001
 44
0.0000000001
 12
0.0328143058
 22
0.0332439519
 32
0.0
 13
0.0397358095
 23
0.0245561489
 33
0.0
 40
0.0
 40
0.0
 40
0.0
 40
0.0
 40
0.2472926417
 40
0.3716172391
 40
0.4963824304
 40
0.6216003593
 40
0.7472886377
 40
1.0
 40
1.0
 40
1.0
 40
1.0
 10
14.9115510774
 20
23.7716623333
 30
0.0
 10
14.9142559895
 20
23.7744026616
 30
0.0
 10
14.9184376209
 20
23.7784079231
 30
0.0
 10
14.9242456882
 20
23.7835082842
 30
0.0
 10
14.9287367091
 20
23.7872242262
 30
0.0
 10
14.9333533404
 20
23.7908176643
 30
0.0
 10
14.9396849731
 20
23.7954450241
 30
0.0
 10
14.9446012951
 20
23.7987012247
 30
0.0
 10
14.9479485252
 20
23.800769764
 30
0.0
 11
14.9115510774
 21
23.7716623333
 31
0.0
 11
14.9198950891
 21
23.7796505123
 31
0.0
 11
14.9242589881
 21
23.7834821903
 31
0.0
 11
14.9287493856
 21
23.7871971819
 31
0.0
 11
14.9333652634
 21
23.7907895975
 31
0.0
 11
14.938105539
 21
23.7942535639
 31
0.0
 11
14.9479485252
 21
23.800769764
 31
0.0
  0
SPLINE
  5
415
100
AcDbEntity
  8
0
100
AcDbSpline
 62
6
  6
CONTINUOUS
 70
0
 71
3
 72
13
 73
9
 74
7
 42
0.0000001
 43
0.0000001
 44
0.0000000001
 12
0.0329582619
 22
0.0321410754
 32
0.0
 13
0.0395645763
 23
0.0235359314
 33
0.0
 40
0.0
 40
0.0
 40
0.0
 40
0.0
 40
0.2464777686
 40
0.3705946711
 40
0.4952882736
 40
0.6205721032
 40
0.7464646399
 40
1.0
 40
1.0
 40
1.0
 40
1.0
 10
14.9115510774
 20
23.7249722404
 30
0.0
 10
14.9142589037
 20
23.7276129273
 30
0.0
 10
14.918443075
 20
23.731470267
 30
0.0
 10
14.9242481195
 20
23.7363771697
 30
0.0
 10
14.9287392151
 20
23.7399540832
 30
0.0
 10
14.933355907
 20
23.743413061
 30
0.0
 10
14.9396910758
 20
23.7478696959
 30
0.0
 10
14.9446048522
 20
23.7510020426
 30
0.0
 10
14.9479485252
 20
23.7529911062
 30
0.0
 11
14.9115510774
 21
23.7249722404
 31
0.0
 11
14.9198950891
 21
23.7326616761
 31
0.0
 11
14.9242589881
 21
23.7363500563
 31
0.0
 11
14.9287493856
 21
23.739926114
 31
0.0
 11
14.9333652634
 21
23.7433841798
 31
0.0
 11
14.938105539
 21
23.7467186001
 31
0.0
 11
14.9479485252
 21
23.7529911062
 31
0.0
  0
SPLINE
  5
416
100
AcDbEntity
  8
0
100
AcDbSpline
 62
6
  6
CONTINUOUS
 70
0
 71
3
 72
10
 73
6
 74
4
 42
0.0000001
 43
0.0000001
 44
0.0000000001
 12
-0.0378669619
 22
0.0138558216
 32
0.0
 13
-0.0345783957
 23
0.0207418693
 33
0.0
 40
0.0
 40
0.0
 40
0.0
 40
0.0
 40
0.262190836
 40
0.5163093291
 40
1.0
 40
1.0
 40
1.0
 40
1.0
 10
14.9479485252
 20
23.7077377876
 30
0.0
 10
14.9446390684
 20
23.7089487441
 30
0.0
 10
14.9381741343
 20
23.7114800539
 30
0.0
 10
14.9258966687
 20
23.7169564598
 30
0.0
 10
14.9171261599
 20
23.7216280242
 30
0.0
 10
14.9115510774
 20
23.7249722404
 30
0.0
 11
14.9479485252
 21
23.7077377876
 31
0.0
 11
14.9381055404
 21
23.7115960163
 31
0.0
 11
14.9287493881
 21
23.7157740858
 31
0.0
 11
14.9115510774
 21
23.7249722404
 31
0.0
  0
SPLINE
  5
417
100
AcDbEntity
  8
0
100
AcDbSpline
 62
6
  6
CONTINUOUS
 70
0
 71
3
 72
13
 73
9
 74
7
 42
0.0000001
 43
0.0000001
 44
0.0000000001
 12
0.0331241109
 22
0.0309035389
 32
0.0
 13
0.0393721484
 23
0.0224069046
 33
0.0
 40
0.0
 40
0.0
 40
0.0
 40
0.0
 40
0.2455492832
 40
0.3694304045
 40
0.4940434437
 40
0.6194031358
 40
0.745528581
 40
1.0
 40
1.0
 40
1.0
 40
1.0
 10
14.9115510774
 20
23.6775321519
 30
0.0
 10
14.914262278
 20
23.6800615992
 30
0.0
 10
14.9184493406
 20
23.6837538759
 30
0.0
 10
14.924250899
 20
23.6884452317
 30
0.0
 10
14.9287420665
 20
23.6918671278
 30
0.0
 10
14.9333588134
 20
23.6951761836
 30
0.0
 10
14.9396979534
 20
23.6994422704
 30
0.0
 10
14.9446088298
 20
23.7024366747
 30
0.0
 10
14.9479485252
 20
23.7043373137
 30
0.0
 11
14.9115510774
 21
23.6775321519
 31
0.0
 11
14.9198950891
 21
23.6848885013
 31
0.0
 11
14.9242589881
 21
23.6884171105
 31
0.0
 11
14.9287493856
 21
23.6918382628
 31
0.0
 11
14.9333652634
 21
23.6951465342
 31
0.0
 11
14.938105539
 21
23.6983365162
 31
0.0
 11
14.9479485252
 21
23.7043373137
 31
0.0
  0
SPLINE
  5
418
100
AcDbEntity
  8
0
100
AcDbSpline
 62
6
  6
CONTINUOUS
 70
0
 71
3
 72
11
 73
7
 74
5
 42
0.0000001
 43
0.0000001
 44
0.0000000001
 12
-0.0381471499
 22
0.0154428819
 32
0.0
 13
-0.0342902676
 23
0.0227566516
 33
0.0
 40
0.0
 40
0.0
 40
0.0
 40
0.0
 40
0.260693684
 40
0.5142684849
 40
0.7606792746
 40
1.0
 40
1.0
 40
1.0
 40
1.0
 10
14.9479485252
 20
23.6584647319
 30
0.0
 10
14.9446336182
 20
23.6598066858
 30
0.0
 10
14.9381572178
 20
23.6626127805
 30
0.0
 10
14.9287962437
 20
23.6672335553
 30
0.0
 10
14.9199357385
 20
23.6721766682
 30
0.0
 10
14.9142865346
 20
23.6757167725
 30
0.0
 10
14.9115510774
 20
23.6775321519
 30
0.0
 11
14.9479485252
 21
23.6584647319
 31
0.0
 11
14.9381055404
 21
23.6627333018
 31
0.0
 11
14.9287493881
 21
23.6673557292
 31
0.0
 11
14.9198950899
 21
23.6722993309
 31
0.0
 11
14.9115510774
 21
23.6775321519
 31
0.0
  0
SPLINE
  5
419
100
AcDbEntity
  8
0
100
AcDbSpline
 62
6
  6
CONTINUOUS
 70
0
 71
3
 72
11
 73
7
 74
5
 42
0.0000001
 43
0.0000001
 44
0.0000000001
 12
-0.0386786764
 22
0.0184522926
 32
0.0
 13
-0.0337570032
 23
0.026400603
 33
0.0
 40
0.0
 40
0.0
 40
0.0
 40
0.0
 40
0.2579385704
 40
0.510568739
 40
0.7578924977
 40
1.0
 40
1.0
 40
1.0
 40
1.0
 10
14.9479485252
 20
23.5587818381
 30
0.0
 10
14.9446229511
 20
23.5603683574
 30
0.0
 10
14.9381240492
 20
23.5636881767
 30
0.0
 10
14.9287623641
 20
23.5691364291
 30
0.0
 10
14.9199018181
 20
23.5749643432
 30
0.0
 10
14.914275352
 20
23.5791213125
 30
0.0
 10
14.9115510774
 20
23.5812519072
 30
0.0
 11
14.9479485252
 21
23.5587818381
 31
0.0
 11
14.9381055404
 21
23.5638121495
 31
0.0
 11
14.9287493881
 21
23.5692594655
 31
0.0
 11
14.9198950899
 21
23.5750852706
 31
0.0
 11
14.9115510774
 21
23.5812519072
 31
0.0
  0
LINE
  5
41A
100
AcDbEntity
  8
0
100
AcDbLine
 62
9
  6
CONTINUOUS
 10
17.988912586
 20
23.19376109
 11
17.988912586
 21
23.9203325791
  0
LINE
  5
41B
100
AcDbEntity
  8
0
100
AcDbLine
 62
9
  6
CONTINUOUS
 10
17.8265406925
 20
22.9277333041
 11
17.8265406925
 21
24.1863603651
  0
SPLINE
  5
41C
100
AcDbEntity
  8
0
100
AcDbSpline
 62
9
  6
CONTINUOUS
 70
0
 71
3
 72
44
 73
40
 74
38
 42
0.0000001
 43
0.0000001
 44
0.0000000001
 12
0.1184489891
 22
-0.0056540889
 32
0.0
 13
0.0600678809
 23
-0.1022447134
 33
0.0
 40
0.0
 40
0.0
 40
0.0
 40
0.0
 40
0.1130339683
 40
0.2198901086
 40
0.3203819633
 40
0.4143470217
 40
0.5016651438
 40
0.5427957289
 40
0.5822221848
 40
0.6199313502
 40
0.6559101684
 40
0.6901456985
 40
0.7226257206
 40
0.7533404668
 40
0.7822809478
 40
0.8094384537
 40
0.8348047352
 40
0.8583734016
 40
0.880139704
 40
0.9000997672
 40
0.9182509343
 40
0.9266481944
 40
0.9345936901
 40
0.9420880815
 40
0.949132275
 40
0.9557274903
 40
0.9618753517
 40
0.9675780136
 40
0.97283834
 40
0.9776602628
 40
0.9820492088
 40
0.9860125037
 40
0.9895602235
 40
0.9927065657
 40
0.9941357301
 40
0.995473009
 40
0.9967225649
 40
0.9978895101
 40
1.0
 40
1.0
 40
1.0
 40
1.0
 10
19.1759722052
 20
23.9313392248
 30
0.0
 10
19.180435125
 20
23.9311261901
 30
0.0
 10
19.189116291
 20
23.930695705
 30
0.0
 10
19.2017620741
 20
23.9300151335
 30
0.0
 10
19.2136520369
 20
23.9293187258
 30
0.0
 10
19.2247673575
 20
23.9286075522
 30
0.0
 10
19.2335374119
 20
23.9279919242
 30
0.0
 10
19.2401542235
 20
23.9274905982
 30
0.0
 10
19.2448142666
 20
23.9271190131
 30
0.0
 10
19.2492697487
 20
23.9267444683
 30
0.0
 10
19.253519039
 20
23.9263671115
 30
0.0
 10
19.2575605307
 20
23.9259870984
 30
0.0
 10
19.2613927299
 20
23.9256045714
 30
0.0
 10
19.2650142806
 20
23.9252196852
 30
0.0
 10
19.2684239401
 20
23.9248325874
 30
0.0
 10
19.2716204942
 20
23.9244434294
 30
0.0
 10
19.27460279
 20
23.9240523515
 30
0.0
 10
19.2773697804
 20
23.9236595258
 30
0.0
 10
19.279920532
 20
23.9232651577
 30
0.0
 10
19.2822541452
 20
23.9228694317
 30
0.0
 10
19.2840611538
 20
23.9225305181
 30
0.0
 10
19.2853969787
 20
23.9222571918
 30
0.0
 10
19.2863177857
 20
23.9220572755
 30
0.0
 10
19.2871837306
 20
23.9218571054
 30
0.0
 10
19.2879947483
 20
23.9216566987
 30
0.0
 10
19.2887507769
 20
23.9214560801
 30
0.0
 10
19.2894517577
 20
23.9212552732
 30
0.0
 10
19.2900976376
 20
23.9210543041
 30
0.0
 10
19.2906883739
 20
23.9208531964
 30
0.0
 10
19.2912239482
 20
23.9206519744
 30
0.0
 10
19.2917043686
 20
23.9204506706
 30
0.0
 10
19.2921296933
 20
23.9202493019
 30
0.0
 10
19.2924999593
 20
23.9200478701
 30
0.0
 10
19.2927708733
 20
23.9198747742
 30
0.0
 10
19.292958583
 20
23.9197353735
 30
0.0
 10
19.293080973
 20
23.9196341598
 30
0.0
 10
19.2931895729
 20
23.9195328674
 30
0.0
 10
19.2933118152
 20
23.9194021302
 30
0.0
 10
19.2933895666
 20
23.9192973687
 30
0.0
 10
19.2934318242
 20
23.9192254399
 30
0.0
 11
19.1759722052
 21
23.9313392248
 31
0.0
 11
19.1893596888
 21
23.9306739348
 31
0.0
 11
19.2020127025
 21
23.9299913169
 31
0.0
 11
19.2139089125
 21
23.9292925967
 31
0.0
 11
19.2250287714
 21
23.9285788902
 31
0.0
 11
19.2353576838
 21
23.9278511183
 31
0.0
 11
19.2402211383
 21
23.9274822408
 31
0.0
 11
19.244881654
 21
23.9271102065
 31
0.0
 11
19.2493375971
 21
23.9267351627
 31
0.0
 11
19.2535873348
 21
23.9263572568
 31
0.0
 11
19.2576292343
 21
23.9259766365
 31
0.0
 11
19.2614617318
 21
23.9255934464
 31
0.0
 11
19.2650835333
 21
23.9252078202
 31
0.0
 11
19.2684934113
 21
23.9248198887
 31
0.0
 11
19.2716901383
 21
23.9244297829
 31
0.0
 11
19.2746724987
 21
23.9240376344
 31
0.0
 11
19.2774394441
 21
23.9236435855
 31
0.0
 11
19.2799900491
 21
23.9232477863
 31
0.0
 11
19.2823233912
 21
23.922850387
 31
0.0
 11
19.2844385502
 21
23.9224515379
 31
0.0
 11
19.285414054
 21
23.922251615
 31
0.0
 11
19.2863347396
 21
23.9220513824
 31
0.0
 11
19.2872005351
 21
23.9218508567
 31
0.0
 11
19.2880113685
 21
23.9216500546
 31
0.0
 11
19.2887671679
 21
23.9214489927
 31
0.0
 11
19.2894678614
 21
23.9212476877
 31
0.0
 11
19.2901133771
 21
23.9210461562
 31
0.0
 11
19.2907036433
 21
23.9208444149
 31
0.0
 11
19.2912386023
 21
23.9206424825
 31
0.0
 11
19.2917182183
 21
23.9204403806
 31
0.0
 11
19.2921424576
 21
23.9202381311
 31
0.0
 11
19.2925112866
 21
23.9200357562
 31
0.0
 11
19.2928246714
 21
23.9198332776
 31
0.0
 11
19.2929605618
 21
23.9197320063
 31
0.0
 11
19.2930825785
 21
23.9196307174
 31
0.0
 11
19.2931907172
 21
23.9195294135
 31
0.0
 11
19.2932849739
 21
23.9194280975
 31
0.0
 11
19.2934318242
 21
23.9192254399
 31
0.0
  0
SPLINE
  5
41D
100
AcDbEntity
  8
0
100
AcDbSpline
 62
9
  6
CONTINUOUS
 70
0
 71
3
 72
95
 73
91
 74
89
 42
0.0000001
 43
0.0000001
 44
0.0000000001
 12
-1.1514083367
 22
-1.4443661238
 32
0.0
 13
1.2116301446
 23
1.3942334992
 33
0.0
 40
0.0
 40
0.0
 40
0.0
 40
0.0
 40
0.015625733
 40
0.023441289
 40
0.0312570518
 40
0.0468857337
 40
0.062513085
 40
0.078140623
 40
0.0937683528
 40
0.1093958356
 40
0.1250230349
 40
0.1328371533
 40
0.1406512236
 40
0.1484652415
 40
0.1562792023
 40
0.1640931116
 40
0.1719069805
 40
0.1797208156
 40
0.1875346259
 40
0.1953484237
 40
0.203162213
 40
0.2109759951
 40
0.2187897768
 40
0.2266035646
 40
0.2344173583
 40
0.2422311585
 40
0.2500449692
 40
0.2578587845
 40
0.2656725942
 40
0.281298966
 40
0.2969252308
 40
0.3125513403
 40
0.3203649461
 40
0.3281785208
 40
0.335992071
 40
0.3438055964
 40
0.3516190963
 40
0.3594325661
 40
0.3750580998
 40
0.3906831857
 40
0.3984960979
 40
0.4063088255
 40
0.4219326275
 40
0.4375561069
 40
0.4531796066
 40
0.4609919923
 40
0.4688043913
 40
0.4766167893
 40
0.4844291779
 40
0.492241562
 40
0.5000539483
 40
0.5156775505
 40
0.5234899871
 40
0.5313024485
 40
0.5469262439
 40
0.5547387892
 40
0.5625513622
 40
0.5703639501
 40
0.5781765373
 40
0.5938003937
 40
0.60942389
 40
0.6250469183
 40
0.6406697582
 40
0.6562926728
 40
0.671915563
 40
0.6875383396
 40
0.703161041
 40
0.7187836757
 40
0.7344062207
 40
0.7500286923
 40
0.7656511316
 40
0.7812735668
 40
0.7968960029
 40
0.812518438
 40
0.8281409151
 40
0.8437634808
 40
0.8593861222
 40
0.8671980695
 40
0.8750100364
 40
0.8906328406
 40
0.9062557099
 40
0.9218785293
 40
0.9375014796
 40
0.9453137106
 40
0.9531260629
 40
0.9609385095
 40
0.968751024
 40
0.976563576
 40
0.9843761348
 40
1.0
 40
1.0
 40
1.0
 40
1.0
 10
19.130613357
 20
23.1953984835
 30
0.0
 10
19.1246161573
 20
23.1878753904
 30
0.0
 10
19.1153357489
 20
23.1768112137
 30
0.0
 10
19.1024258019
 20
23.1625362993
 30
0.0
 10
19.0891634935
 20
23.1485851111
 30
0.0
 10
19.0719414774
 20
23.1317725714
 30
0.0
 10
19.0502997355
 20
23.1126517779
 30
0.0
 10
19.0277333981
 20
23.0946319567
 30
0.0
 10
19.0042991634
 20
23.0777560776
 30
0.0
 10
18.9800545664
 20
23.0620676581
 30
0.0
 10
18.9592246965
 20
23.0500139917
 30
0.0
 10
18.9422184865
 20
23.0410030168
 30
0.0
 10
18.9292990005
 20
23.0345637977
 30
0.0
 10
18.9162235657
 20
23.0284478997
 30
0.0
 10
18.903000111
 20
23.0226591718
 30
0.0
 10
18.889636756
 20
23.0172014238
 30
0.0
 10
18.8761418769
 20
23.0120777288
 30
0.0
 10
18.8625238216
 20
23.0072912005
 30
0.0
 10
18.8487909171
 20
23.0028450333
 30
0.0
 10
18.8349516598
 20
22.9987419661
 30
0.0
 10
18.8210146745
 20
22.9949842933
 30
0.0
 10
18.8069885547
 20
22.9915743942
 30
0.0
 10
18.7928819078
 20
22.9885146651
 30
0.0
 10
18.7787035168
 20
22.9858067502
 30
0.0
 10
18.7644621667
 20
22.9834522179
 30
0.0
 10
18.7501666231
 20
22.9814527269
 30
0.0
 10
18.7358257594
 20
22.9798096239
 30
0.0
 10
18.7214483734
 20
22.9785236374
 30
0.0
 10
18.7022430518
 20
22.9772862637
 30
0.0
 10
18.6781871599
 20
22.9766365224
 30
0.0
 10
18.6493193892
 20
22.9772928958
 30
0.0
 10
18.6253182441
 20
22.9790362848
 30
0.0
 10
18.6061894491
 20
22.981145267
 30
0.0
 10
18.5918858392
 20
22.9830836342
 30
0.0
 10
18.5776350165
 20
22.9853772149
 30
0.0
 10
18.5634456704
 20
22.988024415
 30
0.0
 10
18.5493265394
 20
22.9910237866
 30
0.0
 10
18.5306076785
 20
22.9954898587
 30
0.0
 10
18.5074262436
 20
23.0019430859
 30
0.0
 10
18.4845949734
 20
23.0095415627
 30
0.0
 10
18.4665756492
 20
23.0162948575
 30
0.0
 10
18.4487306963
 20
23.0234940439
 30
0.0
 10
18.4267686971
 20
23.0333218477
 30
0.0
 10
18.4010355827
 20
23.0464101309
 30
0.0
 10
18.380158773
 20
23.0583707605
 30
0.0
 10
18.363831472
 20
23.0685520809
 30
0.0
 10
18.3517789094
 20
23.0764907897
 30
0.0
 10
18.339927552
 20
23.0847267045
 30
0.0
 10
18.3282847634
 20
23.0932548886
 30
0.0
 10
18.3168575452
 20
23.10207001
 30
0.0
 10
18.301919361
 20
23.1141979936
 30
0.0
 10
18.2874378979
 20
23.126879999
 30
0.0
 10
18.2734453771
 20
23.1400881111
 30
0.0
 10
18.2597854508
 20
23.1536400807
 30
0.0
 10
18.2466352605
 20
23.1676980807
 30
0.0
 10
18.2340237318
 20
23.1822307932
 30
0.0
 10
18.2248384662
 20
23.1933630791
 30
0.0
 10
18.2159328558
 20
23.204720313
 30
0.0
 10
18.2044397802
 20
23.2201529931
 30
0.0
 10
18.1907984525
 20
23.2399728233
 30
0.0
 10
18.1756331578
 20
23.2645393085
 30
0.0
 10
18.1617082701
 20
23.2898292417
 30
0.0
 10
18.1490583641
 20
23.3157799029
 30
0.0
 10
18.1377145107
 20
23.3423274168
 30
0.0
 10
18.1277047628
 20
23.3694061133
 30
0.0
 10
18.1190539065
 20
23.3969489175
 30
0.0
 10
18.1117833299
 20
23.4248876535
 30
0.0
 10
18.1059109948
 20
23.4531532102
 30
0.0
 10
18.1014514082
 20
23.4816756562
 30
0.0
 10
18.0984155811
 20
23.5103844462
 30
0.0
 10
18.0968110065
 20
23.5392086086
 30
0.0
 10
18.0966416422
 20
23.5680768774
 30
0.0
 10
18.0979079065
 20
23.5969178628
 30
0.0
 10
18.1006066592
 20
23.6256602122
 30
0.0
 10
18.1047312708
 20
23.6542329876
 30
0.0
 10
18.1102714353
 20
23.6825651182
 30
0.0
 10
18.1160569378
 20
23.7059179537
 30
0.0
 10
18.1213772044
 20
23.7244084268
 30
0.0
 10
18.1271556211
 20
23.7427609935
 30
0.0
 10
18.1352320533
 20
23.7654239969
 30
0.0
 10
18.1462635262
 20
23.7921025075
 30
0.0
 10
18.1586078816
 20
23.8181995837
 30
0.0
 10
18.1699643157
 20
23.8394100695
 30
0.0
 10
18.179672877
 20
23.8560223096
 30
0.0
 10
18.1872625224
 20
23.8682975629
 30
0.0
 10
18.1951551333
 20
23.8803803615
 30
0.0
 10
18.2033459518
 20
23.8922631543
 30
0.0
 10
18.2118298408
 20
23.9039387942
 30
0.0
 10
18.223524454
 20
23.9192188863
 30
0.0
 10
18.2327210466
 20
23.9303489735
 30
0.0
 10
18.239031162
 20
23.937610079
 30
0.0
 11
19.130613357
 21
23.1953984835
 31
0.0
 11
19.1120653257
 21
23.1732842223
 31
0.0
 11
19.1023819918
 21
23.1625770302
 31
0.0
 11
19.092435142
 21
23.1521136596
 31
0.0
 11
19.0717781318
 21
23.1319475393
 31
0.0
 11
19.0501456519
 21
23.1128352814
 31
0.0
 11
19.0275888527
 21
23.0948226942
 31
0.0
 11
19.004163948
 21
23.0779538832
 31
0.0
 11
18.979929224
 21
23.0622715762
 31
0.0
 11
18.9549450478
 21
23.0478141451
 31
0.0
 11
18.942191049
 21
23.0410562041
 31
0.0
 11
18.9292729653
 21
23.0346176635
 31
0.0
 11
18.9161988486
 21
23.0285024067
 31
0.0
 11
18.902976751
 21
23.0227143168
 31
0.0
 11
18.8896148002
 21
23.0172570855
 31
0.0
 11
18.8761213184
 21
23.0121339126
 31
0.0
 11
18.8625046587
 21
23.0073479201
 31
0.0
 11
18.8487731798
 21
23.002902213
 31
0.0
 11
18.8349353639
 21
22.9987995296
 31
0.0
 11
18.8209998128
 21
22.9950422541
 31
0.0
 11
18.8069751331
 21
22.9916327558
 31
0.0
 11
18.7928699553
 21
22.9885733018
 31
0.0
 11
18.778693029
 21
22.9858656483
 31
0.0
 11
18.7644531408
 21
22.9835113924
 31
0.0
 11
18.7501590783
 21
22.981512126
 31
0.0
 11
18.7358196761
 21
22.9798691437
 31
0.0
 11
18.7214438396
 21
22.9785832903
 31
0.0
 11
18.7070404804
 21
22.9776553728
 31
0.0
 11
18.6781868757
 21
22.9768758644
 31
0.0
 11
18.6493304038
 21
22.9775321784
 31
0.0
 11
18.620542583
 21
22.9796230008
 31
0.0
 11
18.6061966724
 21
22.9812046993
 31
0.0
 11
18.591894614
 21
22.9831428398
 31
0.0
 11
18.57764524
 21
22.9854361554
 31
0.0
 11
18.5634573495
 21
22.9880831149
 31
0.0
 11
18.5493397407
 21
22.9910821809
 31
0.0
 11
18.5353011743
 21
22.9944315579
 31
0.0
 11
18.5074959461
 21
23.0021722333
 31
0.0
 11
18.4801109059
 21
23.0112859912
 31
0.0
 11
18.4665972484
 21
23.0163506731
 31
0.0
 11
18.4532140817
 21
23.0217498349
 31
0.0
 11
18.4268719504
 21
23.0335378053
 31
0.0
 11
18.401149124
 21
23.0466208457
 31
0.0
 11
18.376108665
 21
23.0609668314
 31
0.0
 11
18.3638637155
 21
23.0686024769
 31
0.0
 11
18.3518124433
 21
23.0765403243
 31
0.0
 11
18.3399623075
 21
23.0847754203
 31
0.0
 11
18.3283206886
 21
23.0933027139
 31
0.0
 11
18.3168947395
 21
23.1021168771
 31
0.0
 11
18.3056915531
 21
23.1112125089
 31
0.0
 11
18.2839809493
 21
23.1302254653
 31
0.0
 11
18.2734869747
 21
23.140131074
 31
0.0
 11
18.2632425509
 21
23.150294621
 31
0.0
 11
18.2435276698
 21
23.1713703629
 31
0.0
 11
18.2340693749
 21
23.1822694929
 31
0.0
 11
18.2248850839
 21
23.19340056
 31
0.0
 11
18.2159804298
 21
23.2047566062
 31
0.0
 11
18.2073609933
 21
23.2163306258
 31
0.0
 11
18.1909989605
 21
23.2401035898
 31
0.0
 11
18.1758396941
 21
23.264660222
 31
0.0
 11
18.1619206849
 21
23.2899395183
 31
0.0
 11
18.1492760523
 21
23.3158793493
 31
0.0
 11
18.1379368541
 21
23.3424159674
 31
0.0
 11
18.1279312151
 21
23.3694835516
 31
0.0
 11
18.119283933
 21
23.3970149758
 31
0.0
 11
18.1120163554
 21
23.4249421867
 31
0.0
 11
18.1061464388
 21
23.4531961027
 31
0.0
 11
18.1016886929
 21
23.4817067782
 31
0.0
 11
18.0986541205
 21
23.510403706
 31
0.0
 11
18.0970502079
 21
23.5392159658
 31
0.0
 11
18.0968809136
 21
23.5680723301
 31
0.0
 11
18.0981466542
 21
23.5969014197
 31
0.0
 11
18.1008442975
 21
23.6256319111
 31
0.0
 11
18.1049671835
 21
23.6541928055
 31
0.0
 11
18.1105051433
 21
23.6825135281
 31
0.0
 11
18.1174444941
 21
23.7105239871
 31
0.0
 11
18.1214344682
 21
23.7243911643
 31
0.0
 11
18.125768082
 21
23.7381548606
 31
0.0
 11
18.1354553546
 21
23.7653378425
 31
0.0
 11
18.1464823462
 21
23.7920056162
 31
0.0
 11
18.1588216931
 21
23.818092009
 31
0.0
 11
18.1724430237
 21
23.8435327771
 31
0.0
 11
18.1797241374
 21
23.8559914691
 31
0.0
 11
18.1873129699
 21
23.8682654135
 31
0.0
 11
18.1952047999
 21
23.8803469754
 31
0.0
 11
18.2033947769
 21
23.8922286005
 31
0.0
 11
18.2118777393
 21
23.9039029351
 31
0.0
 11
18.220648462
 21
23.9153626699
 31
0.0
 11
18.239031162
 21
23.937610079
 31
0.0
  0
SPLINE
  5
41E
100
AcDbEntity
  8
0
100
AcDbSpline
 62
9
  6
CONTINUOUS
 70
0
 71
3
 72
20
 73
16
 74
14
 42
0.0000001
 43
0.0000001
 44
0.0000000001
 12
-0.0457636527
 22
0.0111111841
 32
0.0
 13
-0.0450746764
 23
0.0136397898
 33
0.0
 40
0.0
 40
0.0
 40
0.0
 40
0.0
 40
0.0408281514
 40
0.0859022627
 40
0.1349194919
 40
0.1875800309
 40
0.2435980311
 40
0.30269145
 40
0.4289639791
 40
0.4955587706
 40
0.5640688085
 40
0.7057446712
 40
0.7783842131
 40
0.8518524616
 40
1.0
 40
1.0
 40
1.0
 40
1.0
 10
19.1759721978
 20
23.1827544448
 30
0.0
 10
19.1753493827
 20
23.1829056612
 30
0.0
 10
19.1740400594
 20
23.1832282628
 30
0.0
 10
19.1719863327
 20
23.1837458232
 30
0.0
 10
19.1697550971
 20
23.184318997
 30
0.0
 10
19.1673600127
 20
23.1849447247
 30
0.0
 10
19.1648143635
 20
23.1856198246
 30
0.0
 10
19.1611551134
 20
23.1866036069
 30
0.0
 10
19.1573405568
 20
23.1876491283
 30
0.0
 10
19.1533884186
 20
23.1887516353
 30
0.0
 10
19.1492070717
 20
23.1899322896
 30
0.0
 10
19.1449399254
 20
23.1911581852
 30
0.0
 10
19.1406029875
 20
23.192422812
 30
0.0
 10
19.1361719771
 20
23.1937276712
 30
0.0
 10
19.1328389731
 20
23.1947245602
 30
0.0
 10
19.1306130723
 20
23.1953981273
 30
0.0
 11
19.1759721978
 21
23.1827544448
 31
0.0
 11
19.1741051673
 21
23.1832138817
 31
0.0
 11
19.1720467372
 21
23.1837322014
 31
0.0
 11
19.1698108716
 21
23.1843062372
 31
0.0
 11
19.1674113819
 21
23.1849328307
 31
0.0
 11
19.1648614041
 21
23.1856088582
 31
0.0
 11
19.1621738886
 21
23.1863312054
 31
0.0
 11
19.1564386419
 21
23.1879024286
 31
0.0
 11
19.1534178163
 21
23.1887451192
 31
0.0
 11
19.1503128291
 21
23.1896217248
 31
0.0
 11
19.1438999679
 21
23.191463031
 31
0.0
 11
19.1406159004
 21
23.1924206178
 31
0.0
 11
19.1372969852
 21
23.1933980646
 31
0.0
 11
19.1306130723
 21
23.1953981273
 31
0.0
  0
SPLINE
  5
41F
100
AcDbEntity
  8
0
100
AcDbSpline
 62
9
  6
CONTINUOUS
 70
0
 71
3
 72
20
 73
16
 74
14
 42
0.0000001
 43
0.0000001
 44
0.0000000001
 12
0.0450746651
 22
0.0136397943
 32
0.0
 13
0.0457635927
 23
0.0111113905
 33
0.0
 40
0.0
 40
0.0
 40
0.0
 40
0.0
 40
0.1481475406
 40
0.22161579
 40
0.2942553347
 40
0.4359312035
 40
0.5044412384
 40
0.5710360214
 40
0.6973085332
 40
0.756401953
 40
0.8124199651
 40
0.8650805292
 40
0.9140977909
 40
0.9591719085
 40
1.0
 40
1.0
 40
1.0
 40
1.0
 10
19.1306130814
 20
23.9186955447
 30
0.0
 10
19.1328389817
 20
23.919369112
 30
0.0
 10
19.1361719842
 20
23.9203660036
 30
0.0
 10
19.1406029934
 20
23.9216708638
 30
0.0
 10
19.1449399314
 20
23.9229354874
 30
0.0
 10
19.149207079
 20
23.9241613755
 30
0.0
 10
19.153388425
 20
23.9253420297
 30
0.0
 10
19.1573405603
 20
23.9264445424
 30
0.0
 10
19.1611551137
 20
23.9274900709
 30
0.0
 10
19.1648143638
 20
23.9284738501
 30
0.0
 10
19.1673600142
 20
23.9291489454
 30
0.0
 10
19.1697551005
 20
23.9297746685
 30
0.0
 10
19.1719863372
 20
23.9303478399
 30
0.0
 10
19.1740400631
 20
23.9308654006
 30
0.0
 10
19.1753493845
 20
23.9311880054
 30
0.0
 10
19.1759721978
 20
23.9313392244
 30
0.0
 11
19.1306130814
 21
23.9186955447
 31
0.0
 11
19.1372969921
 21
23.9206956103
 31
0.0
 11
19.1406159065
 21
23.9216730575
 31
0.0
 11
19.1438999741
 21
23.922630642
 31
0.0
 11
19.1503128362
 21
23.924471941
 31
0.0
 11
19.1534178226
 21
23.9253485467
 31
0.0
 11
19.1564386461
 21
23.9261912409
 31
0.0
 11
19.1621738888
 21
23.9277624707
 31
0.0
 11
19.1648614044
 21
23.928484816
 31
0.0
 11
19.1674113832
 21
23.9291608392
 31
0.0
 11
19.1698108748
 21
23.9297874285
 31
0.0
 11
19.172046742
 21
23.9303614622
 31
0.0
 11
19.1741051717
 21
23.9308797828
 31
0.0
 11
19.1759721978
 21
23.9313392244
 31
0.0
  0
LINE
  5
420
100
AcDbEntity
  8
0
100
AcDbLine
 62
9
  6
CONTINUOUS
 10
19.1932566116
 20
23.9071116554
 11
19.1489380615
 21
23.8944286816
  0
LINE
  5
421
100
AcDbEntity
  8
0
100
AcDbLine
 62
9
  6
CONTINUOUS
 10
19.1489380732
 20
23.2196649842
 11
19.1932566116
 21
23.2069820137
  0
SPLINE
  5
422
100
AcDbEntity
  8
0
100
AcDbSpline
 62
9
  6
CONTINUOUS
 70
0
 71
3
 72
17
 73
13
 74
11
 42
0.0000001
 43
0.0000001
 44
0.0000000001
 12
0.026272313
 22
-0.0000000766
 32
0.0
 13
0.0262354454
 23
-0.0013913434
 33
0.0
 40
0.0
 40
0.0
 40
0.0
 40
0.0
 40
0.1444003417
 40
0.2873813931
 40
0.4271238512
 40
0.5617921242
 40
0.6891905499
 40
0.8067448684
 40
0.8609118909
 40
0.9114840973
 40
0.9580059372
 40
1.0
 40
1.0
 40
1.0
 40
1.0
 10
19.1489375072
 20
23.2446501415
 30
0.0
 10
19.1502020841
 20
23.2446501378
 30
0.0
 10
19.1527188111
 20
23.2446457702
 30
0.0
 10
19.1564592769
 20
23.2446258867
 30
0.0
 10
19.1601144159
 20
23.2445924027
 30
0.0
 10
19.1636329296
 20
23.244545121
 30
0.0
 10
19.166956889
 20
23.2444839662
 30
0.0
 10
19.1695756552
 20
23.2444200031
 30
0.0
 10
19.1715214744
 20
23.2443605399
 30
0.0
 10
19.1728453133
 20
23.2443137449
 30
0.0
 10
19.1740623502
 20
23.2442637751
 30
0.0
 10
19.174836637
 20
23.2442265098
 30
0.0
 10
19.1752038813
 20
23.2442070337
 30
0.0
 11
19.1489375072
 21
23.2446501415
 31
0.0
 11
19.1527312323
 21
23.2446434737
 31
0.0
 11
19.156487621
 21
23.2446233013
 31
0.0
 11
19.1601588215
 21
23.2445893306
 31
0.0
 11
19.1636965419
 21
23.2445412606
 31
0.0
 11
19.167043012
 21
23.2444788856
 31
0.0
 11
19.1701304819
 21
23.2444021302
 31
0.0
 11
19.171552903
 21
23.2443584055
 31
0.0
 11
19.1728807122
 21
23.2443111774
 31
0.0
 11
19.1741019032
 21
23.244260639
 31
0.0
 11
19.1752038813
 21
23.2442070337
 31
0.0
  0
SPLINE
  5
423
100
AcDbEntity
  8
0
100
AcDbSpline
 62
9
  6
CONTINUOUS
 70
0
 71
3
 72
17
 73
13
 74
11
 42
0.0000001
 43
0.0000001
 44
0.0000000001
 12
-0.0278856605
 22
-0.0013304511
 32
0.0
 13
-0.027917381
 23
-0.0000000673
 33
0.0
 40
0.0
 40
0.0
 40
0.0
 40
0.0
 40
0.0441071945
 40
0.0923821235
 40
0.1443318938
 40
0.1994978189
 40
0.3180152388
 40
0.4452025871
 40
0.5787811814
 40
0.7168361033
 40
0.8577785647
 40
1.0
 40
1.0
 40
1.0
 40
1.0
 10
19.1585238177
 20
23.2208265826
 30
0.0
 10
19.1581138316
 20
23.2208070218
 30
0.0
 10
19.1572549489
 20
23.2207696006
 30
0.0
 10
19.155912761
 20
23.2207193395
 30
0.0
 10
19.1544674832
 20
23.220672442
 30
0.0
 10
19.152368619
 20
23.2206132036
 30
0.0
 10
19.1495694817
 20
23.2205495139
 30
0.0
 10
19.1460404628
 20
23.2204885328
 30
0.0
 10
19.1423294064
 20
23.2204413655
 30
0.0
 10
19.1384901964
 20
23.2204078745
 30
0.0
 10
19.1345704642
 20
23.2203878975
 30
0.0
 10
19.1319353972
 20
23.220383478
 30
0.0
 10
19.1306119139
 20
23.2203834748
 30
0.0
 11
19.1585238177
 21
23.2208265826
 31
0.0
 11
19.1572936492
 21
23.2207724857
 31
0.0
 11
19.1559468969
 21
23.2207216988
 31
0.0
 11
19.1544973668
 21
23.2206744018
 31
0.0
 11
19.152957898
 21
23.2206307273
 31
0.0
 11
19.1496500858
 21
23.2205542593
 31
0.0
 11
19.1460998906
 21
23.2204921977
 31
0.0
 11
19.1423710332
 21
23.2204443314
 31
0.0
 11
19.1385170506
 21
23.2204104144
 31
0.0
 11
19.1345823582
 21
23.2203901904
 31
0.0
 11
19.1306119139
 21
23.2203834748
 31
0.0
  0
SPLINE
  5
424
100
AcDbEntity
  8
0
100
AcDbSpline
 62
9
  6
CONTINUOUS
 70
0
 71
3
 72
17
 73
13
 74
11
 42
0.0000001
 43
0.0000001
 44
0.0000000001
 12
0.027917381
 22
-0.000000067
 32
0.0
 13
0.0278856604
 23
-0.0013304547
 33
0.0
 40
0.0
 40
0.0
 40
0.0
 40
0.0
 40
0.1422214334
 40
0.2831638923
 40
0.4212188153
 40
0.5547974222
 40
0.6819847661
 40
0.8005021396
 40
0.8556680638
 40
0.9076178691
 40
0.9558928313
 40
1.0
 40
1.0
 40
1.0
 40
1.0
 10
19.1306119139
 20
23.8937101943
 30
0.0
 10
19.1319353972
 20
23.8937101912
 30
0.0
 10
19.1345704642
 20
23.8937057717
 30
0.0
 10
19.1384901963
 20
23.8936857946
 30
0.0
 10
19.1423294064
 20
23.8936523037
 30
0.0
 10
19.1460404629
 20
23.8936051364
 30
0.0
 10
19.1495694814
 20
23.8935441553
 30
0.0
 10
19.1523686182
 20
23.8934804655
 30
0.0
 10
19.1544674824
 20
23.8934212271
 30
0.0
 10
19.1559127607
 20
23.8933743297
 30
0.0
 10
19.1572549491
 20
23.8933240686
 30
0.0
 10
19.1581138318
 20
23.8932866474
 30
0.0
 10
19.1585238177
 20
23.8932670866
 30
0.0
 11
19.1306119139
 21
23.8937101943
 31
0.0
 11
19.1345823581
 21
23.8937034788
 31
0.0
 11
19.1385170505
 21
23.8936832548
 31
0.0
 11
19.1423710332
 21
23.8936493378
 31
0.0
 11
19.1460998908
 21
23.8936014715
 31
0.0
 11
19.1496500859
 21
23.8935394099
 31
0.0
 11
19.1529578969
 21
23.8934629419
 31
0.0
 11
19.1544973656
 21
23.8934192673
 31
0.0
 11
19.1559468967
 21
23.8933719704
 31
0.0
 11
19.1572936499
 21
23.8933211834
 31
0.0
 11
19.1585238177
 21
23.8932670866
 31
0.0
  0
SPLINE
  5
425
100
AcDbEntity
  8
0
100
AcDbSpline
 62
9
  6
CONTINUOUS
 70
0
 71
3
 72
17
 73
13
 74
11
 42
0.0000001
 43
0.0000001
 44
0.0000000001
 12
-0.0262354455
 22
-0.0013913402
 32
0.0
 13
-0.026272313
 23
-0.000000077
 33
0.0
 40
0.0
 40
0.0
 40
0.0
 40
0.0
 40
0.0419940853
 40
0.0885158968
 40
0.1390880728
 40
0.1932550954
 40
0.310809454
 40
0.4382078851
 40
0.5728761472
 40
0.7126186026
 40
0.855599656
 40
1.0
 40
1.0
 40
1.0
 40
1.0
 10
19.1752038813
 20
23.8698866354
 30
0.0
 10
19.1748366368
 20
23.8698671594
 30
0.0
 10
19.1740623501
 20
23.8698298941
 30
0.0
 10
19.1728453135
 20
23.8697799242
 30
0.0
 10
19.1715214751
 20
23.8697331292
 30
0.0
 10
19.1695756558
 20
23.869673666
 30
0.0
 10
19.1669568892
 20
23.869609703
 30
0.0
 10
19.1636329295
 20
23.8695485482
 30
0.0
 10
19.1601144159
 20
23.8695012665
 30
0.0
 10
19.156459277
 20
23.8694677824
 30
0.0
 10
19.1527188111
 20
23.8694478989
 30
0.0
 10
19.1502020842
 20
23.8694435314
 30
0.0
 10
19.1489375072
 20
23.8694435277
 30
0.0
 11
19.1752038813
 21
23.8698866354
 31
0.0
 11
19.1741019026
 21
23.8698330302
 31
0.0
 11
19.1728807123
 21
23.8697824917
 31
0.0
 11
19.1715529039
 21
23.8697352637
 31
0.0
 11
19.1701304828
 21
23.8696915389
 31
0.0
 11
19.1670430119
 21
23.8696147836
 31
0.0
 11
19.1636965417
 21
23.8695524086
 31
0.0
 11
19.1601588215
 21
23.8695043386
 31
0.0
 11
19.1564876212
 21
23.8694703679
 31
0.0
 11
19.1527312323
 21
23.8694501955
 31
0.0
 11
19.1489375072
 21
23.8694435277
 31
0.0
  0
SPLINE
  5
426
100
AcDbEntity
  8
0
100
AcDbSpline
 62
9
  6
CONTINUOUS
 70
0
 71
3
 72
86
 73
82
 74
80
 42
0.0000001
 43
0.0000001
 44
0.0000000001
 12
0.2113475642
 22
0.0100885427
 32
0.0
 13
-0.2112849871
 23
0.0113236829
 33
0.0
 40
0.0
 40
0.0
 40
0.0
 40
0.0
 40
0.0604635062
 40
0.117670435
 40
0.1715265406
 40
0.2219383283
 40
0.2688291486
 40
0.2909364149
 40
0.3121423476
 40
0.3324400832
 40
0.3518228074
 40
0.3702838738
 40
0.3878177078
 40
0.4044193607
 40
0.4200839965
 40
0.4348069169
 40
0.4485835994
 40
0.4614097524
 40
0.4732814816
 40
0.4841966877
 40
0.4941549172
 40
0.4987753094
 40
0.5031566936
 40
0.5072993096
 40
0.5112035094
 40
0.5148697867
 40
0.5182988161
 40
0.5214915064
 40
0.524449075
 40
0.5271731534
 40
0.5296659751
 40
0.5319307488
 40
0.5339718632
 40
0.535795346
 40
0.5374096916
 40
0.5388271889
 40
0.5400660337
 40
0.5406270819
 40
0.5411547149
 40
0.5416543856
 40
0.5421325073
 40
0.542596391
 40
0.5430540334
 40
0.54351376
 40
0.5439837885
 40
0.544471819
 40
0.5449847442
 40
0.5455285136
 40
0.5461081297
 40
0.5473899396
 40
0.548856072
 40
0.5505229718
 40
0.5524016634
 40
0.5544997455
 40
0.556822585
 40
0.5593740586
 40
0.5621570209
 40
0.5651736085
 40
0.5684254407
 40
0.5719137564
 40
0.5756395091
 40
0.5796034346
 40
0.5838061001
 40
0.5929291441
 40
0.6030104496
 40
0.6140488455
 40
0.6260421334
 40
0.6389875662
 40
0.6528820015
 40
0.6677220051
 40
0.6835039233
 40
0.7002236161
 40
0.7178756557
 40
0.7364542449
 40
0.7559535002
 40
0.7763674686
 40
0.7976901405
 40
0.8430367148
 40
0.8919275167
 40
0.9442774417
 40
1.0
 40
1.0
 40
1.0
 40
1.0
 10
19.1585238177
 20
23.2208265826
 30
0.0
 10
19.1627834226
 20
23.2210299122
 30
0.0
 10
19.1710724966
 20
23.2214407873
 30
0.0
 10
19.1831527629
 20
23.2220900652
 30
0.0
 10
19.1945221398
 20
23.2227544253
 30
0.0
 10
19.2051617203
 20
23.2234328458
 30
0.0
 10
19.2135632065
 20
23.224019964
 30
0.0
 10
19.21990728
 20
23.2244978735
 30
0.0
 10
19.2243797233
 20
23.224852158
 30
0.0
 10
19.2286591461
 20
23.2252092396
 30
0.0
 10
19.2327440377
 20
23.2255689977
 30
0.0
 10
19.2366329652
 20
23.2259313179
 30
0.0
 10
19.2403246153
 20
23.2262960587
 30
0.0
 10
19.243817786
 20
23.2266630713
 30
0.0
 10
19.2471113146
 20
23.2270322109
 30
0.0
 10
19.2502040409
 20
23.2274033286
 30
0.0
 10
19.2530948078
 20
23.2277762716
 30
0.0
 10
19.2557824683
 20
23.2281508799
 30
0.0
 10
19.2582659874
 20
23.2285270076
 30
0.0
 10
19.2605445077
 20
23.2289044937
 30
0.0
 10
19.2623134267
 20
23.229227554
 30
0.0
 10
19.2636250791
 20
23.2294880051
 30
0.0
 10
19.2645323412
 20
23.2296787074
 30
0.0
 10
19.2653878681
 20
23.2298696623
 30
0.0
 10
19.2661915883
 20
23.2300608525
 30
0.0
 10
19.2669434322
 20
23.2302522548
 30
0.0
 10
19.2676433333
 20
23.2304438462
 30
0.0
 10
19.2682912283
 20
23.2306356021
 30
0.0
 10
19.2688870597
 20
23.2308274975
 30
0.0
 10
19.2694307805
 20
23.231019507
 30
0.0
 10
19.2699223691
 20
23.2312116148
 30
0.0
 10
19.2703618461
 20
23.2314037952
 30
0.0
 10
19.2707492803
 20
23.23159604
 30
0.0
 10
19.2710847722
 20
23.2317883616
 30
0.0
 10
19.271368502
 20
23.2319808685
 30
0.0
 10
19.2716006007
 20
23.2321737086
 30
0.0
 10
19.2717560223
 20
23.2323403365
 30
0.0
 10
19.271851674
 20
23.2324740085
 30
0.0
 10
19.271907945
 20
23.2325711007
 30
0.0
 10
19.2719510914
 20
23.2326683647
 30
0.0
 10
19.271981041
 20
23.2327658089
 30
0.0
 10
19.2719977176
 20
23.2328633993
 30
0.0
 10
19.2720010622
 20
23.2329610626
 30
0.0
 10
19.2719910603
 20
23.2330587013
 30
0.0
 10
19.2719677475
 20
23.2331562262
 30
0.0
 10
19.2719311921
 20
23.2332535834
 30
0.0
 10
19.2718814664
 20
23.2333507583
 30
0.0
 10
19.2718186303
 20
23.233447772
 30
0.0
 10
19.2717138628
 20
23.2335814338
 30
0.0
 10
19.2715471977
 20
23.2337478761
 30
0.0
 10
19.2713019879
 20
23.2339405837
 30
0.0
 10
19.2710050209
 20
23.2341330189
 30
0.0
 10
19.2706562083
 20
23.2343253055
 30
0.0
 10
19.2702554207
 20
23.2345175257
 30
0.0
 10
19.2698026079
 20
23.2347096835
 30
0.0
 10
19.2692977451
 20
23.234901768
 30
0.0
 10
19.2687408345
 20
23.2350937567
 30
0.0
 10
19.2681318935
 20
23.2352856248
 30
0.0
 10
19.2674709501
 20
23.2354773465
 30
0.0
 10
19.2667580397
 20
23.2356688972
 30
0.0
 10
19.2659932021
 20
23.2358602515
 30
0.0
 10
19.2651764815
 20
23.236051392
 30
0.0
 10
19.2639854461
 20
23.2363131437
 30
0.0
 10
19.2623666076
 20
23.2366375898
 30
0.0
 10
19.2602673451
 20
23.2370160494
 30
0.0
 10
19.2579624951
 20
23.2373933398
 30
0.0
 10
19.2554529897
 20
23.2377692877
 30
0.0
 10
19.2527397708
 20
23.2381437094
 30
0.0
 10
19.2498237971
 20
23.2385164391
 30
0.0
 10
19.2467060316
 20
23.2388873168
 30
0.0
 10
19.2433874641
 20
23.2392561856
 30
0.0
 10
19.2398691909
 20
23.2396228859
 30
0.0
 10
19.2361524373
 20
23.2399872988
 30
0.0
 10
19.2322385285
 20
23.2403492939
 30
0.0
 10
19.2281288095
 20
23.24070874
 30
0.0
 10
19.2238246256
 20
23.2410655137
 30
0.0
 10
19.2177016181
 20
23.2415474168
 30
0.0
 10
19.2095726972
 20
23.2421395327
 30
0.0
 10
19.1992565877
 20
23.2428237377
 30
0.0
 10
19.1882063378
 20
23.2434943003
 30
0.0
 10
19.1805958282
 20
23.2439184459
 30
0.0
 10
19.1766713815
 20
23.2441287741
 30
0.0
 11
19.1585238177
 21
23.2208265826
 31
0.0
 11
19.1713014291
 21
23.2214612785
 31
0.0
 11
19.1833882131
 21
23.2221124445
 31
0.0
 11
19.1947640191
 21
23.2227789948
 31
0.0
 11
19.2054088075
 21
23.2234598451
 31
0.0
 11
19.2153060415
 21
23.2241539702
 31
0.0
 11
19.2199704349
 21
23.2245057119
 31
0.0
 11
19.2244433182
 21
23.2248604144
 31
0.0
 11
19.228723171
 21
23.2252179586
 31
0.0
 11
19.2328084724
 21
23.2255782257
 31
0.0
 11
19.2366977251
 21
23.2259410958
 31
0.0
 11
19.2403896448
 21
23.226306441
 31
0.0
 11
19.2438830622
 21
23.2266741293
 31
0.0
 11
19.2471768092
 21
23.2270440282
 31
0.0
 11
19.2502697174
 21
23.2274160058
 31
0.0
 11
19.2531606187
 21
23.2277899297
 31
0.0
 11
19.2558483449
 21
23.2281656678
 31
0.0
 11
19.258331747
 21
23.2285430877
 31
0.0
 11
19.2606099715
 21
23.228922056
 31
0.0
 11
19.2626823961
 21
23.2293024383
 31
0.0
 11
19.2636412409
 21
23.2294931177
 31
0.0
 11
19.2645484046
 21
23.2296841002
 31
0.0
 11
19.2654038102
 21
23.2298753689
 31
0.0
 11
19.2662073808
 21
23.230066907
 31
0.0
 11
19.2669590393
 21
23.2302586978
 31
0.0
 11
19.2676587087
 21
23.2304507245
 31
0.0
 11
19.268306312
 21
23.2306429702
 31
0.0
 11
19.2689017721
 21
23.2308354181
 31
0.0
 11
19.269445012
 21
23.2310280515
 31
0.0
 11
19.2699359628
 21
23.2312208535
 31
0.0
 11
19.2703745982
 21
23.231413807
 31
0.0
 11
19.270760906
 21
23.2316068949
 31
0.0
 11
19.2710948738
 21
23.2318001003
 31
0.0
 11
19.2713764896
 21
23.2319934059
 31
0.0
 11
19.271605741
 21
23.2321867947
 31
0.0
 11
19.2717826159
 21
23.2323802495
 31
0.0
 11
19.2718514082
 21
23.2324769964
 31
0.0
 11
19.2719071019
 21
23.2325737534
 31
0.0
 11
19.2719496953
 21
23.2326705183
 31
0.0
 11
19.2719791868
 21
23.2327672891
 31
0.0
 11
19.2719955751
 21
23.2328640636
 31
0.0
 11
19.2719988585
 21
23.2329608397
 31
0.0
 11
19.2719890355
 21
23.2330576152
 31
0.0
 11
19.2719661047
 21
23.233154388
 31
0.0
 11
19.2719300643
 21
23.2332511559
 31
0.0
 11
19.2718809131
 21
23.2333479168
 31
0.0
 11
19.2718186493
 21
23.2334446687
 31
0.0
 11
19.2717432714
 21
23.2335414092
 31
0.0
 11
19.2715531676
 21
23.233734848
 31
0.0
 11
19.271310592
 21
23.2339282162
 31
0.0
 11
19.271015571
 21
23.2341214967
 31
0.0
 11
19.2706681571
 21
23.2343146727
 31
0.0
 11
19.270268403
 21
23.2345077271
 31
0.0
 11
19.2698163617
 21
23.2347006432
 31
0.0
 11
19.269312086
 21
23.2348934039
 31
0.0
 11
19.2687556288
 21
23.2350859924
 31
0.0
 11
19.268147043
 21
23.2352783917
 31
0.0
 11
19.2674863814
 21
23.235470585
 31
0.0
 11
19.266773697
 21
23.2356625552
 31
0.0
 11
19.2660090426
 21
23.2358542856
 31
0.0
 11
19.2651924712
 21
23.2360457591
 31
0.0
 11
19.2643240354
 21
23.2362369589
 31
0.0
 11
19.2624317833
 21
23.2366184695
 31
0.0
 11
19.2603328571
 21
23.2369986825
 31
0.0
 11
19.2580281822
 21
23.2373774636
 31
0.0
 11
19.2555187366
 21
23.2377546788
 31
0.0
 11
19.2528054982
 21
23.2381301941
 31
0.0
 11
19.249889445
 21
23.2385038754
 31
0.0
 11
19.2467715547
 21
23.2388755886
 31
0.0
 11
19.2434528053
 21
23.2392451997
 31
0.0
 11
19.2399342425
 21
23.2396125769
 31
0.0
 11
19.2362171586
 21
23.2399775969
 31
0.0
 11
19.2323029017
 21
23.2403401384
 31
0.0
 11
19.22819282
 21
23.2407000798
 31
0.0
 11
19.2238882617
 21
23.2410572999
 31
0.0
 11
19.219390575
 21
23.2414116771
 31
0.0
 11
19.209821324
 21
23.2421114153
 31
0.0
 11
19.1994994332
 21
23.2427982551
 31
0.0
 11
19.1884432597
 21
23.2434710812
 31
0.0
 11
19.1766713815
 21
23.2441287741
 31
0.0
  0
LINE
  5
427
100
AcDbEntity
  8
0
100
AcDbLine
 62
9
  6
CONTINUOUS
 10
19.1766713815
 20
23.2441287741
 11
19.1752038813
 21
23.2442070337
  0
SPLINE
  5
428
100
AcDbEntity
  8
0
100
AcDbSpline
 62
9
  6
CONTINUOUS
 70
0
 71
3
 72
37
 73
33
 74
31
 42
0.0000001
 43
0.0000001
 44
0.0000000001
 12
0.0211903237
 22
0.0440427169
 32
0.0
 13
-0.0488598136
 23
0.0012285532
 33
0.0
 40
0.0
 40
0.0
 40
0.0
 40
0.0
 40
0.0640220518
 40
0.0966272824
 40
0.1295361176
 40
0.1626832724
 40
0.1960051794
 40
0.2294532872
 40
0.2629854653
 40
0.2965573508
 40
0.3301237766
 40
0.3636403064
 40
0.39706237
 40
0.4303422817
 40
0.4634319341
 40
0.4962847272
 40
0.5288573396
 40
0.5929947404
 40
0.6245317307
 40
0.6556727249
 40
0.6863986706
 40
0.716697878
 40
0.7465737043
 40
0.7760386828
 40
0.8051101026
 40
0.8338117167
 40
0.8621755131
 40
0.8902360042
 40
0.9180202981
 40
0.9455552556
 40
0.9728703833
 40
1.0
 40
1.0
 40
1.0
 40
1.0
 10
19.1759721978
 20
23.1827544448
 30
0.0
 10
19.1764244138
 20
23.1836943465
 30
0.0
 10
19.1770210418
 20
23.1851561979
 30
0.0
 10
19.177651936
 20
23.1871707465
 30
0.0
 10
19.1780468773
 20
23.1887297641
 30
0.0
 10
19.1783580607
 20
23.1903194207
 30
0.0
 10
19.1785827671
 20
23.1919324896
 30
0.0
 10
19.1787202
 20
23.1935615871
 30
0.0
 10
19.1787706476
 20
23.195199753
 30
0.0
 10
19.1787341713
 20
23.1968402122
 30
0.0
 10
19.1786109309
 20
23.1984761917
 30
0.0
 10
19.1784009069
 20
23.2001008615
 30
0.0
 10
19.1781047777
 20
23.2017073138
 30
0.0
 10
19.1777246099
 20
23.2032888305
 30
0.0
 10
19.1772622433
 20
23.204838614
 30
0.0
 10
19.176719514
 20
23.20634999
 30
0.0
 10
19.1758957327
 20
23.2082942922
 30
0.0
 10
19.1749158688
 20
23.2101460995
 30
0.0
 10
19.1737901727
 20
23.2118796828
 30
0.0
 10
19.1728850754
 20
23.213104217
 30
0.0
 10
19.171918423
 20
23.2142545306
 30
0.0
 10
19.1708936419
 20
23.215325119
 30
0.0
 10
19.1698152354
 20
23.2163115191
 30
0.0
 10
19.1686880364
 20
23.2172100832
 30
0.0
 10
19.1675166661
 20
23.2180170788
 30
0.0
 10
19.1663058063
 20
23.2187288604
 30
0.0
 10
19.1650601165
 20
23.2193414572
 30
0.0
 10
19.1637851946
 20
23.2198517419
 30
0.0
 10
19.1624877609
 20
23.2202586551
 30
0.0
 10
19.1611743912
 20
23.2205607242
 30
0.0
 10
19.1598518732
 20
23.2207565444
 30
0.0
 10
19.158965667
 20
23.2208154726
 30
0.0
 10
19.1585238177
 20
23.2208265826
 30
0.0
 11
19.1759721978
 21
23.1827544448
 31
0.0
 11
19.1771597066
 21
23.1856494497
 31
0.0
 11
19.1776363818
 21
23.1871700768
 31
0.0
 11
19.1780316319
 21
23.1887291847
 31
0.0
 11
19.1783429277
 21
23.1903190715
 31
0.0
 11
19.1785678703
 21
23.1919320791
 31
0.0
 11
19.1787055785
 21
23.1935610536
 31
0.0
 11
19.1787561497
 21
23.195199167
 31
0.0
 11
19.1787196978
 21
23.1968395966
 31
0.0
 11
19.1785963365
 21
23.1984755196
 31
0.0
 11
19.1783861907
 21
23.2001001136
 31
0.0
 11
19.1780900429
 21
23.2017065561
 31
0.0
 11
19.1777096958
 21
23.2032880261
 31
0.0
 11
19.1772470393
 21
23.2048377022
 31
0.0
 11
19.1767039637
 21
23.2063487631
 31
0.0
 11
19.1760823593
 21
23.2078143877
 31
0.0
 11
19.1746136353
 21
23.2105837548
 31
0.0
 11
19.173773749
 21
23.2118762093
 31
0.0
 11
19.1728685448
 21
23.2130997953
 31
0.0
 11
19.1719017961
 21
23.2142489756
 31
0.0
 11
19.1708773227
 21
23.2153183046
 31
0.0
 11
19.1697994789
 21
23.2163033953
 31
0.0
 11
19.1686729639
 21
23.2172005442
 31
0.0
 11
19.1675024829
 21
23.2180060594
 31
0.0
 11
19.166292741
 21
23.2187162487
 31
0.0
 11
19.1650484556
 21
23.2193274343
 31
0.0
 11
19.1637750842
 21
23.2198367846
 31
0.0
 11
19.1624792313
 21
23.2202427808
 31
0.0
 11
19.1611676003
 21
23.2205440166
 31
0.0
 11
19.1598468947
 21
23.2207390859
 31
0.0
 11
19.1585238177
 21
23.2208265826
 31
0.0
  0
LINE
  5
429
100
AcDbEntity
  8
0
100
AcDbLine
 62
9
  6
CONTINUOUS
 10
19.1752038813
 20
23.8698866354
 11
19.1766713317
 21
23.8699648924
  0
SPLINE
  5
42A
100
AcDbEntity
  8
0
100
AcDbSpline
 62
9
  6
CONTINUOUS
 70
0
 71
3
 72
86
 73
82
 74
80
 42
0.0000001
 43
0.0000001
 44
0.0000000001
 12
0.2112850366
 22
0.0113236813
 32
0.0
 13
-0.2113476135
 23
0.0100885451
 33
0.0
 40
0.0
 40
0.0
 40
0.0
 40
0.0
 40
0.0557225558
 40
0.1080724638
 40
0.1569632365
 40
0.2023097799
 40
0.2236324496
 40
0.2440464235
 40
0.2635456895
 40
0.2821242925
 40
0.2997763465
 40
0.3164960519
 40
0.3322779816
 40
0.3471179973
 40
0.3610124445
 40
0.3739578886
 40
0.3859511863
 40
0.3969895897
 40
0.4070709
 40
0.416193948
 40
0.4203966168
 40
0.4243605464
 40
0.4280863038
 40
0.4315746245
 40
0.434826462
 40
0.4378430551
 40
0.4406260228
 40
0.4431775015
 40
0.4455003459
 40
0.4475984322
 40
0.4494771274
 40
0.45114403
 40
0.4526101644
 40
0.4538919764
 40
0.4544715936
 40
0.455015364
 40
0.4555282903
 40
0.4560163215
 40
0.4564863505
 40
0.4569460774
 40
0.4574037197
 40
0.457867603
 40
0.4583457239
 40
0.4588453934
 40
0.459373025
 40
0.4599340716
 40
0.4611729127
 40
0.462590406
 40
0.4642047475
 40
0.4660282265
 40
0.4680693375
 40
0.4703341084
 40
0.4728269282
 40
0.4755510047
 40
0.4785085707
 40
0.481701258
 40
0.485130284
 40
0.4887965576
 40
0.4927007536
 40
0.4968433657
 40
0.5012247461
 40
0.5058451346
 40
0.5158033576
 40
0.5267185591
 40
0.538590286
 40
0.5514164357
 40
0.5651931136
 40
0.5799160285
 40
0.5955806587
 40
0.6121823062
 40
0.6297161359
 40
0.6481771993
 40
0.6675599209
 40
0.687857654
 40
0.7090635844
 40
0.7311708493
 40
0.7780616705
 40
0.8284734639
 40
0.8823295718
 40
0.9395364989
 40
1.0
 40
1.0
 40
1.0
 40
1.0
 10
19.1766713317
 20
23.8699648924
 30
0.0
 10
19.1805957791
 20
23.8701752205
 30
0.0
 10
19.1882062891
 20
23.870599366
 30
0.0
 10
19.1992565381
 20
23.8712699282
 30
0.0
 10
19.2095726446
 20
23.8719541326
 30
0.0
 10
19.217701563
 20
23.8725462483
 30
0.0
 10
19.2238245701
 20
23.8730281512
 30
0.0
 10
19.2281287559
 20
23.8733849248
 30
0.0
 10
19.2322384781
 20
23.8737443709
 30
0.0
 10
19.2361523905
 20
23.874106366
 30
0.0
 10
19.2398691479
 20
23.874470779
 30
0.0
 10
19.2433874247
 20
23.8748374793
 30
0.0
 10
19.2467059955
 20
23.8752063483
 30
0.0
 10
19.2498237643
 20
23.8755772261
 30
0.0
 10
19.2527397411
 20
23.8759499558
 30
0.0
 10
19.255452963
 20
23.8763243775
 30
0.0
 10
19.2579624711
 20
23.8767003254
 30
0.0
 10
19.2602673232
 20
23.8770776158
 30
0.0
 10
19.2623665874
 20
23.8774560755
 30
0.0
 10
19.2639854272
 20
23.8777805216
 30
0.0
 10
19.2651764637
 20
23.8780422733
 30
0.0
 10
19.2659931853
 20
23.8782334138
 30
0.0
 10
19.2667580241
 20
23.8784247681
 30
0.0
 10
19.2674709358
 20
23.8786163189
 30
0.0
 10
19.2681318805
 20
23.8788080406
 30
0.0
 10
19.2687408229
 20
23.8789999086
 30
0.0
 10
19.2692977348
 20
23.8791918974
 30
0.0
 10
19.2698025988
 20
23.8793839819
 30
0.0
 10
19.2702554129
 20
23.8795761397
 30
0.0
 10
19.2706562016
 20
23.8797683599
 30
0.0
 10
19.2710050152
 20
23.8799606466
 30
0.0
 10
19.2713019829
 20
23.8801530818
 30
0.0
 10
19.2715471933
 20
23.8803457895
 30
0.0
 10
19.271713859
 20
23.8805122318
 30
0.0
 10
19.271818627
 20
23.8806458936
 30
0.0
 10
19.2718814636
 20
23.8807429073
 30
0.0
 10
19.2719311898
 20
23.8808400822
 30
0.0
 10
19.2719677456
 20
23.8809374394
 30
0.0
 10
19.271991059
 20
23.8810349643
 30
0.0
 10
19.2720010615
 20
23.8811326031
 30
0.0
 10
19.2719977173
 20
23.8812302664
 30
0.0
 10
19.2719810414
 20
23.8813278568
 30
0.0
 10
19.2719510923
 20
23.8814253011
 30
0.0
 10
19.2719079465
 20
23.8815225651
 30
0.0
 10
19.2718516761
 20
23.8816196573
 30
0.0
 10
19.2717560252
 20
23.8817533293
 30
0.0
 10
19.2716006045
 20
23.8819199573
 30
0.0
 10
19.2713685069
 20
23.8821127974
 30
0.0
 10
19.271084778
 20
23.8823053044
 30
0.0
 10
19.2707492869
 20
23.8824976261
 30
0.0
 10
19.2703618535
 20
23.8826898709
 30
0.0
 10
19.2699223769
 20
23.8828820513
 30
0.0
 10
19.2694307888
 20
23.8830741591
 30
0.0
 10
19.2688870683
 20
23.8832661686
 30
0.0
 10
19.2682912373
 20
23.8834580642
 30
0.0
 10
19.2676433428
 20
23.8836498201
 30
0.0
 10
19.2669434423
 20
23.8838414115
 30
0.0
 10
19.266191599
 20
23.8840328139
 30
0.0
 10
19.2653878795
 20
23.8842240042
 30
0.0
 10
19.2645323532
 20
23.8844149591
 30
0.0
 10
19.2636250917
 20
23.8846056615
 30
0.0
 10
19.26231344
 20
23.8848661127
 30
0.0
 10
19.2605445216
 20
23.8851891731
 30
0.0
 10
19.2582660018
 20
23.8855666593
 30
0.0
 10
19.2557824829
 20
23.8859427871
 30
0.0
 10
19.2530948224
 20
23.8863173955
 30
0.0
 10
19.2502040558
 20
23.8866903387
 30
0.0
 10
19.2471113299
 20
23.8870614565
 30
0.0
 10
19.2438178017
 20
23.8874305962
 30
0.0
 10
19.2403246313
 20
23.8877976089
 30
0.0
 10
19.2366329812
 20
23.8881623498
 30
0.0
 10
19.2327440535
 20
23.88852467
 30
0.0
 10
19.2286591615
 20
23.8888844282
 30
0.0
 10
19.2243797383
 20
23.88924151
 30
0.0
 10
19.2199072944
 20
23.8895957945
 30
0.0
 10
19.2135632196
 20
23.8900737042
 30
0.0
 10
19.2051617311
 20
23.8906608226
 30
0.0
 10
19.1945221474
 20
23.8913392433
 30
0.0
 10
19.1831527675
 20
23.8920036037
 30
0.0
 10
19.1710724987
 20
23.8926528818
 30
0.0
 10
19.1627834232
 20
23.893063757
 30
0.0
 10
19.1585238177
 20
23.8932670866
 30
0.0
 11
19.1766713317
 21
23.8699648924
 31
0.0
 11
19.1884432121
 21
23.8706225851
 31
0.0
 11
19.1994993846
 21
23.8712954108
 31
0.0
 11
19.2098212716
 21
23.87198225
 31
0.0
 11
19.2193905183
 21
23.8726819878
 31
0.0
 11
19.2238882057
 21
23.8730363649
 31
0.0
 11
19.2281927662
 21
23.8733935849
 31
0.0
 11
19.2323028511
 21
23.8737535264
 31
0.0
 11
19.2362171118
 21
23.8741160679
 31
0.0
 11
19.2399341997
 21
23.874481088
 31
0.0
 11
19.2434527659
 21
23.8748484653
 31
0.0
 11
19.2467715185
 21
23.8752180765
 31
0.0
 11
19.2498894121
 21
23.8755897898
 31
0.0
 11
19.2528054687
 21
23.8759634711
 31
0.0
 11
19.2555187101
 21
23.8763389864
 31
0.0
 11
19.2580281583
 21
23.8767162016
 31
0.0
 11
19.2603328354
 21
23.8770949828
 31
0.0
 11
19.2624317632
 21
23.8774751958
 31
0.0
 11
19.2643240166
 21
23.8778567064
 31
0.0
 11
19.2651924533
 21
23.8780479062
 31
0.0
 11
19.2660090258
 21
23.8782393797
 31
0.0
 11
19.2667736814
 21
23.8784311101
 31
0.0
 11
19.2674863671
 21
23.8786230804
 31
0.0
 11
19.26814703
 21
23.8788152736
 31
0.0
 11
19.2687556172
 21
23.879007673
 31
0.0
 11
19.2693120757
 21
23.8792002615
 31
0.0
 11
19.2698163527
 21
23.8793930222
 31
0.0
 11
19.2702683952
 21
23.8795859383
 31
0.0
 11
19.2706681504
 21
23.8797789928
 31
0.0
 11
19.2710155653
 21
23.8799721688
 31
0.0
 11
19.2713105871
 21
23.8801654493
 31
0.0
 11
19.2715531633
 21
23.8803588175
 31
0.0
 11
19.2717432678
 21
23.8805522564
 31
0.0
 11
19.271818646
 21
23.8806489969
 31
0.0
 11
19.2718809103
 21
23.8807457488
 31
0.0
 11
19.271930062
 21
23.8808425098
 31
0.0
 11
19.2719661028
 21
23.8809392777
 31
0.0
 11
19.2719890342
 21
23.8810360505
 31
0.0
 11
19.2719988577
 21
23.881132826
 31
0.0
 11
19.2719955749
 21
23.8812296021
 31
0.0
 11
19.2719791872
 21
23.8813263766
 31
0.0
 11
19.2719496962
 21
23.8814231474
 31
0.0
 11
19.2719071034
 21
23.8815199124
 31
0.0
 11
19.2718514103
 21
23.8816166694
 31
0.0
 11
19.2717826185
 21
23.8817134163
 31
0.0
 11
19.2716057448
 21
23.8819068712
 31
0.0
 11
19.2713764944
 21
23.88210026
 31
0.0
 11
19.2710948796
 21
23.8822935657
 31
0.0
 11
19.2707609126
 21
23.8824867711
 31
0.0
 11
19.2703746056
 21
23.8826798591
 31
0.0
 11
19.2699359707
 21
23.8828728126
 31
0.0
 11
19.2694450202
 21
23.8830656146
 31
0.0
 11
19.2689017806
 21
23.883258248
 31
0.0
 11
19.2683063209
 21
23.883450696
 31
0.0
 11
19.2676587182
 21
23.8836429418
 31
0.0
 11
19.2669590494
 21
23.8838349685
 31
0.0
 11
19.2662073915
 21
23.8840267594
 31
0.0
 11
19.2654038216
 21
23.8842182976
 31
0.0
 11
19.2645484166
 21
23.8844095664
 31
0.0
 11
19.2636412535
 21
23.8846005489
 31
0.0
 11
19.2626824093
 21
23.8847912283
 31
0.0
 11
19.2606099856
 21
23.8851716107
 31
0.0
 11
19.2583317616
 21
23.8855505792
 31
0.0
 11
19.2558483594
 21
23.8859279992
 31
0.0
 11
19.2531606333
 21
23.8863037374
 31
0.0
 11
19.2502697323
 21
23.8866776615
 31
0.0
 11
19.2471768245
 21
23.8870496391
 31
0.0
 11
19.243883078
 21
23.8874195382
 31
0.0
 11
19.2403896609
 21
23.8877872265
 31
0.0
 11
19.2366977412
 21
23.8881525719
 31
0.0
 11
19.2328084883
 21
23.888515442
 31
0.0
 11
19.2287231864
 21
23.8888757092
 31
0.0
 11
19.2244433333
 21
23.8892332536
 31
0.0
 11
19.2199704493
 21
23.8895879561
 31
0.0
 11
19.2153060552
 21
23.8899396979
 31
0.0
 11
19.2054088187
 21
23.8906338233
 31
0.0
 11
19.1947640266
 21
23.8913146739
 31
0.0
 11
19.1833882174
 21
23.8919812244
 31
0.0
 11
19.171301431
 21
23.8926323906
 31
0.0
 11
19.1585238177
 21
23.8932670866
 31
0.0
  0
SPLINE
  5
42B
100
AcDbEntity
  8
0
100
AcDbSpline
 62
9
  6
CONTINUOUS
 70
0
 71
3
 72
37
 73
33
 74
31
 42
0.0000001
 43
0.0000001
 44
0.0000000001
 12
0.0211894336
 22
-0.044042842
 32
0.0
 13
-0.0488595385
 23
-0.0012286289
 33
0.0
 40
0.0
 40
0.0
 40
0.0
 40
0.0
 40
0.0640219051
 40
0.09662713
 40
0.1295359999
 40
0.162683226
 40
0.1960052375
 40
0.229453479
 40
0.2629858159
 40
0.2965578814
 40
0.3301245037
 40
0.3636412418
 40
0.3970635204
 40
0.4303436487
 40
0.4634335143
 40
0.4962865119
 40
0.5288593147
 40
0.5929970346
 40
0.6245341428
 40
0.6556752213
 40
0.6864012135
 40
0.716700425
 40
0.7465762099
 40
0.7760410996
 40
0.8051123822
 40
0.8338138102
 40
0.8621773719
 40
0.8902375808
 40
0.9180215459
 40
0.9455561295
 40
0.9728708403
 40
1.0
 40
1.0
 40
1.0
 40
1.0
 10
19.1759721978
 20
23.9313392244
 30
0.0
 10
19.1764243938
 20
23.9303993222
 30
0.0
 10
19.1770209926
 20
23.9289374712
 30
0.0
 10
19.1776518509
 20
23.9269229257
 30
0.0
 10
19.1780467671
 20
23.9253639094
 30
0.0
 10
19.178357927
 20
23.9237742539
 30
0.0
 10
19.1785826115
 20
23.9221611862
 30
0.0
 10
19.1787200243
 20
23.9205320896
 30
0.0
 10
19.1787704535
 20
23.9188939246
 30
0.0
 10
19.1787339606
 20
23.9172534663
 30
0.0
 10
19.1786107058
 20
23.9156174875
 30
0.0
 10
19.1784006696
 20
23.9139928184
 30
0.0
 10
19.1781045303
 20
23.9123863667
 30
0.0
 10
19.1777243546
 20
23.9108048505
 30
0.0
 10
19.1772619824
 20
23.9092550674
 30
0.0
 10
19.1767192497
 20
23.9077436916
 30
0.0
 10
19.1758954672
 20
23.9057993901
 30
0.0
 10
19.1749156066
 20
23.9039475831
 30
0.0
 10
19.1737899176
 20
23.9022139988
 30
0.0
 10
19.1728848282
 20
23.9009894644
 30
0.0
 10
19.1719181861
 20
23.8998391503
 30
0.0
 10
19.1708934173
 20
23.8987685614
 30
0.0
 10
19.1698150253
 20
23.8977821606
 30
0.0
 10
19.1686878428
 20
23.8968835957
 30
0.0
 10
19.1675164909
 20
23.8960765992
 30
0.0
 10
19.1663056514
 20
23.8953648166
 30
0.0
 10
19.1650599835
 20
23.8947522187
 30
0.0
 10
19.1637850852
 20
23.8942419329
 30
0.0
 10
19.1624876767
 20
23.8938350184
 30
0.0
 10
19.1611743337
 20
23.8935329479
 30
0.0
 10
19.159851844
 20
23.8933371263
 30
0.0
 10
19.1589656571
 20
23.8932781971
 30
0.0
 10
19.1585238177
 20
23.8932670866
 30
0.0
 11
19.1759721978
 21
23.9313392244
 31
0.0
 11
19.1771596484
 21
23.9284442222
 31
0.0
 11
19.1776362969
 21
23.9269235964
 31
0.0
 11
19.1780315218
 21
23.9253644897
 31
0.0
 11
19.1783427941
 21
23.9237746039
 31
0.0
 11
19.178567715
 21
23.9221615973
 31
0.0
 11
19.178705403
 21
23.9205326237
 31
0.0
 11
19.1787559559
 21
23.9188945112
 31
0.0
 11
19.1787194875
 21
23.9172540823
 31
0.0
 11
19.1785961118
 21
23.9156181599
 31
0.0
 11
19.1783859537
 21
23.9139935666
 31
0.0
 11
19.1780897959
 21
23.9123871244
 31
0.0
 11
19.1777094408
 21
23.9108056548
 31
0.0
 11
19.1772467786
 21
23.909255979
 31
0.0
 11
19.1767036997
 21
23.9077449182
 31
0.0
 11
19.1760820941
 21
23.9062792937
 31
0.0
 11
19.1746133746
 21
23.9035099264
 31
0.0
 11
19.1737734939
 21
23.9022174716
 31
0.0
 11
19.1728682975
 21
23.9009938853
 31
0.0
 11
19.1719015589
 21
23.8998447045
 31
0.0
 11
19.1708770978
 21
23.898775375
 31
0.0
 11
19.1697992683
 21
23.8977902836
 31
0.0
 11
19.1686727698
 21
23.896893134
 31
0.0
 11
19.1675023071
 21
23.896087618
 31
0.0
 11
19.1662925854
 21
23.8953774278
 31
0.0
 11
19.1650483219
 21
23.8947662412
 31
0.0
 11
19.163774974
 21
23.8942568897
 31
0.0
 11
19.1624791463
 21
23.8938508924
 31
0.0
 11
19.1611675421
 21
23.8935496553
 31
0.0
 11
19.1598468648
 21
23.8933545847
 31
0.0
 11
19.1585238177
 21
23.8932670866
 31
0.0
  0
LINE
  5
42C
100
AcDbEntity
  8
0
100
AcDbLine
 62
9
  6
CONTINUOUS
 10
15.4201354799
 20
23.8098458896
 11
15.4201354801
 21
23.5570468346
  0
SPLINE
  5
42D
100
AcDbEntity
  8
0
100
AcDbSpline
 62
6
  6
CONTINUOUS
 70
0
 71
3
 72
11
 73
7
 74
5
 42
0.0000001
 43
0.0000001
 44
0.0000000001
 12
0.0337570032
 22
0.026400603
 32
0.0
 13
0.0386786764
 23
0.0184522926
 33
0.0
 40
0.0
 40
0.0
 40
0.0
 40
0.0
 40
0.2421074819
 40
0.4894311926
 40
0.7420613912
 40
1.0
 40
1.0
 40
1.0
 40
1.0
 10
14.9115510774
 20
23.532841762
 30
0.0
 10
14.9142753518
 20
23.5349723565
 30
0.0
 10
14.9199018171
 20
23.5391293252
 30
0.0
 10
14.9287623625
 20
23.5449572393
 30
0.0
 10
14.938124048
 20
23.5504054916
 30
0.0
 10
14.9446229506
 20
23.5537253115
 30
0.0
 10
14.9479485252
 20
23.5553118311
 30
0.0
 11
14.9115510774
 21
23.532841762
 31
0.0
 11
14.9198950891
 21
23.5390083981
 31
0.0
 11
14.9287493856
 21
23.5448342022
 31
0.0
 11
14.938105539
 21
23.5502815188
 31
0.0
 11
14.9479485252
 21
23.5553118311
 31
0.0
  0
SPLINE
  5
42E
100
AcDbEntity
  8
0
100
AcDbSpline
 62
6
  6
CONTINUOUS
 70
0
 71
3
 72
11
 73
7
 74
5
 42
0.0000001
 43
0.0000001
 44
0.0000000001
 12
-0.0389263118
 22
0.019855138
 32
0.0
 13
-0.0335224474
 23
0.0280308718
 33
0.0
 40
0.0
 40
0.0
 40
0.0
 40
0.0
 40
0.2566850146
 40
0.50889126
 40
0.7566335755
 40
1.0
 40
1.0
 40
1.0
 40
1.0
 10
14.9479485252
 20
23.508817208
 30
0.0
 10
14.9446179249
 20
23.5105160468
 30
0.0
 10
14.9381086814
 20
23.5140719214
 30
0.0
 10
14.9287469933
 20
23.5198982991
 30
0.0
 10
14.9198867655
 20
23.526130443
 30
0.0
 10
14.9142704901
 20
23.5305678376
 30
0.0
 10
14.9115510774
 20
23.532841762
 30
0.0
 11
14.9479485252
 21
23.508817208
 31
0.0
 11
14.9381055404
 21
23.5141955176
 31
0.0
 11
14.9287493881
 21
23.5200196802
 31
0.0
 11
14.9198950899
 21
23.5262485159
 31
0.0
 11
14.9115510774
 21
23.532841762
 31
0.0
  0
SPLINE
  5
42F
100
AcDbEntity
  8
0
100
AcDbSpline
 62
6
  6
CONTINUOUS
 70
0
 71
3
 72
11
 73
7
 74
5
 42
0.0000001
 43
0.0000001
 44
0.0000000001
 12
0.0340136309
 22
0.0246422132
 32
0.0
 13
0.0384176258
 23
0.0169779795
 33
0.0
 40
0.0
 40
0.0
 40
0.0
 40
0.0
 40
0.2407535054
 40
0.4876313087
 40
0.7407194091
 40
1.0
 40
1.0
 40
1.0
 40
1.0
 10
14.9115510774
 20
23.4845397224
 30
0.0
 10
14.914280711
 20
23.4865172888
 30
0.0
 10
14.9199181945
 20
23.490374799
 30
0.0
 10
14.9287788493
 20
23.49577238
 30
0.0
 10
14.9381403081
 20
23.5008181474
 30
0.0
 10
14.9446282103
 20
23.5038875964
 30
0.0
 10
14.9479485252
 20
23.5053549499
 30
0.0
 11
14.9115510774
 21
23.4845397224
 31
0.0
 11
14.9198950891
 21
23.4902522075
 31
0.0
 11
14.9287493856
 21
23.4956489616
 31
0.0
 11
14.938105539
 21
23.5006951024
 31
0.0
 11
14.9479485252
 21
23.5053549499
 31
0.0
  0
SPLINE
  5
430
100
AcDbEntity
  8
0
100
AcDbSpline
 62
6
  6
CONTINUOUS
 70
0
 71
3
 72
11
 73
7
 74
5
 42
0.0000001
 43
0.0000001
 44
0.0000000001
 12
0.0342902676
 22
0.0227566516
 32
0.0
 13
0.0381471499
 23
0.0154428819
 33
0.0
 40
0.0
 40
0.0
 40
0.0
 40
0.0
 40
0.2393207051
 40
0.4857314466
 40
0.7393062775
 40
1.0
 40
1.0
 40
1.0
 40
1.0
 10
14.9115510774
 20
23.4365615172
 30
0.0
 10
14.9142865344
 20
23.4383768965
 30
0.0
 10
14.9199357375
 20
23.4419170004
 30
0.0
 10
14.9287962421
 20
23.4468601132
 30
0.0
 10
14.9381572165
 20
23.4514808879
 30
0.0
 10
14.9446336177
 20
23.4542869831
 30
0.0
 10
14.9479485252
 20
23.4556289373
 30
0.0
 11
14.9115510774
 21
23.4365615172
 31
0.0
 11
14.9198950891
 21
23.4417943379
 31
0.0
 11
14.9287493856
 21
23.4467379387
 31
0.0
 11
14.938105539
 21
23.4513603666
 31
0.0
 11
14.9479485252
 21
23.4556289373
 31
0.0
  0
SPLINE
  5
431
100
AcDbEntity
  8
0
100
AcDbSpline
 62
6
  6
CONTINUOUS
 70
0
 71
3
 72
13
 73
9
 74
7
 42
0.0000001
 43
0.0000001
 44
0.0000000001
 12
-0.0393721484
 22
0.0224069046
 32
0.0
 13
-0.0331241109
 23
0.0309035389
 33
0.0
 40
0.0
 40
0.0
 40
0.0
 40
0.0
 40
0.2544713805
 40
0.3805967944
 40
0.5059564881
 40
0.6305695506
 40
0.7544506964
 40
1.0
 40
1.0
 40
1.0
 40
1.0
 10
14.9479485252
 20
23.4097563555
 30
0.0
 10
14.9446088303
 20
23.4116569942
 30
0.0
 10
14.9396979547
 20
23.4146513977
 30
0.0
 10
14.9333588156
 20
23.4189174841
 30
0.0
 10
14.9287420687
 20
23.4222265397
 30
0.0
 10
14.9242509006
 20
23.4256484362
 30
0.0
 10
14.9184493414
 20
23.4303397927
 30
0.0
 10
14.9142622782
 20
23.4340320698
 30
0.0
 10
14.9115510774
 20
23.4365615172
 30
0.0
 11
14.9479485252
 21
23.4097563555
 31
0.0
 11
14.9381055404
 21
23.415757152
 31
0.0
 11
14.933365266
 21
23.4189471332
 31
0.0
 11
14.9287493881
 21
23.4222554046
 31
0.0
 11
14.9242589897
 21
23.4256765574
 31
0.0
 11
14.9198950899
 21
23.4292051673
 31
0.0
 11
14.9115510774
 21
23.4365615172
 31
0.0
  0
SPLINE
  5
432
100
AcDbEntity
  8
0
100
AcDbSpline
 62
6
  6
CONTINUOUS
 70
0
 71
3
 72
13
 73
9
 74
7
 42
0.0000001
 43
0.0000001
 44
0.0000000001
 12
-0.0395645763
 22
0.0235359314
 32
0.0
 13
-0.0329582619
 23
0.0321410754
 33
0.0
 40
0.0
 40
0.0
 40
0.0
 40
0.0
 40
0.2535353217
 40
0.3794278271
 40
0.5047116583
 40
0.629405284
 40
0.7535222109
 40
1.0
 40
1.0
 40
1.0
 40
1.0
 10
14.9479485252
 20
23.361102563
 30
0.0
 10
14.9446048527
 20
23.3630916263
 30
0.0
 10
14.939691077
 20
23.3662239722
 30
0.0
 10
14.9333559092
 20
23.3706806067
 30
0.0
 10
14.9287392174
 20
23.3741395844
 30
0.0
 10
14.9242481211
 20
23.3777164982
 30
0.0
 10
14.9184430758
 20
23.3826234015
 30
0.0
 10
14.9142589039
 20
23.3864807417
 30
0.0
 10
14.9115510774
 20
23.3891214287
 30
0.0
 11
14.9479485252
 21
23.361102563
 31
0.0
 11
14.9381055404
 21
23.367375068
 31
0.0
 11
14.933365266
 21
23.3707094875
 31
0.0
 11
14.9287493881
 21
23.3741675533
 31
0.0
 11
14.9242589897
 21
23.3777436116
 31
0.0
 11
14.9198950899
 21
23.3814319925
 31
0.0
 11
14.9115510774
 21
23.3891214287
 31
0.0
  0
SPLINE
  5
433
100
AcDbEntity
  8
0
100
AcDbSpline
 62
6
  6
CONTINUOUS
 70
0
 71
3
 72
11
 73
7
 74
5
 42
0.0000001
 43
0.0000001
 44
0.0000000001
 12
0.0348870252
 22
0.0186078483
 32
0.0
 13
0.0375992705
 23
0.0122332092
 33
0.0
 40
0.0
 40
0.0
 40
0.0
 40
0.0
 40
0.2363211102
 40
0.4817700733
 40
0.7363708663
 40
1.0
 40
1.0
 40
1.0
 40
1.0
 10
14.9115510774
 20
23.3424313359
 30
0.0
 10
14.9142992576
 20
23.343897145
 30
0.0
 10
14.9199731691
 20
23.3467532994
 30
0.0
 10
14.9288324595
 20
23.350723578
 30
0.0
 10
14.938191641
 20
23.3544348186
 30
0.0
 10
14.9446444375
 20
23.3566808381
 30
0.0
 10
14.9479485252
 20
23.3577558482
 30
0.0
 11
14.9115510774
 21
23.3424313359
 31
0.0
 11
14.9198950891
 21
23.3466369612
 31
0.0
 11
14.9287493856
 21
23.3506101402
 31
0.0
 11
14.938105539
 21
23.354325192
 31
0.0
 11
14.9479485252
 21
23.3577558482
 31
0.0
  0
SPLINE
  5
434
100
AcDbEntity
  8
0
100
AcDbSpline
 62
6
  6
CONTINUOUS
 70
0
 71
3
 72
13
 73
9
 74
7
 42
0.0000001
 43
0.0000001
 44
0.0000000001
 12
-0.0397358095
 22
0.0245561489
 32
0.0
 13
-0.0328143058
 23
0.0332439519
 33
0.0
 40
0.0
 40
0.0
 40
0.0
 40
0.0
 40
0.2527113238
 40
0.3783995711
 40
0.5036175016
 40
0.6283827159
 40
0.7527073378
 40
1.0
 40
1.0
 40
1.0
 40
1.0
 10
14.9479485252
 20
23.3133239052
 30
0.0
 10
14.9446012956
 20
23.3153924441
 30
0.0
 10
14.9396849744
 20
23.3186486439
 30
0.0
 10
14.9333533426
 20
23.3232760032
 30
0.0
 10
14.9287367113
 20
23.3268694413
 30
0.0
 10
14.9242456897
 20
23.3305853836
 30
0.0
 10
14.9184376217
 20
23.3356857454
 30
0.0
 10
14.9142559897
 20
23.3396910074
 30
0.0
 10
14.9115510774
 20
23.3424313359
 30
0.0
 11
14.9479485252
 21
23.3133239052
 31
0.0
 11
14.9381055404
 21
23.3198401041
 31
0.0
 11
14.933365266
 21
23.3233040697
 31
0.0
 11
14.9287493881
 21
23.3268964853
 31
0.0
 11
14.9242589897
 21
23.3306114775
 31
0.0
 11
14.9198950899
 21
23.3344431562
 31
0.0
 11
14.9115510774
 21
23.3424313359
 31
0.0
  0
SPLINE
  5
435
100
AcDbEntity
  8
0
100
AcDbSpline
 62
6
  6
CONTINUOUS
 70
0
 71
3
 72
11
 73
7
 74
5
 42
0.0000001
 43
0.0000001
 44
0.0000000001
 12
0.0351935218
 22
0.0163479611
 32
0.0
 13
0.0373352695
 23
0.010579105
 33
0.0
 40
0.0
 40
0.0
 40
0.0
 40
0.0
 40
0.2348272307
 40
0.4798053059
 40
0.7349204561
 40
1.0
 40
1.0
 40
1.0
 40
1.0
 10
14.9115510774
 20
23.2966997679
 30
0.0
 10
14.9143058765
 20
23.2979794167
 30
0.0
 10
14.9199921655
 20
23.3004716069
 30
0.0
 10
14.9288503907
 20
23.3039280547
 30
0.0
 10
14.938208304
 20
23.3071589847
 30
0.0
 10
14.9446495865
 20
23.3091111287
 30
0.0
 10
14.9479485252
 20
23.3100458968
 30
0.0
 11
14.9115510774
 21
23.2966997679
 31
0.0
 11
14.9198950891
 21
23.30036245
 31
0.0
 11
14.9287493856
 21
23.3038226945
 31
0.0
 11
14.938105539
 21
23.3070581358
 31
0.0
 11
14.9479485252
 21
23.3100458968
 31
0.0
  0
SPLINE
  5
436
100
AcDbEntity
  8
0
100
AcDbSpline
 62
6
  6
CONTINUOUS
 70
0
 71
3
 72
13
 73
9
 74
7
 42
0.0000001
 43
0.0000001
 44
0.0000000001
 12
-0.0398852469
 22
0.0254602218
 32
0.0
 13
-0.0326913677
 23
0.0342100904
 33
0.0
 40
0.0
 40
0.0
 40
0.0
 40
0.0
 40
0.2519990115
 40
0.3775112664
 40
0.5026728914
 40
0.6275004928
 40
0.7520047602
 40
1.0
 40
1.0
 40
1.0
 40
1.0
 10
14.9479485252
 20
23.2666337731
 30
0.0
 10
14.9445981777
 20
23.2687724233
 30
0.0
 10
14.9396796623
 20
23.2721377841
 30
0.0
 10
14.9333511179
 20
23.276915347
 30
0.0
 10
14.9287345481
 20
23.2806271838
 30
0.0
 10
14.9242435996
 20
23.2844655463
 30
0.0
 10
14.9184329528
 20
23.289736359
 30
0.0
 10
14.9142535119
 20
23.293871788
 30
0.0
 10
14.9115510774
 20
23.2966997679
 30
0.0
 11
14.9479485252
 21
23.2666337731
 31
0.0
 11
14.9381055404
 21
23.2733645631
 31
0.0
 11
14.933365266
 21
23.2769426038
 31
0.0
 11
14.9287493881
 21
23.2806533246
 31
0.0
 11
14.9242589897
 21
23.2844906587
 31
0.0
 11
14.9198950899
 21
23.288448522
 31
0.0
 11
14.9115510774
 21
23.2966997679
 31
0.0
  0
SPLINE
  5
437
100
AcDbEntity
  8
0
100
AcDbSpline
 62
6
  6
CONTINUOUS
 70
0
 71
3
 72
13
 73
9
 74
7
 42
0.0000001
 43
0.0000001
 44
0.0000000001
 12
-0.0401176661
 22
0.0268952313
 32
0.0
 13
-0.032504971
 23
0.035724046
 33
0.0
 40
0.0
 40
0.0
 40
0.0
 40
0.0
 40
0.2509035976
 40
0.3761462831
 40
0.5012225208
 40
0.6261469505
 40
0.7509276402
 40
1.0
 40
1.0
 40
1.0
 40
1.0
 10
14.9479485252
 20
23.1773474111
 30
0.0
 10
14.944593303
 20
23.1795967812
 30
0.0
 10
14.9396714254
 20
23.1831343416
 30
0.0
 10
14.9333476836
 20
23.1881483716
 30
0.0
 10
14.9287312247
 20
23.192046785
 30
0.0
 10
14.9242404044
 20
23.1960780587
 30
0.0
 10
14.9184258536
 20
23.2016176472
 30
0.0
 10
14.914249774
 20
23.2059580492
 30
0.0
 10
14.9115510774
 20
23.2089240066
 30
0.0
 11
14.9479485252
 21
23.1773474111
 31
0.0
 11
14.9381055392
 21
23.1844163761
 31
0.0
 11
14.9333652636
 21
23.1881741886
 31
0.0
 11
14.9287493856
 21
23.1920713468
 31
0.0
 11
14.9242589878
 21
23.196101479
 31
0.0
 11
14.9198950888
 21
23.2002581957
 31
0.0
 11
14.9115510774
 21
23.2089240066
 31
0.0
  0
SPLINE
  5
438
100
AcDbEntity
  8
0
100
AcDbSpline
 62
6
  6
CONTINUOUS
 70
0
 71
3
 72
11
 73
7
 74
5
 42
0.0000001
 43
0.0000001
 44
0.0000000001
 12
0.036013515
 22
0.0088870063
 32
0.0
 13
0.0366805871
 23
0.0055214739
 33
0.0
 40
0.0
 40
0.0
 40
0.0
 40
0.0
 40
0.2309784714
 40
0.4747682547
 40
0.7312184606
 40
1.0
 40
1.0
 40
1.0
 40
1.0
 10
14.9115510774
 20
23.1672718412
 30
0.0
 10
14.9143238596
 20
23.1679560769
 30
0.0
 10
14.9200421837
 20
23.1692865327
 30
0.0
 10
14.9288962307
 20
23.1711206897
 30
0.0
 10
14.9382498033
 20
23.1728352776
 30
0.0
 10
14.9446621704
 20
23.1738671215
 30
0.0
 10
14.9479485252
 20
23.1743618116
 30
0.0
 11
14.9115510774
 21
23.1672718412
 31
0.0
 11
14.9198950891
 21
23.169217597
 31
0.0
 11
14.9287493856
 21
23.1710558103
 31
0.0
 11
14.938105539
 21
23.1727745995
 31
0.0
 11
14.9479485252
 21
23.1743618116
 31
0.0
  0
SPLINE
  5
439
100
AcDbEntity
  8
0
100
AcDbSpline
 62
6
  6
CONTINUOUS
 70
0
 71
3
 72
13
 73
9
 74
7
 42
0.0000001
 43
0.0000001
 44
0.0000000001
 12
-0.0402005214
 22
0.0274161858
 32
0.0
 13
-0.0324398945
 23
0.036268201
 33
0.0
 40
0.0
 40
0.0
 40
0.0
 40
0.0
 40
0.2505166565
 40
0.3756643945
 40
0.5007108116
 40
0.6256697209
 40
0.7505481249
 40
1.0
 40
1.0
 40
1.0
 40
1.0
 10
14.9479485252
 20
23.1351499558
 30
0.0
 10
14.9445915585
 20
23.1374393596
 30
0.0
 10
14.9396684985
 20
23.141039127
 30
0.0
 10
14.9333464703
 20
23.1461384463
 30
0.0
 10
14.9287300558
 20
23.1501042061
 30
0.0
 10
14.9242392843
 20
23.1542051131
 30
0.0
 10
14.9184233711
 20
23.1598417686
 30
0.0
 10
14.9142484749
 20
23.1642561176
 30
0.0
 10
14.9115510774
 20
23.1672718412
 30
0.0
 11
14.9479485252
 21
23.1351499558
 31
0.0
 11
14.9381055404
 21
23.1423409923
 31
0.0
 11
14.933365266
 21
23.1461636968
 31
0.0
 11
14.9287493881
 21
23.1501281539
 31
0.0
 11
14.9242589897
 21
23.1542278821
 31
0.0
 11
14.9198950899
 21
23.1584563812
 31
0.0
 11
14.9115510774
 21
23.1672718412
 31
0.0
  0
SPLINE
  5
43A
100
AcDbEntity
  8
0
100
AcDbSpline
 62
6
  6
CONTINUOUS
 70
0
 71
3
 72
11
 73
7
 74
5
 42
0.0000001
 43
0.0000001
 44
0.0000000001
 12
0.0362068692
 22
0.0062110203
 32
0.0
 13
0.0365362484
 23
0.0038231795
 33
0.0
 40
0.0
 40
0.0
 40
0.0
 40
0.0
 40
0.2301010893
 40
0.4736250098
 40
0.7303814791
 40
1.0
 40
1.0
 40
1.0
 40
1.0
 10
14.9115510774
 20
23.1273605055
 30
0.0
 10
14.9143281574
 20
23.127836893
 30
0.0
 10
14.9200538012
 20
23.1287627948
 30
0.0
 10
14.928906604
 20
23.1300374538
 30
0.0
 10
14.9382589819
 20
23.1312290503
 30
0.0
 10
14.9446649088
 20
23.1319455378
 30
0.0
 10
14.9479485252
 20
23.1322891378
 30
0.0
 11
14.9115510774
 21
23.1273605055
 31
0.0
 11
14.9198950891
 21
23.1287131085
 31
0.0
 11
14.9287493856
 21
23.1299909526
 31
0.0
 11
14.938105539
 21
23.1311857785
 31
0.0
 11
14.9479485252
 21
23.1322891378
 31
0.0
  0
SPLINE
  5
43B
100
AcDbEntity
  8
0
100
AcDbSpline
 62
6
  6
CONTINUOUS
 70
0
 71
3
 72
13
 73
9
 74
7
 42
0.0000001
 43
0.0000001
 44
0.0000000001
 12
-0.0402611948
 22
0.027801042
 32
0.0
 13
-0.0323926864
 23
0.0366684553
 33
0.0
 40
0.0
 40
0.0
 40
0.0
 40
0.0
 40
0.250234521
 40
0.3753131464
 40
0.5003379364
 40
0.6253220618
 40
0.7502717167
 40
1.0
 40
1.0
 40
1.0
 40
1.0
 10
14.9479485252
 20
23.0948367944
 30
0.0
 10
14.9445902783
 20
23.0971557212
 30
0.0
 10
14.9396663569
 20
23.1008013452
 30
0.0
 10
14.9333455831
 20
23.1059634924
 30
0.0
 10
14.9287292023
 20
23.1099788792
 30
0.0
 10
14.9242384683
 20
23.1141310979
 30
0.0
 10
14.9184215679
 20
23.1198392956
 30
0.0
 10
14.9142475341
 20
23.124308122
 30
0.0
 10
14.9115510774
 20
23.1273605055
 30
0.0
 11
14.9479485252
 21
23.0948367944
 31
0.0
 11
14.9381055404
 21
23.1021177865
 31
0.0
 11
14.933365266
 21
23.1059883107
 31
0.0
 11
14.9287493881
 21
23.1100023608
 31
0.0
 11
14.9242589897
 21
23.1141533742
 31
0.0
 11
14.9198950899
 21
23.1184347693
 31
0.0
 11
14.9115510774
 21
23.1273605055
 31
0.0
  0
SPLINE
  5
43C
100
AcDbEntity
  8
0
100
AcDbSpline
 62
6
  6
CONTINUOUS
 70
0
 71
3
 72
13
 73
9
 74
7
 42
0.0000001
 43
0.0000001
 44
0.0000000001
 12
-0.0402997593
 22
0.0280471931
 32
0.0
 13
-0.0323628744
 23
0.0369237051
 33
0.0
 40
0.0
 40
0.0
 40
0.0
 40
0.0
 40
0.2500557143
 40
0.3750905829
 40
0.5001017162
 40
0.6251018594
 40
0.7500966771
 40
1.0
 40
1.0
 40
1.0
 40
1.0
 10
14.9479485252
 20
23.0565879752
 30
0.0
 10
14.9445894635
 20
23.0589257622
 30
0.0
 10
14.9396649969
 20
23.0626006724
 30
0.0
 10
14.9333450204
 20
23.0678029257
 30
0.0
 10
14.9287286616
 20
23.071849999
 30
0.0
 10
14.924237952
 20
23.0760349798
 30
0.0
 10
14.9184204284
 20
23.0817888633
 30
0.0
 10
14.9142469407
 20
23.0862924677
 30
0.0
 10
14.9115510774
 20
23.0893682532
 30
0.0
 11
14.9479485252
 21
23.0565879752
 31
0.0
 11
14.9381055404
 21
23.0639264042
 31
0.0
 11
14.933365266
 21
23.0678274615
 31
0.0
 11
14.9287493881
 21
23.0718731769
 31
0.0
 11
14.9242589897
 21
23.0760569361
 31
0.0
 11
14.9198950899
 21
23.0803721054
 31
0.0
 11
14.9115510774
 21
23.0893682532
 31
0.0
  0
SPLINE
  5
43D
100
AcDbEntity
  8
0
100
AcDbSpline
 62
6
  6
CONTINUOUS
 70
0
 71
3
 72
13
 73
9
 74
7
 42
0.0000001
 43
0.0000001
 44
0.0000000001
 12
-0.0334154538
 22
-0.028799052
 32
0.0
 13
-0.0390460944
 23
-0.0205275536
 33
0.0
 40
0.0
 40
0.0
 40
0.0
 40
0.0
 40
0.2439444826
 40
0.3674202953
 40
0.4918966324
 40
0.6173893717
 40
0.7439177581
 40
1.0
 40
1.0
 40
1.0
 40
1.0
 10
15.1723459731
 20
22.8342865057
 30
0.0
 10
15.1696288012
 20
22.8319447158
 30
0.0
 10
15.1654367506
 20
22.8285306652
 30
0.0
 10
15.1596413228
 20
22.8242017589
 30
0.0
 10
15.1551500641
 20
22.8210408354
 30
0.0
 10
15.1505332564
 20
22.8179841701
 30
0.0
 10
15.1441873961
 20
22.8140393531
 30
0.0
 10
15.139281529
 20
22.8112767784
 30
0.0
 10
15.1359485252
 20
22.8095245311
 30
0.0
 11
15.1723459731
 21
22.8342865057
 31
0.0
 11
15.1640019605
 21
22.8274908835
 31
0.0
 11
15.1596380606
 21
22.8242312371
 31
0.0
 11
15.1551476622
 21
22.821070857
 31
0.0
 11
15.1505317843
 21
22.8180147541
 31
0.0
 11
15.14579151
 21
22.8150679249
 31
0.0
 11
15.1359485252
 21
22.8095245311
 31
0.0
  0
SPLINE
  5
43E
100
AcDbEntity
  8
0
100
AcDbSpline
 62
6
  6
CONTINUOUS
 70
0
 71
3
 72
13
 73
9
 74
7
 42
0.0000001
 43
0.0000001
 44
0.0000000001
 12
-0.0403162749
 22
0.0281529821
 32
0.0
 13
-0.0323501529
 23
0.0370332287
 33
0.0
 40
0.0
 40
0.0
 40
0.0
 40
0.0
 40
0.2499792621
 40
0.3749954321
 40
0.5000007379
 40
0.6250077386
 40
0.7500218681
 40
1.0
 40
1.0
 40
1.0
 40
1.0
 10
14.9479485252
 20
23.0205743268
 30
0.0
 10
14.9445891144
 20
23.022920214
 30
0.0
 10
14.9396644148
 20
23.0266077004
 30
0.0
 10
14.9333447797
 20
23.0318271718
 30
0.0
 10
14.9287284305
 20
23.0358878503
 30
0.0
 10
14.9242377315
 20
23.040086898
 30
0.0
 10
14.918419942
 20
23.045860399
 30
0.0
 10
14.9142466877
 20
23.0503789346
 30
0.0
 10
14.9115510774
 20
23.0534647671
 30
0.0
 11
14.9479485252
 21
23.0205743268
 31
0.0
 11
14.9381055404
 21
23.0279374175
 31
0.0
 11
14.933365266
 21
23.0318515848
 31
0.0
 11
14.9287493881
 21
23.0359108963
 31
0.0
 11
14.9242589897
 21
23.0401087155
 31
0.0
 11
14.9198950899
 21
23.0444383865
 31
0.0
 11
14.9115510774
 21
23.0534647671
 31
0.0
  0
SPLINE
  5
43F
100
AcDbEntity
  8
0
100
AcDbSpline
 62
6
  6
CONTINUOUS
 70
0
 71
3
 72
13
 73
9
 74
7
 42
0.0000001
 43
0.0000001
 44
0.0000000001
 12
-0.0332154831
 22
-0.0302349016
 32
0.0
 13
-0.0392682798
 23
-0.0218041233
 33
0.0
 40
0.0
 40
0.0
 40
0.0
 40
0.0
 40
0.2450424275
 40
0.36879525
 40
0.4933647832
 40
0.6187662357
 40
0.7450188712
 40
1.0
 40
1.0
 40
1.0
 40
1.0
 10
15.1723459731
 20
22.8391321527
 30
0.0
 10
15.1696329055
 20
22.8366625415
 30
0.0
 10
15.1654442655
 20
22.8330590136
 30
0.0
 10
15.1596446282
 20
22.8284833957
 30
0.0
 10
15.1551534269
 20
22.8251447903
 30
0.0
 10
15.1505366562
 20
22.8219162872
 30
0.0
 10
15.1441953748
 20
22.8177526687
 30
0.0
 10
15.139286082
 20
22.8148323107
 30
0.0
 10
15.1359485252
 20
22.8129790974
 30
0.0
 11
15.1723459731
 21
22.8391321527
 31
0.0
 11
15.1640019605
 21
22.8319547653
 31
0.0
 11
15.1596380606
 21
22.8285119981
 31
0.0
 11
15.1551476622
 21
22.8251740739
 31
0.0
 11
15.1505317843
 21
22.821946285
 31
0.0
 11
15.14579151
 21
22.8188339085
 31
0.0
 11
15.1359485252
 21
22.8129790974
 31
0.0
  0
SPLINE
  5
440
100
AcDbEntity
  8
0
100
AcDbSpline
 62
6
  6
CONTINUOUS
 70
0
 71
3
 72
13
 73
9
 74
7
 42
0.0000001
 43
0.0000001
 44
0.0000000001
 12
-0.0402336263
 22
0.0276258114
 32
0.0
 13
-0.0324140902
 23
0.0364863933
 33
0.0
 40
0.0
 40
0.0
 40
0.0
 40
0.0
 40
0.2503625922
 40
0.3754725797
 40
0.5005071751
 40
0.6254798452
 40
0.7503971552
 40
1.0
 40
1.0
 40
1.0
 40
1.0
 10
14.9479485252
 20
22.9274986864
 30
0.0
 10
14.9445908603
 20
22.9298041763
 30
0.0
 10
14.9396673297
 20
22.9334289315
 30
0.0
 10
14.933345986
 20
22.9385624909
 30
0.0
 10
14.9287295896
 20
22.9425552949
 30
0.0
 10
14.9242388385
 20
22.9466841641
 30
0.0
 10
14.9184223856
 20
22.9523598047
 30
0.0
 10
14.9142479604
 20
22.9568038424
 30
0.0
 10
14.9115510774
 20
22.9598395449
 30
0.0
 11
14.9479485252
 21
22.9274986864
 31
0.0
 11
14.9381055404
 21
22.9347387438
 31
0.0
 11
14.933365266
 21
22.9385875074
 31
0.0
 11
14.9287493881
 21
22.9425789901
 31
0.0
 11
14.9242589897
 21
22.9467066659
 31
0.0
 11
14.9198950899
 21
22.9509639904
 31
0.0
 11
14.9115510774
 21
22.9598395449
 31
0.0
  0
SPLINE
  5
441
100
AcDbEntity
  8
0
100
AcDbSpline
 62
6
  6
CONTINUOUS
 70
0
 71
3
 72
13
 73
9
 74
7
 42
0.0000001
 43
0.0000001
 44
0.0000000001
 12
-0.0328836001
 22
-0.0327094753
 32
0.0
 13
-0.0396528877
 23
-0.024060121
 33
0.0
 40
0.0
 40
0.0
 40
0.0
 40
0.0
 40
0.2468993742
 40
0.3711236667
 40
0.4958542262
 40
0.6211038819
 40
0.7468906924
 40
1.0
 40
1.0
 40
1.0
 40
1.0
 10
15.1723459731
 20
22.8584066281
 30
0.0
 10
15.1696396597
 20
22.8557146451
 30
0.0
 10
15.1654568015
 20
22.8517811613
 30
0.0
 10
15.1596501881
 20
22.8467747075
 30
0.0
 10
15.155159129
 20
22.8431262404
 30
0.0
 10
15.1505424671
 20
22.8395980607
 30
0.0
 10
15.1442091229
 20
22.8350535405
 30
0.0
 10
15.1392940302
 20
22.8318574671
 30
0.0
 10
15.1359485252
 20
22.8298275202
 30
0.0
 11
15.1723459731
 21
22.8584066281
 31
0.0
 11
15.1640019605
 21
22.8505634401
 31
0.0
 11
15.1596380606
 21
22.8468013094
 31
0.0
 11
15.1551476622
 21
22.8431537472
 31
0.0
 11
15.1505317843
 21
22.8396265368
 31
0.0
 11
15.14579151
 21
22.836225445
 31
0.0
 11
15.1359485252
 21
22.8298275202
 31
0.0
  0
SPLINE
  5
442
100
AcDbEntity
  8
0
100
AcDbSpline
 62
6
  6
CONTINUOUS
 70
0
 71
3
 72
13
 73
9
 74
7
 42
0.0000001
 43
0.0000001
 44
0.0000000001
 12
-0.0401618708
 22
0.0271725207
 32
0.0
 13
-0.0324701635
 23
0.0360140283
 33
0.0
 40
0.0
 40
0.0
 40
0.0
 40
0.0
 40
0.2506967624
 40
0.3758886059
 40
0.5009489288
 40
0.6258918681
 40
0.7507248309
 40
1.0
 40
1.0
 40
1.0
 40
1.0
 10
14.9479485252
 20
22.9019238639
 30
0.0
 10
14.9445923749
 20
22.9041945516
 30
0.0
 10
14.9396698682
 20
22.907765239
 30
0.0
 10
14.9333470443
 20
22.9128246999
 30
0.0
 10
14.9287306082
 20
22.9167589848
 30
0.0
 10
14.9242398105
 20
22.9208273499
 30
0.0
 10
14.9184245279
 20
22.9264186394
 30
0.0
 10
14.9142490792
 20
22.9307984324
 30
0.0
 10
14.9115510774
 20
22.9337909001
 30
0.0
 11
14.9479485252
 21
22.9019238639
 31
0.0
 11
14.9381055457
 21
22.9090578433
 31
0.0
 11
14.9333652751
 21
22.9128502165
 31
0.0
 11
14.9287493957
 21
22.9167832215
 31
0.0
 11
14.9242589933
 21
22.9208504262
 31
0.0
 11
14.9198950907
 21
22.9250453794
 31
0.0
 11
14.9115510774
 21
22.9337909001
 31
0.0
  0
SPLINE
  5
443
100
AcDbEntity
  8
0
100
AcDbSpline
 62
6
  6
CONTINUOUS
 70
0
 71
3
 72
13
 73
9
 74
7
 42
0.0000001
 43
0.0000001
 44
0.0000000001
 12
-0.0327502664
 22
-0.0337442437
 32
0.0
 13
-0.0398132779
 23
-0.0250231261
 33
0.0
 40
0.0
 40
0.0
 40
0.0
 40
0.0
 40
0.2476578706
 40
0.3720758093
 40
0.4968733762
 40
0.6220619775
 40
0.7476587265
 40
1.0
 40
1.0
 40
1.0
 40
1.0
 10
15.1723459731
 20
22.872749372
 30
0.0
 10
15.1696423527
 20
22.8699636961
 30
0.0
 10
15.1654618595
 20
22.8658910956
 30
0.0
 10
15.1596524478
 20
22.8607025794
 30
0.0
 10
15.1551614632
 20
22.856923315
 30
0.0
 10
15.1505448628
 20
22.8532686353
 30
0.0
 10
15.1442148315
 20
22.8485635686
 30
0.0
 10
15.1392973697
 20
22.8452509169
 30
0.0
 10
15.1359485252
 20
22.8431461277
 30
0.0
 11
15.1723459731
 21
22.872749372
 31
0.0
 11
15.1640019605
 21
22.8646251222
 31
0.0
 11
15.1596380606
 21
22.860728175
 31
0.0
 11
15.1551476622
 21
22.8569499019
 31
0.0
 11
15.1505317843
 21
22.8532962934
 31
0.0
 11
15.14579151
 21
22.849773323
 31
0.0
 11
15.1359485252
 21
22.8431461277
 31
0.0
  0
SPLINE
  5
444
100
AcDbEntity
  8
0
100
AcDbSpline
 62
6
  6
CONTINUOUS
 70
0
 71
3
 72
13
 73
9
 74
7
 42
0.0000001
 43
0.0000001
 44
0.0000000001
 12
-0.0398132779
 22
0.0250231261
 32
0.0
 13
-0.0327502664
 23
0.0337442437
 33
0.0
 40
0.0
 40
0.0
 40
0.0
 40
0.0
 40
0.2523412749
 40
0.3779380262
 40
0.5031266291
 40
0.6279241959
 40
0.7523421328
 40
1.0
 40
1.0
 40
1.0
 40
1.0
 10
14.9479485252
 20
22.8431461277
 30
0.0
 10
14.9445996808
 20
22.8452509169
 30
0.0
 10
14.9396822189
 20
22.8485635687
 30
0.0
 10
14.9333521876
 20
22.8532686354
 30
0.0
 10
14.9287355872
 20
22.8569233152
 30
0.0
 10
14.9242446025
 20
22.8607025795
 30
0.0
 10
14.9184351909
 20
22.8658910956
 30
0.0
 10
14.9142546978
 20
22.8699636962
 30
0.0
 10
14.9115510774
 20
22.872749372
 30
0.0
 11
14.9479485252
 21
22.8431461277
 31
0.0
 11
14.9381055404
 21
22.8497733231
 31
0.0
 11
14.933365266
 21
22.8532962936
 31
0.0
 11
14.9287493881
 21
22.856949902
 31
0.0
 11
14.9242589897
 21
22.8607281752
 31
0.0
 11
14.9198950899
 21
22.8646251223
 31
0.0
 11
14.9115510774
 21
22.872749372
 31
0.0
  0
SPLINE
  5
445
100
AcDbEntity
  8
0
100
AcDbSpline
 62
6
  6
CONTINUOUS
 70
0
 71
3
 72
13
 73
9
 74
7
 42
0.0000001
 43
0.0000001
 44
0.0000000001
 12
-0.0396528877
 22
0.024060121
 32
0.0
 13
-0.0328836001
 23
0.0327094753
 33
0.0
 40
0.0
 40
0.0
 40
0.0
 40
0.0
 40
0.2531093091
 40
0.3788961218
 40
0.5041457791
 40
0.6288763385
 40
0.7531006292
 40
1.0
 40
1.0
 40
1.0
 40
1.0
 10
14.9479485252
 20
22.8298275202
 30
0.0
 10
14.9446030202
 20
22.8318574671
 30
0.0
 10
14.9396879276
 20
22.8350535405
 30
0.0
 10
14.9333545832
 20
22.8395980608
 30
0.0
 10
14.9287379213
 20
22.8431262406
 30
0.0
 10
14.9242468623
 20
22.8467747077
 30
0.0
 10
14.9184402489
 20
22.8517811614
 30
0.0
 10
14.9142573908
 20
22.8557146451
 30
0.0
 10
14.9115510774
 20
22.8584066281
 30
0.0
 11
14.9479485252
 21
22.8298275202
 31
0.0
 11
14.9381055404
 21
22.836225445
 31
0.0
 11
14.933365266
 21
22.8396265369
 31
0.0
 11
14.9287493881
 21
22.8431537473
 31
0.0
 11
14.9242589897
 21
22.8468013095
 31
0.0
 11
14.9198950899
 21
22.8505634402
 31
0.0
 11
14.9115510774
 21
22.8584066281
 31
0.0
  0
SPLINE
  5
446
100
AcDbEntity
  8
0
100
AcDbSpline
 62
6
  6
CONTINUOUS
 70
0
 71
3
 72
13
 73
9
 74
7
 42
0.0000001
 43
0.0000001
 44
0.0000000001
 12
-0.0324701635
 22
-0.0360140283
 32
0.0
 13
-0.0401618708
 23
-0.0271725207
 33
0.0
 40
0.0
 40
0.0
 40
0.0
 40
0.0
 40
0.2492751733
 40
0.3741081379
 40
0.4990510763
 40
0.6241113968
 40
0.7493032381
 40
1.0
 40
1.0
 40
1.0
 40
1.0
 10
15.1723459731
 20
22.9337909001
 30
0.0
 10
15.1696479712
 20
22.9307984323
 30
0.0
 10
15.1654725224
 20
22.9264186393
 30
0.0
 10
15.1596572399
 20
22.9208273497
 30
0.0
 10
15.1551664422
 20
22.9167589846
 30
0.0
 10
15.1505500061
 20
22.9128246998
 30
0.0
 10
15.1442271822
 20
22.907765239
 30
0.0
 10
15.1393046756
 20
22.9041945516
 30
0.0
 10
15.1359485252
 20
22.9019238639
 30
0.0
 11
15.1723459731
 21
22.9337909001
 31
0.0
 11
15.1640019596
 21
22.9250453793
 31
0.0
 11
15.159638057
 21
22.920850426
 31
0.0
 11
15.1551476546
 21
22.9167832213
 31
0.0
 11
15.1505317753
 21
22.9128502164
 31
0.0
 11
15.1457915048
 21
22.9090578432
 31
0.0
 11
15.1359485252
 21
22.9019238639
 31
0.0
  0
SPLINE
  5
447
100
AcDbEntity
  8
0
100
AcDbSpline
 62
6
  6
CONTINUOUS
 70
0
 71
3
 72
13
 73
9
 74
7
 42
0.0000001
 43
0.0000001
 44
0.0000000001
 12
-0.0392682798
 22
0.0218041233
 32
0.0
 13
-0.0332154831
 23
0.0302349016
 33
0.0
 40
0.0
 40
0.0
 40
0.0
 40
0.0
 40
0.2549811302
 40
0.381233768
 40
0.5066352221
 40
0.6312047552
 40
0.7549575758
 40
1.0
 40
1.0
 40
1.0
 40
1.0
 10
14.9479485252
 20
22.8129790974
 30
0.0
 10
14.9446109685
 20
22.8148323107
 30
0.0
 10
14.9397016756
 20
22.8177526687
 30
0.0
 10
14.9333603942
 20
22.8219162873
 30
0.0
 10
14.9287436234
 20
22.8251447904
 30
0.0
 10
14.9242524221
 20
22.8284833958
 30
0.0
 10
14.9184527849
 20
22.8330590136
 30
0.0
 10
14.9142641449
 20
22.8366625415
 30
0.0
 10
14.9115510774
 20
22.8391321527
 30
0.0
 11
14.9479485252
 21
22.8129790974
 31
0.0
 11
14.9381055404
 21
22.8188339086
 31
0.0
 11
14.933365266
 21
22.8219462851
 31
0.0
 11
14.9287493881
 21
22.8251740741
 31
0.0
 11
14.9242589897
 21
22.8285119983
 31
0.0
 11
14.9198950899
 21
22.8319547654
 31
0.0
 11
14.9115510774
 21
22.8391321527
 31
0.0
  0
SPLINE
  5
448
100
AcDbEntity
  8
0
100
AcDbSpline
 62
6
  6
CONTINUOUS
 70
0
 71
3
 72
13
 73
9
 74
7
 42
0.0000001
 43
0.0000001
 44
0.0000000001
 12
-0.0324140902
 22
-0.0364863933
 32
0.0
 13
-0.0402336263
 23
-0.0276258114
 33
0.0
 40
0.0
 40
0.0
 40
0.0
 40
0.0
 40
0.2496028482
 40
0.3745201601
 40
0.4994928302
 40
0.624527424
 40
0.7496374092
 40
1.0
 40
1.0
 40
1.0
 40
1.0
 10
15.1723459731
 20
22.9598395449
 30
0.0
 10
15.16964909
 20
22.9568038424
 30
0.0
 10
15.1654746648
 20
22.9523598046
 30
0.0
 10
15.1596582118
 20
22.9466841639
 30
0.0
 10
15.1551674607
 20
22.9425552947
 30
0.0
 10
15.1505510644
 20
22.9385624908
 30
0.0
 10
15.1442297207
 20
22.9334289315
 30
0.0
 10
15.1393061902
 20
22.9298041763
 30
0.0
 10
15.1359485252
 20
22.9274986864
 30
0.0
 11
15.1723459731
 21
22.9598395449
 31
0.0
 11
15.1640019605
 21
22.9509639903
 31
0.0
 11
15.1596380606
 21
22.9467066657
 31
0.0
 11
15.1551476622
 21
22.9425789899
 31
0.0
 11
15.1505317843
 21
22.9385875073
 31
0.0
 11
15.14579151
 21
22.9347387437
 31
0.0
 11
15.1359485252
 21
22.9274986864
 31
0.0
  0
SPLINE
  5
449
100
AcDbEntity
  8
0
100
AcDbSpline
 62
6
  6
CONTINUOUS
 70
0
 71
3
 72
13
 73
9
 74
7
 42
0.0000001
 43
0.0000001
 44
0.0000000001
 12
-0.0390460944
 22
0.0205275536
 32
0.0
 13
-0.0334154538
 23
0.028799052
 33
0.0
 40
0.0
 40
0.0
 40
0.0
 40
0.0
 40
0.2560822433
 40
0.382610632
 40
0.5081033728
 40
0.63257971
 40
0.7560555208
 40
1.0
 40
1.0
 40
1.0
 40
1.0
 10
14.9479485252
 20
22.8095245311
 30
0.0
 10
14.9446155214
 20
22.8112767784
 30
0.0
 10
14.9397096543
 20
22.8140393531
 30
0.0
 10
14.9333637939
 20
22.8179841702
 30
0.0
 10
14.9287469862
 20
22.8210408356
 30
0.0
 10
14.9242557275
 20
22.8242017591
 30
0.0
 10
14.9184602998
 20
22.8285306653
 30
0.0
 10
14.9142682492
 20
22.8319447158
 30
0.0
 10
14.9115510774
 20
22.8342865057
 30
0.0
 11
14.9479485252
 21
22.8095245311
 31
0.0
 11
14.9381055404
 21
22.815067925
 31
0.0
 11
14.933365266
 21
22.8180147542
 31
0.0
 11
14.9287493881
 21
22.8210708571
 31
0.0
 11
14.9242589897
 21
22.8242312372
 31
0.0
 11
14.9198950899
 21
22.8274908836
 31
0.0
 11
14.9115510774
 21
22.8342865057
 31
0.0
  0
SPLINE
  5
44A
100
AcDbEntity
  8
0
100
AcDbSpline
 62
6
  6
CONTINUOUS
 70
0
 71
3
 72
13
 73
9
 74
7
 42
0.0000001
 43
0.0000001
 44
0.0000000001
 12
-0.0323501529
 22
-0.0370332287
 32
0.0
 13
-0.0403162749
 23
-0.0281529821
 33
0.0
 40
0.0
 40
0.0
 40
0.0
 40
0.0
 40
0.2499781352
 40
0.3749922666
 40
0.4999992674
 40
0.6250045716
 40
0.7500207393
 40
1.0
 40
1.0
 40
1.0
 40
1.0
 10
15.1723459731
 20
23.0534647671
 30
0.0
 10
15.1696503628
 20
23.0503789346
 30
0.0
 10
15.1654771084
 20
23.0458603989
 30
0.0
 10
15.1596593188
 20
23.0400868978
 30
0.0
 10
15.1551686198
 20
23.0358878501
 30
0.0
 10
15.1505522707
 20
23.0318271717
 30
0.0
 10
15.1442326357
 20
23.0266077003
 30
0.0
 10
15.1393079361
 20
23.022920214
 30
0.0
 10
15.1359485252
 20
23.0205743268
 30
0.0
 11
15.1723459731
 21
23.0534647671
 31
0.0
 11
15.1640019605
 21
23.0444383864
 31
0.0
 11
15.1596380606
 21
23.0401087153
 31
0.0
 11
15.1551476622
 21
23.0359108962
 31
0.0
 11
15.1505317843
 21
23.0318515847
 31
0.0
 11
15.14579151
 21
23.0279374174
 31
0.0
 11
15.1359485252
 21
23.0205743268
 31
0.0
  0
SPLINE
  5
44B
100
AcDbEntity
  8
0
100
AcDbSpline
 62
6
  6
CONTINUOUS
 70
0
 71
3
 72
13
 73
9
 74
7
 42
0.0000001
 43
0.0000001
 44
0.0000000001
 12
-0.0323628744
 22
-0.0369237051
 32
0.0
 13
-0.0402997593
 23
-0.0280471931
 33
0.0
 40
0.0
 40
0.0
 40
0.0
 40
0.0
 40
0.2499033262
 40
0.3748981459
 40
0.4998982891
 40
0.6249094208
 40
0.7499442871
 40
1.0
 40
1.0
 40
1.0
 40
1.0
 10
15.1723459731
 20
23.0893682532
 30
0.0
 10
15.1696501098
 20
23.0862924677
 30
0.0
 10
15.165476622
 20
23.0817888632
 30
0.0
 10
15.1596590983
 20
23.0760349797
 30
0.0
 10
15.1551683887
 20
23.0718499989
 30
0.0
 10
15.15055203
 20
23.0678029256
 30
0.0
 10
15.1442320535
 20
23.0626006723
 30
0.0
 10
15.1393075869
 20
23.0589257622
 30
0.0
 10
15.1359485252
 20
23.0565879752
 30
0.0
 11
15.1723459731
 21
23.0893682532
 31
0.0
 11
15.1640019605
 21
23.0803721053
 31
0.0
 11
15.1596380606
 21
23.0760569359
 31
0.0
 11
15.1551476622
 21
23.0718731768
 31
0.0
 11
15.1505317843
 21
23.0678274614
 31
0.0
 11
15.14579151
 21
23.0639264041
 31
0.0
 11
15.1359485252
 21
23.0565879752
 31
0.0
  0
SPLINE
  5
44C
100
AcDbEntity
  8
0
100
AcDbSpline
 62
6
  6
CONTINUOUS
 70
0
 71
3
 72
13
 73
9
 74
7
 42
0.0000001
 43
0.0000001
 44
0.0000000001
 12
-0.0323926864
 22
-0.0366684553
 32
0.0
 13
-0.0402611948
 23
-0.027801042
 33
0.0
 40
0.0
 40
0.0
 40
0.0
 40
0.0
 40
0.2497282867
 40
0.3746779435
 40
0.4996620689
 40
0.6246868573
 40
0.7497654804
 40
1.0
 40
1.0
 40
1.0
 40
1.0
 10
15.1723459731
 20
23.1273605055
 30
0.0
 10
15.1696495164
 20
23.124308122
 30
0.0
 10
15.1654754825
 20
23.1198392955
 30
0.0
 10
15.159658582
 20
23.1141310977
 30
0.0
 10
15.1551678481
 20
23.1099788791
 30
0.0
 10
15.1505514673
 20
23.1059634923
 30
0.0
 10
15.1442306935
 20
23.1008013452
 30
0.0
 10
15.1393067722
 20
23.0971557212
 30
0.0
 10
15.1359485252
 20
23.0948367944
 30
0.0
 11
15.1723459731
 21
23.1273605055
 31
0.0
 11
15.1640019605
 21
23.1184347692
 31
0.0
 11
15.1596380606
 21
23.1141533741
 31
0.0
 11
15.1551476622
 21
23.1100023607
 31
0.0
 11
15.1505317843
 21
23.1059883106
 31
0.0
 11
15.14579151
 21
23.1021177864
 31
0.0
 11
15.1359485252
 21
23.0948367944
 31
0.0
  0
SPLINE
  5
44D
100
AcDbEntity
  8
0
100
AcDbSpline
 62
6
  6
CONTINUOUS
 70
0
 71
3
 72
11
 73
7
 74
5
 42
0.0000001
 43
0.0000001
 44
0.0000000001
 12
0.0365362484
 22
-0.0038231795
 32
0.0
 13
0.0362068692
 23
-0.0062110203
 33
0.0
 40
0.0
 40
0.0
 40
0.0
 40
0.0
 40
0.2696185191
 40
0.526374985
 40
0.7698989077
 40
1.0
 40
1.0
 40
1.0
 40
1.0
 10
15.1359485252
 20
23.1322891378
 30
0.0
 10
15.1392321416
 20
23.1319455378
 30
0.0
 10
15.1456380685
 20
23.1312290503
 30
0.0
 10
15.1549904464
 20
23.1300374538
 30
0.0
 10
15.1638432492
 20
23.1287627948
 30
0.0
 10
15.169568893
 20
23.127836893
 30
0.0
 10
15.1723459731
 20
23.1273605055
 30
0.0
 11
15.1359485252
 21
23.1322891378
 31
0.0
 11
15.1457915114
 21
23.1311857785
 31
0.0
 11
15.1551476647
 21
23.1299909526
 31
0.0
 11
15.1640019613
 21
23.1287131085
 31
0.0
 11
15.1723459731
 21
23.1273605055
 31
0.0
  0
SPLINE
  5
44E
100
AcDbEntity
  8
0
100
AcDbSpline
 62
6
  6
CONTINUOUS
 70
0
 71
3
 72
13
 73
9
 74
7
 42
0.0000001
 43
0.0000001
 44
0.0000000001
 12
-0.0324398945
 22
-0.036268201
 32
0.0
 13
-0.0402005214
 23
-0.0274161858
 33
0.0
 40
0.0
 40
0.0
 40
0.0
 40
0.0
 40
0.2494518785
 40
0.3743302843
 40
0.4992891937
 40
0.6243356091
 40
0.7494833449
 40
1.0
 40
1.0
 40
1.0
 40
1.0
 10
15.1723459731
 20
23.1672718412
 30
0.0
 10
15.1696485755
 20
23.1642561176
 30
0.0
 10
15.1654736793
 20
23.1598417685
 30
0.0
 10
15.159657766
 20
23.1542051129
 30
0.0
 10
15.1551669946
 20
23.1501042059
 30
0.0
 10
15.15055058
 20
23.1461384462
 30
0.0
 10
15.144228552
 20
23.141039127
 30
0.0
 10
15.139305492
 20
23.1374393595
 30
0.0
 10
15.1359485252
 20
23.1351499558
 30
0.0
 11
15.1723459731
 21
23.1672718412
 31
0.0
 11
15.1640019605
 21
23.1584563811
 31
0.0
 11
15.1596380606
 21
23.154227882
 31
0.0
 11
15.1551476622
 21
23.1501281537
 31
0.0
 11
15.1505317843
 21
23.1461636967
 31
0.0
 11
15.14579151
 21
23.1423409923
 31
0.0
 11
15.1359485252
 21
23.1351499558
 31
0.0
  0
SPLINE
  5
44F
100
AcDbEntity
  8
0
100
AcDbSpline
 62
6
  6
CONTINUOUS
 70
0
 71
3
 72
11
 73
7
 74
5
 42
0.0000001
 43
0.0000001
 44
0.0000000001
 12
0.0366805871
 22
-0.0055214739
 32
0.0
 13
0.036013515
 23
-0.0088870063
 33
0.0
 40
0.0
 40
0.0
 40
0.0
 40
0.0
 40
0.2687815377
 40
0.5252317401
 40
0.7690215256
 40
1.0
 40
1.0
 40
1.0
 40
1.0
 10
15.1359485252
 20
23.1743618116
 30
0.0
 10
15.1392348801
 20
23.1738671215
 30
0.0
 10
15.1456472471
 20
23.1728352776
 30
0.0
 10
15.1550008197
 20
23.1711206897
 30
0.0
 10
15.1638548667
 20
23.1692865327
 30
0.0
 10
15.1695731908
 20
23.1679560769
 30
0.0
 10
15.1723459731
 20
23.1672718412
 30
0.0
 11
15.1359485252
 21
23.1743618116
 31
0.0
 11
15.1457915114
 21
23.1727745995
 31
0.0
 11
15.1551476647
 21
23.1710558103
 31
0.0
 11
15.1640019613
 21
23.169217597
 31
0.0
 11
15.1723459731
 21
23.1672718412
 31
0.0
  0
SPLINE
  5
450
100
AcDbEntity
  8
0
100
AcDbSpline
 62
6
  6
CONTINUOUS
 70
0
 71
3
 72
13
 73
9
 74
7
 42
0.0000001
 43
0.0000001
 44
0.0000000001
 12
-0.032504971
 22
-0.035724046
 32
0.0
 13
-0.0401176661
 23
-0.0268952313
 33
0.0
 40
0.0
 40
0.0
 40
0.0
 40
0.0
 40
0.2490723622
 40
0.3738530531
 40
0.4987774826
 40
0.6238537191
 40
0.7490964032
 40
1.0
 40
1.0
 40
1.0
 40
1.0
 10
15.1723459731
 20
23.2089240066
 30
0.0
 10
15.1696472765
 20
23.2059580491
 30
0.0
 10
15.1654711968
 20
23.2016176471
 30
0.0
 10
15.159656646
 20
23.1960780586
 30
0.0
 10
15.1551658257
 20
23.1920467849
 30
0.0
 10
15.1505493668
 20
23.1881483715
 30
0.0
 10
15.144225625
 20
23.1831343416
 30
0.0
 10
15.1393037475
 20
23.1795967812
 30
0.0
 10
15.1359485252
 20
23.1773474111
 30
0.0
 11
15.1723459731
 21
23.2089240066
 31
0.0
 11
15.1640019616
 21
23.2002581957
 31
0.0
 11
15.1596380626
 21
23.1961014789
 31
0.0
 11
15.1551476648
 21
23.1920713467
 31
0.0
 11
15.1505317868
 21
23.1881741886
 31
0.0
 11
15.1457915112
 21
23.1844163761
 31
0.0
 11
15.1359485252
 21
23.1773474111
 31
0.0
  0
SPLINE
  5
451
100
AcDbEntity
  8
0
100
AcDbSpline
 62
6
  6
CONTINUOUS
 70
0
 71
3
 72
13
 73
9
 74
7
 42
0.0000001
 43
0.0000001
 44
0.0000000001
 12
-0.0326913677
 22
-0.0342100904
 32
0.0
 13
-0.0398852469
 23
-0.0254602218
 33
0.0
 40
0.0
 40
0.0
 40
0.0
 40
0.0
 40
0.2479952432
 40
0.3724995124
 40
0.4973271139
 40
0.6224887373
 40
0.7480009899
 40
1.0
 40
1.0
 40
1.0
 40
1.0
 10
15.1723459731
 20
23.2966997679
 30
0.0
 10
15.1696435385
 20
23.293871788
 30
0.0
 10
15.1654640976
 20
23.2897363589
 30
0.0
 10
15.1596534508
 20
23.2844655461
 30
0.0
 10
15.1551625023
 20
23.2806271836
 30
0.0
 10
15.1505459325
 20
23.2769153469
 30
0.0
 10
15.1442173882
 20
23.272137784
 30
0.0
 10
15.1392988728
 20
23.2687724233
 30
0.0
 10
15.1359485252
 20
23.2666337731
 30
0.0
 11
15.1723459731
 21
23.2966997679
 31
0.0
 11
15.1640019605
 21
23.2884485219
 31
0.0
 11
15.1596380606
 21
23.2844906586
 31
0.0
 11
15.1551476622
 21
23.2806533244
 31
0.0
 11
15.1505317843
 21
23.2769426037
 31
0.0
 11
15.14579151
 21
23.2733645631
 31
0.0
 11
15.1359485252
 21
23.2666337731
 31
0.0
  0
SPLINE
  5
452
100
AcDbEntity
  8
0
100
AcDbSpline
 62
6
  6
CONTINUOUS
 70
0
 71
3
 72
11
 73
7
 74
5
 42
0.0000001
 43
0.0000001
 44
0.0000000001
 12
0.0373352695
 22
-0.010579105
 32
0.0
 13
0.0351935218
 23
-0.0163479611
 33
0.0
 40
0.0
 40
0.0
 40
0.0
 40
0.0
 40
0.2650795421
 40
0.5201946888
 40
0.7651727663
 40
1.0
 40
1.0
 40
1.0
 40
1.0
 10
15.1359485252
 20
23.3100458968
 30
0.0
 10
15.139247464
 20
23.3091111287
 30
0.0
 10
15.1456887464
 20
23.3071589848
 30
0.0
 10
15.1550466597
 20
23.3039280547
 30
0.0
 10
15.1639048849
 20
23.300471607
 30
0.0
 10
15.169591174
 20
23.2979794167
 30
0.0
 10
15.1723459731
 20
23.2966997679
 30
0.0
 11
15.1359485252
 21
23.3100458968
 31
0.0
 11
15.1457915114
 21
23.3070581358
 31
0.0
 11
15.1551476647
 21
23.3038226946
 31
0.0
 11
15.1640019613
 21
23.3003624501
 31
0.0
 11
15.1723459731
 21
23.2966997679
 31
0.0
  0
SPLINE
  5
453
100
AcDbEntity
  8
0
100
AcDbSpline
 62
6
  6
CONTINUOUS
 70
0
 71
3
 72
13
 73
9
 74
7
 42
0.0000001
 43
0.0000001
 44
0.0000000001
 12
-0.0328143058
 22
-0.0332439519
 32
0.0
 13
-0.0397358095
 23
-0.0245561489
 33
0.0
 40
0.0
 40
0.0
 40
0.0
 40
0.0
 40
0.2472926655
 40
0.3716172894
 40
0.4963825037
 40
0.6216004326
 40
0.7472886776
 40
1.0
 40
1.0
 40
1.0
 40
1.0
 10
15.1723459731
 20
23.3424313359
 30
0.0
 10
15.1696410607
 20
23.3396910074
 30
0.0
 10
15.1654594287
 20
23.3356857453
 30
0.0
 10
15.1596513606
 20
23.3305853835
 30
0.0
 10
15.155160339
 20
23.3268694411
 30
0.0
 10
15.1505437077
 20
23.3232760031
 30
0.0
 10
15.1442120761
 20
23.3186486439
 30
0.0
 10
15.1392957549
 20
23.3153924441
 30
0.0
 10
15.1359485252
 20
23.3133239052
 30
0.0
 11
15.1723459731
 21
23.3424313359
 31
0.0
 11
15.1640019605
 21
23.3344431561
 31
0.0
 11
15.1596380606
 21
23.3306114774
 31
0.0
 11
15.1551476622
 21
23.3268964851
 31
0.0
 11
15.1505317843
 21
23.3233040696
 31
0.0
 11
15.14579151
 21
23.3198401041
 31
0.0
 11
15.1359485252
 21
23.3133239052
 31
0.0
  0
SPLINE
  5
454
100
AcDbEntity
  8
0
100
AcDbSpline
 62
6
  6
CONTINUOUS
 70
0
 71
3
 72
11
 73
7
 74
5
 42
0.0000001
 43
0.0000001
 44
0.0000000001
 12
0.0375992705
 22
-0.0122332092
 32
0.0
 13
0.0348870252
 23
-0.0186078483
 33
0.0
 40
0.0
 40
0.0
 40
0.0
 40
0.0
 40
0.2636291319
 40
0.5182299214
 40
0.7636788868
 40
1.0
 40
1.0
 40
1.0
 40
1.0
 10
15.1359485252
 20
23.3577558482
 30
0.0
 10
15.1392526129
 20
23.3566808381
 30
0.0
 10
15.1457054094
 20
23.3544348186
 30
0.0
 10
15.1550645908
 20
23.350723578
 30
0.0
 10
15.1639238813
 20
23.3467532994
 30
0.0
 10
15.1695977929
 20
23.343897145
 30
0.0
 10
15.1723459731
 20
23.3424313359
 30
0.0
 11
15.1359485252
 21
23.3577558482
 31
0.0
 11
15.1457915114
 21
23.354325192
 31
0.0
 11
15.1551476647
 21
23.3506101402
 31
0.0
 11
15.1640019613
 21
23.3466369612
 31
0.0
 11
15.1723459731
 21
23.3424313359
 31
0.0
  0
SPLINE
  5
455
100
AcDbEntity
  8
0
100
AcDbSpline
 62
6
  6
CONTINUOUS
 70
0
 71
3
 72
13
 73
9
 74
7
 42
0.0000001
 43
0.0000001
 44
0.0000000001
 12
-0.0329582619
 22
-0.0321410754
 32
0.0
 13
-0.0395645763
 23
-0.0235359314
 33
0.0
 40
0.0
 40
0.0
 40
0.0
 40
0.0
 40
0.2464777924
 40
0.3705947213
 40
0.495288347
 40
0.6205721766
 40
0.7464646797
 40
1.0
 40
1.0
 40
1.0
 40
1.0
 10
15.1723459731
 20
23.3891214287
 30
0.0
 10
15.1696381465
 20
23.3864807416
 30
0.0
 10
15.1654539746
 20
23.3826234014
 30
0.0
 10
15.1596489292
 20
23.377716498
 30
0.0
 10
15.1551578329
 20
23.3741395842
 30
0.0
 10
15.1505411411
 20
23.3706806066
 30
0.0
 10
15.1442059734
 20
23.3662239721
 30
0.0
 10
15.1392921978
 20
23.3630916263
 30
0.0
 10
15.1359485252
 20
23.361102563
 30
0.0
 11
15.1723459731
 21
23.3891214287
 31
0.0
 11
15.1640019605
 21
23.3814319924
 31
0.0
 11
15.1596380606
 21
23.3777436115
 31
0.0
 11
15.1551476622
 21
23.3741675532
 31
0.0
 11
15.1505317843
 21
23.3707094874
 31
0.0
 11
15.14579151
 21
23.3673750679
 31
0.0
 11
15.1359485252
 21
23.361102563
 31
0.0
  0
SPLINE
  5
456
100
AcDbEntity
  8
0
100
AcDbSpline
 62
6
  6
CONTINUOUS
 70
0
 71
3
 72
13
 73
9
 74
7
 42
0.0000001
 43
0.0000001
 44
0.0000000001
 12
-0.0331241109
 22
-0.0309035389
 32
0.0
 13
-0.0393721484
 23
-0.0224069046
 33
0.0
 40
0.0
 40
0.0
 40
0.0
 40
0.0
 40
0.245549307
 40
0.3694304547
 40
0.4940435171
 40
0.6194032093
 40
0.7455286209
 40
1.0
 40
1.0
 40
1.0
 40
1.0
 10
15.1723459731
 20
23.4365615172
 30
0.0
 10
15.1696347723
 20
23.4340320697
 30
0.0
 10
15.165447709
 20
23.4303397926
 30
0.0
 10
15.1596461497
 20
23.4256484361
 30
0.0
 10
15.1551549816
 20
23.4222265396
 30
0.0
 10
15.1505382347
 20
23.418917484
 30
0.0
 10
15.1441990957
 20
23.4146513976
 30
0.0
 10
15.1392882202
 20
23.4116569942
 30
0.0
 10
15.1359485252
 20
23.4097563555
 30
0.0
 11
15.1723459731
 21
23.4365615172
 31
0.0
 11
15.1640019605
 21
23.4292051672
 31
0.0
 11
15.1596380606
 21
23.4256765573
 31
0.0
 11
15.1551476622
 21
23.4222554045
 31
0.0
 11
15.1505317843
 21
23.4189471331
 31
0.0
 11
15.14579151
 21
23.4157571519
 31
0.0
 11
15.1359485252
 21
23.4097563555
 31
0.0
  0
SPLINE
  5
457
100
AcDbEntity
  8
0
100
AcDbSpline
 62
6
  6
CONTINUOUS
 70
0
 71
3
 72
11
 73
7
 74
5
 42
0.0000001
 43
0.0000001
 44
0.0000000001
 12
0.0381471499
 22
-0.0154428819
 32
0.0
 13
0.0342902676
 23
-0.0227566516
 33
0.0
 40
0.0
 40
0.0
 40
0.0
 40
0.0
 40
0.2606937207
 40
0.5142685481
 40
0.7606792919
 40
1.0
 40
1.0
 40
1.0
 40
1.0
 10
15.1359485252
 20
23.4556289373
 30
0.0
 10
15.1392634327
 20
23.4542869831
 30
0.0
 10
15.1457398339
 20
23.451480888
 30
0.0
 10
15.1551008083
 20
23.4468601133
 30
0.0
 10
15.1639613129
 20
23.4419170004
 30
0.0
 10
15.169610516
 20
23.4383768966
 30
0.0
 10
15.1723459731
 20
23.4365615172
 30
0.0
 11
15.1359485252
 21
23.4556289373
 31
0.0
 11
15.1457915114
 21
23.4513603666
 31
0.0
 11
15.1551476647
 21
23.4467379388
 31
0.0
 11
15.1640019613
 21
23.4417943379
 31
0.0
 11
15.1723459731
 21
23.4365615172
 31
0.0
  0
SPLINE
  5
458
100
AcDbEntity
  8
0
100
AcDbSpline
 62
6
  6
CONTINUOUS
 70
0
 71
3
 72
11
 73
7
 74
5
 42
0.0000001
 43
0.0000001
 44
0.0000000001
 12
0.0384176258
 22
-0.0169779795
 32
0.0
 13
0.0340136309
 23
-0.0246422132
 33
0.0
 40
0.0
 40
0.0
 40
0.0
 40
0.0
 40
0.2592805891
 40
0.5123686861
 40
0.7592464916
 40
1.0
 40
1.0
 40
1.0
 40
1.0
 10
15.1359485252
 20
23.5053549499
 30
0.0
 10
15.1392688401
 20
23.5038875964
 30
0.0
 10
15.1457567423
 20
23.5008181475
 30
0.0
 10
15.1551182011
 20
23.4957723801
 30
0.0
 10
15.1639788559
 20
23.490374799
 30
0.0
 10
15.1696163394
 20
23.4865172888
 30
0.0
 10
15.1723459731
 20
23.4845397224
 30
0.0
 11
15.1359485252
 21
23.5053549499
 31
0.0
 11
15.1457915114
 21
23.5006951025
 31
0.0
 11
15.1551476647
 21
23.4956489617
 31
0.0
 11
15.1640019613
 21
23.4902522076
 31
0.0
 11
15.1723459731
 21
23.4845397224
 31
0.0
  0
SPLINE
  5
459
100
AcDbEntity
  8
0
100
AcDbSpline
 62
6
  6
CONTINUOUS
 70
0
 71
3
 72
11
 73
7
 74
5
 42
0.0000001
 43
0.0000001
 44
0.0000000001
 12
-0.0335224474
 22
-0.0280308718
 32
0.0
 13
-0.0389263118
 23
-0.019855138
 33
0.0
 40
0.0
 40
0.0
 40
0.0
 40
0.0
 40
0.2433664279
 40
0.4911087453
 40
0.7433149868
 40
1.0
 40
1.0
 40
1.0
 40
1.0
 10
15.1723459731
 20
23.532841762
 30
0.0
 10
15.1696265603
 20
23.5305678376
 30
0.0
 10
15.1640102849
 20
23.5261304429
 30
0.0
 10
15.1551500571
 20
23.519898299
 30
0.0
 10
15.145788369
 20
23.5140719213
 30
0.0
 10
15.1392791255
 20
23.5105160468
 30
0.0
 10
15.1359485252
 20
23.508817208
 30
0.0
 11
15.1723459731
 21
23.532841762
 31
0.0
 11
15.1640019605
 21
23.5262485158
 31
0.0
 11
15.1551476622
 21
23.5200196801
 31
0.0
 11
15.14579151
 21
23.5141955175
 31
0.0
 11
15.1359485252
 21
23.508817208
 31
0.0
  0
SPLINE
  5
45A
100
AcDbEntity
  8
0
100
AcDbSpline
 62
6
  6
CONTINUOUS
 70
0
 71
3
 72
11
 73
7
 74
5
 42
0.0000001
 43
0.0000001
 44
0.0000000001
 12
0.0386786764
 22
-0.0184522926
 32
0.0
 13
0.0337570032
 23
-0.026400603
 33
0.0
 40
0.0
 40
0.0
 40
0.0
 40
0.0
 40
0.2579386071
 40
0.5105688021
 40
0.7578925151
 40
1.0
 40
1.0
 40
1.0
 40
1.0
 10
15.1359485252
 20
23.5553118311
 30
0.0
 10
15.1392740999
 20
23.5537253115
 30
0.0
 10
15.1457730024
 20
23.5504054916
 30
0.0
 10
15.1551346878
 20
23.5449572393
 30
0.0
 10
15.1639952333
 20
23.5391293253
 30
0.0
 10
15.1696216987
 20
23.5349723565
 30
0.0
 10
15.1723459731
 20
23.532841762
 30
0.0
 11
15.1359485252
 21
23.5553118311
 31
0.0
 11
15.1457915114
 21
23.5502815188
 31
0.0
 11
15.1551476647
 21
23.5448342023
 31
0.0
 11
15.1640019613
 21
23.5390083982
 31
0.0
 11
15.1723459731
 21
23.532841762
 31
0.0
  0
SPLINE
  5
45B
100
AcDbEntity
  8
0
100
AcDbSpline
 62
9
  6
CONTINUOUS
 70
0
 71
3
 72
44
 73
40
 74
38
 42
0.0000001
 43
0.0000001
 44
0.0000000001
 12
-0.0600678807
 22
-0.1022447137
 32
0.0
 13
-0.1184489892
 23
-0.0056540889
 33
0.0
 40
0.0
 40
0.0
 40
0.0
 40
0.0
 40
0.0021104902
 40
0.0032774356
 40
0.0045269919
 40
0.0058642712
 40
0.007293436
 40
0.0104397791
 40
0.0139874998
 40
0.0179507955
 40
0.0223397419
 40
0.0271616648
 40
0.032421991
 40
0.0381246523
 40
0.0442725128
 40
0.0508677273
 40
0.0579119201
 40
0.065406311
 40
0.0733518066
 40
0.0817490671
 40
0.0999002368
 40
0.1198603046
 40
0.1416266118
 40
0.1651952821
 40
0.1905615652
 40
0.2177190703
 40
0.2466595493
 40
0.2773742939
 40
0.3098543161
 40
0.3440898493
 40
0.3800686726
 40
0.4177778437
 40
0.4572043045
 40
0.4983348923
 40
0.5856530116
 40
0.6796180577
 40
0.7801098971
 40
0.8869660321
 40
1.0
 40
1.0
 40
1.0
 40
1.0
 10
19.2934318242
 20
23.1948682293
 30
0.0
 10
19.2933895666
 20
23.1947963005
 30
0.0
 10
19.2933118152
 20
23.1946915389
 30
0.0
 10
19.2931895729
 20
23.1945608017
 30
0.0
 10
19.2930809729
 20
23.1944595093
 30
0.0
 10
19.2929585829
 20
23.1943582956
 30
0.0
 10
19.2927708732
 20
23.1942188948
 30
0.0
 10
19.2924999591
 20
23.1940457987
 30
0.0
 10
19.2921296931
 20
23.1938443668
 30
0.0
 10
19.2917043683
 20
23.1936429981
 30
0.0
 10
19.2912239479
 20
23.1934416942
 30
0.0
 10
19.2906883736
 20
23.1932404722
 30
0.0
 10
19.2900976373
 20
23.1930393646
 30
0.0
 10
19.2894517575
 20
23.1928383955
 30
0.0
 10
19.2887507767
 20
23.1926375889
 30
0.0
 10
19.2879947482
 20
23.1924369703
 30
0.0
 10
19.2871837305
 20
23.1922365638
 30
0.0
 10
19.2863177856
 20
23.1920363938
 30
0.0
 10
19.2853969786
 20
23.1918364774
 30
0.0
 10
19.2840611536
 20
23.1915631511
 30
0.0
 10
19.2822541448
 20
23.191224237
 30
0.0
 10
19.2799205313
 20
23.1908285103
 30
0.0
 10
19.2773697792
 20
23.1904341414
 30
0.0
 10
19.2746027885
 20
23.1900413151
 30
0.0
 10
19.2716204926
 20
23.189650237
 30
0.0
 10
19.2684239384
 20
23.1892610794
 30
0.0
 10
19.265014279
 20
23.1888739823
 30
0.0
 10
19.2613927284
 20
23.1884890966
 30
0.0
 10
19.2575605291
 20
23.1881065697
 30
0.0
 10
19.2535190371
 20
23.187726556
 30
0.0
 10
19.2492697464
 20
23.1873491983
 30
0.0
 10
19.2448142638
 20
23.1869746526
 30
0.0
 10
19.2401542201
 20
23.186603067
 30
0.0
 10
19.2335374083
 20
23.1861017413
 30
0.0
 10
19.2247673542
 20
23.1854861157
 30
0.0
 10
19.2136520346
 20
23.1847749452
 30
0.0
 10
19.2017620731
 20
23.1840785378
 30
0.0
 10
19.1891162909
 20
23.1833979648
 30
0.0
 10
19.1804351251
 20
23.1829674791
 30
0.0
 10
19.1759722053
 20
23.1827544444
 30
0.0
 11
19.2934318242
 21
23.1948682293
 31
0.0
 11
19.2932849739
 21
23.1946655716
 31
0.0
 11
19.2931907172
 21
23.1945642556
 31
0.0
 11
19.2930825784
 21
23.1944629517
 31
0.0
 11
19.2929605617
 21
23.1943616627
 31
0.0
 11
19.2928246713
 21
23.1942603914
 31
0.0
 11
19.2925112864
 21
23.1940579127
 31
0.0
 11
19.2921424574
 21
23.1938555376
 31
0.0
 11
19.291718218
 21
23.1936532881
 31
0.0
 11
19.291238602
 21
23.1934511862
 31
0.0
 11
19.290703643
 21
23.1932492537
 31
0.0
 11
19.2901133768
 21
23.1930475125
 31
0.0
 11
19.2894678611
 21
23.1928459811
 31
0.0
 11
19.2887671677
 21
23.1926446762
 31
0.0
 11
19.2880113683
 21
23.1924436145
 31
0.0
 11
19.287200535
 21
23.1922428125
 31
0.0
 11
19.2863347396
 21
23.1920422869
 31
0.0
 11
19.285414054
 21
23.1918420543
 31
0.0
 11
19.2844385501
 21
23.1916421313
 31
0.0
 11
19.2823233909
 21
23.1912432817
 31
0.0
 11
19.2799900484
 21
23.1908458817
 31
0.0
 11
19.2774394429
 21
23.1904500817
 31
0.0
 11
19.2746724971
 21
23.1900560322
 31
0.0
 11
19.2716901365
 21
23.1896638836
 31
0.0
 11
19.2684934096
 21
23.1892737781
 31
0.0
 11
19.2650835318
 21
23.1888858472
 31
0.0
 11
19.2614617304
 21
23.1885002215
 31
0.0
 11
19.2576292329
 21
23.1881170315
 31
0.0
 11
19.253587333
 21
23.1877364107
 31
0.0
 11
19.2493375948
 21
23.187358504
 31
0.0
 11
19.2448816511
 21
23.1869834594
 31
0.0
 11
19.2402211348
 21
23.1866114246
 31
0.0
 11
19.23535768
 21
23.1862425472
 31
0.0
 11
19.2250287678
 21
23.1855147776
 31
0.0
 11
19.2139089102
 21
23.1848010738
 31
0.0
 11
19.2020127019
 21
23.1841023542
 31
0.0
 11
19.1893596889
 21
23.1834197352
 31
0.0
 11
19.1759722053
 21
23.1827544444
 31
0.0
  0
SPLINE
  5
45C
100
AcDbEntity
  8
0
100
AcDbSpline
 62
6
  6
CONTINUOUS
 70
0
 71
3
 72
11
 73
7
 74
5
 42
0.0000001
 43
0.0000001
 44
0.0000000001
 12
-0.0337570032
 22
-0.026400603
 32
0.0
 13
-0.0386786764
 23
-0.0184522926
 33
0.0
 40
0.0
 40
0.0
 40
0.0
 40
0.0
 40
0.2421075057
 40
0.4894312663
 40
0.742061431
 40
1.0
 40
1.0
 40
1.0
 40
1.0
 10
15.1723459731
 20
23.5812519072
 30
0.0
 10
15.1696216985
 20
23.5791213125
 30
0.0
 10
15.1639952322
 20
23.5749643432
 30
0.0
 10
15.1551346862
 20
23.569136429
 30
0.0
 10
15.1457730012
 20
23.5636881767
 30
0.0
 10
15.1392740994
 20
23.5603683574
 30
0.0
 10
15.1359485252
 20
23.5587818381
 30
0.0
 11
15.1723459731
 21
23.5812519072
 31
0.0
 11
15.1640019605
 21
23.5750852705
 31
0.0
 11
15.1551476622
 21
23.5692594654
 31
0.0
 11
15.14579151
 21
23.5638121495
 31
0.0
 11
15.1359485252
 21
23.5587818381
 31
0.0
  0
SPLINE
  5
45D
100
AcDbEntity
  8
0
100
AcDbSpline
 62
6
  6
CONTINUOUS
 70
0
 71
3
 72
11
 73
7
 74
5
 42
0.0000001
 43
0.0000001
 44
0.0000000001
 12
-0.0342902676
 22
-0.0227566516
 32
0.0
 13
-0.0381471499
 23
-0.0154428819
 33
0.0
 40
0.0
 40
0.0
 40
0.0
 40
0.0
 40
0.2393207288
 40
0.4857315204
 40
0.7393063174
 40
1.0
 40
1.0
 40
1.0
 40
1.0
 10
15.1723459731
 20
23.6775321519
 30
0.0
 10
15.1696105158
 20
23.6757167725
 30
0.0
 10
15.1639613119
 20
23.6721766681
 30
0.0
 10
15.1551008067
 20
23.6672335552
 30
0.0
 10
15.1457398326
 20
23.6626127804
 30
0.0
 10
15.1392634322
 20
23.6598066858
 30
0.0
 10
15.1359485252
 20
23.6584647319
 30
0.0
 11
15.1723459731
 21
23.6775321519
 31
0.0
 11
15.1640019605
 21
23.6722993308
 31
0.0
 11
15.1551476622
 21
23.6673557291
 31
0.0
 11
15.14579151
 21
23.6627333018
 31
0.0
 11
15.1359485252
 21
23.6584647319
 31
0.0
  0
SPLINE
  5
45E
100
AcDbEntity
  8
0
100
AcDbSpline
 62
6
  6
CONTINUOUS
 70
0
 71
3
 72
13
 73
9
 74
7
 42
0.0000001
 43
0.0000001
 44
0.0000000001
 12
0.0393721484
 22
-0.0224069046
 32
0.0
 13
0.0331241109
 23
-0.0309035389
 33
0.0
 40
0.0
 40
0.0
 40
0.0
 40
0.0
 40
0.2544714173
 40
0.3805968601
 40
0.505956551
 40
0.6305695906
 40
0.7544507139
 40
1.0
 40
1.0
 40
1.0
 40
1.0
 10
15.1359485252
 20
23.7043373137
 30
0.0
 10
15.1392882207
 20
23.7024366747
 30
0.0
 10
15.144199097
 20
23.6994422705
 30
0.0
 10
15.1505382369
 20
23.6951761837
 30
0.0
 10
15.1551549839
 20
23.691867128
 30
0.0
 10
15.1596461513
 20
23.6884452318
 30
0.0
 10
15.1654477098
 20
23.6837538759
 30
0.0
 10
15.1696347725
 20
23.6800615992
 30
0.0
 10
15.1723459731
 20
23.6775321519
 30
0.0
 11
15.1359485252
 21
23.7043373137
 31
0.0
 11
15.1457915114
 21
23.6983365162
 31
0.0
 11
15.1505317869
 21
23.6951465343
 31
0.0
 11
15.1551476647
 21
23.6918382629
 31
0.0
 11
15.1596380622
 21
23.6884171107
 31
0.0
 11
15.1640019613
 21
23.6848885014
 31
0.0
 11
15.1723459731
 21
23.6775321519
 31
0.0
  0
SPLINE
  5
45F
100
AcDbEntity
  8
0
100
AcDbSpline
 62
6
  6
CONTINUOUS
 70
0
 71
3
 72
10
 73
6
 74
4
 42
0.0000001
 43
0.0000001
 44
0.0000000001
 12
-0.0345783957
 22
-0.0207418693
 32
0.0
 13
-0.0378669619
 23
-0.0138558216
 33
0.0
 40
0.0
 40
0.0
 40
0.0
 40
0.0
 40
0.4836906762
 40
0.7378091654
 40
1.0
 40
1.0
 40
1.0
 40
1.0
 10
15.1723459731
 20
23.7249722404
 30
0.0
 10
15.1667708905
 20
23.7216280242
 30
0.0
 10
15.1580003817
 20
23.7169564598
 30
0.0
 10
15.1457229161
 20
23.7114800539
 30
0.0
 10
15.139257982
 20
23.7089487441
 30
0.0
 10
15.1359485252
 20
23.7077377876
 30
0.0
 11
15.1723459731
 21
23.7249722404
 31
0.0
 11
15.1551476622
 21
23.7157740857
 31
0.0
 11
15.14579151
 21
23.7115960163
 31
0.0
 11
15.1359485252
 21
23.7077377876
 31
0.0
  0
SPLINE
  5
460
100
AcDbEntity
  8
0
100
AcDbSpline
 62
6
  6
CONTINUOUS
 70
0
 71
3
 72
13
 73
9
 74
7
 42
0.0000001
 43
0.0000001
 44
0.0000000001
 12
0.0395645763
 22
-0.0235359314
 32
0.0
 13
0.0329582619
 23
-0.0321410754
 33
0.0
 40
0.0
 40
0.0
 40
0.0
 40
0.0
 40
0.2535353584
 40
0.3794278928
 40
0.5047117211
 40
0.6294053241
 40
0.7535222284
 40
1.0
 40
1.0
 40
1.0
 40
1.0
 10
15.1359485252
 20
23.7529911062
 30
0.0
 10
15.1392921983
 20
23.7510020426
 30
0.0
 10
15.1442059747
 20
23.747869696
 30
0.0
 10
15.1505411434
 20
23.7434130611
 30
0.0
 10
15.1551578352
 20
23.7399540833
 30
0.0
 10
15.1596489308
 20
23.7363771698
 30
0.0
 10
15.1654539754
 20
23.7314702671
 30
0.0
 10
15.1696381468
 20
23.7276129273
 30
0.0
 10
15.1723459731
 20
23.7249722404
 30
0.0
 11
15.1359485252
 21
23.7529911062
 31
0.0
 11
15.1457915114
 21
23.7467186002
 31
0.0
 11
15.1505317869
 21
23.7433841799
 31
0.0
 11
15.1551476647
 21
23.7399261141
 31
0.0
 11
15.1596380622
 21
23.7363500564
 31
0.0
 11
15.1640019613
 21
23.7326616762
 31
0.0
 11
15.1723459731
 21
23.7249722404
 31
0.0
  0
SPLINE
  5
461
100
AcDbEntity
  8
0
100
AcDbSpline
 62
6
  6
CONTINUOUS
 70
0
 71
3
 72
13
 73
9
 74
7
 42
0.0000001
 43
0.0000001
 44
0.0000000001
 12
0.0397358095
 22
-0.0245561489
 32
0.0
 13
0.0328143058
 23
-0.0332439519
 33
0.0
 40
0.0
 40
0.0
 40
0.0
 40
0.0
 40
0.2527113606
 40
0.3783996366
 40
0.5036175644
 40
0.628382756
 40
0.7527073554
 40
1.0
 40
1.0
 40
1.0
 40
1.0
 10
15.1359485252
 20
23.800769764
 30
0.0
 10
15.1392957554
 20
23.7987012248
 30
0.0
 10
15.1442120773
 20
23.7954450242
 30
0.0
 10
15.15054371
 20
23.7908176644
 30
0.0
 10
15.1551603412
 20
23.7872242263
 30
0.0
 10
15.1596513622
 20
23.7835082844
 30
0.0
 10
15.1654594294
 20
23.7784079232
 30
0.0
 10
15.1696410609
 20
23.7744026616
 30
0.0
 10
15.1723459731
 20
23.7716623333
 30
0.0
 11
15.1359485252
 21
23.800769764
 31
0.0
 11
15.1457915114
 21
23.794253564
 31
0.0
 11
15.1505317869
 21
23.7907895976
 31
0.0
 11
15.1551476647
 21
23.7871971821
 31
0.0
 11
15.1596380622
 21
23.7834821904
 31
0.0
 11
15.1640019613
 21
23.7796505124
 31
0.0
 11
15.1723459731
 21
23.7716623333
 31
0.0
  0
SPLINE
  5
462
100
AcDbEntity
  8
0
100
AcDbSpline
 62
6
  6
CONTINUOUS
 70
0
 71
3
 72
11
 73
7
 74
5
 42
0.0000001
 43
0.0000001
 44
0.0000000001
 12
-0.0351935218
 22
-0.0163479611
 32
0.0
 13
-0.0373352695
 23
-0.010579105
 33
0.0
 40
0.0
 40
0.0
 40
0.0
 40
0.0
 40
0.2348272543
 40
0.47980538
 40
0.734920496
 40
1.0
 40
1.0
 40
1.0
 40
1.0
 10
15.1723459731
 20
23.8173939013
 30
0.0
 10
15.1695911737
 20
23.8161142523
 30
0.0
 10
15.1639048838
 20
23.8136220618
 30
0.0
 10
15.1550466581
 20
23.810165614
 30
0.0
 10
15.1456887451
 20
23.8069346839
 30
0.0
 10
15.1392474635
 20
23.8049825404
 30
0.0
 10
15.1359485252
 20
23.8040477724
 30
0.0
 11
15.1723459731
 21
23.8173939013
 31
0.0
 11
15.1640019605
 21
23.8137312188
 31
0.0
 11
15.1551476622
 21
23.8102709737
 31
0.0
 11
15.14579151
 21
23.8070355329
 31
0.0
 11
15.1359485252
 21
23.8040477724
 31
0.0
  0
SPLINE
  5
463
100
AcDbEntity
  8
0
100
AcDbSpline
 62
6
  6
CONTINUOUS
 70
0
 71
3
 72
13
 73
9
 74
7
 42
0.0000001
 43
0.0000001
 44
0.0000000001
 12
0.0398852469
 22
-0.0254602218
 32
0.0
 13
0.0326913677
 23
-0.0342100904
 33
0.0
 40
0.0
 40
0.0
 40
0.0
 40
0.0
 40
0.2519990482
 40
0.3775113319
 40
0.5026729541
 40
0.627500533
 40
0.7520047777
 40
1.0
 40
1.0
 40
1.0
 40
1.0
 10
15.1359485252
 20
23.8474598961
 30
0.0
 10
15.1392988733
 20
23.8453212455
 30
0.0
 10
15.1442173894
 20
23.841955884
 30
0.0
 10
15.1505459347
 20
23.8371783207
 30
0.0
 10
15.1551625045
 20
23.8334664838
 30
0.0
 10
15.1596534523
 20
23.8296281216
 30
0.0
 10
15.1654640984
 20
23.8243573096
 30
0.0
 10
15.1696435388
 20
23.8202218809
 30
0.0
 10
15.1723459731
 20
23.8173939013
 30
0.0
 11
15.1359485252
 21
23.8474598961
 31
0.0
 11
15.1457915114
 21
23.840729105
 31
0.0
 11
15.1505317869
 21
23.8371510635
 31
0.0
 11
15.1551476647
 21
23.8334403427
 31
0.0
 11
15.1596380622
 21
23.8296030092
 31
0.0
 11
15.1640019613
 21
23.8256451466
 31
0.0
 11
15.1723459731
 21
23.8173939013
 31
0.0
  0
SPLINE
  5
464
100
AcDbEntity
  8
0
100
AcDbSpline
 62
6
  6
CONTINUOUS
 70
0
 71
3
 72
11
 73
7
 74
5
 42
0.0000001
 43
0.0000001
 44
0.0000000001
 12
-0.0354922578
 22
-0.0139691601
 32
0.0
 13
-0.0370884058
 23
-0.0089043783
 33
0.0
 40
0.0
 40
0.0
 40
0.0
 40
0.0
 40
0.2334006102
 40
0.4779340797
 40
0.7335424375
 40
1.0
 40
1.0
 40
1.0
 40
1.0
 10
15.1723459731
 20
23.861962696
 30
0.0
 10
15.1695846682
 20
23.8608758925
 30
0.0
 10
15.1638865234
 20
23.8587604132
 30
0.0
 10
15.1550296045
 20
23.8558328995
 30
0.0
 10
15.1456731245
 20
23.8530963632
 30
0.0
 10
15.1392426873
 20
23.8514454373
 30
0.0
 10
15.1359485252
 20
23.8506545577
 30
0.0
 11
15.1723459731
 21
23.861962696
 31
0.0
 11
15.1640019605
 21
23.8588593152
 31
0.0
 11
15.1551476622
 21
23.8559274591
 31
0.0
 11
15.14579151
 21
23.8531860789
 31
0.0
 11
15.1359485252
 21
23.8506545577
 31
0.0
  0
SPLINE
  5
465
100
AcDbEntity
  8
0
100
AcDbSpline
 62
6
  6
CONTINUOUS
 70
0
 71
3
 72
13
 73
9
 74
7
 42
0.0000001
 43
0.0000001
 44
0.0000000001
 12
0.0400125732
 22
-0.0262417385
 32
0.0
 13
0.0325885423
 23
-0.0350374337
 33
0.0
 40
0.0
 40
0.0
 40
0.0
 40
0.0
 40
0.2513970723
 40
0.3767610452
 40
0.5018755621
 40
0.6267562248
 40
0.7514123587
 40
1.0
 40
1.0
 40
1.0
 40
1.0
 10
15.1359485252
 20
23.8928529729
 30
0.0
 10
15.1393015398
 20
23.8906539409
 30
0.0
 10
15.1442219052
 20
23.8871946414
 30
0.0
 10
15.1505478192
 20
23.8822880113
 30
0.0
 10
15.1551643304
 20
23.8784743649
 30
0.0
 10
15.1596552104
 20
23.874530736
 30
0.0
 10
15.1654680113
 20
23.8691132854
 30
0.0
 10
15.1696456035
 20
23.864865987
 30
0.0
 10
15.1723459731
 20
23.861962696
 30
0.0
 11
15.1359485252
 21
23.8928529729
 31
0.0
 11
15.1457915114
 21
23.885937652
 31
0.0
 11
15.1505317869
 21
23.8822615159
 31
0.0
 11
15.1551476647
 21
23.8784490629
 31
0.0
 11
15.1596380622
 21
23.8745065259
 31
0.0
 11
15.1640019613
 21
23.8704401555
 31
0.0
 11
15.1723459731
 21
23.861962696
 31
0.0
  0
SPLINE
  5
466
100
AcDbEntity
  8
0
100
AcDbSpline
 62
6
  6
CONTINUOUS
 70
0
 71
3
 72
13
 73
9
 74
7
 42
0.0000001
 43
0.0000001
 44
0.0000000001
 12
0.0401176661
 22
-0.0268952313
 32
0.0
 13
0.032504971
 23
-0.035724046
 33
0.0
 40
0.0
 40
0.0
 40
0.0
 40
0.0
 40
0.2509036312
 40
0.3761463424
 40
0.501222577
 40
0.6261469858
 40
0.7509276551
 40
1.0
 40
1.0
 40
1.0
 40
1.0
 10
15.1359485252
 20
23.936746258
 30
0.0
 10
15.1393037479
 20
23.9344968876
 30
0.0
 10
15.1442256261
 20
23.9309593265
 30
0.0
 10
15.1505493688
 20
23.9259452961
 30
0.0
 10
15.1551658276
 20
23.9220468827
 30
0.0
 10
15.1596566474
 20
23.9180156093
 30
0.0
 10
15.1654711975
 20
23.9124760214
 30
0.0
 10
15.1696472766
 20
23.9081356198
 30
0.0
 10
15.1723459731
 20
23.9051696625
 30
0.0
 11
15.1359485252
 21
23.936746258
 31
0.0
 11
15.1457915125
 21
23.929677292
 31
0.0
 11
15.1505317891
 21
23.9259194788
 31
0.0
 11
15.155147667
 21
23.9220223207
 31
0.0
 11
15.159638064
 21
23.917992189
 31
0.0
 11
15.1640019622
 21
23.9138354729
 31
0.0
 11
15.1723459731
 21
23.9051696625
 31
0.0
  0
SPLINE
  5
467
100
AcDbEntity
  8
0
100
AcDbSpline
 62
6
  6
CONTINUOUS
 70
0
 71
3
 72
11
 73
7
 74
5
 42
0.0000001
 43
0.0000001
 44
0.0000000001
 12
-0.036013515
 22
-0.0088870063
 32
0.0
 13
-0.0366805871
 23
-0.0055214739
 33
0.0
 40
0.0
 40
0.0
 40
0.0
 40
0.0
 40
0.2309784949
 40
0.474768329
 40
0.7312185005
 40
1.0
 40
1.0
 40
1.0
 40
1.0
 10
15.1723459731
 20
23.946821828
 30
0.0
 10
15.1695731906
 20
23.9461375922
 30
0.0
 10
15.1638548656
 20
23.9448071362
 30
0.0
 10
15.1550008182
 20
23.9429729792
 30
0.0
 10
15.1456472458
 20
23.9412583913
 30
0.0
 10
15.1392348796
 20
23.9402265476
 30
0.0
 10
15.1359485252
 20
23.9397318576
 30
0.0
 11
15.1723459731
 21
23.946821828
 31
0.0
 11
15.1640019605
 21
23.944876072
 31
0.0
 11
15.1551476622
 21
23.9430378584
 31
0.0
 11
15.14579151
 21
23.9413190694
 31
0.0
 11
15.1359485252
 21
23.9397318576
 31
0.0
  0
SPLINE
  5
468
100
AcDbEntity
  8
0
100
AcDbSpline
 62
6
  6
CONTINUOUS
 70
0
 71
3
 72
13
 73
9
 74
7
 42
0.0000001
 43
0.0000001
 44
0.0000000001
 12
0.0402005214
 22
-0.0274161858
 32
0.0
 13
0.0324398945
 23
-0.036268201
 33
0.0
 40
0.0
 40
0.0
 40
0.0
 40
0.0
 40
0.2505166933
 40
0.3756644599
 40
0.5007108742
 40
0.6256697611
 40
0.7505481425
 40
1.0
 40
1.0
 40
1.0
 40
1.0
 10
15.1359485252
 20
23.9789437134
 30
0.0
 10
15.1393054925
 20
23.9766543093
 30
0.0
 10
15.1442285532
 20
23.973054541
 30
0.0
 10
15.1505505823
 20
23.9679552213
 30
0.0
 10
15.1551669968
 20
23.9639894613
 30
0.0
 10
15.1596577676
 20
23.9598885547
 30
0.0
 10
15.1654736801
 20
23.9542519
 30
0.0
 10
15.1696485758
 20
23.9498375514
 30
0.0
 10
15.1723459731
 20
23.946821828
 30
0.0
 11
15.1359485252
 21
23.9789437134
 31
0.0
 11
15.1457915114
 21
23.9717526757
 31
0.0
 11
15.1505317869
 21
23.9679299704
 31
0.0
 11
15.1551476647
 21
23.9639655133
 31
0.0
 11
15.1596380622
 21
23.9598657857
 31
0.0
 11
15.1640019613
 21
23.9556372874
 31
0.0
 11
15.1723459731
 21
23.946821828
 31
0.0
  0
SPLINE
  5
469
100
AcDbEntity
  8
0
100
AcDbSpline
 62
6
  6
CONTINUOUS
 70
0
 71
3
 72
11
 73
7
 74
5
 42
0.0000001
 43
0.0000001
 44
0.0000000001
 12
-0.0362068692
 22
-0.0062110203
 32
0.0
 13
-0.0365362484
 23
-0.0038231795
 33
0.0
 40
0.0
 40
0.0
 40
0.0
 40
0.0
 40
0.2301011129
 40
0.4736250841
 40
0.730381519
 40
1.0
 40
1.0
 40
1.0
 40
1.0
 10
15.1723459731
 20
23.9867331637
 30
0.0
 10
15.1695688928
 20
23.9862567761
 30
0.0
 10
15.1638432481
 20
23.9853308742
 30
0.0
 10
15.1549904448
 20
23.9840562152
 30
0.0
 10
15.1456380672
 20
23.9828646187
 30
0.0
 10
15.1392321412
 20
23.9821481313
 30
0.0
 10
15.1359485252
 20
23.9818045314
 30
0.0
 11
15.1723459731
 21
23.9867331637
 31
0.0
 11
15.1640019605
 21
23.9853805606
 31
0.0
 11
15.1551476622
 21
23.9841027162
 31
0.0
 11
15.14579151
 21
23.9829078905
 31
0.0
 11
15.1359485252
 21
23.9818045314
 31
0.0
  0
LINE
  5
46A
100
AcDbEntity
  8
0
100
AcDbLine
 62
6
  6
CONTINUOUS
 10
15.1723459731
 20
24.0606289021
 11
15.1359485252
 21
24.060079232
  0
SPLINE
  5
46B
100
AcDbEntity
  8
0
100
AcDbSpline
 62
6
  6
CONTINUOUS
 70
0
 71
3
 72
13
 73
9
 74
7
 42
0.0000001
 43
0.0000001
 44
0.0000000001
 12
0.0403162749
 22
-0.0281529821
 32
0.0
 13
0.0323501529
 23
-0.0370332287
 33
0.0
 40
0.0
 40
0.0
 40
0.0
 40
0.0
 40
0.2499792989
 40
0.3749954973
 40
0.5000008006
 40
0.6250077788
 40
0.7500218857
 40
1.0
 40
1.0
 40
1.0
 40
1.0
 10
15.1359485252
 20
24.0935193424
 30
0.0
 10
15.1393079366
 20
24.0911734548
 30
0.0
 10
15.1442326369
 20
24.0874859676
 30
0.0
 10
15.1505522729
 20
24.0822664957
 30
0.0
 10
15.1551686221
 20
24.0782058171
 30
0.0
 10
15.1596593204
 20
24.0740067698
 30
0.0
 10
15.1654771092
 20
24.0682332695
 30
0.0
 10
15.169650363
 20
24.0637147343
 30
0.0
 10
15.1723459731
 20
24.0606289021
 30
0.0
 11
15.1359485252
 21
24.0935193424
 31
0.0
 11
15.1457915114
 21
24.0861562505
 31
0.0
 11
15.1505317869
 21
24.0822420823
 31
0.0
 11
15.1551476647
 21
24.0781827708
 31
0.0
 11
15.1596380622
 21
24.0739849523
 31
0.0
 11
15.1640019613
 21
24.069655282
 31
0.0
 11
15.1723459731
 21
24.0606289021
 31
0.0
  0
SPLINE
  5
46C
100
AcDbEntity
  8
0
100
AcDbSpline
 62
6
  6
CONTINUOUS
 70
0
 71
3
 72
13
 73
9
 74
7
 42
0.0000001
 43
0.0000001
 44
0.0000000001
 12
0.0402832363
 22
-0.0279415815
 32
0.0
 13
0.032375629
 23
-0.0368142602
 33
0.0
 40
0.0
 40
0.0
 40
0.0
 40
0.0
 40
0.2501323113
 40
0.3751859397
 40
0.5002029131
 40
0.625196172
 40
0.7501716289
 40
1.0
 40
1.0
 40
1.0
 40
1.0
 10
15.1359485252
 20
24.1582084454
 30
0.0
 10
15.1393072383
 20
24.155878748
 30
0.0
 10
15.1442314722
 20
24.1522163981
 30
0.0
 10
15.1505517912
 20
24.1470313445
 30
0.0
 10
15.1551681595
 20
24.1429978611
 30
0.0
 10
15.1596588789
 20
24.1388269321
 30
0.0
 10
15.1654761352
 20
24.1330926441
 30
0.0
 10
15.1696498562
 20
24.1286039555
 30
0.0
 10
15.1723459731
 20
24.1255382066
 30
0.0
 11
15.1359485252
 21
24.1582084454
 31
0.0
 11
15.1457915114
 21
24.1508946494
 31
0.0
 11
15.1505317869
 21
24.1470066866
 31
0.0
 11
15.1551476647
 21
24.1429745522
 31
0.0
 11
15.1596380622
 21
24.1388048381
 31
0.0
 11
15.1640019613
 21
24.1345041549
 31
0.0
 11
15.1723459731
 21
24.1255382066
 31
0.0
  0
SPLINE
  5
46D
100
AcDbEntity
  8
0
100
AcDbSpline
 62
6
  6
CONTINUOUS
 70
0
 71
3
 72
13
 73
9
 74
7
 42
0.0000001
 43
0.0000001
 44
0.0000000001
 12
0.0400679011
 22
-0.0265847924
 32
0.0
 13
0.0325444002
 23
-0.035398445
 33
0.0
 40
0.0
 40
0.0
 40
0.0
 40
0.0
 40
0.2511368964
 40
0.3764368883
 40
0.5015311817
 40
0.626434889
 40
0.7511566895
 40
1.0
 40
1.0
 40
1.0
 40
1.0
 10
15.1359485252
 20
24.2348186895
 30
0.0
 10
15.1393027014
 20
24.2325932154
 30
0.0
 10
15.1442238644
 20
24.2290928005
 30
0.0
 10
15.1505486349
 20
24.2241297324
 30
0.0
 10
15.1551651189
 20
24.2202715469
 30
0.0
 10
15.1596559678
 20
24.2162818667
 30
0.0
 10
15.1654696932
 20
24.210800246
 30
0.0
 10
15.1696464877
 20
24.2065040238
 30
0.0
 10
15.1723459731
 20
24.2035678017
 30
0.0
 11
15.1359485252
 21
24.2348186895
 31
0.0
 11
15.1457915114
 21
24.2278226397
 31
0.0
 11
15.1505317869
 21
24.2241035885
 31
0.0
 11
15.1551476647
 21
24.2202466292
 31
0.0
 11
15.1596380622
 21
24.2162580674
 31
0.0
 11
15.1640019613
 21
24.2121442265
 31
0.0
 11
15.1723459731
 21
24.2035678017
 31
0.0
  0
LINE
  5
46E
100
AcDbEntity
  8
0
100
AcDbLine
 62
9
  6
CONTINUOUS
 10
15.4201354801
 20
23.5570468346
 11
15.4201354799
 21
23.3042477796
  0
SPLINE
  5
46F
100
AcDbEntity
  8
0
100
AcDbSpline
 62
6
  6
CONTINUOUS
 70
0
 71
3
 72
13
 73
9
 74
7
 42
0.0000001
 43
0.0000001
 44
0.0000000001
 12
0.0398132779
 22
-0.0250231261
 32
0.0
 13
0.0327502664
 23
-0.0337442437
 33
0.0
 40
0.0
 40
0.0
 40
0.0
 40
0.0
 40
0.2523413116
 40
0.3779380917
 40
0.5031266919
 40
0.627924236
 40
0.7523421503
 40
1.0
 40
1.0
 40
1.0
 40
1.0
 10
15.1359485252
 20
24.2709475415
 30
0.0
 10
15.1392973702
 20
24.268842752
 30
0.0
 10
15.1442148327
 20
24.2655300994
 30
0.0
 10
15.150544865
 20
24.2608250323
 30
0.0
 10
15.1551614654
 20
24.2571703524
 30
0.0
 10
15.1596524494
 20
24.2533910884
 30
0.0
 10
15.1654618603
 20
24.2482025729
 30
0.0
 10
15.1696423529
 20
24.2441299728
 30
0.0
 10
15.1723459731
 20
24.2413442972
 30
0.0
 11
15.1359485252
 21
24.2709475415
 31
0.0
 11
15.1457915114
 21
24.264320345
 31
0.0
 11
15.1505317869
 21
24.2607973738
 31
0.0
 11
15.1551476647
 21
24.2571437653
 31
0.0
 11
15.1596380622
 21
24.2533654928
 31
0.0
 11
15.1640019613
 21
24.2494685463
 31
0.0
 11
15.1723459731
 21
24.2413442972
 31
0.0
  0
SPLINE
  5
470
100
AcDbEntity
  8
0
100
AcDbSpline
 62
6
  6
CONTINUOUS
 70
0
 71
3
 72
13
 73
9
 74
7
 42
0.0000001
 43
0.0000001
 44
0.0000000001
 12
0.0396528877
 22
-0.024060121
 32
0.0
 13
0.0328836001
 23
-0.0327094753
 33
0.0
 40
0.0
 40
0.0
 40
0.0
 40
0.0
 40
0.2531093458
 40
0.3788961874
 40
0.5041458419
 40
0.6288763786
 40
0.7531006467
 40
1.0
 40
1.0
 40
1.0
 40
1.0
 10
15.1359485252
 20
24.2842661489
 30
0.0
 10
15.1392940307
 20
24.2822362018
 30
0.0
 10
15.1442091241
 20
24.2790401276
 30
0.0
 10
15.1505424694
 20
24.2744956069
 30
0.0
 10
15.1551591313
 20
24.270967427
 30
0.0
 10
15.1596501896
 20
24.2673189603
 30
0.0
 10
15.1654568023
 20
24.2623125072
 30
0.0
 10
15.1696396599
 20
24.2583790239
 30
0.0
 10
15.1723459731
 20
24.2556870411
 30
0.0
 11
15.1359485252
 21
24.2842661489
 31
0.0
 11
15.1457915114
 21
24.2778682231
 31
0.0
 11
15.1505317869
 21
24.2744671305
 31
0.0
 11
15.1551476647
 21
24.2709399201
 31
0.0
 11
15.1596380622
 21
24.2672923585
 31
0.0
 11
15.1640019613
 21
24.2635302285
 31
0.0
 11
15.1723459731
 21
24.2556870411
 31
0.0
  0
SPLINE
  5
471
100
AcDbEntity
  8
0
100
AcDbSpline
 62
6
  6
CONTINUOUS
 70
0
 71
3
 72
13
 73
9
 74
7
 42
0.0000001
 43
0.0000001
 44
0.0000000001
 12
0.0392682798
 22
-0.0218041233
 32
0.0
 13
0.0332154831
 23
-0.0302349016
 33
0.0
 40
0.0
 40
0.0
 40
0.0
 40
0.0
 40
0.2549811669
 40
0.3812338338
 40
0.506635285
 40
0.6312047953
 40
0.7549575933
 40
1.0
 40
1.0
 40
1.0
 40
1.0
 10
15.1359485252
 20
24.3011145718
 30
0.0
 10
15.1392860825
 20
24.2992613582
 30
0.0
 10
15.1441953761
 20
24.2963409995
 30
0.0
 10
15.1505366584
 20
24.2921773806
 30
0.0
 10
15.1551534292
 20
24.2889488774
 30
0.0
 10
15.1596446298
 20
24.2856102722
 30
0.0
 10
15.1654442663
 20
24.281034655
 30
0.0
 10
15.1696329058
 20
24.2774311275
 30
0.0
 10
15.1723459731
 20
24.2749615165
 30
0.0
 11
15.1359485252
 21
24.3011145718
 31
0.0
 11
15.1457915114
 21
24.2952597596
 31
0.0
 11
15.1505317869
 21
24.2921473824
 31
0.0
 11
15.1551476647
 21
24.2889195935
 31
0.0
 11
15.1596380622
 21
24.2855816698
 31
0.0
 11
15.1640019613
 21
24.2821389033
 31
0.0
 11
15.1723459731
 21
24.2749615165
 31
0.0
  0
SPLINE
  5
472
100
AcDbEntity
  8
0
100
AcDbSpline
 62
6
  6
CONTINUOUS
 70
0
 71
3
 72
13
 73
9
 74
7
 42
0.0000001
 43
0.0000001
 44
0.0000000001
 12
0.0390460944
 22
-0.0205275536
 32
0.0
 13
0.0334154538
 23
-0.0287990519
 33
0.0
 40
0.0
 40
0.0
 40
0.0
 40
0.0
 40
0.25608228
 40
0.3826106979
 40
0.5081034358
 40
0.63257975
 40
0.7560555382
 40
1.0
 40
1.0
 40
1.0
 40
1.0
 10
15.1359485252
 20
24.3045691381
 30
0.0
 10
15.1392815295
 20
24.3028168905
 30
0.0
 10
15.1441873974
 20
24.3000543151
 30
0.0
 10
15.1505332586
 20
24.2961094977
 30
0.0
 10
15.1551500664
 20
24.2930528323
 30
0.0
 10
15.1596413244
 20
24.2898919091
 30
0.0
 10
15.1654367514
 20
24.2855630034
 30
0.0
 10
15.1696288015
 20
24.2821489532
 30
0.0
 10
15.1723459731
 20
24.2798071635
 30
0.0
 11
15.1359485252
 21
24.3045691381
 31
0.0
 11
15.1457915114
 21
24.2990257433
 31
0.0
 11
15.1505317869
 21
24.2960789134
 31
0.0
 11
15.1551476647
 21
24.2930228105
 31
0.0
 11
15.1596380622
 21
24.289862431
 31
0.0
 11
15.1640019613
 21
24.2866027852
 31
0.0
 11
15.1723459731
 21
24.2798071635
 31
0.0
  0
SPLINE
  5
473
100
AcDbEntity
  8
0
100
AcDbSpline
 62
6
  6
CONTINUOUS
 70
0
 71
3
 72
13
 73
9
 74
7
 42
0.0000001
 43
0.0000001
 44
0.0000000001
 12
0.0334154538
 22
0.0287990519
 32
0.0
 13
0.0390460944
 23
0.0205275536
 33
0.0
 40
0.0
 40
0.0
 40
0.0
 40
0.0
 40
0.2439444588
 40
0.3674202452
 40
0.4918965589
 40
0.617389298
 40
0.7439177182
 40
1.0
 40
1.0
 40
1.0
 40
1.0
 10
14.9115510774
 20
24.2798071635
 30
0.0
 10
14.914268249
 20
24.2821489532
 30
0.0
 10
14.918460299
 20
24.2855630033
 30
0.0
 10
14.924255726
 20
24.289891909
 30
0.0
 10
14.9287469839
 20
24.2930528322
 30
0.0
 10
14.9333637917
 20
24.2961094976
 30
0.0
 10
14.939709653
 20
24.3000543151
 30
0.0
 10
14.9446155209
 20
24.3028168905
 30
0.0
 10
14.9479485252
 20
24.3045691381
 30
0.0
 11
14.9115510774
 21
24.2798071635
 31
0.0
 11
14.9198950891
 21
24.2866027851
 31
0.0
 11
14.9242589881
 21
24.2898624308
 31
0.0
 11
14.9287493856
 21
24.2930228104
 31
0.0
 11
14.9333652634
 21
24.2960789133
 31
0.0
 11
14.938105539
 21
24.2990257432
 31
0.0
 11
14.9479485252
 21
24.3045691381
 31
0.0
  0
SPLINE
  5
474
100
AcDbEntity
  8
0
100
AcDbSpline
 62
6
  6
CONTINUOUS
 70
0
 71
3
 72
13
 73
9
 74
7
 42
0.0000001
 43
0.0000001
 44
0.0000000001
 12
0.0332154831
 22
0.0302349016
 32
0.0
 13
0.0392682798
 23
0.0218041233
 33
0.0
 40
0.0
 40
0.0
 40
0.0
 40
0.0
 40
0.2450424037
 40
0.3687951999
 40
0.4933647097
 40
0.6187661621
 40
0.7450188313
 40
1.0
 40
1.0
 40
1.0
 40
1.0
 10
14.9115510774
 20
24.2749615165
 30
0.0
 10
14.9142641447
 20
24.2774311275
 30
0.0
 10
14.9184527841
 20
24.281034655
 30
0.0
 10
14.9242524205
 20
24.2856102721
 30
0.0
 10
14.9287436211
 20
24.2889488772
 30
0.0
 10
14.933360392
 20
24.2921773805
 30
0.0
 10
14.9397016743
 20
24.2963409994
 30
0.0
 10
14.944610968
 20
24.2992613582
 30
0.0
 10
14.9479485252
 20
24.3011145718
 30
0.0
 11
14.9115510774
 21
24.2749615165
 31
0.0
 11
14.9198950891
 21
24.2821389032
 31
0.0
 11
14.9242589881
 21
24.2855816697
 31
0.0
 11
14.9287493856
 21
24.2889195934
 31
0.0
 11
14.9333652634
 21
24.2921473823
 31
0.0
 11
14.938105539
 21
24.2952597596
 31
0.0
 11
14.9479485252
 21
24.3011145718
 31
0.0
  0
SPLINE
  5
475
100
AcDbEntity
  8
0
100
AcDbSpline
 62
6
  6
CONTINUOUS
 70
0
 71
3
 72
13
 73
9
 74
7
 42
0.0000001
 43
0.0000001
 44
0.0000000001
 12
0.0328836001
 22
0.0327094753
 32
0.0
 13
0.0396528877
 23
0.024060121
 33
0.0
 40
0.0
 40
0.0
 40
0.0
 40
0.0
 40
0.2468993503
 40
0.3711236165
 40
0.4958541529
 40
0.6211038086
 40
0.7468906525
 40
1.0
 40
1.0
 40
1.0
 40
1.0
 10
14.9115510774
 20
24.2556870411
 30
0.0
 10
14.9142573906
 20
24.2583790238
 30
0.0
 10
14.9184402481
 20
24.2623125071
 30
0.0
 10
14.9242468607
 20
24.2673189602
 30
0.0
 10
14.928737919
 20
24.2709674269
 30
0.0
 10
14.933354581
 20
24.2744956068
 30
0.0
 10
14.9396879263
 20
24.2790401275
 30
0.0
 10
14.9446030197
 20
24.2822362018
 30
0.0
 10
14.9479485252
 20
24.2842661489
 30
0.0
 11
14.9115510774
 21
24.2556870411
 31
0.0
 11
14.9198950891
 21
24.2635302284
 31
0.0
 11
14.9242589881
 21
24.2672923583
 31
0.0
 11
14.9287493856
 21
24.27093992
 31
0.0
 11
14.9333652634
 21
24.2744671303
 31
0.0
 11
14.938105539
 21
24.277868223
 31
0.0
 11
14.9479485252
 21
24.2842661489
 31
0.0
  0
SPLINE
  5
476
100
AcDbEntity
  8
0
100
AcDbSpline
 62
6
  6
CONTINUOUS
 70
0
 71
3
 72
13
 73
9
 74
7
 42
0.0000001
 43
0.0000001
 44
0.0000000001
 12
0.0327502664
 22
0.0337442437
 32
0.0
 13
0.0398132779
 23
0.0250231261
 33
0.0
 40
0.0
 40
0.0
 40
0.0
 40
0.0
 40
0.2476578467
 40
0.3720757591
 40
0.4968733028
 40
0.6220619043
 40
0.7476586866
 40
1.0
 40
1.0
 40
1.0
 40
1.0
 10
14.9115510774
 20
24.2413442972
 30
0.0
 10
14.9142546976
 20
24.2441299728
 30
0.0
 10
14.9184351901
 20
24.2482025729
 30
0.0
 10
14.924244601
 20
24.2533910883
 30
0.0
 10
14.9287355849
 20
24.2571703522
 30
0.0
 10
14.9333521853
 20
24.2608250322
 30
0.0
 10
14.9396822177
 20
24.2655300993
 30
0.0
 10
14.9445996803
 20
24.268842752
 30
0.0
 10
14.9479485252
 20
24.2709475415
 30
0.0
 11
14.9115510774
 21
24.2413442972
 31
0.0
 11
14.9198950891
 21
24.2494685462
 31
0.0
 11
14.9242589881
 21
24.2533654926
 31
0.0
 11
14.9287493856
 21
24.2571437652
 31
0.0
 11
14.9333652634
 21
24.2607973736
 31
0.0
 11
14.938105539
 21
24.264320345
 31
0.0
 11
14.9479485252
 21
24.2709475415
 31
0.0
  0
SPLINE
  5
477
100
AcDbEntity
  8
0
100
AcDbSpline
 62
6
  6
CONTINUOUS
 70
0
 71
3
 72
13
 73
9
 74
7
 42
0.0000001
 43
0.0000001
 44
0.0000000001
 12
0.0325444002
 22
0.035398445
 32
0.0
 13
0.0400679011
 23
0.0265847924
 33
0.0
 40
0.0
 40
0.0
 40
0.0
 40
0.0
 40
0.2488433076
 40
0.3735651061
 40
0.498468813
 40
0.6235631076
 40
0.7488631019
 40
1.0
 40
1.0
 40
1.0
 40
1.0
 10
14.9115510774
 20
24.2035678017
 30
0.0
 10
14.9142505628
 20
24.2065040237
 30
0.0
 10
14.9184273572
 20
24.2108002459
 30
0.0
 10
14.9242410825
 20
24.2162818666
 30
0.0
 10
14.9287319314
 20
24.2202715467
 30
0.0
 10
14.9333484155
 20
24.2241297323
 30
0.0
 10
14.939673186
 20
24.2290928005
 30
0.0
 10
14.9445943491
 20
24.2325932154
 30
0.0
 10
14.9479485252
 20
24.2348186895
 30
0.0
 11
14.9115510774
 21
24.2035678017
 31
0.0
 11
14.9198950891
 21
24.2121442264
 31
0.0
 11
14.9242589881
 21
24.2162580672
 31
0.0
 11
14.9287493856
 21
24.2202466291
 31
0.0
 11
14.9333652634
 21
24.2241035884
 31
0.0
 11
14.938105539
 21
24.2278226396
 31
0.0
 11
14.9479485252
 21
24.2348186895
 31
0.0
  0
SPLINE
  5
478
100
AcDbEntity
  8
0
100
AcDbSpline
 62
9
  6
CONTINUOUS
 70
0
 71
3
 72
67
 73
63
 74
61
 42
0.0000001
 43
0.0000001
 44
0.0000000001
 12
0.667152071
 22
0.7676977753
 32
0.0
 13
0.6339925216
 23
-0.795301982
 33
0.0
 40
0.0
 40
0.0
 40
0.0
 40
0.0
 40
0.0156231707
 40
0.0312462789
 40
0.0468693305
 40
0.0624923348
 40
0.0781152949
 40
0.093738225
 40
0.1093611389
 40
0.124984054
 40
0.1406069806
 40
0.1562299219
 40
0.1718528501
 40
0.1874757376
 40
0.2030985837
 40
0.2187214017
 40
0.2343442807
 40
0.2499673403
 40
0.2655906748
 40
0.2812143498
 40
0.2968383991
 40
0.3124627644
 40
0.3280873752
 40
0.343712176
 40
0.359337104
 40
0.3749620991
 40
0.3905871485
 40
0.4062122612
 40
0.4218374481
 40
0.4374627321
 40
0.4530881238
 40
0.4687136321
 40
0.4843392637
 40
0.499964989
 40
0.5155907705
 40
0.5312165885
 40
0.5468424237
 40
0.5624682454
 40
0.5780940377
 40
0.5937198101
 40
0.609345564
 40
0.6249713063
 40
0.640597059
 40
0.6562228304
 40
0.6718486284
 40
0.6874744804
 40
0.7187234982
 40
0.7499729687
 40
0.765599342
 40
0.7812258229
 40
0.7968524365
 40
0.8124792011
 40
0.828106133
 40
0.8437332314
 40
0.8593603737
 40
0.874987395
 40
0.890614147
 40
0.906240809
 40
0.9218679073
 40
0.9374959788
 40
0.9687520236
 40
1.0
 40
1.0
 40
1.0
 40
1.0
 10
18.239031162
 20
23.937610079
 30
0.0
 10
18.2425055056
 20
23.9416080368
 30
0.0
 10
18.2495640979
 20
23.949509172
 30
0.0
 10
18.2604721725
 20
23.9610661857
 30
0.0
 10
18.2716927552
 20
23.9723201328
 30
0.0
 10
18.2832172333
 20
23.9832625518
 30
0.0
 10
18.2950370376
 20
23.993885233
 30
0.0
 10
18.3071433027
 20
24.0041802026
 30
0.0
 10
18.3195269198
 20
24.0141398029
 30
0.0
 10
18.3321786807
 20
24.023756481
 30
0.0
 10
18.3450890096
 20
24.033023156
 30
0.0
 10
18.3582483308
 20
24.0419327159
 30
0.0
 10
18.3716466373
 20
24.0504786481
 30
0.0
 10
18.3852739802
 20
24.0586543484
 30
0.0
 10
18.3991200279
 20
24.0664538557
 30
0.0
 10
18.4131745072
 20
24.0738711928
 30
0.0
 10
18.4274268802
 20
24.0809009455
 30
0.0
 10
18.4418666002
 20
24.087537785
 30
0.0
 10
18.4564829026
 20
24.0937768071
 30
0.0
 10
18.4712648828
 20
24.0996133706
 30
0.0
 10
18.4862015395
 20
24.1050428993
 30
0.0
 10
18.5012815422
 20
24.1100615717
 30
0.0
 10
18.5164936085
 20
24.1146653506
 30
0.0
 10
18.5318262658
 20
24.1188507236
 30
0.0
 10
18.5472678843
 20
24.1226148023
 30
0.0
 10
18.5628069105
 20
24.1259544578
 30
0.0
 10
18.5784316533
 20
24.1288671805
 30
0.0
 10
18.5941303459
 20
24.1313510601
 30
0.0
 10
18.6098912747
 20
24.133403948
 30
0.0
 10
18.6257026207
 20
24.1350242834
 30
0.0
 10
18.6415525089
 20
24.1362111466
 30
0.0
 10
18.6574290821
 20
24.1369633896
 30
0.0
 10
18.6733204173
 20
24.1372803214
 30
0.0
 10
18.6892145633
 20
24.1371620587
 30
0.0
 10
18.7050995755
 20
24.1366085423
 30
0.0
 10
18.7209634874
 20
24.1356198805
 30
0.0
 10
18.7367943902
 20
24.1341972091
 30
0.0
 10
18.7525803979
 20
24.132341604
 30
0.0
 10
18.7683096013
 20
24.1300540687
 30
0.0
 10
18.7839702267
 20
24.1273366033
 30
0.0
 10
18.7995505678
 20
24.1241913991
 30
0.0
 10
18.8150388724
 20
24.1206204679
 30
0.0
 10
18.8304235471
 20
24.116626565
 30
0.0
 10
18.8456931023
 20
24.1122129724
 30
0.0
 10
18.8608361634
 20
24.1073826971
 30
0.0
 10
18.8808415063
 20
24.1003919707
 30
0.0
 10
18.9054784279
 20
24.090630255
 30
0.0
 10
18.9295436142
 20
24.079533177
 30
0.0
 10
18.9484077084
 20
24.0698763782
 30
0.0
 10
18.9623531765
 20
24.062248151
 30
0.0
 10
18.9760844292
 20
24.0542407057
 30
0.0
 10
18.989591457
 20
24.0458602248
 30
0.0
 10
19.0028640134
 20
24.0371128472
 30
0.0
 10
19.015891893
 20
24.0280048378
 30
0.0
 10
19.0286654949
 20
24.0185434739
 30
0.0
 10
19.0411751876
 20
24.0087360189
 30
0.0
 10
19.0534113393
 20
23.9985895751
 30
0.0
 10
19.0653648168
 20
23.988111597
 30
0.0
 10
19.0770272974
 20
23.9773098611
 30
0.0
 10
19.0921772495
 20
23.9624870176
 30
0.0
 10
19.1103430615
 20
23.9431895334
 30
0.0
 10
19.1240097072
 20
23.9269790448
 30
0.0
 10
19.1306133683
 20
23.9186951856
 30
0.0
 11
18.239031162
 21
23.937610079
 31
0.0
 11
18.24961748
 21
23.9494600764
 31
0.0
 11
18.2605242771
 21
23.9610156951
 31
0.0
 11
18.271743422
 21
23.9722682285
 31
0.0
 11
18.2832664704
 21
23.983209277
 31
0.0
 11
18.2950847926
 21
23.9938306245
 31
0.0
 11
18.3071895342
 21
24.0041243128
 31
0.0
 11
18.3195716103
 21
24.0140826491
 31
0.0
 11
18.3322217709
 21
24.0236981439
 31
0.0
 11
18.3451305037
 21
24.0329636335
 31
0.0
 11
18.3582881673
 21
24.0418721149
 31
0.0
 11
18.3716848263
 21
24.0504169528
 31
0.0
 11
18.3853104485
 21
24.0585916598
 31
0.0
 11
18.3991547752
 21
24.0663901655
 31
0.0
 11
18.4132074602
 21
24.0738065807
 31
0.0
 11
18.427458023
 21
24.0808354213
 31
0.0
 11
18.4418959042
 21
24.0874714262
 31
0.0
 11
18.456510357
 21
24.0937096656
 31
0.0
 11
18.4712904891
 21
24.0995454658
 31
0.0
 11
18.4862252794
 21
24.1049743706
 31
0.0
 11
18.5013034331
 21
24.1099923846
 31
0.0
 11
18.5165136145
 21
24.1145955896
 31
0.0
 11
18.5318443632
 21
24.1187804916
 31
0.0
 11
18.5472840831
 21
24.1225440568
 31
0.0
 11
18.5628211683
 21
24.1258832966
 31
0.0
 11
18.5784439464
 21
24.1287957012
 31
0.0
 11
18.5941406806
 21
24.1312792227
 31
0.0
 11
18.6098996292
 21
24.1333318503
 31
0.0
 11
18.62570899
 21
24.1349520332
 31
0.0
 11
18.6415568973
 21
24.1361387063
 31
0.0
 11
18.6574314818
 21
24.1368908357
 31
0.0
 11
18.6733208386
 21
24.1372077887
 31
0.0
 11
18.6892130114
 21
24.137089517
 31
0.0
 11
18.7050960402
 21
24.1365360189
 31
0.0
 11
18.7209579778
 21
24.1355475462
 31
0.0
 11
18.7367869137
 21
24.1341250528
 31
0.0
 11
18.7525709439
 21
24.1322696139
 31
0.0
 11
18.7682981821
 21
24.129982412
 31
0.0
 11
18.7839568549
 21
24.1272653118
 31
0.0
 11
18.7995352333
 21
24.1241204436
 31
0.0
 11
18.8150215964
 21
24.1205499737
 31
0.0
 11
18.8304043514
 21
24.1165566192
 31
0.0
 11
18.845672006
 21
24.1121435296
 31
0.0
 11
18.8608130728
 21
24.1073138721
 31
0.0
 11
18.8758161896
 21
24.1020711886
 31
0.0
 11
18.9053639095
 21
24.090363262
 31
0.0
 11
18.9342264837
 21
24.077054454
 31
0.0
 11
18.9483737721
 21
24.0698121943
 31
0.0
 11
18.9623174156
 21
24.062184981
 31
0.0
 11
18.9760469927
 21
24.0541785727
 31
0.0
 11
18.9895523076
 21
24.0457991207
 31
0.0
 11
19.0028231695
 21
24.0370527855
 31
0.0
 11
19.0158494971
 21
24.0279459568
 31
0.0
 11
19.0286215581
 21
24.0184857551
 31
0.0
 11
19.0411296896
 21
24.0086794464
 31
0.0
 11
19.0533642472
 21
23.9985343029
 31
0.0
 11
19.0653161526
 21
23.9880577869
 31
0.0
 11
19.0769769909
 21
23.9772575839
 31
0.0
 11
19.0883383849
 21
23.9661413917
 31
0.0
 11
19.1101284766
 21
23.9429942634
 31
0.0
 11
19.1306133683
 21
23.9186951856
 31
0.0
  0
ENDSEC
  0
SECTION
  2
OBJECTS
  0
DICTIONARY
  5
C
100
AcDbDictionary
280
0
281
1
  3
ACAD_GROUP
350
D
  3
ACAD_MLINESTYLE
350
17
  3
ACAD_LAYOUT
350
1A
  3
ACAD_PLOTSETTINGS
350
19
  3
ACAD_PLOTSTYLENAME
350
E
  0
DICTIONARY
  5
D
102
{ACAD_REACTORS
330
C
102
}
100
AcDbDictionary
280
0
281
1
  0
ACDBDICTIONARYWDFLT
  5
E
102
{ACAD_REACTORS
330
C
102
}
100
AcDbDictionary
281
1
  3
Normal
350
F
100
AcDbDictionaryWithDefault
340
F
  0
DICTIONARY
  5
17
102
{ACAD_REACTORS
330
C
102
}
100
AcDbDictionary
280
0
281
1
  3
Standard
350
18
  0
DICTIONARY
  5
19
102
{ACAD_REACTORS
330
C
102
}
100
AcDbDictionary
281
1
  0
DICTIONARY
  5
1A
102
{ACAD_REACTORS
330
C
102
}
100
AcDbDictionary
281
1
  3
Model
350
479
  3
Layout1
350
47A
  0
ACDBPLACEHOLDER
  5
F
102
{ACAD_REACTORS
330
E
102
}
  0
MLINESTYLE
  5
18
102
{ACAD_REACTORS
330
17
102
}
100
AcDbMlineStyle
  2
STANDARD
 70
0
  3

 62
256
 51
90.0
 52
90.0
 71
2
 49
0.5
 62
256
  6
BYLAYER
 49
-0.5
 62
256
  6
BYLAYER
  0
LAYOUT
  5
479
102
{ACAD_REACTORS
330
1A
102
}
100
AcDbPlotSettings
  1

  2
none_device
  4

  6

 40
0.0
 41
0.0
 42
0.0
 43
0.0
 44
841.0
 45
1189.0
 46
0.0
 47
0.0
 48
0.0
 49
0.0
140
0.0
141
0.0
142
1.0
143
1.0
 70
1024
 72
0
 73
0
 74
0
  7

 75
0
147
1.0
148
0.0
149
0.0
100
AcDbLayout
  1
Model
 70
0
 71
0
 10
0.0
 20
0.0
 11
33.1102362205
 21
46.811023622
 12
0.0
 22
0.0
 32
0.0
 14
0.0
 24
0.0
 34
0.0
 15
0.0
 25
0.0
 35
0.0
146
0.0
 13
0.0
 23
0.0
 33
0.0
 16
1.0
 26
0.0
 36
0.0
 17
0.0
 27
1.0
 37
0.0
 76
0
330
203
345
0
346
0
  0
LAYOUT
  5
47A
102
{ACAD_REACTORS
330
1A
102
}
100
AcDbPlotSettings
  1

  2
none_device
  4

  6

 40
0.0
 41
0.0
 42
0.0
 43
0.0
 44
841.0
 45
1189.0
 46
0.0
 47
0.0
 48
0.0
 49
0.0
140
0.0
141
0.0
142
1.0
143
1.0
 70
0
 72
0
 73
0
 74
0
  7

 75
0
147
1.0
148
0.0
149
0.0
100
AcDbLayout
  1
Layout1
 70
0
 71
1
 10
0.0
 20
0.0
 11
33.1102362205
 21
46.811023622
 12
0.0
 22
0.0
 32
0.0
 14
0.0
 24
0.0
 34
0.0
 15
0.0
 25
0.0
 35
0.0
146
0.0
 13
0.0
 23
0.0
 33
0.0
 16
1.0
 26
0.0
 36
0.0
 17
0.0
 27
1.0
 37
0.0
 76
0
330
204
345
0
346
0
  0
ENDSEC
  0
EOF
