999
DXF file: 2940-4261_TOP.dxf
999
Pro/ENGINEER 2023134 by Parametric Technology Corporation
  0
SECTION
  2
HEADER
  9
$ACADVER
  1
AC1032
  9
$DWGCODEPAGE
  3
ANSI_1252
  9
$EXTMAX
 10
11.0
 20
8.5
 30
0.0
  9
$EXTMIN
 10
0.0
 20
0.0
 30
0.0
  9
$LIMMIN
 10
0.0
 20
0.0
  9
$LIMMAX
 10
11.0
 20
8.5
  9
$VIEWCTR
 10
5.5
 20
4.25
  9
$VIEWSIZE
 40
8.5
  9
$CLAYER
  8
0
  9
$LTSCALE
 40
0.605
  9
$CELTYPE
  6
BYLAYER
  9
$DIMSCALE
 40
1.0
  9
$DIMASZ
 40
0.1
  9
$DIMEXO
 40
0.0625
  9
$DIMDLI
 40
0.418
  9
$DIMEXE
 40
0.125
  9
$DIMCEN
 40
0.099
  9
$DIMLFAC
 40
1.0
  9
$DIMBLK
  1
_FILLED
  9
$DIMALT
 70
1
  9
$DIMALTD
 70
2
  9
$DIMALTTD
 70
2
  9
$DIMALTF
 40
25.4
  9
$DIMTXT
 40
0.08
  9
$DIMTOL
 70
1
  9
$DIMLIM
 70
0
  9
$DIMTFAC
 40
1.0
  9
$DIMTP
 40
0.001
  9
$DIMTM
 40
0.001
  9
$DIMGAP
 40
0.09
  9
$DIMDSEP
 70
46
  9
$AUNITS
 70
0
  9
$PDMODE
 70
3
  9
$PDSIZE
 40
0.3125
  9
$HANDSEED
  5
3A1
  9
$TILEMODE
 70
1
  9
$MEASUREMENT
 70
0
  9
$INSUNITS
 70
1
  0
ENDSEC
  0
SECTION
  2
CLASSES
  0
CLASS
  1
ACDBDICTIONARYWDFLT
  2
AcDbDictionaryWithDefault
  3
AutoCAD 2000
 90
0
 91
1
280
0
281
0
  0
CLASS
  1
ACDBPLACEHOLDER
  2
AcDbPlaceHolder
  3
AutoCAD 2000
 90
0
 91
1
280
0
281
0
  0
CLASS
  1
LAYOUT
  2
AcDbLayout
  3
AutoCAD 2000
 90
0
 91
0
280
0
281
0
  0
ENDSEC
  0
SECTION
  2
TABLES
  0
TABLE
  2
VPORT
  5
8
100
AcDbSymbolTable
 70
2
  0
VPORT
  5
1F4
100
AcDbSymbolTableRecord
100
AcDbViewportTableRecord
  2
*ACTIVE
 70
0
 10
0.0
 20
0.0
 11
1.0
 21
1.0
 12
5.5
 22
4.25
 13
0.0
 23
0.0
 14
1.0
 24
1.0
 15
0.0
 25
0.0
 16
0.0
 26
0.0
 36
1.0
 17
0.0
 27
0.0
 37
0.0
 40
8.5
 41
1.2941176471
 42
50.0
 43
0.0
 44
0.0
 50
0.0
 51
0.0
 71
0
 72
100
 73
1
 74
1
 75
0
 76
0
 77
0
 78
0
  0
ENDTAB
  0
TABLE
  2
LTYPE
  5
5
100
AcDbSymbolTable
 70
6
  0
LTYPE
  5
14
100
AcDbSymbolTableRecord
100
AcDbLinetypeTableRecord
  2
BYBLOCK
 70
0
  3

 72
65
 73
0
 40
0.0
  0
LTYPE
  5
15
100
AcDbSymbolTableRecord
100
AcDbLinetypeTableRecord
  2
BYLAYER
 70
0
  3

 72
65
 73
0
 40
0.0
  0
LTYPE
  5
16
100
AcDbSymbolTableRecord
100
AcDbLinetypeTableRecord
  2
CONTINUOUS
 70
64
  3
Solid line
 72
65
 73
0
 40
0.0
  0
LTYPE
  5
1F5
100
AcDbSymbolTableRecord
100
AcDbLinetypeTableRecord
  2
CENTER
 70
64
  3
____ _ ____ _ ____ _ ____ _ ____ _ ____ _ ____
 72
65
 73
4
 40
0.6
 49
0.375
 74
0
 49
-0.075
 74
0
 49
0.075
 74
0
 49
-0.075
 74
0
  0
LTYPE
  5
1F6
100
AcDbSymbolTableRecord
100
AcDbLinetypeTableRecord
  2
HIDDEN
 70
64
  3
- - - - - - - - - - - - - - - - - - - -
 72
65
 73
2
 40
0.2
 49
0.1
 74
0
 49
-0.1
 74
0
  0
LTYPE
  5
1F7
100
AcDbSymbolTableRecord
100
AcDbLinetypeTableRecord
  2
PHANTOM
 70
64
  3
_____ _ _ _____ _ _ _____ _ _ _____
 72
65
 73
6
 40
0.8
 49
0.45
 74
0
 49
-0.05
 74
0
 49
0.1
 74
0
 49
-0.05
 74
0
 49
0.1
 74
0
 49
-0.05
 74
0
  0
LTYPE
  5
1F8
100
AcDbSymbolTableRecord
100
AcDbLinetypeTableRecord
  2
DOT
 70
64
  3
. . . . . . . . . . . . . . . . . . . .
 72
65
 73
2
 40
0.2
 49
0.1
 74
0
 49
-0.1
 74
0
  0
LTYPE
  5
1F9
100
AcDbSymbolTableRecord
100
AcDbLinetypeTableRecord
  2
DASHED
 70
64
  3
- - - - - - - - - - - - - - - - - - - -
 72
65
 73
2
 40
0.2
 49
0.1
 74
0
 49
-0.1
 74
0
  0
ENDTAB
  0
TABLE
  2
LAYER
  5
2
100
AcDbSymbolTable
 70
36
  0
LAYER
  5
10
100
AcDbSymbolTableRecord
100
AcDbLayerTableRecord
  2
0
 70
0
 62
7
  6
CONTINUOUS
370
-3
390
F
  0
LAYER
  5
1FA
100
AcDbSymbolTableRecord
100
AcDbLayerTableRecord
  2
DEFAULT_1
 70
0
 62
7
  6
CENTER
370
-3
390
F
  0
LAYER
  5
1FB
100
AcDbSymbolTableRecord
100
AcDbLayerTableRecord
  2
DEFAULT_2
 70
0
 62
8
  6
HIDDEN
370
-3
390
F
  0
LAYER
  5
1FC
100
AcDbSymbolTableRecord
100
AcDbLayerTableRecord
  2
DEFAULT_3
 70
0
 62
7
  6
PHANTOM
370
-3
390
F
  0
LAYER
  5
1FD
100
AcDbSymbolTableRecord
100
AcDbLayerTableRecord
  2
DEFAULT_COORDINATE_SYSTEM
 70
0
 62
7
  6
CONTINUOUS
370
-3
390
F
  0
LAYER
  5
1FE
100
AcDbSymbolTableRecord
100
AcDbLayerTableRecord
  2
DEFAULT_DATUM_AXES
 70
0
 62
7
  6
CONTINUOUS
370
-3
390
F
  0
LAYER
  5
1FF
100
AcDbSymbolTableRecord
100
AcDbLayerTableRecord
  2
DEFAULT_DATUM_PLANES
 70
0
 62
7
  6
CONTINUOUS
370
-3
390
F
  0
ENDTAB
  0
TABLE
  2
STYLE
  5
3
100
AcDbSymbolTable
 70
1
  0
STYLE
  5
11
100
AcDbSymbolTableRecord
100
AcDbTextStyleTableRecord
  2
STANDARD
 70
0
 40
0.0
 41
0.8
 50
0.0
 71
0
 42
0.2
  3
txt
  4

  0
STYLE
  5
200
100
AcDbSymbolTableRecord
100
AcDbTextStyleTableRecord
  2
TEXTSTYLE_1
 70
0
 40
0.0
 41
0.8
 50
0.0
 71
0
 42
0.2
  3
gdt
  4

  0
ENDTAB
  0
TABLE
  2
VIEW
  5
6
100
AcDbSymbolTable
 70
0
  0
ENDTAB
  0
TABLE
  2
UCS
  5
7
100
AcDbSymbolTable
 70
0
  0
ENDTAB
  0
TABLE
  2
APPID
  5
9
100
AcDbSymbolTable
 70
1
  0
APPID
  5
201
100
AcDbSymbolTableRecord
100
AcDbRegAppTableRecord
  2
ACAD
 70
0
  0
ENDTAB
  0
TABLE
  2
BLOCK_RECORD
  5
1
100
AcDbSymbolTable
 70
0
  0
BLOCK_RECORD
  5
202
100
AcDbSymbolTableRecord
100
AcDbBlockTableRecord
  2
*Model_Space
  0
BLOCK_RECORD
  5
203
100
AcDbSymbolTableRecord
100
AcDbBlockTableRecord
  2
*Paper_Space
  0
BLOCK_RECORD
  5
204
100
AcDbSymbolTableRecord
100
AcDbBlockTableRecord
  2
_FILLED
  0
ENDTAB
  0
TABLE
  2
DIMSTYLE
  5
A
100
AcDbSymbolTable
 70
1
100
AcDbDimStyleTable
 71
0
  0
DIMSTYLE
105
205
100
AcDbSymbolTableRecord
100
AcDbDimStyleTableRecord
  2
STANDARD
 70
0
  3

  4

 40
1.0
 41
0.1
 42
0.0625
 43
0.38
 44
0.125
 45
0.0
 46
0.0
 47
0.001
 48
0.001
140
0.08
141
0.09
142
0.0
143
25.4
144
1.0
145
0.0
146
1.0
147
0.09
 71
1
 72
0
 73
1
 74
1
 75
0
 76
0
 77
0
 78
4
 79
1
170
1
171
2
172
0
173
0
174
0
175
0
176
0
177
0
178
0
270
2
179
3
271
3
272
3
273
2
274
2
275
0
280
0
281
0
282
0
283
1
284
4
285
0
286
0
287
3
288
0
340
11
278
46
341
204
342
204
343
204
344
204
  0
ENDTAB
  0
ENDSEC
  0
SECTION
  2
BLOCKS
  0
BLOCK
  5
20
100
AcDbEntity
  8
0
100
AcDbBlockBegin
  2
*Model_Space
 70
0
 10
0.0
 20
0.0
 30
0.0
  3
*Model_Space
  1

  0
ENDBLK
  5
21
100
AcDbEntity
  8
0
100
AcDbBlockEnd
  0
BLOCK
  5
1C
100
AcDbEntity
  8
0
100
AcDbBlockBegin
  2
*Paper_Space
 70
0
 10
0.0
 20
0.0
 30
0.0
  3
*Paper_Space
  1

  0
ENDBLK
  5
1D
100
AcDbEntity
  8
0
100
AcDbBlockEnd
  0
BLOCK
  5
206
100
AcDbEntity
  8
0
100
AcDbBlockBegin
  2
_FILLED
 70
64
 10
0.0
 20
0.0
  3
_FILLED
  1

  0
SOLID
  5
207
100
AcDbEntity
  8
0
  6
BYBLOCK
 62
0
100
AcDbTrace
 10
0.0
 20
0.0
 11
-1.0
 21
0.2
 12
-1.0
 22
-0.2
 13
-1.0
 23
-0.2
  0
ENDBLK
  5
208
100
AcDbEntity
  8
0
  6
BYBLOCK
 62
0
100
AcDbBlockEnd
  0
ENDSEC
  0
SECTION
  2
ENTITIES
  0
LINE
  5
209
100
AcDbEntity
  8
0
100
AcDbLine
 62
7
  6
CONTINUOUS
 10
0.0
 20
0.0
 11
0.0
 21
8.5
  0
LINE
  5
20A
100
AcDbEntity
  8
0
100
AcDbLine
 62
7
  6
CONTINUOUS
 10
0.0
 20
0.0
 11
11.0
 21
0.0
  0
LINE
  5
20B
100
AcDbEntity
  8
0
100
AcDbLine
 62
7
  6
CONTINUOUS
 10
0.0
 20
8.5
 11
11.0
 21
8.5
  0
LINE
  5
20C
100
AcDbEntity
  8
0
100
AcDbLine
 62
7
  6
CONTINUOUS
 10
11.0
 20
0.0
 11
11.0
 21
8.5
  0
LINE
  5
20D
100
AcDbEntity
  8
0
100
AcDbLine
 62
7
  6
CONTINUOUS
 10
4.5782711577
 20
4.7112427585
 11
4.6466072146
 21
4.8322562383
  0
LINE
  5
20E
100
AcDbEntity
  8
0
100
AcDbLine
 62
7
  6
CONTINUOUS
 10
4.5207592001
 20
4.6623892528
 11
4.5207592006
 21
4.6199831822
  0
LINE
  5
20F
100
AcDbEntity
  8
0
100
AcDbLine
 62
7
  6
CONTINUOUS
 10
4.6762796284
 20
4.8705780272
 11
4.6762796284
 21
4.8739244839
  0
LINE
  5
210
100
AcDbEntity
  8
0
100
AcDbLine
 62
7
  6
CONTINUOUS
 10
5.0095092001
 20
4.6623892591
 11
5.0095092006
 21
4.6199831885
  0
LINE
  5
211
100
AcDbEntity
  8
0
100
AcDbLine
 62
7
  6
CONTINUOUS
 10
4.9519972412
 20
4.7112427633
 11
4.8836611811
 21
4.8322562413
  0
LINE
  5
212
100
AcDbEntity
  8
0
100
AcDbLine
 62
7
  6
CONTINUOUS
 10
5.3407266163
 20
3.3479402319
 11
5.3407245878
 21
4.8203806534
  0
LINE
  5
213
100
AcDbEntity
  8
0
100
AcDbLine
 62
7
  6
CONTINUOUS
 10
5.528126483
 20
4.8203806534
 11
5.5281244569
 21
3.3479402319
  0
LINE
  5
214
100
AcDbEntity
  8
0
100
AcDbLine
 62
7
  6
CONTINUOUS
 10
4.6762796338
 20
4.8739244929
 11
4.6734133576
 21
4.8756516967
  0
LWPOLYLINE
  5
215
100
AcDbEntity
  8
0
100
AcDbPolyline
 62
7
  6
CONTINUOUS
 90
26
 70
0
 10
6.0503303626
 20
4.7190550749
 10
6.05081354
 20
4.719104968
 10
6.0513384607
 20
4.7191804828
 10
6.0518487808
 20
4.719276738
 10
6.0523463726
 20
4.7193939437
 10
6.0528312367
 20
4.7195320714
 10
6.0533031566
 20
4.7196910061
 10
6.0537631391
 20
4.7198711146
 10
6.0542107606
 20
4.7200723625
 10
6.0546454644
 20
4.7202946252
 10
6.0550676631
 20
4.7205383248
 10
6.055476692
 20
4.720803373
 10
6.0558717813
 20
4.7210895623
 10
6.0562529518
 20
4.7213972906
 10
6.0566195014
 20
4.7217264967
 10
6.0569705251
 20
4.7220768823
 10
6.0573056807
 20
4.7224486649
 10
6.0576243436
 20
4.7228418264
 10
6.0579257062
 20
4.7232560911
 10
6.0582092722
 20
4.72369156
 10
6.0584745146
 20
4.7241483092
 10
6.058720932
 20
4.7246264112
 10
6.0589482617
 20
4.7251264523
 10
6.0591562051
 20
4.7256491447
 10
6.0593443416
 20
4.7261950483
 10
6.0594584139
 20
4.7265716457
  0
LINE
  5
216
100
AcDbEntity
  8
0
100
AcDbLine
 62
7
  6
CONTINUOUS
 10
6.050330454
 20
4.7190550825
 11
6.0503321618
 21
4.7190552272
  0
LINE
  5
217
100
AcDbEntity
  8
0
100
AcDbLine
 62
7
  6
CONTINUOUS
 10
5.7978559917
 20
4.6179126115
 11
5.7687874264
 21
4.6179126115
  0
LINE
  5
218
100
AcDbEntity
  8
0
100
AcDbLine
 62
7
  6
CONTINUOUS
 10
5.8392748161
 20
4.6315126115
 11
5.7993874264
 21
4.6315126115
  0
LINE
  5
219
100
AcDbEntity
  8
0
100
AcDbLine
 62
7
  6
CONTINUOUS
 10
5.5321964795
 20
4.6530583422
 11
5.7687874264
 21
4.6530583422
  0
LINE
  5
21A
100
AcDbEntity
  8
0
100
AcDbLine
 62
7
  6
CONTINUOUS
 10
5.9598725854
 20
4.6560281613
 11
5.9289680608
 21
4.6560281613
  0
LINE
  5
21B
100
AcDbEntity
  8
0
100
AcDbLine
 62
7
  6
CONTINUOUS
 10
5.9598725854
 20
4.6561949106
 11
5.9289680608
 21
4.6561949106
  0
LINE
  5
21C
100
AcDbEntity
  8
0
100
AcDbLine
 62
7
  6
CONTINUOUS
 10
5.9598725854
 20
4.6566621234
 11
5.9289680608
 21
4.6566621234
  0
LINE
  5
21D
100
AcDbEntity
  8
0
100
AcDbLine
 62
7
  6
CONTINUOUS
 10
5.9598725854
 20
4.6571615589
 11
5.9289680608
 21
4.6571615589
  0
LINE
  5
21E
100
AcDbEntity
  8
0
100
AcDbLine
 62
7
  6
CONTINUOUS
 10
5.9598725854
 20
4.6580937082
 11
5.9289680608
 21
4.6580937082
  0
LINE
  5
21F
100
AcDbEntity
  8
0
100
AcDbLine
 62
7
  6
CONTINUOUS
 10
5.9598725854
 20
4.6589233967
 11
5.9289680608
 21
4.6589233967
  0
LINE
  5
220
100
AcDbEntity
  8
0
100
AcDbLine
 62
7
  6
CONTINUOUS
 10
5.9598725854
 20
4.6603159413
 11
5.9289680608
 21
4.6603159413
  0
LINE
  5
221
100
AcDbEntity
  8
0
100
AcDbLine
 62
7
  6
CONTINUOUS
 10
5.9289680608
 20
4.6610940461
 11
5.8707874264
 21
4.6610940461
  0
LINE
  5
222
100
AcDbEntity
  8
0
100
AcDbLine
 62
7
  6
CONTINUOUS
 10
5.9598725854
 20
4.6614718406
 11
5.9289680608
 21
4.6614718406
  0
LINE
  5
223
100
AcDbEntity
  8
0
100
AcDbLine
 62
7
  6
CONTINUOUS
 10
5.9598725854
 20
4.6633179962
 11
5.9289680608
 21
4.6633179962
  0
LINE
  5
224
100
AcDbEntity
  8
0
100
AcDbLine
 62
7
  6
CONTINUOUS
 10
5.9598725854
 20
4.6647944749
 11
5.9289680608
 21
4.6647944749
  0
LINE
  5
225
100
AcDbEntity
  8
0
100
AcDbLine
 62
7
  6
CONTINUOUS
 10
5.9598725854
 20
4.667085247
 11
5.9289680608
 21
4.667085247
  0
LINE
  5
226
100
AcDbEntity
  8
0
100
AcDbLine
 62
7
  6
CONTINUOUS
 10
5.9598725854
 20
4.6688751119
 11
5.9289680608
 21
4.6688751119
  0
LINE
  5
227
100
AcDbEntity
  8
0
100
AcDbLine
 62
7
  6
CONTINUOUS
 10
5.9598725854
 20
4.6715993402
 11
5.9289680608
 21
4.6715993402
  0
LINE
  5
228
100
AcDbEntity
  8
0
100
AcDbLine
 62
7
  6
CONTINUOUS
 10
5.9598725854
 20
4.6560281613
 11
5.96005204
 21
4.6564024294
  0
LINE
  5
229
100
AcDbEntity
  8
0
100
AcDbLine
 62
7
  6
CONTINUOUS
 10
5.9598725854
 20
4.6736938712
 11
5.9289680608
 21
4.6736938712
  0
LINE
  5
22A
100
AcDbEntity
  8
0
100
AcDbLine
 62
7
  6
CONTINUOUS
 10
5.9598725854
 20
4.6768382836
 11
5.9289680608
 21
4.6768382836
  0
LINE
  5
22B
100
AcDbEntity
  8
0
100
AcDbLine
 62
7
  6
CONTINUOUS
 10
5.9598725854
 20
4.6792272763
 11
5.9289680608
 21
4.6792272763
  0
LINE
  5
22C
100
AcDbEntity
  8
0
100
AcDbLine
 62
7
  6
CONTINUOUS
 10
5.9598725854
 20
4.6827765535
 11
5.9289680608
 21
4.6827765535
  0
LINE
  5
22D
100
AcDbEntity
  8
0
100
AcDbLine
 62
7
  6
CONTINUOUS
 10
5.9598725854
 20
4.6854483691
 11
5.9289680608
 21
4.6854483691
  0
LINE
  5
22E
100
AcDbEntity
  8
0
100
AcDbLine
 62
7
  6
CONTINUOUS
 10
5.9598725854
 20
4.6893852193
 11
5.9289680608
 21
4.6893852193
  0
LINE
  5
22F
100
AcDbEntity
  8
0
100
AcDbLine
 62
7
  6
CONTINUOUS
 10
5.9598725854
 20
4.6923268409
 11
5.9289680608
 21
4.6923268409
  0
LINE
  5
230
100
AcDbEntity
  8
0
100
AcDbLine
 62
7
  6
CONTINUOUS
 10
5.9598725854
 20
4.6966320842
 11
5.9289680608
 21
4.6966320842
  0
LINE
  5
231
100
AcDbEntity
  8
0
100
AcDbLine
 62
7
  6
CONTINUOUS
 10
5.9598725854
 20
4.6998291806
 11
5.9289680608
 21
4.6998291806
  0
LINE
  5
232
100
AcDbEntity
  8
0
100
AcDbLine
 62
7
  6
CONTINUOUS
 10
5.9598725854
 20
4.7044818423
 11
5.9289680608
 21
4.7044818423
  0
LINE
  5
233
100
AcDbEntity
  8
0
100
AcDbLine
 62
7
  6
CONTINUOUS
 10
5.9598725854
 20
4.7079188375
 11
5.9289680608
 21
4.7079188375
  0
LINE
  5
234
100
AcDbEntity
  8
0
100
AcDbLine
 62
7
  6
CONTINUOUS
 10
5.9289680608
 20
4.7126483852
 11
5.9615273403
 21
4.7126483852
  0
LINE
  5
235
100
AcDbEntity
  8
0
100
AcDbLine
 62
7
  6
CONTINUOUS
 10
5.9598725854
 20
4.7128962503
 11
5.9289680608
 21
4.7128962503
  0
LINE
  5
236
100
AcDbEntity
  8
0
100
AcDbLine
 62
7
  6
CONTINUOUS
 10
5.9598725854
 20
4.7165563996
 11
5.9289680608
 21
4.7165563996
  0
LINE
  5
237
100
AcDbEntity
  8
0
100
AcDbLine
 62
7
  6
CONTINUOUS
 10
5.2686627138
 20
4.719987476
 11
4.9576494685
 21
4.719987476
  0
LINE
  5
238
100
AcDbEntity
  8
0
100
AcDbLine
 62
7
  6
CONTINUOUS
 10
5.9289680608
 20
4.7212571362
 11
5.9615273403
 21
4.7212571362
  0
LINE
  5
239
100
AcDbEntity
  8
0
100
AcDbLine
 62
7
  6
CONTINUOUS
 10
5.9598725854
 20
4.7218343141
 11
5.9289680608
 21
4.7218343141
  0
LINE
  5
23A
100
AcDbEntity
  8
0
100
AcDbLine
 62
7
  6
CONTINUOUS
 10
5.9598725854
 20
4.7256997855
 11
5.9289680608
 21
4.7256997855
  0
LINE
  5
23B
100
AcDbEntity
  8
0
100
AcDbLine
 62
7
  6
CONTINUOUS
 10
5.9289680608
 20
4.7303488095
 11
5.9615273403
 21
4.7303488095
  0
LINE
  5
23C
100
AcDbEntity
  8
0
100
AcDbLine
 62
7
  6
CONTINUOUS
 10
5.9598725854
 20
4.7312524882
 11
5.9289680608
 21
4.7312524882
  0
LINE
  5
23D
100
AcDbEntity
  8
0
100
AcDbLine
 62
7
  6
CONTINUOUS
 10
5.9598725854
 20
4.7353044497
 11
5.9289680608
 21
4.7353044497
  0
LINE
  5
23E
100
AcDbEntity
  8
0
100
AcDbLine
 62
7
  6
CONTINUOUS
 10
5.9289680608
 20
4.7398791115
 11
5.9615273403
 21
4.7398791115
  0
LINE
  5
23F
100
AcDbEntity
  8
0
100
AcDbLine
 62
7
  6
CONTINUOUS
 10
5.9598725854
 20
4.7411048884
 11
5.9289680608
 21
4.7411048884
  0
LINE
  5
240
100
AcDbEntity
  8
0
100
AcDbLine
 62
7
  6
CONTINUOUS
 10
5.9598725854
 20
4.7453235992
 11
5.9289680608
 21
4.7453235992
  0
LINE
  5
241
100
AcDbEntity
  8
0
100
AcDbLine
 62
7
  6
CONTINUOUS
 10
5.9289680608
 20
4.7498016114
 11
5.9615273403
 21
4.7498016114
  0
LINE
  5
242
100
AcDbEntity
  8
0
100
AcDbLine
 62
7
  6
CONTINUOUS
 10
5.9598725854
 20
4.7513435147
 11
5.9289680608
 21
4.7513435147
  0
LINE
  5
243
100
AcDbEntity
  8
0
100
AcDbLine
 62
7
  6
CONTINUOUS
 10
5.9598725854
 20
4.7557084216
 11
5.9289680608
 21
4.7557084216
  0
LINE
  5
244
100
AcDbEntity
  8
0
100
AcDbLine
 62
7
  6
CONTINUOUS
 10
5.9289680608
 20
4.7600679679
 11
5.9615273403
 21
4.7600679679
  0
LINE
  5
245
100
AcDbEntity
  8
0
100
AcDbLine
 62
7
  6
CONTINUOUS
 10
5.9598725854
 20
4.7619184855
 11
5.9289680608
 21
4.7619184855
  0
LINE
  5
246
100
AcDbEntity
  8
0
100
AcDbLine
 62
7
  6
CONTINUOUS
 10
5.9598725854
 20
4.7664083232
 11
5.9289680608
 21
4.7664083232
  0
LINE
  5
247
100
AcDbEntity
  8
0
100
AcDbLine
 62
7
  6
CONTINUOUS
 10
5.7687874264
 20
4.6179126115
 11
5.7687874264
 21
5.0228497422
  0
LINE
  5
248
100
AcDbEntity
  8
0
100
AcDbLine
 62
7
  6
CONTINUOUS
 10
5.7978559917
 20
4.6179126115
 11
5.7978559917
 21
5.0228497422
  0
LINE
  5
249
100
AcDbEntity
  8
0
100
AcDbLine
 62
7
  6
CONTINUOUS
 10
5.7993874264
 20
4.6315126115
 11
5.7993874264
 21
5.0092497422
  0
LINE
  5
24A
100
AcDbEntity
  8
0
100
AcDbLine
 62
7
  6
CONTINUOUS
 10
5.9600472295
 20
4.6565836666
 11
5.9598725854
 21
4.6561949106
  0
LINE
  5
24B
100
AcDbEntity
  8
0
100
AcDbLine
 62
7
  6
CONTINUOUS
 10
5.9600471977
 20
4.6565836747
 11
5.9598725854
 21
4.6561949106
  0
LINE
  5
24C
100
AcDbEntity
  8
0
100
AcDbLine
 62
7
  6
CONTINUOUS
 10
6.0705861186
 20
4.7698061768
 11
6.0596417853
 21
4.7698061768
  0
LINE
  5
24D
100
AcDbEntity
  8
0
100
AcDbLine
 62
7
  6
CONTINUOUS
 10
5.9289680608
 20
4.7706281643
 11
5.9615273403
 21
4.7706281643
  0
LINE
  5
24E
100
AcDbEntity
  8
0
100
AcDbLine
 62
7
  6
CONTINUOUS
 10
5.9598725854
 20
4.7727782807
 11
5.9289680608
 21
4.7727782807
  0
LINE
  5
24F
100
AcDbEntity
  8
0
100
AcDbLine
 62
7
  6
CONTINUOUS
 10
4.613501766
 20
4.7736311768
 11
4.3096944202
 21
4.7736311768
  0
LINE
  5
250
100
AcDbEntity
  8
0
100
AcDbLine
 62
7
  6
CONTINUOUS
 10
5.9598725854
 20
4.7773711751
 11
5.9289680608
 21
4.7773711751
  0
LINE
  5
251
100
AcDbEntity
  8
0
100
AcDbLine
 62
7
  6
CONTINUOUS
 10
5.9289680608
 20
4.7814307523
 11
5.9615273403
 21
4.7814307523
  0
LINE
  5
252
100
AcDbEntity
  8
0
100
AcDbLine
 62
7
  6
CONTINUOUS
 10
5.9598725854
 20
4.7838699924
 11
5.9289680608
 21
4.7838699924
  0
LINE
  5
253
100
AcDbEntity
  8
0
100
AcDbLine
 62
7
  6
CONTINUOUS
 10
6.0976794503
 20
4.7872311768
 11
6.105489235
 21
4.7872311768
  0
LINE
  5
254
100
AcDbEntity
  8
0
100
AcDbLine
 62
7
  6
CONTINUOUS
 10
5.9598725854
 20
4.7885435674
 11
5.9289680608
 21
4.7885435674
  0
LINE
  5
255
100
AcDbEntity
  8
0
100
AcDbLine
 62
7
  6
CONTINUOUS
 10
5.9289680608
 20
4.7924231029
 11
5.9615273403
 21
4.7924231029
  0
LINE
  5
256
100
AcDbEntity
  8
0
100
AcDbLine
 62
7
  6
CONTINUOUS
 10
5.9598725854
 20
4.7951395829
 11
5.9289680608
 21
4.7951395829
  0
LINE
  5
257
100
AcDbEntity
  8
0
100
AcDbLine
 62
7
  6
CONTINUOUS
 10
5.9598725854
 20
4.7998710694
 11
5.9289680608
 21
4.7998710694
  0
LINE
  5
258
100
AcDbEntity
  8
0
100
AcDbLine
 62
7
  6
CONTINUOUS
 10
5.9289680608
 20
4.8035516625
 11
5.9615273403
 21
4.8035516625
  0
LINE
  5
259
100
AcDbEntity
  8
0
100
AcDbLine
 62
7
  6
CONTINUOUS
 10
5.9598725854
 20
4.806532148
 11
5.9289680608
 21
4.806532148
  0
LINE
  5
25A
100
AcDbEntity
  8
0
100
AcDbLine
 62
7
  6
CONTINUOUS
 10
5.9598725854
 20
4.8112984945
 11
5.9289680608
 21
4.8112984945
  0
LINE
  5
25B
100
AcDbEntity
  8
0
100
AcDbLine
 62
7
  6
CONTINUOUS
 10
5.9289680608
 20
4.8147622137
 11
5.9615273403
 21
4.8147622137
  0
LINE
  5
25C
100
AcDbEntity
  8
0
100
AcDbLine
 62
7
  6
CONTINUOUS
 10
5.9598725854
 20
4.8179921841
 11
5.9289680608
 21
4.8179921841
  0
LINE
  5
25D
100
AcDbEntity
  8
0
100
AcDbLine
 62
7
  6
CONTINUOUS
 10
5.9598725854
 20
4.8227701696
 11
5.9289680608
 21
4.8227701696
  0
LINE
  5
25E
100
AcDbEntity
  8
0
100
AcDbLine
 62
7
  6
CONTINUOUS
 10
5.9289680608
 20
4.8260001399
 11
5.9615273403
 21
4.8260001399
  0
LINE
  5
25F
100
AcDbEntity
  8
0
100
AcDbLine
 62
7
  6
CONTINUOUS
 10
5.9598725854
 20
4.8294638591
 11
5.9289680608
 21
4.8294638591
  0
LINE
  5
260
100
AcDbEntity
  8
0
100
AcDbLine
 62
7
  6
CONTINUOUS
 10
5.9598725854
 20
4.8342302057
 11
5.9289680608
 21
4.8342302057
  0
LINE
  5
261
100
AcDbEntity
  8
0
100
AcDbLine
 62
7
  6
CONTINUOUS
 10
5.9289680608
 20
4.8372106912
 11
5.9615273403
 21
4.8372106912
  0
LINE
  5
262
100
AcDbEntity
  8
0
100
AcDbLine
 62
7
  6
CONTINUOUS
 10
5.9598725854
 20
4.8408912842
 11
5.9289680608
 21
4.8408912842
  0
LINE
  5
263
100
AcDbEntity
  8
0
100
AcDbLine
 62
7
  6
CONTINUOUS
 10
5.9598725854
 20
4.8456227707
 11
5.9289680608
 21
4.8456227707
  0
LINE
  5
264
100
AcDbEntity
  8
0
100
AcDbLine
 62
7
  6
CONTINUOUS
 10
5.9289680608
 20
4.8483392507
 11
5.9615273403
 21
4.8483392507
  0
LINE
  5
265
100
AcDbEntity
  8
0
100
AcDbLine
 62
7
  6
CONTINUOUS
 10
5.9598725854
 20
4.8522187862
 11
5.9289680608
 21
4.8522187862
  0
LINE
  5
266
100
AcDbEntity
  8
0
100
AcDbLine
 62
7
  6
CONTINUOUS
 10
6.0976794503
 20
4.8535311768
 11
6.105489235
 21
4.8535311768
  0
LINE
  5
267
100
AcDbEntity
  8
0
100
AcDbLine
 62
7
  6
CONTINUOUS
 10
5.9598725854
 20
4.8568923612
 11
5.9289680608
 21
4.8568923612
  0
LINE
  5
268
100
AcDbEntity
  8
0
100
AcDbLine
 62
7
  6
CONTINUOUS
 10
5.9289680608
 20
4.8593316013
 11
5.9615273403
 21
4.8593316013
  0
LINE
  5
269
100
AcDbEntity
  8
0
100
AcDbLine
 62
7
  6
CONTINUOUS
 10
5.9598725854
 20
4.8633911785
 11
5.9289680608
 21
4.8633911785
  0
LINE
  5
26A
100
AcDbEntity
  8
0
100
AcDbLine
 62
7
  6
CONTINUOUS
 10
5.8392748161
 20
5.0092497422
 11
5.8392748161
 21
4.6315126115
  0
LINE
  5
26B
100
AcDbEntity
  8
0
100
AcDbLine
 62
7
  6
CONTINUOUS
 10
5.8435163315
 20
5.005268158
 11
5.8435163315
 21
4.6354941957
  0
LINE
  5
26C
100
AcDbEntity
  8
0
100
AcDbLine
 62
7
  6
CONTINUOUS
 10
5.8707874264
 20
4.6610940461
 11
5.8707874264
 21
4.9796683075
  0
LINE
  5
26D
100
AcDbEntity
  8
0
100
AcDbLine
 62
7
  6
CONTINUOUS
 10
4.6751515065
 20
4.8671311768
 11
4.3096944202
 21
4.8671311768
  0
LINE
  5
26E
100
AcDbEntity
  8
0
100
AcDbLine
 62
7
  6
CONTINUOUS
 10
5.9598725854
 20
4.867984073
 11
5.9289680608
 21
4.867984073
  0
LINE
  5
26F
100
AcDbEntity
  8
0
100
AcDbLine
 62
7
  6
CONTINUOUS
 10
5.9289680608
 20
4.8701341894
 11
5.9615273403
 21
4.8701341894
  0
LINE
  5
270
100
AcDbEntity
  8
0
100
AcDbLine
 62
7
  6
CONTINUOUS
 10
4.6793021475
 20
4.8705780272
 11
4.6762796284
 21
4.8705780272
  0
LINE
  5
271
100
AcDbEntity
  8
0
100
AcDbLine
 62
7
  6
CONTINUOUS
 10
6.0705861186
 20
4.8709561768
 11
6.0596417853
 21
4.8709561768
  0
LINE
  5
272
100
AcDbEntity
  8
0
100
AcDbLine
 62
7
  6
CONTINUOUS
 10
4.6762796275
 20
4.8739244839
 11
4.6836851392
 21
4.8739244839
  0
LINE
  5
273
100
AcDbEntity
  8
0
100
AcDbLine
 62
7
  6
CONTINUOUS
 10
5.9598725854
 20
4.8743540304
 11
5.9289680608
 21
4.8743540304
  0
LINE
  5
274
100
AcDbEntity
  8
0
100
AcDbLine
 62
7
  6
CONTINUOUS
 10
5.9598725854
 20
4.8788438681
 11
5.9289680608
 21
4.8788438681
  0
LINE
  5
275
100
AcDbEntity
  8
0
100
AcDbLine
 62
7
  6
CONTINUOUS
 10
5.9289680608
 20
4.8806943857
 11
5.9615273403
 21
4.8806943857
  0
LINE
  5
276
100
AcDbEntity
  8
0
100
AcDbLine
 62
7
  6
CONTINUOUS
 10
5.9598725854
 20
4.885053932
 11
5.9289680608
 21
4.885053932
  0
LINE
  5
277
100
AcDbEntity
  8
0
100
AcDbLine
 62
7
  6
CONTINUOUS
 10
5.9598725854
 20
4.889418839
 11
5.9289680608
 21
4.889418839
  0
LINE
  5
278
100
AcDbEntity
  8
0
100
AcDbLine
 62
7
  6
CONTINUOUS
 10
5.9289680608
 20
4.8909607422
 11
5.9615273403
 21
4.8909607422
  0
LINE
  5
279
100
AcDbEntity
  8
0
100
AcDbLine
 62
7
  6
CONTINUOUS
 10
5.9598725854
 20
4.8954387544
 11
5.9289680608
 21
4.8954387544
  0
LINE
  5
27A
100
AcDbEntity
  8
0
100
AcDbLine
 62
7
  6
CONTINUOUS
 10
5.9598725854
 20
4.8996574652
 11
5.9289680608
 21
4.8996574652
  0
LINE
  5
27B
100
AcDbEntity
  8
0
100
AcDbLine
 62
7
  6
CONTINUOUS
 10
5.9289680608
 20
4.9008832422
 11
5.9615273403
 21
4.9008832422
  0
LINE
  5
27C
100
AcDbEntity
  8
0
100
AcDbLine
 62
7
  6
CONTINUOUS
 10
5.9598725854
 20
4.9054579039
 11
5.9289680608
 21
4.9054579039
  0
LINE
  5
27D
100
AcDbEntity
  8
0
100
AcDbLine
 62
7
  6
CONTINUOUS
 10
5.9598725854
 20
4.9095098654
 11
5.9289680608
 21
4.9095098654
  0
LINE
  5
27E
100
AcDbEntity
  8
0
100
AcDbLine
 62
7
  6
CONTINUOUS
 10
5.9289680608
 20
4.9104135441
 11
5.9615273403
 21
4.9104135441
  0
LINE
  5
27F
100
AcDbEntity
  8
0
100
AcDbLine
 62
7
  6
CONTINUOUS
 10
5.9598725854
 20
4.9150625681
 11
5.9289680608
 21
4.9150625681
  0
LINE
  5
280
100
AcDbEntity
  8
0
100
AcDbLine
 62
7
  6
CONTINUOUS
 10
5.9598725854
 20
4.9189280396
 11
5.9289680608
 21
4.9189280396
  0
LINE
  5
281
100
AcDbEntity
  8
0
100
AcDbLine
 62
7
  6
CONTINUOUS
 10
5.9289680608
 20
4.9195052175
 11
5.9615273403
 21
4.9195052175
  0
LINE
  5
282
100
AcDbEntity
  8
0
100
AcDbLine
 62
7
  6
CONTINUOUS
 10
5.2686627138
 20
4.9207748776
 11
4.8243367908
 21
4.9207748776
  0
LINE
  5
283
100
AcDbEntity
  8
0
100
AcDbLine
 62
7
  6
CONTINUOUS
 10
5.9598725854
 20
4.9242059541
 11
5.9289680608
 21
4.9242059541
  0
LINE
  5
284
100
AcDbEntity
  8
0
100
AcDbLine
 62
7
  6
CONTINUOUS
 10
5.9598725854
 20
4.9278661033
 11
5.9289680608
 21
4.9278661033
  0
LINE
  5
285
100
AcDbEntity
  8
0
100
AcDbLine
 62
7
  6
CONTINUOUS
 10
5.9289680608
 20
4.9281139684
 11
5.9615273403
 21
4.9281139684
  0
LINE
  5
286
100
AcDbEntity
  8
0
100
AcDbLine
 62
7
  6
CONTINUOUS
 10
5.9598725854
 20
4.9328435162
 11
5.9289680608
 21
4.9328435162
  0
LINE
  5
287
100
AcDbEntity
  8
0
100
AcDbLine
 62
7
  6
CONTINUOUS
 10
5.9598725854
 20
4.9362805113
 11
5.9289680608
 21
4.9362805113
  0
LINE
  5
288
100
AcDbEntity
  8
0
100
AcDbLine
 62
7
  6
CONTINUOUS
 10
5.9598725854
 20
4.940933173
 11
5.9289680608
 21
4.940933173
  0
LINE
  5
289
100
AcDbEntity
  8
0
100
AcDbLine
 62
7
  6
CONTINUOUS
 10
5.9598725854
 20
4.9441302694
 11
5.9289680608
 21
4.9441302694
  0
LINE
  5
28A
100
AcDbEntity
  8
0
100
AcDbLine
 62
7
  6
CONTINUOUS
 10
5.9598725854
 20
4.9484355127
 11
5.9289680608
 21
4.9484355127
  0
LINE
  5
28B
100
AcDbEntity
  8
0
100
AcDbLine
 62
7
  6
CONTINUOUS
 10
5.9598725854
 20
4.9513771343
 11
5.9289680608
 21
4.9513771343
  0
LINE
  5
28C
100
AcDbEntity
  8
0
100
AcDbLine
 62
7
  6
CONTINUOUS
 10
5.9598725854
 20
4.9553139845
 11
5.9289680608
 21
4.9553139845
  0
LINE
  5
28D
100
AcDbEntity
  8
0
100
AcDbLine
 62
7
  6
CONTINUOUS
 10
5.9598725854
 20
4.9579858001
 11
5.9289680608
 21
4.9579858001
  0
LINE
  5
28E
100
AcDbEntity
  8
0
100
AcDbLine
 62
7
  6
CONTINUOUS
 10
5.9289680608
 20
4.6560281613
 11
5.9289680608
 21
4.9847341923
  0
LINE
  5
28F
100
AcDbEntity
  8
0
100
AcDbLine
 62
7
  6
CONTINUOUS
 10
5.9598725854
 20
4.9847341923
 11
5.9598725854
 21
4.984567443
  0
LINE
  5
290
100
AcDbEntity
  8
0
100
AcDbLine
 62
7
  6
CONTINUOUS
 10
5.9598725854
 20
4.9841002302
 11
5.9598725854
 21
4.9836007948
  0
LINE
  5
291
100
AcDbEntity
  8
0
100
AcDbLine
 62
7
  6
CONTINUOUS
 10
5.9598725854
 20
4.9826686454
 11
5.9598725854
 21
4.9818389569
  0
LINE
  5
292
100
AcDbEntity
  8
0
100
AcDbLine
 62
7
  6
CONTINUOUS
 10
5.9598725854
 20
4.9804464123
 11
5.9598725854
 21
4.979290513
  0
LINE
  5
293
100
AcDbEntity
  8
0
100
AcDbLine
 62
7
  6
CONTINUOUS
 10
5.9598725854
 20
4.9774443575
 11
5.9598725854
 21
4.9759678788
  0
LINE
  5
294
100
AcDbEntity
  8
0
100
AcDbLine
 62
7
  6
CONTINUOUS
 10
5.9598725854
 20
4.9736771066
 11
5.9598725854
 21
4.9718872418
  0
LINE
  5
295
100
AcDbEntity
  8
0
100
AcDbLine
 62
7
  6
CONTINUOUS
 10
5.9598725854
 20
4.9691630134
 11
5.9598725854
 21
4.9670684824
  0
LINE
  5
296
100
AcDbEntity
  8
0
100
AcDbLine
 62
7
  6
CONTINUOUS
 10
5.9598725854
 20
4.96392407
 11
5.9598725854
 21
4.9615350773
  0
LINE
  5
297
100
AcDbEntity
  8
0
100
AcDbLine
 62
7
  6
CONTINUOUS
 10
5.9598725854
 20
4.9579858001
 11
5.9598725854
 21
4.9553139845
  0
LINE
  5
298
100
AcDbEntity
  8
0
100
AcDbLine
 62
7
  6
CONTINUOUS
 10
5.9598725854
 20
4.9513771343
 11
5.9598725854
 21
4.9484355127
  0
LINE
  5
299
100
AcDbEntity
  8
0
100
AcDbLine
 62
7
  6
CONTINUOUS
 10
5.9598725854
 20
4.9441302694
 11
5.9598725854
 21
4.940933173
  0
LINE
  5
29A
100
AcDbEntity
  8
0
100
AcDbLine
 62
7
  6
CONTINUOUS
 10
5.9598725854
 20
4.9362805113
 11
5.9598725854
 21
4.9328435162
  0
LINE
  5
29B
100
AcDbEntity
  8
0
100
AcDbLine
 62
7
  6
CONTINUOUS
 10
5.9598725854
 20
4.9278661033
 11
5.9598725854
 21
4.9242059541
  0
LINE
  5
29C
100
AcDbEntity
  8
0
100
AcDbLine
 62
7
  6
CONTINUOUS
 10
5.9598725854
 20
4.9189280396
 11
5.9598725854
 21
4.9150625681
  0
LINE
  5
29D
100
AcDbEntity
  8
0
100
AcDbLine
 62
7
  6
CONTINUOUS
 10
5.9598725854
 20
4.9095098654
 11
5.9598725854
 21
4.9054579039
  0
LINE
  5
29E
100
AcDbEntity
  8
0
100
AcDbLine
 62
7
  6
CONTINUOUS
 10
5.9598725854
 20
4.8996574652
 11
5.9598725854
 21
4.8954387544
  0
LINE
  5
29F
100
AcDbEntity
  8
0
100
AcDbLine
 62
7
  6
CONTINUOUS
 10
5.9598725854
 20
4.889418839
 11
5.9598725854
 21
4.885053932
  0
LINE
  5
2A0
100
AcDbEntity
  8
0
100
AcDbLine
 62
7
  6
CONTINUOUS
 10
5.9598725854
 20
4.8788438681
 11
5.9598725854
 21
4.8743540304
  0
LINE
  5
2A1
100
AcDbEntity
  8
0
100
AcDbLine
 62
7
  6
CONTINUOUS
 10
5.9598725854
 20
4.867984073
 11
5.9598725854
 21
4.8633911785
  0
LINE
  5
2A2
100
AcDbEntity
  8
0
100
AcDbLine
 62
7
  6
CONTINUOUS
 10
5.9598725854
 20
4.8568923612
 11
5.9598725854
 21
4.8522187862
  0
LINE
  5
2A3
100
AcDbEntity
  8
0
100
AcDbLine
 62
7
  6
CONTINUOUS
 10
5.9598725854
 20
4.8456227707
 11
5.9598725854
 21
4.8408912842
  0
LINE
  5
2A4
100
AcDbEntity
  8
0
100
AcDbLine
 62
7
  6
CONTINUOUS
 10
5.9598725854
 20
4.8342302057
 11
5.9598725854
 21
4.8294638591
  0
LINE
  5
2A5
100
AcDbEntity
  8
0
100
AcDbLine
 62
7
  6
CONTINUOUS
 10
5.9598725854
 20
4.6566621234
 11
5.9598725854
 21
4.6571615589
  0
LINE
  5
2A6
100
AcDbEntity
  8
0
100
AcDbLine
 62
7
  6
CONTINUOUS
 10
5.9598725854
 20
4.6560281613
 11
5.9598725854
 21
4.6561949106
  0
LINE
  5
2A7
100
AcDbEntity
  8
0
100
AcDbLine
 62
7
  6
CONTINUOUS
 10
5.9598725854
 20
4.667085247
 11
5.9598725854
 21
4.6688751119
  0
LINE
  5
2A8
100
AcDbEntity
  8
0
100
AcDbLine
 62
7
  6
CONTINUOUS
 10
5.9598725854
 20
4.6633179962
 11
5.9598725854
 21
4.6647944749
  0
LINE
  5
2A9
100
AcDbEntity
  8
0
100
AcDbLine
 62
7
  6
CONTINUOUS
 10
5.9598725854
 20
4.6603159413
 11
5.9598725854
 21
4.6614718406
  0
LINE
  5
2AA
100
AcDbEntity
  8
0
100
AcDbLine
 62
7
  6
CONTINUOUS
 10
5.9598725854
 20
4.6580937082
 11
5.9598725854
 21
4.6589233967
  0
LINE
  5
2AB
100
AcDbEntity
  8
0
100
AcDbLine
 62
7
  6
CONTINUOUS
 10
5.9598725854
 20
4.6768382836
 11
5.9598725854
 21
4.6792272763
  0
LINE
  5
2AC
100
AcDbEntity
  8
0
100
AcDbLine
 62
7
  6
CONTINUOUS
 10
5.9598725854
 20
4.6715993402
 11
5.9598725854
 21
4.6736938712
  0
LINE
  5
2AD
100
AcDbEntity
  8
0
100
AcDbLine
 62
7
  6
CONTINUOUS
 10
5.9598725854
 20
4.6827765535
 11
5.9598725854
 21
4.6854483691
  0
LINE
  5
2AE
100
AcDbEntity
  8
0
100
AcDbLine
 62
7
  6
CONTINUOUS
 10
5.9598725854
 20
4.6966320842
 11
5.9598725854
 21
4.6998291806
  0
LINE
  5
2AF
100
AcDbEntity
  8
0
100
AcDbLine
 62
7
  6
CONTINUOUS
 10
5.9598725854
 20
4.6893852193
 11
5.9598725854
 21
4.6923268409
  0
LINE
  5
2B0
100
AcDbEntity
  8
0
100
AcDbLine
 62
7
  6
CONTINUOUS
 10
5.9598725854
 20
4.7044818423
 11
5.9598725854
 21
4.7079188375
  0
LINE
  5
2B1
100
AcDbEntity
  8
0
100
AcDbLine
 62
7
  6
CONTINUOUS
 10
5.9598725854
 20
4.7128962503
 11
5.9598725854
 21
4.7165563996
  0
LINE
  5
2B2
100
AcDbEntity
  8
0
100
AcDbLine
 62
7
  6
CONTINUOUS
 10
5.9598725854
 20
4.7312524882
 11
5.9598725854
 21
4.7353044497
  0
LINE
  5
2B3
100
AcDbEntity
  8
0
100
AcDbLine
 62
7
  6
CONTINUOUS
 10
5.9598725854
 20
4.7218343141
 11
5.9598725854
 21
4.7256997855
  0
LINE
  5
2B4
100
AcDbEntity
  8
0
100
AcDbLine
 62
7
  6
CONTINUOUS
 10
5.9598725854
 20
4.7411048884
 11
5.9598725854
 21
4.7453235992
  0
LINE
  5
2B5
100
AcDbEntity
  8
0
100
AcDbLine
 62
7
  6
CONTINUOUS
 10
5.9598725854
 20
4.7513435147
 11
5.9598725854
 21
4.7557084216
  0
LINE
  5
2B6
100
AcDbEntity
  8
0
100
AcDbLine
 62
7
  6
CONTINUOUS
 10
5.9598725854
 20
4.7619184855
 11
5.9598725854
 21
4.7664083232
  0
LINE
  5
2B7
100
AcDbEntity
  8
0
100
AcDbLine
 62
7
  6
CONTINUOUS
 10
5.9598725854
 20
4.7727782807
 11
5.9598725854
 21
4.7773711751
  0
LINE
  5
2B8
100
AcDbEntity
  8
0
100
AcDbLine
 62
7
  6
CONTINUOUS
 10
5.9598725854
 20
4.7838699924
 11
5.9598725854
 21
4.7885435674
  0
LINE
  5
2B9
100
AcDbEntity
  8
0
100
AcDbLine
 62
7
  6
CONTINUOUS
 10
5.9598725854
 20
4.7951395829
 11
5.9598725854
 21
4.7998710694
  0
LINE
  5
2BA
100
AcDbEntity
  8
0
100
AcDbLine
 62
7
  6
CONTINUOUS
 10
5.9598725854
 20
4.806532148
 11
5.9598725854
 21
4.8112984945
  0
LINE
  5
2BB
100
AcDbEntity
  8
0
100
AcDbLine
 62
7
  6
CONTINUOUS
 10
5.9598725854
 20
4.8179921841
 11
5.9598725854
 21
4.8227701696
  0
LINE
  5
2BC
100
AcDbEntity
  8
0
100
AcDbLine
 62
7
  6
CONTINUOUS
 10
5.9598725854
 20
4.9615350773
 11
5.9289680608
 21
4.9615350773
  0
LINE
  5
2BD
100
AcDbEntity
  8
0
100
AcDbLine
 62
7
  6
CONTINUOUS
 10
5.9598725854
 20
4.96392407
 11
5.9289680608
 21
4.96392407
  0
LINE
  5
2BE
100
AcDbEntity
  8
0
100
AcDbLine
 62
7
  6
CONTINUOUS
 10
5.9598725854
 20
4.9670684824
 11
5.9289680608
 21
4.9670684824
  0
LINE
  5
2BF
100
AcDbEntity
  8
0
100
AcDbLine
 62
7
  6
CONTINUOUS
 10
5.9598725854
 20
4.9691630134
 11
5.9289680608
 21
4.9691630134
  0
LINE
  5
2C0
100
AcDbEntity
  8
0
100
AcDbLine
 62
7
  6
CONTINUOUS
 10
5.9598725854
 20
4.9718872418
 11
5.9289680608
 21
4.9718872418
  0
LINE
  5
2C1
100
AcDbEntity
  8
0
100
AcDbLine
 62
7
  6
CONTINUOUS
 10
5.9598725854
 20
4.9736771066
 11
5.9289680608
 21
4.9736771066
  0
LINE
  5
2C2
100
AcDbEntity
  8
0
100
AcDbLine
 62
7
  6
CONTINUOUS
 10
5.9598725854
 20
4.9759678788
 11
5.9289680608
 21
4.9759678788
  0
LINE
  5
2C3
100
AcDbEntity
  8
0
100
AcDbLine
 62
7
  6
CONTINUOUS
 10
5.9598725854
 20
4.9774443575
 11
5.9289680608
 21
4.9774443575
  0
LINE
  5
2C4
100
AcDbEntity
  8
0
100
AcDbLine
 62
7
  6
CONTINUOUS
 10
5.9598725854
 20
4.979290513
 11
5.9289680608
 21
4.979290513
  0
LINE
  5
2C5
100
AcDbEntity
  8
0
100
AcDbLine
 62
7
  6
CONTINUOUS
 10
5.9289680608
 20
4.9796683075
 11
5.8707874264
 21
4.9796683075
  0
LINE
  5
2C6
100
AcDbEntity
  8
0
100
AcDbLine
 62
7
  6
CONTINUOUS
 10
5.9598725854
 20
4.9804464123
 11
5.9289680608
 21
4.9804464123
  0
LINE
  5
2C7
100
AcDbEntity
  8
0
100
AcDbLine
 62
7
  6
CONTINUOUS
 10
5.9598725854
 20
4.9818389569
 11
5.9289680608
 21
4.9818389569
  0
LINE
  5
2C8
100
AcDbEntity
  8
0
100
AcDbLine
 62
7
  6
CONTINUOUS
 10
5.9598725854
 20
4.9826686454
 11
5.9289680608
 21
4.9826686454
  0
LINE
  5
2C9
100
AcDbEntity
  8
0
100
AcDbLine
 62
7
  6
CONTINUOUS
 10
5.9598725854
 20
4.9836007948
 11
5.9289680608
 21
4.9836007948
  0
LINE
  5
2CA
100
AcDbEntity
  8
0
100
AcDbLine
 62
7
  6
CONTINUOUS
 10
5.9598725854
 20
4.9841002302
 11
5.9289680608
 21
4.9841002302
  0
LINE
  5
2CB
100
AcDbEntity
  8
0
100
AcDbLine
 62
7
  6
CONTINUOUS
 10
5.9598725854
 20
4.984567443
 11
5.9289680608
 21
4.984567443
  0
LINE
  5
2CC
100
AcDbEntity
  8
0
100
AcDbLine
 62
7
  6
CONTINUOUS
 10
5.9598725854
 20
4.9847341923
 11
5.9289680608
 21
4.9847341923
  0
LINE
  5
2CD
100
AcDbEntity
  8
0
100
AcDbLine
 62
7
  6
CONTINUOUS
 10
5.5321964795
 20
4.9877040115
 11
5.7687874264
 21
4.9877040115
  0
LINE
  5
2CE
100
AcDbEntity
  8
0
100
AcDbLine
 62
7
  6
CONTINUOUS
 10
5.8392748161
 20
5.0092497422
 11
5.7993874264
 21
5.0092497422
  0
LINE
  5
2CF
100
AcDbEntity
  8
0
100
AcDbLine
 62
7
  6
CONTINUOUS
 10
5.7978559917
 20
5.0228497422
 11
5.7687874264
 21
5.0228497422
  0
LINE
  5
2D0
100
AcDbEntity
  8
0
100
AcDbLine
 62
7
  6
CONTINUOUS
 10
6.0503321584
 20
4.9217071267
 11
6.0503306017
 21
4.9217072586
  0
LINE
  5
2D1
100
AcDbEntity
  8
0
100
AcDbLine
 62
7
  6
CONTINUOUS
 10
6.054767449
 20
4.917743462
 11
6.054767449
 21
4.7230188916
  0
LINE
  5
2D2
100
AcDbEntity
  8
0
100
AcDbLine
 62
7
  6
CONTINUOUS
 10
6.0596417853
 20
4.9128873018
 11
6.0596417853
 21
4.7278750748
  0
LINE
  5
2D3
100
AcDbEntity
  8
0
100
AcDbLine
 62
7
  6
CONTINUOUS
 10
6.0705861186
 20
4.7698061768
 11
6.0705861186
 21
4.8709561768
  0
LINE
  5
2D4
100
AcDbEntity
  8
0
100
AcDbLine
 62
7
  6
CONTINUOUS
 10
6.0739594515
 20
4.7668311768
 11
6.0739594515
 21
4.8739311768
  0
LINE
  5
2D5
100
AcDbEntity
  8
0
100
AcDbLine
 62
7
  6
CONTINUOUS
 10
6.0942794503
 20
4.7681061768
 11
6.0942794503
 21
4.8726561768
  0
LINE
  5
2D6
100
AcDbEntity
  8
0
100
AcDbLine
 62
7
  6
CONTINUOUS
 10
6.0976794503
 20
4.8535311768
 11
6.0976794503
 21
4.8331872233
  0
LINE
  5
2D7
100
AcDbEntity
  8
0
100
AcDbLine
 62
7
  6
CONTINUOUS
 10
6.0976794503
 20
4.8075751304
 11
6.0976794503
 21
4.7872311768
  0
LINE
  5
2D8
100
AcDbEntity
  8
0
100
AcDbLine
 62
7
  6
CONTINUOUS
 10
6.1019294503
 20
4.8535311768
 11
6.1019294503
 21
4.8466016074
  0
LINE
  5
2D9
100
AcDbEntity
  8
0
100
AcDbLine
 62
7
  6
CONTINUOUS
 10
6.1019294503
 20
4.7941607462
 11
6.1019294503
 21
4.7872311768
  0
LINE
  5
2DA
100
AcDbEntity
  8
0
100
AcDbLine
 62
7
  6
CONTINUOUS
 10
5.9613391294
 20
4.9817552837
 11
5.9615273403
 21
4.9813853075
  0
LINE
  5
2DB
100
AcDbEntity
  8
0
100
AcDbLine
 62
7
  6
CONTINUOUS
 10
5.9600520184
 20
4.9843599323
 11
5.9598725854
 21
4.9847341923
  0
LINE
  5
2DC
100
AcDbEntity
  8
0
100
AcDbLine
 62
7
  6
CONTINUOUS
 10
5.9598725854
 20
4.984567443
 11
5.9600520241
 21
4.9841679749
  0
LWPOLYLINE
  5
2DD
100
AcDbEntity
  8
0
100
AcDbPolyline
 62
7
  6
CONTINUOUS
 90
26
 70
0
 10
6.0594583856
 20
4.9141908364
 10
6.059349153
 20
4.9145522153
 10
6.0591613764
 20
4.9150992266
 10
6.0589537435
 20
4.9156230102
 10
6.0587266489
 20
4.9161241467
 10
6.0584803872
 20
4.916603319
 10
6.0582152585
 20
4.9170610448
 10
6.0579318091
 20
4.9174973804
 10
6.0576305486
 20
4.9179124451
 10
6.0573119381
 20
4.9183063764
 10
6.0569767737
 20
4.9186788959
 10
6.0566256888
 20
4.9190299849
 10
6.0562590119
 20
4.9193598913
 10
6.0558776083
 20
4.9196683344
 10
6.055482205
 20
4.9199552084
 10
6.055072864
 20
4.9202208461
 10
6.0546504285
 20
4.9204650207
 10
6.0542155203
 20
4.9206877008
 10
6.0537676344
 20
4.9208893528
 10
6.0533072788
 20
4.9210698532
 10
6.0528349165
 20
4.9212291373
 10
6.05234958
 20
4.9213675701
 10
6.0518514936
 20
4.9214850408
 10
6.0513406509
 20
4.9215815122
 10
6.0508151987
 20
4.9216571828
 10
6.0503305073
 20
4.921707262
  0
ARC
  5
2DE
100
AcDbEntity
  8
0
100
AcDbCircle
 62
7
  6
CONTINUOUS
 10
4.765134198
 20
4.8203811768
 40
0.1070866142
100
AcDbArc
 50
19.8260712303
 51
148.9270490278
  0
ARC
  5
2DF
100
AcDbEntity
  8
0
100
AcDbCircle
 62
7
  6
CONTINUOUS
 10
4.765134198
 20
4.8203811768
 40
0.1037401575
100
AcDbArc
 50
24.2201022728
 51
148.9270492712
  0
ARC
  5
2E0
100
AcDbEntity
  8
0
100
AcDbCircle
 62
7
  6
CONTINUOUS
 10
4.765134198
 20
4.8203811768
 40
0.0918
100
AcDbArc
 50
43.1123820549
 51
136.883979091
  0
ARC
  5
2E1
100
AcDbEntity
  8
0
100
AcDbCircle
 62
7
  6
CONTINUOUS
 10
4.309668613
 20
4.8203811768
 40
0.04675
100
AcDbArc
 50
90.0
 51
270.0
  0
ARC
  5
2E2
100
AcDbEntity
  8
0
100
AcDbCircle
 62
7
  6
CONTINUOUS
 10
4.3109483023
 20
4.8203833739
 40
0.0467480821
100
AcDbArc
 50
90.0026929783
 51
268.4972431087
  0
ARC
  5
2E3
100
AcDbEntity
  8
0
100
AcDbCircle
 62
7
  6
CONTINUOUS
 10
4.3096966174
 20
4.8203833739
 40
0.0467480821
100
AcDbArc
 50
90.0026929783
 51
269.9973197655
  0
ARC
  5
2E4
100
AcDbEntity
  8
0
100
AcDbCircle
 62
7
  6
CONTINUOUS
 10
4.3109462013
 20
4.8203701607
 40
0.0467389839
100
AcDbArc
 50
268.4996516524
 51
269.999882055
  0
ARC
  5
2E5
100
AcDbEntity
  8
0
100
AcDbCircle
 62
7
  6
CONTINUOUS
 10
4.973704614
 20
4.6199832936
 40
0.0358045831
100
AcDbArc
 50
358.3858314829
 51
359.9998318655
  0
ARC
  5
2E6
100
AcDbEntity
  8
0
100
AcDbCircle
 62
7
  6
CONTINUOUS
 10
4.8243368189
 20
4.9156748696
 40
0.005100008
100
AcDbArc
 50
90.0003108247
 51
238.1484680966
  0
ARC
  5
2E7
100
AcDbEntity
  8
0
100
AcDbCircle
 62
7
  6
CONTINUOUS
 10
4.6762796284
 20
4.8739244839
 40
0.0033464567
100
AcDbArc
 50
148.9270490278
 51
270.0
  0
ARC
  5
2E8
100
AcDbEntity
  8
0
100
AcDbCircle
 62
7
  6
CONTINUOUS
 10
5.9851035915
 20
4.2159635629
 40
0.4891694114
100
AcDbArc
 50
92.7625259845
 51
92.9565870163
  0
ARC
  5
2E9
100
AcDbEntity
  8
0
100
AcDbCircle
 62
7
  6
CONTINUOUS
 10
5.4350792605
 20
3.347043693
 40
0.104520319
100
AcDbArc
 50
0.0041389222
 51
27.0953020687
  0
ARC
  5
2EA
100
AcDbEntity
  8
0
100
AcDbCircle
 62
7
  6
CONTINUOUS
 10
5.4337718126
 20
3.3470436931
 40
0.1045203189
100
AcDbArc
 50
152.9047140534
 51
179.9958610918
  0
ARC
  5
2EB
100
AcDbEntity
  8
0
100
AcDbCircle
 62
7
  6
CONTINUOUS
 10
5.4337285641
 20
3.3368272106
 40
0.1044769275
100
AcDbArc
 50
177.1951011118
 51
179.9996357773
  0
ARC
  5
2EC
100
AcDbEntity
  8
0
100
AcDbCircle
 62
7
  6
CONTINUOUS
 10
5.4351225091
 20
3.3368272106
 40
0.1044769275
100
AcDbArc
 50
0.0003642216
 51
2.8048996003
  0
ARC
  5
2ED
100
AcDbEntity
  8
0
100
AcDbCircle
 62
7
  6
CONTINUOUS
 10
5.4351392837
 20
3.3479399721
 40
0.0942601529
100
AcDbArc
 50
0.0001579666
 51
9.4265937207
  0
ARC
  5
2EE
100
AcDbEntity
  8
0
100
AcDbCircle
 62
7
  6
CONTINUOUS
 10
5.4337117895
 20
3.3479399721
 40
0.0942601529
100
AcDbArc
 50
170.5734154297
 51
179.9998420341
  0
ARC
  5
2EF
100
AcDbEntity
  8
0
100
AcDbCircle
 62
7
  6
CONTINUOUS
 10
5.4344255366
 20
4.8203811768
 40
0.5019567204
100
AcDbArc
 50
18.5018717381
 51
168.462480167
  0
ARC
  5
2F0
100
AcDbEntity
  8
0
100
AcDbCircle
 62
7
  6
CONTINUOUS
 10
5.4344255366
 20
4.8203811768
 40
0.5019567204
100
AcDbArc
 50
208.222638999
 51
259.2411940141
  0
ARC
  5
2F1
100
AcDbEntity
  8
0
100
AcDbCircle
 62
7
  6
CONTINUOUS
 10
5.4344255366
 20
4.8203811768
 40
0.5019567204
100
AcDbArc
 50
280.7588057169
 51
341.4981282619
  0
ARC
  5
2F2
100
AcDbEntity
  8
0
100
AcDbCircle
 62
7
  6
CONTINUOUS
 10
5.4344255366
 20
4.8203811768
 40
0.5003767805
100
AcDbArc
 50
18.562294039
 51
168.425567382
  0
ARC
  5
2F3
100
AcDbEntity
  8
0
100
AcDbCircle
 62
7
  6
CONTINUOUS
 10
5.4344255366
 20
4.8203811768
 40
0.5003767805
100
AcDbArc
 50
280.7932074359
 51
341.4377060943
  0
ARC
  5
2F4
100
AcDbEntity
  8
0
100
AcDbCircle
 62
7
  6
CONTINUOUS
 10
5.4344255366
 20
4.8203811768
 40
0.5003767805
100
AcDbArc
 50
208.1646458411
 51
259.206792257
  0
ARC
  5
2F5
100
AcDbEntity
  8
0
100
AcDbCircle
 62
7
  6
CONTINUOUS
 10
5.4344255366
 20
4.8203811768
 40
0.4818490456
100
AcDbArc
 50
19.3039233346
 51
167.9740330877
  0
ARC
  5
2F6
100
AcDbEntity
  8
0
100
AcDbCircle
 62
7
  6
CONTINUOUS
 10
5.4344255366
 20
4.8203811768
 40
0.4818490456
100
AcDbArc
 50
192.0259690757
 51
192.4113444873
  0
ARC
  5
2F7
100
AcDbEntity
  8
0
100
AcDbCircle
 62
7
  6
CONTINUOUS
 10
5.4344255366
 20
4.8203811768
 40
0.4818490456
100
AcDbArc
 50
207.042110413
 51
258.7865328931
  0
ARC
  5
2F8
100
AcDbEntity
  8
0
100
AcDbCircle
 62
7
  6
CONTINUOUS
 10
5.4344255366
 20
4.8203811768
 40
0.4818490456
100
AcDbArc
 50
281.2134668267
 51
340.6960493394
  0
ARC
  5
2F9
100
AcDbEntity
  8
0
100
AcDbCircle
 62
7
  6
CONTINUOUS
 10
5.4344255366
 20
4.8203811768
 40
0.1938
100
AcDbArc
 50
298.9141929831
 51
241.0858062382
  0
ARC
  5
2FA
100
AcDbEntity
  8
0
100
AcDbCircle
 62
7
  6
CONTINUOUS
 10
5.4344255366
 20
4.8203811768
 40
0.1853
100
AcDbArc
 50
300.3771472461
 51
239.6228519237
  0
ARC
  5
2FB
100
AcDbEntity
  8
0
100
AcDbCircle
 62
7
  6
CONTINUOUS
 10
5.4344255366
 20
4.8203811768
 40
0.1683
100
AcDbArc
 50
303.8323880294
 51
236.1676110254
  0
ARC
  5
2FC
100
AcDbEntity
  8
0
100
AcDbCircle
 62
7
  6
CONTINUOUS
 10
5.4344255366
 20
4.8203811768
 40
0.0936989203
100
AcDbArc
 50
359.999679959
 51
180.000320041
  0
ARC
  5
2FD
100
AcDbEntity
  8
0
100
AcDbCircle
 62
7
  6
CONTINUOUS
 10
5.7993874264
 20
5.0107811768
 40
0.0015314347
100
AcDbArc
 50
180.0
 51
270.0
  0
ARC
  5
2FE
100
AcDbEntity
  8
0
100
AcDbCircle
 62
7
  6
CONTINUOUS
 10
5.7993874264
 20
4.6299811768
 40
0.0015314347
100
AcDbArc
 50
90.0
 51
180.0
  0
ARC
  5
2FF
100
AcDbEntity
  8
0
100
AcDbCircle
 62
7
  6
CONTINUOUS
 10
5.986557171
 20
4.7553665285
 40
0.1745513404
100
AcDbArc
 50
98.2443619163
 51
98.7935903932
  0
ARC
  5
300
100
AcDbEntity
  8
0
100
AcDbCircle
 62
7
  6
CONTINUOUS
 10
5.9865824477
 20
4.5930788373
 40
0.1069424692
100
AcDbArc
 50
103.5495299137
 51
104.4632615788
  0
ARC
  5
301
100
AcDbEntity
  8
0
100
AcDbCircle
 62
7
  6
CONTINUOUS
 10
5.9880540991
 20
4.7999693665
 40
0.0830619295
100
AcDbArc
 50
250.1667937791
 51
251.375701617
  0
ARC
  5
302
100
AcDbEntity
  8
0
100
AcDbCircle
 62
7
  6
CONTINUOUS
 10
5.9900051299
 20
4.6243025579
 40
0.0717197536
100
AcDbArc
 50
113.3951609176
 51
114.8436090575
  0
ARC
  5
303
100
AcDbEntity
  8
0
100
AcDbCircle
 62
7
  6
CONTINUOUS
 10
6.0110892651
 20
4.6233201246
 40
0.0703848773
100
AcDbArc
 50
134.7613887326
 51
136.6910789869
  0
ARC
  5
304
100
AcDbEntity
  8
0
100
AcDbCircle
 62
7
  6
CONTINUOUS
 10
6.0065394522
 20
4.799767037
 40
0.0672505314
100
AcDbArc
 50
226.0583351613
 51
227.9854120552
  0
ARC
  5
305
100
AcDbEntity
  8
0
100
AcDbCircle
 62
7
  6
CONTINUOUS
 10
5.9924260348
 20
4.7888952705
 40
0.0661998295
100
AcDbArc
 50
240.5446457973
 51
242.176536322
  0
ARC
  5
306
100
AcDbEntity
  8
0
100
AcDbCircle
 62
7
  6
CONTINUOUS
 10
6.0023789598
 20
4.6277224781
 40
0.0649550169
100
AcDbArc
 50
128.9706121751
 51
130.8739504485
  0
ARC
  5
307
100
AcDbEntity
  8
0
100
AcDbCircle
 62
7
  6
CONTINUOUS
 10
5.9953050194
 20
4.6295602902
 40
0.0639329966
100
AcDbArc
 50
121.8926456707
 51
123.6564565267
  0
ARC
  5
308
100
AcDbEntity
  8
0
100
AcDbCircle
 62
7
  6
CONTINUOUS
 10
5.9986280576
 20
4.7916935683
 40
0.0637275542
100
AcDbArc
 50
232.5446424205
 51
234.3961915816
  0
ARC
  5
309
100
AcDbEntity
  8
0
100
AcDbCircle
 62
7
  6
CONTINUOUS
 10
5.8707874264
 20
4.633768399
 40
0.0273256471
100
AcDbArc
 50
90.0
 51
176.3789799284
  0
ARC
  5
30A
100
AcDbEntity
  8
0
100
AcDbCircle
 62
7
  6
CONTINUOUS
 10
5.8392748161
 20
4.6357626115
 40
0.00425
100
AcDbArc
 50
270.0
 51
356.3789799283
  0
ARC
  5
30B
100
AcDbEntity
  8
0
100
AcDbCircle
 62
7
  6
CONTINUOUS
 10
5.9855973454
 20
4.8789880002
 40
0.1680721055
100
AcDbArc
 50
261.1958230518
 51
261.7662246387
  0
ARC
  5
30C
100
AcDbEntity
  8
0
100
AcDbCircle
 62
7
  6
CONTINUOUS
 10
5.9890267739
 20
4.8380043525
 40
0.0860151722
100
AcDbArc
 50
108.6450524189
 51
109.8124521851
  0
ARC
  5
30D
100
AcDbEntity
  8
0
100
AcDbCircle
 62
7
  6
CONTINUOUS
 10
6.0076088074
 20
4.8398476954
 40
0.0688189303
100
AcDbArc
 50
132.0365492029
 51
133.9197035806
  0
ARC
  5
30E
100
AcDbEntity
  8
0
100
AcDbCircle
 62
7
  6
CONTINUOUS
 10
5.9934215752
 20
4.8500441172
 40
0.0682767159
100
AcDbArc
 50
117.848285244
 51
119.4305326367
  0
ARC
  5
30F
100
AcDbEntity
  8
0
100
AcDbCircle
 62
7
  6
CONTINUOUS
 10
6.0034265553
 20
5.0142917959
 40
0.0665872067
100
AcDbArc
 50
229.1493789932
 51
231.0060583832
  0
ARC
  5
310
100
AcDbEntity
  8
0
100
AcDbCircle
 62
7
  6
CONTINUOUS
 10
5.9963156173
 20
5.0127717351
 40
0.0657996447
100
AcDbArc
 50
236.3685638453
 51
238.0823339574
  0
ARC
  5
311
100
AcDbEntity
  8
0
100
AcDbCircle
 62
7
  6
CONTINUOUS
 10
5.9996560353
 20
4.8476810522
 40
0.0654543383
100
AcDbArc
 50
125.6282337898
 51
127.430932208
  0
ARC
  5
312
100
AcDbEntity
  8
0
100
AcDbCircle
 62
7
  6
CONTINUOUS
 10
5.8707874264
 20
5.0069939546
 40
0.0273256471
100
AcDbArc
 50
183.6210200716
 51
270.0
  0
ARC
  5
313
100
AcDbEntity
  8
0
100
AcDbCircle
 62
7
  6
CONTINUOUS
 10
5.8392748161
 20
5.0049997422
 40
0.00425
100
AcDbArc
 50
3.6210200717
 51
90.0
  0
ARC
  5
314
100
AcDbEntity
  8
0
100
AcDbCircle
 62
7
  6
CONTINUOUS
 10
6.1025524564
 20
4.5923066994
 40
0.1563306698
100
AcDbArc
 50
154.4348272912
 51
155.7222519701
  0
ARC
  5
315
100
AcDbEntity
  8
0
100
AcDbCircle
 62
7
  6
CONTINUOUS
 10
6.0891996245
 20
4.5941943839
 40
0.1433491947
100
AcDbArc
 50
152.9535662887
 51
153.948949549
  0
ARC
  5
316
100
AcDbEntity
  8
0
100
AcDbCircle
 62
7
  6
CONTINUOUS
 10
6.088188063
 20
4.5946998047
 40
0.1422184384
100
AcDbArc
 50
152.9496090943
 51
153.9528932898
  0
ARC
  5
317
100
AcDbEntity
  8
0
100
AcDbCircle
 62
7
  6
CONTINUOUS
 10
6.0847513955
 20
4.596383615
 40
0.1383914441
100
AcDbArc
 50
153.9544319067
 51
154.2981109716
  0
ARC
  5
318
100
AcDbEntity
  8
0
100
AcDbCircle
 62
7
  6
CONTINUOUS
 10
6.0741208247
 20
4.5978018291
 40
0.1285194664
100
AcDbArc
 50
151.173191016
 51
152.1784188748
  0
ARC
  5
319
100
AcDbEntity
  8
0
100
AcDbCircle
 62
7
  6
CONTINUOUS
 10
6.0701298996
 20
4.5999081581
 40
0.124006806
100
AcDbArc
 50
152.1785134451
 51
152.7632605488
  0
ARC
  5
31A
100
AcDbEntity
  8
0
100
AcDbCircle
 62
7
  6
CONTINUOUS
 10
6.0584987718
 20
4.6027396518
 40
0.1130981707
100
AcDbArc
 50
149.0269399433
 51
150.6966327027
  0
ARC
  5
31B
100
AcDbEntity
  8
0
100
AcDbCircle
 62
7
  6
CONTINUOUS
 10
6.0596417853
 20
4.6092893103
 40
0.11016
100
AcDbArc
 50
94.8479143092
 51
152.9555440226
  0
ARC
  5
31C
100
AcDbEntity
  8
0
100
AcDbCircle
 62
7
  6
CONTINUOUS
 10
6.0452041125
 20
4.607394617
 40
0.1004098406
100
AcDbArc
 50
146.444656833
 51
148.1934355237
  0
ARC
  5
31D
100
AcDbEntity
  8
0
100
AcDbCircle
 62
7
  6
CONTINUOUS
 10
6.032712275
 20
4.6125676316
 40
0.088776235
100
AcDbArc
 50
143.3068168403
 51
145.133509677
  0
ARC
  5
31E
100
AcDbEntity
  8
0
100
AcDbCircle
 62
7
  6
CONTINUOUS
 10
6.0212663989
 20
4.6180131747
 40
0.0785956018
100
AcDbArc
 50
139.4713785052
 51
141.3646572587
  0
ARC
  5
31F
100
AcDbEntity
  8
0
100
AcDbCircle
 62
7
  6
CONTINUOUS
 10
6.0950491443
 20
4.748846465
 40
0.1489058699
100
AcDbArc
 50
153.7258149653
 51
155.2029024758
  0
ARC
  5
320
100
AcDbEntity
  8
0
100
AcDbCircle
 62
7
  6
CONTINUOUS
 10
6.0808272683
 20
4.7628424083
 40
0.1349865619
100
AcDbArc
 50
152.1031242849
 51
153.6435943835
  0
ARC
  5
321
100
AcDbEntity
  8
0
100
AcDbCircle
 62
7
  6
CONTINUOUS
 10
6.0667437987
 20
4.7768452895
 40
0.1213032763
100
AcDbArc
 50
150.1559924985
 51
151.7662511051
  0
ARC
  5
322
100
AcDbEntity
  8
0
100
AcDbCircle
 62
7
  6
CONTINUOUS
 10
6.0530728541
 20
4.790711686
 40
0.1081735518
100
AcDbArc
 50
147.8097357745
 51
149.4945549996
  0
ARC
  5
323
100
AcDbEntity
  8
0
100
AcDbCircle
 62
7
  6
CONTINUOUS
 10
6.0840794503
 20
4.7681061768
 40
0.0102
100
AcDbArc
 50
187.1807557815
 51
360.0
  0
ARC
  5
324
100
AcDbEntity
  8
0
100
AcDbCircle
 62
7
  6
CONTINUOUS
 10
6.0549194625
 20
4.7278748206
 40
0.0047223228
100
AcDbArc
 50
343.9807390315
 51
0.0030844609
  0
ARC
  5
325
100
AcDbEntity
  8
0
100
AcDbCircle
 62
7
  6
CONTINUOUS
 10
6.0976794503
 20
4.7838311768
 40
0.0034
100
AcDbArc
 50
90.0
 51
180.0
  0
ARC
  5
326
100
AcDbEntity
  8
0
100
AcDbCircle
 62
7
  6
CONTINUOUS
 10
6.0705861186
 20
4.7664061768
 40
0.0034
100
AcDbArc
 50
7.1807557815
 51
90.0
  0
ARC
  5
327
100
AcDbEntity
  8
0
100
AcDbCircle
 62
7
  6
CONTINUOUS
 10
6.1888160292
 20
4.622481758
 40
0.2416562109
100
AcDbArc
 50
160.1433877261
 51
161.3327118343
  0
ARC
  5
328
100
AcDbEntity
  8
0
100
AcDbCircle
 62
7
  6
CONTINUOUS
 10
6.188320953
 20
4.6306445065
 40
0.241163801
100
AcDbArc
 50
160.1210577811
 51
161.3115164309
  0
ARC
  5
329
100
AcDbEntity
  8
0
100
AcDbCircle
 62
7
  6
CONTINUOUS
 10
6.1873332124
 20
4.6151985266
 40
0.2401814183
100
AcDbArc
 50
160.076280361
 51
161.2690120479
  0
ARC
  5
32A
100
AcDbEntity
  8
0
100
AcDbCircle
 62
7
  6
CONTINUOUS
 10
6.1858576194
 20
4.639646693
 40
0.2387139262
100
AcDbArc
 50
160.0088190086
 51
161.2049701442
  0
ARC
  5
32B
100
AcDbEntity
  8
0
100
AcDbCircle
 62
7
  6
CONTINUOUS
 10
6.1839013626
 20
4.6088293584
 40
0.2367685913
100
AcDbArc
 50
159.9183155174
 51
161.119044405
  0
ARC
  5
32C
100
AcDbEntity
  8
0
100
AcDbCircle
 62
7
  6
CONTINUOUS
 10
6.1814739723
 20
4.649442884
 40
0.2343550506
100
AcDbArc
 50
159.8042856287
 51
161.0107664565
  0
ARC
  5
32D
100
AcDbEntity
  8
0
100
AcDbCircle
 62
7
  6
CONTINUOUS
 10
6.1785872739
 20
4.6034030471
 40
0.2314852667
100
AcDbArc
 50
159.6661131581
 51
160.8795400112
  0
ARC
  5
32E
100
AcDbEntity
  8
0
100
AcDbCircle
 62
7
  6
CONTINUOUS
 10
6.1762203773
 20
4.6596333472
 40
0.2291996571
100
AcDbArc
 50
159.5057772197
 51
160.7218985347
  0
ARC
  5
32F
100
AcDbEntity
  8
0
100
AcDbCircle
 62
7
  6
CONTINUOUS
 10
6.1724498574
 20
4.5985932722
 40
0.2254533135
100
AcDbArc
 50
159.3169460194
 51
160.542392638
  0
ARC
  5
330
100
AcDbEntity
  8
0
100
AcDbCircle
 62
7
  6
CONTINUOUS
 10
6.1682676052
 20
4.6708603639
 40
0.2212990232
100
AcDbArc
 50
159.101253593
 51
160.3372904198
  0
ARC
  5
331
100
AcDbEntity
  8
0
100
AcDbCircle
 62
7
  6
CONTINUOUS
 10
6.1636939962
 20
4.5951144704
 40
0.2167574676
100
AcDbArc
 50
158.8574614369
 51
160.105388309
  0
ARC
  5
332
100
AcDbEntity
  8
0
100
AcDbCircle
 62
7
  6
CONTINUOUS
 10
6.1587513127
 20
4.6827137564
 40
0.2118512906
100
AcDbArc
 50
158.5841407463
 51
159.8452960827
  0
ARC
  5
333
100
AcDbEntity
  8
0
100
AcDbCircle
 62
7
  6
CONTINUOUS
 10
6.1534636348
 20
4.5926270896
 40
0.2066049998
100
AcDbArc
 50
158.2796531815
 51
159.5554174026
  0
ARC
  5
334
100
AcDbEntity
  8
0
100
AcDbCircle
 62
7
  6
CONTINUOUS
 10
6.1419578955
 20
4.591133343
 40
0.1951987817
100
AcDbArc
 50
157.5694369691
 51
158.8787430288
  0
ARC
  5
335
100
AcDbEntity
  8
0
100
AcDbCircle
 62
7
  6
CONTINUOUS
 10
6.1294007243
 20
4.5906273852
 40
0.1827679815
100
AcDbArc
 50
156.7085552641
 51
158.0574937307
  0
ARC
  5
336
100
AcDbEntity
  8
0
100
AcDbCircle
 62
7
  6
CONTINUOUS
 10
6.1168957821
 20
4.5907103494
 40
0.1705054491
100
AcDbArc
 50
155.6748752449
 51
156.7742425272
  0
ARC
  5
337
100
AcDbEntity
  8
0
100
AcDbCircle
 62
7
  6
CONTINUOUS
 10
6.1114220014
 20
4.5930801573
 40
0.1645407291
100
AcDbArc
 50
156.7809077707
 51
157.0793352749
  0
ARC
  5
338
100
AcDbEntity
  8
0
100
AcDbCircle
 62
7
  6
CONTINUOUS
 10
6.1478567236
 20
4.6951271933
 40
0.20104486
100
AcDbArc
 50
157.9421282743
 51
159.233926868
  0
ARC
  5
339
100
AcDbEntity
  8
0
100
AcDbCircle
 62
7
  6
CONTINUOUS
 10
6.1357958888
 20
4.7080287916
 40
0.1890962052
100
AcDbArc
 50
157.1591606958
 51
158.4874966928
  0
ARC
  5
33A
100
AcDbEntity
  8
0
100
AcDbCircle
 62
7
  6
CONTINUOUS
 10
6.1228035586
 20
4.7213405934
 40
0.1762462531
100
AcDbArc
 50
156.2145087461
 51
157.5856714266
  0
ARC
  5
33B
100
AcDbEntity
  8
0
100
AcDbCircle
 62
7
  6
CONTINUOUS
 10
6.109132614
 20
4.7349776485
 40
0.1627566042
100
AcDbArc
 50
155.0815033127
 51
156.5021586916
  0
ARC
  5
33C
100
AcDbEntity
  8
0
100
AcDbCircle
 62
7
  6
CONTINUOUS
 10
6.188320953
 20
5.0101178471
 40
0.241163801
100
AcDbArc
 50
198.6884835691
 51
199.8789422189
  0
ARC
  5
33D
100
AcDbEntity
  8
0
100
AcDbCircle
 62
7
  6
CONTINUOUS
 10
6.1858576194
 20
5.0011156606
 40
0.2387139262
100
AcDbArc
 50
198.7950298558
 51
199.9911809914
  0
ARC
  5
33E
100
AcDbEntity
  8
0
100
AcDbCircle
 62
7
  6
CONTINUOUS
 10
6.1814739723
 20
4.9913194696
 40
0.2343550506
100
AcDbArc
 50
198.9892335435
 51
200.1957143713
  0
ARC
  5
33F
100
AcDbEntity
  8
0
100
AcDbCircle
 62
7
  6
CONTINUOUS
 10
6.1742737523
 20
4.9804248698
 40
0.2271297126
100
AcDbArc
 50
199.2725596993
 51
200.4997645464
  0
ARC
  5
340
100
AcDbEntity
  8
0
100
AcDbCircle
 62
7
  6
CONTINUOUS
 10
6.1663623577
 20
4.9691979457
 40
0.2192679739
100
AcDbArc
 50
199.6569847348
 51
200.9044712524
  0
ARC
  5
341
100
AcDbEntity
  8
0
100
AcDbCircle
 62
7
  6
CONTINUOUS
 10
6.1568955776
 20
4.957344215
 40
0.209866492
100
AcDbArc
 50
200.1487400263
 51
201.4218231448
  0
ARC
  5
342
100
AcDbEntity
  8
0
100
AcDbCircle
 62
7
  6
CONTINUOUS
 10
6.146057672
 20
4.944929686
 40
0.1991125553
100
AcDbArc
 50
200.7598046779
 51
202.0641401798
  0
ARC
  5
343
100
AcDbEntity
  8
0
100
AcDbCircle
 62
7
  6
CONTINUOUS
 10
6.1340595885
 20
4.9320258155
 40
0.1872213275
100
AcDbArc
 50
201.5058518725
 51
202.8474907388
  0
ARC
  5
344
100
AcDbEntity
  8
0
100
AcDbCircle
 62
7
  6
CONTINUOUS
 10
6.1211348562
 20
4.9187100014
 40
0.1744322266
100
AcDbArc
 50
202.4071984515
 51
203.7926213758
  0
ARC
  5
345
100
AcDbEntity
  8
0
100
AcDbCircle
 62
7
  6
CONTINUOUS
 10
6.1075350402
 20
4.9050664532
 40
0.161005133
100
AcDbArc
 50
203.4901137084
 51
204.9262242872
  0
ARC
  5
346
100
AcDbEntity
  8
0
100
AcDbCircle
 62
7
  6
CONTINUOUS
 10
6.0935248454
 20
4.8911876711
 40
0.147216696
100
AcDbArc
 50
204.788622948
 51
206.2826596109
  0
ARC
  5
347
100
AcDbEntity
  8
0
100
AcDbCircle
 62
7
  6
CONTINUOUS
 10
6.0793769645
 20
4.8771769362
 40
0.1333571577
100
AcDbArc
 50
206.3469940391
 51
207.9062872926
  0
ARC
  5
348
100
AcDbEntity
  8
0
100
AcDbCircle
 62
7
  6
CONTINUOUS
 10
6.0653667698
 20
4.8631525426
 40
0.1197284095
100
AcDbArc
 50
208.2231577865
 51
209.8545986099
  0
ARC
  5
349
100
AcDbEntity
  8
0
100
AcDbCircle
 62
7
  6
CONTINUOUS
 10
6.0517669537
 20
4.8492551732
 40
0.1066446063
100
AcDbArc
 50
210.4933666282
 51
212.2023425977
  0
ARC
  5
34A
100
AcDbEntity
  8
0
100
AcDbCircle
 62
7
  6
CONTINUOUS
 10
6.0400805239
 20
4.8042610404
 40
0.0959341927
100
AcDbArc
 50
144.9672070353
 51
146.7276779062
  0
ARC
  5
34B
100
AcDbEntity
  8
0
100
AcDbCircle
 62
7
  6
CONTINUOUS
 10
6.0388422214
 20
4.8356612618
 40
0.0944380167
100
AcDbArc
 50
213.2583754519
 51
215.0467396067
  0
ARC
  5
34C
100
AcDbEntity
  8
0
100
AcDbCircle
 62
7
  6
CONTINUOUS
 10
6.028019689
 20
4.8172490773
 40
0.0849592109
100
AcDbArc
 50
141.5027921274
 51
143.3325994059
  0
ARC
  5
34D
100
AcDbEntity
  8
0
100
AcDbCircle
 62
7
  6
CONTINUOUS
 10
6.0268441379
 20
4.8226085584
 40
0.0834760171
100
AcDbArc
 50
216.6511432553
 51
218.5134652114
  0
ARC
  5
34E
100
AcDbEntity
  8
0
100
AcDbCircle
 62
7
  6
CONTINUOUS
 10
6.0171250999
 20
4.8293130966
 40
0.0757043444
100
AcDbArc
 50
137.2570866421
 51
139.1359894165
  0
ARC
  5
34F
100
AcDbEntity
  8
0
100
AcDbCircle
 62
7
  6
CONTINUOUS
 10
6.0160062323
 20
4.8104487523
 40
0.0742035923
100
AcDbArc
 50
220.8450086222
 51
222.7619153192
  0
CIRCLE
  5
350
100
AcDbEntity
  8
0
100
AcDbCircle
 62
7
  6
CONTINUOUS
 10
6.1614294503
 20
4.8203811768
 40
0.065025
  0
CIRCLE
  5
351
100
AcDbEntity
  8
0
100
AcDbCircle
 62
7
  6
CONTINUOUS
 10
6.1614294503
 20
4.8203811768
 40
0.054825
  0
ARC
  5
352
100
AcDbEntity
  8
0
100
AcDbCircle
 62
7
  6
CONTINUOUS
 10
6.0840794503
 20
4.8726561768
 40
0.0102
100
AcDbArc
 50
0.0
 51
172.8192442185
  0
ARC
  5
353
100
AcDbEntity
  8
0
100
AcDbCircle
 62
7
  6
CONTINUOUS
 10
6.0549194134
 20
4.912887556
 40
0.0047223719
100
AcDbArc
 50
359.9969158638
 51
16.0204230517
  0
ARC
  5
354
100
AcDbEntity
  8
0
100
AcDbCircle
 62
7
  6
CONTINUOUS
 10
6.0976794503
 20
4.8569311768
 40
0.0034
100
AcDbArc
 50
180.0
 51
270.0
  0
ARC
  5
355
100
AcDbEntity
  8
0
100
AcDbCircle
 62
7
  6
CONTINUOUS
 10
6.0705861186
 20
4.8743561768
 40
0.0034
100
AcDbArc
 50
270.0
 51
352.8192442185
  0
ARC
  5
356
100
AcDbEntity
  8
0
100
AcDbCircle
 62
7
  6
CONTINUOUS
 10
5.9860608348
 20
5.44396276
 40
0.5083572465
100
AcDbArc
 50
267.047075383
 51
267.2338116162
  0
ARC
  5
357
100
AcDbEntity
  8
0
100
AcDbCircle
 62
7
  6
CONTINUOUS
 10
6.1888160292
 20
5.0182805956
 40
0.2416562109
100
AcDbArc
 50
198.6672881657
 51
199.8566122739
  0
ARC
  5
358
100
AcDbEntity
  8
0
100
AcDbCircle
 62
7
  6
CONTINUOUS
 10
6.1873332124
 20
5.025563827
 40
0.2401814183
100
AcDbArc
 50
198.7309879521
 51
199.923719639
  0
ARC
  5
359
100
AcDbEntity
  8
0
100
AcDbCircle
 62
7
  6
CONTINUOUS
 10
6.1839013626
 20
5.0319329952
 40
0.2367685913
100
AcDbArc
 50
198.880955595
 51
200.0816844826
  0
ARC
  5
35A
100
AcDbEntity
  8
0
100
AcDbCircle
 62
7
  6
CONTINUOUS
 10
6.1785872739
 20
5.0373593065
 40
0.2314852667
100
AcDbArc
 50
199.1204599888
 51
200.3338868419
  0
ARC
  5
35B
100
AcDbEntity
  8
0
100
AcDbCircle
 62
7
  6
CONTINUOUS
 10
6.1705228501
 20
5.0414650282
 40
0.2234018353
100
AcDbArc
 50
199.4519805638
 51
200.6886807789
  0
ARC
  5
35C
100
AcDbEntity
  8
0
100
AcDbCircle
 62
7
  6
CONTINUOUS
 10
6.1618125448
 20
5.0449437421
 40
0.2147486891
100
AcDbArc
 50
199.888774847
 51
201.1483754071
  0
ARC
  5
35D
100
AcDbEntity
  8
0
100
AcDbCircle
 62
7
  6
CONTINUOUS
 10
6.151635411
 20
5.047430454
 40
0.204645745
100
AcDbArc
 50
200.4384753317
 51
201.7264540843
  0
ARC
  5
35E
100
AcDbEntity
  8
0
100
AcDbCircle
 62
7
  6
CONTINUOUS
 10
6.1401895349
 20
5.0489225792
 40
0.1932946634
100
AcDbArc
 50
201.1148077923
 51
202.4370122098
  0
ARC
  5
35F
100
AcDbEntity
  8
0
100
AcDbCircle
 62
7
  6
CONTINUOUS
 10
6.1276976974
 20
5.0494254747
 40
0.1809232037
100
AcDbArc
 50
201.9356287421
 51
203.2983222631
  0
ARC
  5
360
100
AcDbEntity
  8
0
100
AcDbCircle
 62
7
  6
CONTINUOUS
 10
6.1155839785
 20
5.0494741014
 40
0.1690720581
100
AcDbArc
 50
203.2210971
 51
204.3297851114
  0
ARC
  5
361
100
AcDbEntity
  8
0
100
AcDbCircle
 62
7
  6
CONTINUOUS
 10
6.1114220014
 20
5.0476821963
 40
0.1645407291
100
AcDbArc
 50
202.9206647252
 51
203.2190922126
  0
ARC
  5
362
100
AcDbEntity
  8
0
100
AcDbCircle
 62
7
  6
CONTINUOUS
 10
6.1011669796
 20
5.0478119387
 40
0.1548030517
100
AcDbArc
 50
204.2757522102
 51
205.5715360489
  0
ARC
  5
363
100
AcDbEntity
  8
0
100
AcDbCircle
 62
7
  6
CONTINUOUS
 10
6.0886073901
 20
5.0462734408
 40
0.1426877808
100
AcDbArc
 50
206.0492382331
 51
206.8825637785
  0
ARC
  5
364
100
AcDbEntity
  8
0
100
AcDbCircle
 62
7
  6
CONTINUOUS
 10
6.084751342
 20
5.0443787128
 40
0.1383913846
100
AcDbArc
 50
205.7018835138
 51
206.0455544064
  0
ARC
  5
365
100
AcDbEntity
  8
0
100
AcDbCircle
 62
7
  6
CONTINUOUS
 10
6.075045203
 20
5.0434587546
 40
0.1295695256
100
AcDbArc
 50
207.8256546121
 51
208.8227355903
  0
ARC
  5
366
100
AcDbEntity
  8
0
100
AcDbCircle
 62
7
  6
CONTINUOUS
 10
6.0706198835
 20
5.0411095815
 40
0.1245593439
100
AcDbArc
 50
207.2380364142
 51
207.8201896872
  0
ARC
  5
367
100
AcDbEntity
  8
0
100
AcDbCircle
 62
7
  6
CONTINUOUS
 10
6.0598398803
 20
5.0388013107
 40
0.1146487512
100
AcDbArc
 50
209.3146590588
 51
210.9617682952
  0
ARC
  5
368
100
AcDbEntity
  8
0
100
AcDbCircle
 62
7
  6
CONTINUOUS
 10
5.9875474256
 20
5.0515519914
 40
0.110929361
100
AcDbArc
 50
255.5531588819
 51
256.4340496255
  0
ARC
  5
369
100
AcDbEntity
  8
0
100
AcDbCircle
 62
7
  6
CONTINUOUS
 10
6.0596417853
 20
5.0314730433
 40
0.11016
100
AcDbArc
 50
207.0444559774
 51
265.1520843475
  0
ARC
  5
36A
100
AcDbEntity
  8
0
100
AcDbCircle
 62
7
  6
CONTINUOUS
 10
6.0464756883
 20
5.0341834771
 40
0.101920408
100
AcDbArc
 50
211.8195248283
 51
213.542382815
  0
ARC
  5
36B
100
AcDbEntity
  8
0
100
AcDbCircle
 62
7
  6
CONTINUOUS
 10
6.0339185172
 20
5.0290640462
 40
0.0902629064
100
AcDbArc
 50
214.8815348006
 51
216.6781386821
  0
ARC
  5
36C
100
AcDbEntity
  8
0
100
AcDbCircle
 62
7
  6
CONTINUOUS
 10
6.0224127778
 20
5.0236969389
 40
0.0800828277
100
AcDbArc
 50
218.6529244279
 51
220.5110398081
  0
ARC
  5
36D
100
AcDbEntity
  8
0
100
AcDbCircle
 62
7
  6
CONTINUOUS
 10
5.9909880088
 20
5.018655056
 40
0.0741248158
100
AcDbArc
 50
245.1798903902
 51
246.5813396346
  0
ARC
  5
36E
100
AcDbEntity
  8
0
100
AcDbCircle
 62
7
  6
CONTINUOUS
 10
6.0121824164
 20
5.018508014
 40
0.0719113865
100
AcDbArc
 50
223.329404276
 51
225.2181280044
  0
SPLINE
  5
36F
100
AcDbEntity
  8
0
100
AcDbSpline
 62
7
  6
CONTINUOUS
 70
0
 71
3
 72
23
 73
19
 74
0
 42
0.0000001
 43
0.0000001
 44
0.0000000001
 40
0.0
 40
0.0
 40
0.0
 40
0.0
 40
0.0454604477
 40
0.0915006579
 40
0.1386740388
 40
0.1874859217
 40
0.2383791962
 40
0.2917277453
 40
0.3478362496
 40
0.4069441278
 40
0.4692316996
 40
0.5348270697
 40
0.6038127881
 40
0.6762319621
 40
0.7520935578
 40
0.831376877
 40
0.9140354091
 40
1.0
 40
1.0
 40
1.0
 40
1.0
 10
4.5207592035
 20
4.6623892528
 30
0.0
 10
4.5207592035
 20
4.6638579933
 30
0.0
 10
4.5209422451
 20
4.6668173547
 30
0.0
 10
4.5217629896
 20
4.6712322286
 30
0.0
 10
4.5231271176
 20
4.6756239277
 30
0.0
 10
4.525029614
 20
4.6799809609
 30
0.0
 10
4.527464372
 20
4.6842939363
 30
0.0
 10
4.5304245322
 20
4.6885538437
 30
0.0
 10
4.5339025851
 20
4.6927521597
 30
0.0
 10
4.5378903239
 20
4.6968805087
 30
0.0
 10
4.5423787415
 20
4.7009305806
 30
0.0
 10
4.5473579306
 20
4.7048940867
 30
0.0
 10
4.5528170138
 20
4.708762777
 30
0.0
 10
4.5587441073
 20
4.7125284781
 30
0.0
 10
4.565126299
 20
4.7161831331
 30
0.0
 10
4.571949697
 20
4.7197188615
 30
0.0
 10
4.5791992865
 20
4.7231279323
 30
0.0
 10
4.5842096953
 20
4.7252701038
 30
0.0
 10
4.5867807508
 20
4.7263205131
 30
0.0
  0
SPLINE
  5
370
100
AcDbEntity
  8
0
100
AcDbSpline
 62
7
  6
CONTINUOUS
 70
0
 71
3
 72
34
 73
30
 74
0
 42
0.0000001
 43
0.0000001
 44
0.0000000001
 40
0.0
 40
0.0
 40
0.0
 40
0.0
 40
0.0841098544
 40
0.1675359821
 40
0.2496056844
 40
0.3296687649
 40
0.4071094645
 40
0.4446692731
 40
0.4813650894
 40
0.517135778
 40
0.5519251779
 40
0.5856827464
 40
0.6183642735
 40
0.6499327092
 40
0.680359099
 40
0.7096236631
 40
0.7377170388
 40
0.764641674
 40
0.7904133906
 40
0.8150630435
 40
0.8386381577
 40
0.8612043469
 40
0.8828461157
 40
0.9036666203
 40
0.9237857925
 40
0.9433367993
 40
0.9624603255
 40
0.9813011307
 40
1.0
 40
1.0
 40
1.0
 40
1.0
 10
4.7651342007
 20
4.5222671689
 30
0.0
 10
4.7572372039
 20
4.5222671688
 30
0.0
 10
4.7415057578
 20
4.522563512
 30
0.0
 10
4.7181028791
 20
4.5238947051
 30
0.0
 10
4.6951470323
 20
4.5260995518
 30
0.0
 10
4.6728562406
 20
4.5291576902
 30
0.0
 10
4.6548290416
 20
4.5324263344
 30
0.0
 10
4.6409120698
 20
4.5354600978
 30
0.0
 10
4.6308744801
 20
4.5379063645
 30
0.0
 10
4.6211539721
 20
4.540541343
 30
0.0
 10
4.6117725818
 20
4.5433596011
 30
0.0
 10
4.6027513719
 20
4.5463554534
 30
0.0
 10
4.5941102924
 20
4.5495231178
 30
0.0
 10
4.5858681402
 20
4.5528567967
 30
0.0
 10
4.5780425109
 20
4.556350805
 30
0.0
 10
4.570649782
 20
4.5599997193
 30
0.0
 10
4.5637051364
 20
4.5637985554
 30
0.0
 10
4.55722265
 20
4.5677429723
 30
0.0
 10
4.5512154788
 20
4.5718294898
 30
0.0
 10
4.5456961908
 20
4.5760556877
 30
0.0
 10
4.5406772938
 20
4.580420322
 30
0.0
 10
4.5361720119
 20
4.584923235
 30
0.0
 10
4.5321952945
 20
4.5895648716
 30
0.0
 10
4.5287649651
 20
4.5943451387
 30
0.0
 10
4.525902575
 20
4.599261417
 30
0.0
 10
4.5236335445
 20
4.6043055273
 30
0.0
 10
4.5219852201
 20
4.609461028
 30
0.0
 10
4.5209836452
 20
4.6146990108
 30
0.0
 10
4.5207592006
 20
4.6182275626
 30
0.0
 10
4.5207592006
 20
4.6199831822
 30
0.0
  0
SPLINE
  5
371
100
AcDbEntity
  8
0
100
AcDbSpline
 62
7
  6
CONTINUOUS
 70
0
 71
3
 72
34
 73
30
 74
0
 42
0.0000001
 43
0.0000001
 44
0.0000000001
 40
0.0
 40
0.0
 40
0.0
 40
0.0
 40
0.0186988647
 40
0.0375396728
 40
0.0566632008
 40
0.0762142119
 40
0.0963333891
 40
0.1171538994
 40
0.1387956741
 40
0.1613618693
 40
0.1849369892
 40
0.2095866474
 40
0.235358369
 40
0.2622830086
 40
0.2903763881
 40
0.3196409554
 40
0.3500673477
 40
0.3816357854
 40
0.4143173137
 40
0.4480748827
 40
0.4828642824
 40
0.5186349699
 40
0.5553307846
 40
0.5928905909
 40
0.6703312838
 40
0.7503943552
 40
0.8324640461
 40
0.9158901609
 40
1.0
 40
1.0
 40
1.0
 40
1.0
 10
5.0095092006
 20
4.6199831885
 30
0.0
 10
5.0095092006
 20
4.6182275693
 30
0.0
 10
5.009284756
 20
4.6146990177
 30
0.0
 10
5.0082831816
 20
4.6094610347
 30
0.0
 10
5.0066348569
 20
4.6043055332
 30
0.0
 10
5.0043658261
 20
4.5992614218
 30
0.0
 10
5.0015034352
 20
4.5943451423
 30
0.0
 10
4.9980731047
 20
4.589564874
 30
0.0
 10
4.994096386
 20
4.5849232363
 30
0.0
 10
4.9895911026
 20
4.5804203223
 30
0.0
 10
4.9845722041
 20
4.5760556873
 30
0.0
 10
4.9790529146
 20
4.5718294887
 30
0.0
 10
4.973045742
 20
4.5677429709
 30
0.0
 10
4.9665632542
 20
4.5637985537
 30
0.0
 10
4.9596186074
 20
4.5599997174
 30
0.0
 10
4.9522258774
 20
4.556350803
 30
0.0
 10
4.9444002472
 20
4.5528567947
 30
0.0
 10
4.9361580943
 20
4.549523116
 30
0.0
 10
4.9275170144
 20
4.5463554518
 30
0.0
 10
4.9184958042
 20
4.5433595996
 30
0.0
 10
4.9091144138
 20
4.5405413418
 30
0.0
 10
4.8993939059
 20
4.5379063635
 30
0.0
 10
4.8893563165
 20
4.5354600971
 30
0.0
 10
4.8754393456
 20
4.5324263341
 30
0.0
 10
4.857412148
 20
4.5291576903
 30
0.0
 10
4.8351213587
 20
4.5260995522
 30
0.0
 10
4.8121655149
 20
4.5238947056
 30
0.0
 10
4.7887626396
 20
4.5225635124
 30
0.0
 10
4.7730311961
 20
4.522267169
 30
0.0
 10
4.7651342007
 20
4.5222671689
 30
0.0
  0
SPLINE
  5
372
100
AcDbEntity
  8
0
100
AcDbSpline
 62
7
  6
CONTINUOUS
 70
0
 71
3
 72
30
 73
26
 74
0
 42
0.0000001
 43
0.0000001
 44
0.0000000001
 40
0.0
 40
0.0
 40
0.0
 40
0.0
 40
0.229110597
 40
0.3345392644
 40
0.4333591762
 40
0.525224531
 40
0.6097859336
 40
0.686705999
 40
0.7556829755
 40
0.8164414268
 40
0.8687358579
 40
0.8916452083
 40
0.9123656131
 40
0.9308754848
 40
0.9471592997
 40
0.961202055
 40
0.9729887782
 40
0.982513526
 40
0.9897754367
 40
0.9947728471
 40
0.9975000748
 40
0.9980089178
 40
0.9980489881
 40
0.9981520769
 40
1.0
 40
1.0
 40
1.0
 40
1.0
 10
4.9519972412
 20
4.7112427633
 30
0.0
 10
4.9525942032
 20
4.7101856282
 30
0.0
 10
4.9535064042
 20
4.7086642794
 30
0.0
 10
4.9547676241
 20
4.7067450685
 30
0.0
 10
4.9556638136
 20
4.7054568533
 30
0.0
 10
4.9565278005
 20
4.7042815854
 30
0.0
 10
4.9573504917
 20
4.7032205515
 30
0.0
 10
4.9581229995
 20
4.702274595
 30
0.0
 10
4.9588364937
 20
4.7014437444
 30
0.0
 10
4.959482553
 20
4.7007273885
 30
0.0
 10
4.9599776745
 20
4.7002039221
 30
0.0
 10
4.9603336401
 20
4.6998410685
 30
0.0
 10
4.9605669339
 20
4.6996086866
 30
0.0
 10
4.9607776978
 20
4.6994034736
 30
0.0
 10
4.9609651476
 20
4.6992250306
 30
0.0
 10
4.96112844
 20
4.6990730001
 30
0.0
 10
4.9612670545
 20
4.6989467523
 30
0.0
 10
4.9613797718
 20
4.6988462542
 30
0.0
 10
4.9614675265
 20
4.6987697424
 30
0.0
 10
4.9615262539
 20
4.6987194911
 30
0.0
 10
4.9615622403
 20
4.6986894156
 30
0.0
 10
4.9615736213
 20
4.6986800034
 30
0.0
 10
4.9615770935
 20
4.6986771774
 30
0.0
 10
4.9615626921
 20
4.6986888748
 30
0.0
 10
4.9615600689
 20
4.6986908531
 30
0.0
 10
4.9615523936
 20
4.6986969337
 30
0.0
  0
SPLINE
  5
373
100
AcDbEntity
  8
0
100
AcDbSpline
 62
7
  6
CONTINUOUS
 70
0
 71
3
 72
30
 73
26
 74
0
 42
0.0000001
 43
0.0000001
 44
0.0000000001
 40
0.0
 40
0.0
 40
0.0
 40
0.0
 40
0.0018378538
 40
0.0019402817
 40
0.0019804371
 40
0.0024880569
 40
0.0052095992
 40
0.0102015821
 40
0.0174612958
 40
0.0269874593
 40
0.0387776113
 40
0.0528208636
 40
0.0691045206
 40
0.0876155152
 40
0.1083352067
 40
0.1312438485
 40
0.1835412326
 40
0.2443001835
 40
0.3132786281
 40
0.3902009668
 40
0.4747616307
 40
0.5666325898
 40
0.6654557508
 40
0.7708805975
 40
1.0
 40
1.0
 40
1.0
 40
1.0
 10
4.5687160055
 20
4.6986969287
 30
0.0
 10
4.5687083723
 20
4.6986908812
 30
0.0
 10
4.5687057509
 20
4.6986889037
 30
0.0
 10
4.5686914415
 20
4.6986772814
 30
0.0
 10
4.5686949077
 20
4.6986801053
 30
0.0
 10
4.5687062547
 20
4.6986894863
 30
0.0
 10
4.5687421975
 20
4.698719532
 30
0.0
 10
4.5688008627
 20
4.6987697279
 30
0.0
 10
4.5688885912
 20
4.6988462253
 30
0.0
 10
4.5690013153
 20
4.6989467278
 30
0.0
 10
4.5691399544
 20
4.6990729862
 30
0.0
 10
4.5693032565
 20
4.6992250281
 30
0.0
 10
4.5694907058
 20
4.6994034748
 30
0.0
 10
4.5697014675
 20
4.6996086829
 30
0.0
 10
4.5699347556
 20
4.6998410582
 30
0.0
 10
4.5702907166
 20
4.7002039124
 30
0.0
 10
4.5707858421
 20
4.7007273737
 30
0.0
 10
4.5714318993
 20
4.7014437385
 30
0.0
 10
4.5721454036
 20
4.7022745792
 30
0.0
 10
4.5729178858
 20
4.7032205429
 30
0.0
 10
4.573740614
 20
4.7042815595
 30
0.0
 10
4.5746045732
 20
4.7054568625
 30
0.0
 10
4.5755007806
 20
4.706745056
 30
0.0
 10
4.576761988
 20
4.7086642688
 30
0.0
 10
4.5776741856
 20
4.7101856054
 30
0.0
 10
4.5782711577
 20
4.7112427585
 30
0.0
  0
SPLINE
  5
374
100
AcDbEntity
  8
0
100
AcDbSpline
 62
7
  6
CONTINUOUS
 70
0
 71
3
 72
37
 73
33
 74
0
 42
0.0000001
 43
0.0000001
 44
0.0000000001
 40
0.0
 40
0.0
 40
0.0
 40
0.0
 40
0.0312596665
 40
0.0625186509
 40
0.0937774589
 40
0.1250358597
 40
0.1562934062
 40
0.1875480794
 40
0.218801398
 40
0.2500516359
 40
0.2812988296
 40
0.312542992
 40
0.3437852292
 40
0.3750270396
 40
0.4062712033
 40
0.4375207225
 40
0.5000075458
 40
0.5624941903
 40
0.5937434935
 40
0.6249873479
 40
0.6562287248
 40
0.6874703516
 40
0.7187137112
 40
0.7499598152
 40
0.7812086038
 40
0.8124599177
 40
0.8437129795
 40
0.8749684659
 40
0.906224907
 40
0.9374824586
 40
0.9687405459
 40
1.0
 40
1.0
 40
1.0
 40
1.0
 10
4.8836611811
 20
4.8322562413
 30
0.0
 10
4.8821941617
 20
4.8348541248
 30
0.0
 10
4.8790823381
 20
4.8399517069
 30
0.0
 10
4.8739068765
 20
4.8472619457
 30
0.0
 10
4.868247209
 20
4.8542044481
 30
0.0
 10
4.8621302449
 20
4.8607472364
 30
0.0
 10
4.8555850018
 20
4.8668609988
 30
0.0
 10
4.8486424279
 20
4.8725186952
 30
0.0
 10
4.8413353975
 20
4.877695849
 30
0.0
 10
4.8336983025
 20
4.8823709504
 30
0.0
 10
4.8257670487
 20
4.8865254765
 30
0.0
 10
4.8175784716
 20
4.8901444077
 30
0.0
 10
4.80917001
 20
4.893216284
 30
0.0
 10
4.8005793699
 20
4.8957333614
 30
0.0
 10
4.7918434582
 20
4.8976914558
 30
0.0
 10
4.7800546906
 20
4.8995546662
 30
0.0
 10
4.765132046
 20
4.9004853533
 30
0.0
 10
4.75020945
 20
4.8995542199
 30
0.0
 10
4.7384208048
 20
4.8976906657
 30
0.0
 10
4.729685041
 20
4.8957323304
 30
0.0
 10
4.7210945994
 20
4.8932150354
 30
0.0
 10
4.7126863917
 20
4.8901429789
 30
0.0
 10
4.704498131
 20
4.8865239239
 30
0.0
 10
4.6965672689
 20
4.8823693384
 30
0.0
 10
4.6889306533
 20
4.8776942865
 30
0.0
 10
4.6816241187
 20
4.8725172716
 30
0.0
 10
4.6746820502
 20
4.8668598147
 30
0.0
 10
4.6681372666
 20
4.8607463489
 30
0.0
 10
4.6620207064
 20
4.8542038742
 30
0.0
 10
4.6563613051
 20
4.8472616626
 30
0.0
 10
4.6511859923
 20
4.8399515955
 30
0.0
 10
4.648074224
 20
4.8348541041
 30
0.0
 10
4.6466072146
 20
4.8322562383
 30
0.0
  0
SPLINE
  5
375
100
AcDbEntity
  8
0
100
AcDbSpline
 62
7
  6
CONTINUOUS
 70
0
 71
3
 72
23
 73
19
 74
0
 42
0.0000001
 43
0.0000001
 44
0.0000000001
 40
0.0
 40
0.0
 40
0.0
 40
0.0
 40
0.0859645911
 40
0.1686231231
 40
0.2479064425
 40
0.3237680383
 40
0.3961872123
 40
0.4651729308
 40
0.530768301
 40
0.5930558727
 40
0.6521637509
 40
0.7082722553
 40
0.7616208042
 40
0.8125140787
 40
0.8613259616
 40
0.9084993423
 40
0.9545395524
 40
1.0
 40
1.0
 40
1.0
 40
1.0
 10
4.9434876469
 20
4.7263205181
 30
0.0
 10
4.9460587024
 20
4.7252701088
 30
0.0
 10
4.9510691114
 20
4.7231279375
 30
0.0
 10
4.958318701
 20
4.7197188668
 30
0.0
 10
4.9651420991
 20
4.7161831386
 30
0.0
 10
4.9715242911
 20
4.7125284837
 30
0.0
 10
4.9774513848
 20
4.7087627828
 30
0.0
 10
4.9829104681
 20
4.7048940926
 30
0.0
 10
4.9878896574
 20
4.7009305866
 30
0.0
 10
4.9923780751
 20
4.6968805148
 30
0.0
 10
4.9963658141
 20
4.6927521658
 30
0.0
 10
4.9998438671
 20
4.68855385
 30
0.0
 10
5.0028040275
 20
4.6842939425
 30
0.0
 10
5.0052387856
 20
4.6799809672
 30
0.0
 10
5.0071412822
 20
4.675623934
 30
0.0
 10
5.0085054103
 20
4.671232235
 30
0.0
 10
5.0093261549
 20
4.666817361
 30
0.0
 10
5.0095091966
 20
4.6638579996
 30
0.0
 10
5.0095091966
 20
4.6623892591
 30
0.0
  0
SPLINE
  5
376
100
AcDbEntity
  8
0
100
AcDbSpline
 62
7
  6
CONTINUOUS
 70
0
 71
3
 72
43
 73
39
 74
0
 42
0.0000001
 43
0.0000001
 44
0.0000000001
 40
0.0
 40
0.0
 40
0.0
 40
0.0
 40
0.031200585
 40
0.0468060329
 40
0.0624123292
 40
0.0936183206
 40
0.1248296093
 40
0.1404424222
 40
0.156057077
 40
0.1872830121
 40
0.2185177411
 40
0.2497618042
 40
0.2810153858
 40
0.3122783003
 40
0.3435500062
 40
0.3748296246
 40
0.4061159704
 40
0.4374076019
 40
0.4687028751
 40
0.5000000036
 40
0.5312971319
 40
0.562592405
 40
0.5938840361
 40
0.6251703815
 40
0.6564499994
 40
0.6877217046
 40
0.7189846185
 40
0.7502381994
 40
0.7814822617
 40
0.8127169901
 40
0.8439429245
 40
0.8595575791
 40
0.8751703917
 40
0.90638168
 40
0.9375876711
 40
0.9531939673
 40
0.968799415
 40
1.0
 40
1.0
 40
1.0
 40
1.0
 10
5.5395994366
 20
3.3470512434
 30
0.0
 10
5.5395994366
 20
3.3436220271
 30
0.0
 10
5.539345547
 20
3.3384729252
 30
0.0
 10
5.5385024661
 20
3.3316632874
 30
0.0
 10
5.5373251669
 20
3.3249022311
 30
0.0
 10
5.5352309353
 20
3.3165712589
 30
0.0
 10
5.5323272054
 20
3.3084859392
 30
0.0
 10
5.5295367311
 20
3.3022136671
 30
0.0
 10
5.5264406141
 20
3.2960847498
 30
0.0
 10
5.5220095403
 20
3.2887185875
 30
0.0
 10
5.5158502923
 20
3.2804441369
 30
0.0
 10
5.5089068672
 20
3.2728110531
 30
0.0
 10
5.5012464882
 20
3.2658933449
 30
0.0
 10
5.4929429213
 20
3.2597573948
 30
0.0
 10
5.4840762032
 20
3.2544622096
 30
0.0
 10
5.4747317178
 20
3.2500586647
 30
0.0
 10
5.464999429
 20
3.2465890642
 30
0.0
 10
5.4549730082
 20
3.2440867042
 30
0.0
 10
5.4447489239
 20
3.2425756186
 30
0.0
 10
5.4344255354
 20
3.2420703123
 30
0.0
 10
5.424102147
 20
3.2425756188
 30
0.0
 10
5.4138780628
 20
3.2440867046
 30
0.0
 10
5.4038516421
 20
3.2465890648
 30
0.0
 10
5.3941193535
 20
3.2500586655
 30
0.0
 10
5.3847748684
 20
3.2544622104
 30
0.0
 10
5.3759081506
 20
3.2597573957
 30
0.0
 10
5.3676045839
 20
3.2658933458
 30
0.0
 10
5.3599442051
 20
3.272811054
 30
0.0
 10
5.3530007802
 20
3.2804441377
 30
0.0
 10
5.3468415325
 20
3.2887185881
 30
0.0
 10
5.3424104589
 20
3.2960847503
 30
0.0
 10
5.3393143419
 20
3.3022136675
 30
0.0
 10
5.3365238676
 20
3.3084859395
 30
0.0
 10
5.3336201378
 20
3.3165712591
 30
0.0
 10
5.3315259063
 20
3.3249022313
 30
0.0
 10
5.3303486071
 20
3.3316632874
 30
0.0
 10
5.3295055262
 20
3.3384729252
 30
0.0
 10
5.3292516366
 20
3.3436220271
 30
0.0
 10
5.3292516366
 20
3.3470512434
 30
0.0
  0
SPLINE
  5
377
100
AcDbEntity
  8
0
100
AcDbSpline
 62
7
  6
CONTINUOUS
 70
0
 71
3
 72
43
 73
39
 74
0
 42
0.0000001
 43
0.0000001
 44
0.0000000001
 40
0.0
 40
0.0
 40
0.0
 40
0.0
 40
0.031200585
 40
0.0468060329
 40
0.0624123292
 40
0.0936183206
 40
0.1248296093
 40
0.1404424222
 40
0.156057077
 40
0.1872830121
 40
0.2185177411
 40
0.2497618042
 40
0.2810153858
 40
0.3122783003
 40
0.3435500062
 40
0.3748296246
 40
0.4061159704
 40
0.4374076019
 40
0.4687028751
 40
0.5000000036
 40
0.5312971319
 40
0.562592405
 40
0.5938840361
 40
0.6251703815
 40
0.6564499994
 40
0.6877217046
 40
0.7189846185
 40
0.7502381994
 40
0.7814822617
 40
0.8127169901
 40
0.8439429245
 40
0.8595575791
 40
0.8751703917
 40
0.90638168
 40
0.9375876711
 40
0.9531939673
 40
0.968799415
 40
1.0
 40
1.0
 40
1.0
 40
1.0
 10
5.5395994366
 20
3.3368278747
 30
0.0
 10
5.5395994366
 20
3.3333986585
 30
0.0
 10
5.539345547
 20
3.3282495565
 30
0.0
 10
5.5385024661
 20
3.3214399188
 30
0.0
 10
5.5373251669
 20
3.3146788625
 30
0.0
 10
5.5352309353
 20
3.3063478903
 30
0.0
 10
5.5323272054
 20
3.2982625706
 30
0.0
 10
5.5295367311
 20
3.2919902985
 30
0.0
 10
5.5264406141
 20
3.2858613811
 30
0.0
 10
5.5220095403
 20
3.2784952189
 30
0.0
 10
5.5158502923
 20
3.2702207683
 30
0.0
 10
5.5089068672
 20
3.2625876845
 30
0.0
 10
5.5012464882
 20
3.2556699763
 30
0.0
 10
5.4929429213
 20
3.2495340262
 30
0.0
 10
5.4840762032
 20
3.2442388409
 30
0.0
 10
5.4747317178
 20
3.2398352961
 30
0.0
 10
5.464999429
 20
3.2363656956
 30
0.0
 10
5.4549730082
 20
3.2338633355
 30
0.0
 10
5.4447489239
 20
3.2323522499
 30
0.0
 10
5.4344255354
 20
3.2318469437
 30
0.0
 10
5.424102147
 20
3.2323522501
 30
0.0
 10
5.4138780628
 20
3.233863336
 30
0.0
 10
5.4038516421
 20
3.2363656962
 30
0.0
 10
5.3941193535
 20
3.2398352968
 30
0.0
 10
5.3847748684
 20
3.2442388418
 30
0.0
 10
5.3759081506
 20
3.2495340271
 30
0.0
 10
5.3676045839
 20
3.2556699772
 30
0.0
 10
5.3599442051
 20
3.2625876854
 30
0.0
 10
5.3530007802
 20
3.270220769
 30
0.0
 10
5.3468415325
 20
3.2784952195
 30
0.0
 10
5.3424104589
 20
3.2858613816
 30
0.0
 10
5.3393143419
 20
3.2919902988
 30
0.0
 10
5.3365238676
 20
3.2982625709
 30
0.0
 10
5.3336201378
 20
3.3063478905
 30
0.0
 10
5.3315259063
 20
3.3146788626
 30
0.0
 10
5.3303486071
 20
3.3214399188
 30
0.0
 10
5.3295055262
 20
3.3282495566
 30
0.0
 10
5.3292516366
 20
3.3333986585
 30
0.0
 10
5.3292516366
 20
3.3368278747
 30
0.0
  0
SPLINE
  5
378
100
AcDbEntity
  8
0
100
AcDbSpline
 62
7
  6
CONTINUOUS
 70
0
 71
3
 72
43
 73
39
 74
0
 42
0.0000001
 43
0.0000001
 44
0.0000000001
 40
0.0
 40
0.0
 40
0.0
 40
0.0
 40
0.0311895877
 40
0.0467896418
 40
0.062390742
 40
0.0935870045
 40
0.1247897698
 40
0.1403988808
 40
0.1560102552
 40
0.1872310103
 40
0.2184625615
 40
0.2497055712
 40
0.2809602571
 40
0.3122263929
 40
0.3435033092
 40
0.3747899244
 40
0.4060847867
 40
0.4373861253
 40
0.468691926
 40
0.5
 40
0.531308074
 40
0.5626138747
 40
0.5939152133
 40
0.6252100756
 40
0.6564966908
 40
0.6877736071
 40
0.7190397429
 40
0.7502944288
 40
0.7815374385
 40
0.8127689897
 40
0.8439897448
 40
0.8596011192
 40
0.8752102302
 40
0.9064129955
 40
0.937609258
 40
0.9532103582
 40
0.9688104123
 40
1.0
 40
1.0
 40
1.0
 40
1.0
 10
5.5293994366
 20
3.3479402319
 30
0.0
 10
5.5293994366
 20
3.3448452521
 30
0.0
 10
5.5291702453
 20
3.3401980069
 30
0.0
 10
5.5284091781
 20
3.3340520641
 30
0.0
 10
5.527346392
 20
3.3279498603
 30
0.0
 10
5.5254558074
 20
3.3204305836
 30
0.0
 10
5.5228344291
 20
3.3131329676
 30
0.0
 10
5.5203152476
 20
3.3074716357
 30
0.0
 10
5.5175200068
 20
3.3019394426
 30
0.0
 10
5.5135193864
 20
3.2952902562
 30
0.0
 10
5.5079583307
 20
3.287820954
 30
0.0
 10
5.5016889483
 20
3.2809302947
 30
0.0
 10
5.4947718816
 20
3.2746851336
 30
0.0
 10
5.4872736975
 20
3.2691454538
 30
0.0
 10
5.4792666177
 20
3.2643646444
 30
0.0
 10
5.4708277669
 20
3.2603886908
 30
0.0
 10
5.4620383995
 20
3.2572558915
 30
0.0
 10
5.4529831583
 20
3.2549963868
 30
0.0
 10
5.4437492344
 20
3.2536319202
 30
0.0
 10
5.4344255366
 20
3.2531756442
 30
0.0
 10
5.4251018388
 20
3.2536319202
 30
0.0
 10
5.4158679149
 20
3.2549963868
 30
0.0
 10
5.4068126737
 20
3.2572558915
 30
0.0
 10
5.3980233063
 20
3.2603886908
 30
0.0
 10
5.3895844555
 20
3.2643646444
 30
0.0
 10
5.3815773757
 20
3.2691454538
 30
0.0
 10
5.3740791915
 20
3.2746851336
 30
0.0
 10
5.3671621249
 20
3.2809302947
 30
0.0
 10
5.3608927425
 20
3.287820954
 30
0.0
 10
5.3553316868
 20
3.2952902562
 30
0.0
 10
5.3513310664
 20
3.3019394426
 30
0.0
 10
5.3485358255
 20
3.3074716357
 30
0.0
 10
5.3460166441
 20
3.3131329676
 30
0.0
 10
5.3433952658
 20
3.3204305836
 30
0.0
 10
5.3415046811
 20
3.3279498603
 30
0.0
 10
5.3404418951
 20
3.3340520641
 30
0.0
 10
5.3396808278
 20
3.3401980069
 30
0.0
 10
5.3394516366
 20
3.3448452521
 30
0.0
 10
5.3394516366
 20
3.3479402319
 30
0.0
  0
SPLINE
  5
379
100
AcDbEntity
  8
0
100
AcDbSpline
 62
7
  6
CONTINUOUS
 70
0
 71
3
 72
23
 73
19
 74
0
 42
0.0000001
 43
0.0000001
 44
0.0000000001
 40
0.0
 40
0.0
 40
0.0
 40
0.0
 40
0.062805659
 40
0.1255984514
 40
0.1883691651
 40
0.2511063971
 40
0.3138012374
 40
0.3764461667
 40
0.4390355854
 40
0.5015660235
 40
0.5640362721
 40
0.6264474368
 40
0.6888029017
 40
0.7511082004
 40
0.8133707945
 40
0.8756000148
 40
0.9378053029
 40
1.0
 40
1.0
 40
1.0
 40
1.0
 10
4.5626920146
 20
4.8203811768
 30
0.0
 10
4.5626920146
 20
4.8219105092
 30
0.0
 10
4.5628408572
 20
4.8249709464
 30
0.0
 10
4.5635085568
 20
4.8295158822
 30
0.0
 10
4.5646142048
 20
4.8339733068
 30
0.0
 10
4.566147205
 20
4.8382997545
 30
0.0
 10
4.5680927919
 20
4.8424536959
 30
0.0
 10
4.5704322354
 20
4.8463950943
 30
0.0
 10
4.5731430115
 20
4.8500860051
 30
0.0
 10
4.5761990273
 20
4.8534908759
 30
0.0
 10
4.5795708678
 20
4.856576903
 30
0.0
 10
4.5832260611
 20
4.8593143641
 30
0.0
 10
4.5871294051
 20
4.8616768902
 30
0.0
 10
4.5912433234
 20
4.863641715
 30
0.0
 10
4.5955281596
 20
4.8651899005
 30
0.0
 10
4.5999427798
 20
4.8663065162
 30
0.0
 10
4.6044440975
 20
4.866980846
 30
0.0
 10
4.607475412
 20
4.8671311768
 30
0.0
 10
4.6089898673
 20
4.8671311768
 30
0.0
  0
SPLINE
  5
37A
100
AcDbEntity
  8
0
100
AcDbSpline
 62
7
  6
CONTINUOUS
 70
0
 71
3
 72
23
 73
19
 74
0
 42
0.0000001
 43
0.0000001
 44
0.0000000001
 40
0.0
 40
0.0
 40
0.0
 40
0.0
 40
0.0613789531
 40
0.1228015624
 40
0.1843097151
 40
0.2459418472
 40
0.3077314175
 40
0.3697056018
 40
0.4318842734
 40
0.4942792959
 40
0.5568941411
 40
0.6197238351
 40
0.6827552421
 40
0.7459676348
 40
0.8093335201
 40
0.8728199423
 40
0.9363882873
 40
1.0
 40
1.0
 40
1.0
 40
1.0
 10
4.3353167467
 20
4.7736311768
 30
0.0
 10
4.3338412589
 20
4.7736311768
 30
0.0
 10
4.3308870325
 20
4.7737816225
 30
0.0
 10
4.3265007427
 20
4.7744563494
 30
0.0
 10
4.322199065
 20
4.7755736157
 30
0.0
 10
4.3180240971
 20
4.7771225972
 30
0.0
 10
4.3140159338
 20
4.7790883005
 30
0.0
 10
4.3102132323
 20
4.7814516916
 30
0.0
 10
4.3066525886
 20
4.7841899144
 30
0.0
 10
4.3033682595
 20
4.7872765183
 30
0.0
 10
4.3003918218
 20
4.7906817165
 30
0.0
 10
4.2977518576
 20
4.794372662
 30
0.0
 10
4.2954737031
 20
4.7983137825
 30
0.0
 10
4.2935792161
 20
4.8024671382
 30
0.0
 10
4.2920865645
 20
4.8067927242
 30
0.0
 10
4.2910100647
 20
4.8112490532
 30
0.0
 10
4.2903599869
 20
4.8157927558
 30
0.0
 10
4.2902150862
 20
4.8188520157
 30
0.0
 10
4.2902150862
 20
4.8203811768
 30
0.0
  0
SPLINE
  5
37B
100
AcDbEntity
  8
0
100
AcDbSpline
 62
7
  6
CONTINUOUS
 70
0
 71
3
 72
23
 73
19
 74
0
 42
0.0000001
 43
0.0000001
 44
0.0000000001
 40
0.0
 40
0.0
 40
0.0
 40
0.0
 40
0.0613789531
 40
0.1228015624
 40
0.1843097151
 40
0.2459418472
 40
0.3077314175
 40
0.3697056018
 40
0.4318842734
 40
0.4942792959
 40
0.5568941411
 40
0.6197238351
 40
0.6827552421
 40
0.7459676348
 40
0.8093335201
 40
0.8728199423
 40
0.9363882873
 40
1.0
 40
1.0
 40
1.0
 40
1.0
 10
4.4179140474
 20
4.7736311768
 30
0.0
 10
4.4164385596
 20
4.7736311768
 30
0.0
 10
4.4134843332
 20
4.7737816225
 30
0.0
 10
4.4090980434
 20
4.7744563494
 30
0.0
 10
4.4047963657
 20
4.7755736157
 30
0.0
 10
4.4006213978
 20
4.7771225972
 30
0.0
 10
4.3966132344
 20
4.7790883005
 30
0.0
 10
4.392810533
 20
4.7814516916
 30
0.0
 10
4.3892498892
 20
4.7841899144
 30
0.0
 10
4.3859655602
 20
4.7872765183
 30
0.0
 10
4.3829891225
 20
4.7906817165
 30
0.0
 10
4.3803491582
 20
4.794372662
 30
0.0
 10
4.3780710038
 20
4.7983137825
 30
0.0
 10
4.3761765167
 20
4.8024671382
 30
0.0
 10
4.3746838652
 20
4.8067927242
 30
0.0
 10
4.3736073653
 20
4.8112490532
 30
0.0
 10
4.3729572875
 20
4.8157927558
 30
0.0
 10
4.3728123869
 20
4.8188520157
 30
0.0
 10
4.3728123869
 20
4.8203811768
 30
0.0
  0
SPLINE
  5
37C
100
AcDbEntity
  8
0
100
AcDbSpline
 62
7
  6
CONTINUOUS
 70
0
 71
3
 72
23
 73
19
 74
0
 42
0.0000001
 43
0.0000001
 44
0.0000000001
 40
0.0
 40
0.0
 40
0.0
 40
0.0
 40
0.0628482983
 40
0.1256820863
 40
0.1884905897
 40
0.2512609739
 40
0.3139830599
 40
0.3766482853
 40
0.4392502684
 40
0.5017850447
 40
0.5642512225
 40
0.6266500481
 40
0.688985364
 40
0.7512634673
 40
0.8134928733
 40
0.8756839919
 40
0.9378487241
 40
1.0
 40
1.0
 40
1.0
 40
1.0
 10
4.4602710651
 20
4.8203811768
 30
0.0
 10
4.4602710651
 20
4.8219104338
 30
0.0
 10
4.4604196711
 20
4.8249706741
 30
0.0
 10
4.4610863142
 20
4.8295153566
 30
0.0
 10
4.4621902198
 20
4.8339725602
 30
0.0
 10
4.4637208186
 20
4.8382988351
 30
0.0
 10
4.4656633818
 20
4.8424526617
 30
0.0
 10
4.4679992229
 20
4.8463940095
 30
0.0
 10
4.4707058691
 20
4.8500849337
 30
0.0
 10
4.4737572829
 20
4.8534898763
 30
0.0
 10
4.4771241062
 20
4.8565760238
 30
0.0
 10
4.4807739242
 20
4.8593136405
 30
0.0
 10
4.4846715928
 20
4.86167634
 30
0.0
 10
4.4887795913
 20
4.8636413386
 30
0.0
 10
4.4930583128
 20
4.865189676
 30
0.0
 10
4.4974666899
 20
4.8663064266
 30
0.0
 10
4.5019616613
 20
4.8669808202
 30
0.0
 10
4.5049887307
 20
4.8671311768
 30
0.0
 10
4.5065010274
 20
4.8671311768
 30
0.0
  0
SPLINE
  5
37D
100
AcDbEntity
  8
0
100
AcDbSpline
 62
7
  6
CONTINUOUS
 70
0
 71
3
 72
23
 73
19
 74
0
 42
0.0000001
 43
0.0000001
 44
0.0000000001
 40
0.0
 40
0.0
 40
0.0
 40
0.0
 40
0.0621737842
 40
0.1243601531
 40
0.1865712
 40
0.2488180562
 40
0.3111104597
 40
0.3734563777
 40
0.4358617038
 40
0.4983300359
 40
0.5608625441
 40
0.6234579303
 40
0.6861124892
 40
0.7488202522
 40
0.8115732089
 40
0.8743618485
 40
0.9371740964
 40
1.0
 40
1.0
 40
1.0
 40
1.0
 10
4.465280296
 20
4.7736311768
 30
0.0
 10
4.4637669188
 20
4.7736311768
 30
0.0
 10
4.4607377109
 20
4.7737815327
 30
0.0
 10
4.4562395505
 20
4.7744559249
 30
0.0
 10
4.451828046
 20
4.7755726733
 30
0.0
 10
4.447546288
 20
4.7771210081
 30
0.0
 10
4.443435373
 20
4.7790860039
 30
0.0
 10
4.4395349362
 20
4.7814487007
 30
0.0
 10
4.4358825248
 20
4.7841863152
 30
0.0
 10
4.4325133084
 20
4.7872724612
 30
0.0
 10
4.4294597248
 20
4.7906774032
 30
0.0
 10
4.4267511532
 20
4.7943683278
 30
0.0
 10
4.4244136501
 20
4.7983096767
 30
0.0
 10
4.4224697044
 20
4.8024635054
 30
0.0
 10
4.4209380161
 20
4.8067897828
 30
0.0
 10
4.4198333248
 20
4.8112469898
 30
0.0
 10
4.419166207
 20
4.8157916754
 30
0.0
 10
4.4190174949
 20
4.8188519263
 30
0.0
 10
4.4190174949
 20
4.8203811768
 30
0.0
  0
SPLINE
  5
37E
100
AcDbEntity
  8
0
100
AcDbSpline
 62
7
  6
CONTINUOUS
 70
0
 71
3
 72
23
 73
19
 74
0
 42
0.0000001
 43
0.0000001
 44
0.0000000001
 40
0.0
 40
0.0
 40
0.0
 40
0.0
 40
0.0621512759
 40
0.1243160081
 40
0.1865071267
 40
0.2487365327
 40
0.311014636
 40
0.3733499519
 40
0.4357487775
 40
0.4982149553
 40
0.5607497316
 40
0.6233517147
 40
0.6860169401
 40
0.7487390261
 40
0.8115094103
 40
0.8743179137
 40
0.9371517017
 40
1.0
 40
1.0
 40
1.0
 40
1.0
 10
4.5065010274
 20
4.7736311768
 30
0.0
 10
4.5049887307
 20
4.7736311768
 30
0.0
 10
4.5019616613
 20
4.7737815334
 30
0.0
 10
4.4974666899
 20
4.7744559271
 30
0.0
 10
4.4930583128
 20
4.7755726776
 30
0.0
 10
4.4887795913
 20
4.777121015
 30
0.0
 10
4.4846715928
 20
4.7790860137
 30
0.0
 10
4.4807739242
 20
4.7814487132
 30
0.0
 10
4.4771241062
 20
4.7841863298
 30
0.0
 10
4.4737572829
 20
4.7872724773
 30
0.0
 10
4.4707058691
 20
4.7906774199
 30
0.0
 10
4.4679992229
 20
4.7943683442
 30
0.0
 10
4.4656633818
 20
4.7983096919
 30
0.0
 10
4.4637208186
 20
4.8024635186
 30
0.0
 10
4.4621902198
 20
4.8067897934
 30
0.0
 10
4.4610863142
 20
4.811246997
 30
0.0
 10
4.4604196711
 20
4.8157916795
 30
0.0
 10
4.4602710651
 20
4.8188519199
 30
0.0
 10
4.4602710651
 20
4.8203811768
 30
0.0
  0
SPLINE
  5
37F
100
AcDbEntity
  8
0
100
AcDbSpline
 62
7
  6
CONTINUOUS
 70
0
 71
3
 72
23
 73
19
 74
0
 42
0.0000001
 43
0.0000001
 44
0.0000000001
 40
0.0
 40
0.0
 40
0.0
 40
0.0
 40
0.0621946971
 40
0.1243999852
 40
0.1866292055
 40
0.2488917996
 40
0.3111970983
 40
0.3735525632
 40
0.4359637279
 40
0.4984339765
 40
0.5609644146
 40
0.6235538333
 40
0.6861987626
 40
0.7488936029
 40
0.8116308349
 40
0.8744015486
 40
0.937194341
 40
1.0
 40
1.0
 40
1.0
 40
1.0
 10
4.6089898673
 20
4.7736311768
 30
0.0
 10
4.607475412
 20
4.7736311768
 30
0.0
 10
4.6044440975
 20
4.7737815077
 30
0.0
 10
4.5999427798
 20
4.7744558374
 30
0.0
 10
4.5955281596
 20
4.7755724531
 30
0.0
 10
4.5912433234
 20
4.7771206387
 30
0.0
 10
4.5871294051
 20
4.7790854634
 30
0.0
 10
4.5832260611
 20
4.7814479895
 30
0.0
 10
4.5795708678
 20
4.7841854506
 30
0.0
 10
4.5761990273
 20
4.7872714777
 30
0.0
 10
4.5731430115
 20
4.7906763485
 30
0.0
 10
4.5704322354
 20
4.7943672593
 30
0.0
 10
4.5680927919
 20
4.7983086577
 30
0.0
 10
4.566147205
 20
4.8024625991
 30
0.0
 10
4.5646142048
 20
4.8067890468
 30
0.0
 10
4.5635085568
 20
4.8112464715
 30
0.0
 10
4.5628408572
 20
4.8157914072
 30
0.0
 10
4.5626920146
 20
4.8188518445
 30
0.0
 10
4.5626920146
 20
4.8203811768
 30
0.0
  0
SPLINE
  5
380
100
AcDbEntity
  8
0
100
AcDbSpline
 62
7
  6
CONTINUOUS
 70
0
 71
3
 72
29
 73
25
 74
0
 42
0.0000001
 43
0.0000001
 44
0.0000000001
 40
0.0
 40
0.0
 40
0.0
 40
0.0
 40
0.0165845381
 40
0.0340589983
 40
0.0531537235
 40
0.0743843657
 40
0.0980557045
 40
0.1243085336
 40
0.1844904648
 40
0.2541522839
 40
0.3315476604
 40
0.4143756258
 40
0.5
 40
0.5856243742
 40
0.6684523396
 40
0.7458477161
 40
0.8155095352
 40
0.8756914664
 40
0.9019442955
 40
0.9256156343
 40
0.9468462765
 40
0.9659410017
 40
0.9834154619
 40
1.0
 40
1.0
 40
1.0
 40
1.0
 10
4.770086953
 20
4.8882793776
 30
0.0
 10
4.770086953
 20
4.8882169498
 30
0.0
 10
4.770069966
 20
4.8880882113
 30
0.0
 10
4.7699953752
 20
4.8879007487
 30
0.0
 10
4.7698737136
 20
4.8877187712
 30
0.0
 10
4.7697070693
 20
4.8875435421
 30
0.0
 10
4.7694972268
 20
4.887376012
 30
0.0
 10
4.7691461586
 20
4.8871544723
 30
0.0
 10
4.7686080647
 20
4.8869119346
 30
0.0
 10
4.7678609366
 20
4.8866829025
 30
0.0
 10
4.7670112483
 20
4.8865125552
 30
0.0
 10
4.766090837
 20
4.8864075555
 30
0.0
 10
4.7651341972
 20
4.8863720889
 30
0.0
 10
4.7641775573
 20
4.8864075555
 30
0.0
 10
4.763257146
 20
4.8865125552
 30
0.0
 10
4.7624074577
 20
4.8866829025
 30
0.0
 10
4.7616603296
 20
4.8869119345
 30
0.0
 10
4.7611222357
 20
4.8871544722
 30
0.0
 10
4.7607711675
 20
4.8873760119
 30
0.0
 10
4.7605613249
 20
4.887543542
 30
0.0
 10
4.7603946806
 20
4.8877187711
 30
0.0
 10
4.7602730191
 20
4.8879007485
 30
0.0
 10
4.7601984283
 20
4.8880882112
 30
0.0
 10
4.7601814412
 20
4.8882169497
 30
0.0
 10
4.7601814412
 20
4.8882793775
 30
0.0
  0
SPLINE
  5
381
100
AcDbEntity
  8
0
100
AcDbSpline
 62
7
  6
CONTINUOUS
 70
0
 71
3
 72
29
 73
25
 74
0
 42
0.0000001
 43
0.0000001
 44
0.0000000001
 40
0.0
 40
0.0
 40
0.0
 40
0.0
 40
0.0165845381
 40
0.0340589983
 40
0.0531537235
 40
0.0743843657
 40
0.0980557045
 40
0.1243085336
 40
0.1844904648
 40
0.2541522839
 40
0.3315476604
 40
0.4143756258
 40
0.5
 40
0.5856243742
 40
0.6684523396
 40
0.7458477161
 40
0.8155095352
 40
0.8756914664
 40
0.9019442955
 40
0.9256156343
 40
0.9468462765
 40
0.9659410017
 40
0.9834154619
 40
1.0
 40
1.0
 40
1.0
 40
1.0
 10
4.7601814412
 20
4.8882793775
 30
0.0
 10
4.7601814412
 20
4.8883418053
 30
0.0
 10
4.7601984283
 20
4.8884705438
 30
0.0
 10
4.760273019
 20
4.8886580065
 30
0.0
 10
4.7603946806
 20
4.8888399839
 30
0.0
 10
4.7605613249
 20
4.889015213
 30
0.0
 10
4.7607711675
 20
4.8891827432
 30
0.0
 10
4.7611222356
 20
4.8894042828
 30
0.0
 10
4.7616603296
 20
4.8896468206
 30
0.0
 10
4.7624074576
 20
4.8898758526
 30
0.0
 10
4.7632571459
 20
4.8900461999
 30
0.0
 10
4.7641775573
 20
4.8901511996
 30
0.0
 10
4.7651341971
 20
4.8901866663
 30
0.0
 10
4.7660908369
 20
4.8901511996
 30
0.0
 10
4.7670112483
 20
4.8900462
 30
0.0
 10
4.7678609366
 20
4.8898758527
 30
0.0
 10
4.7686080647
 20
4.8896468207
 30
0.0
 10
4.7691461586
 20
4.8894042829
 30
0.0
 10
4.7694972267
 20
4.8891827433
 30
0.0
 10
4.7697070693
 20
4.8890152131
 30
0.0
 10
4.7698737136
 20
4.8888399841
 30
0.0
 10
4.7699953752
 20
4.8886580066
 30
0.0
 10
4.770069966
 20
4.8884705439
 30
0.0
 10
4.770086953
 20
4.8883418054
 30
0.0
 10
4.770086953
 20
4.8882793776
 30
0.0
  0
SPLINE
  5
382
100
AcDbEntity
  8
0
100
AcDbSpline
 62
7
  6
CONTINUOUS
 70
0
 71
3
 72
55
 73
51
 74
0
 42
0.0000001
 43
0.0000001
 44
0.0000000001
 40
0.0
 40
0.0
 40
0.0
 40
0.0
 40
0.0082480546
 40
0.0166106922
 40
0.0251963465
 40
0.0341037991
 40
0.0434183994
 40
0.0532113239
 40
0.0635395796
 40
0.0744470362
 40
0.085965806
 40
0.0981177277
 40
0.1109157646
 40
0.1243652441
 40
0.1384649193
 40
0.1532078572
 40
0.1685821798
 40
0.1845716911
 40
0.2183090103
 40
0.2542263704
 40
0.2920826312
 40
0.3316026007
 40
0.3724842061
 40
0.4144046303
 40
0.4570258752
 40
0.5
 40
0.5429741248
 40
0.5855953697
 40
0.6275157939
 40
0.6683973993
 40
0.7079173688
 40
0.7457736296
 40
0.7816909897
 40
0.8154283089
 40
0.8314178202
 40
0.8467921428
 40
0.8615350807
 40
0.8756347559
 40
0.8890842354
 40
0.9018822723
 40
0.914034194
 40
0.9255529638
 40
0.9364604204
 40
0.9467886761
 40
0.9565816006
 40
0.9658962009
 40
0.9748036535
 40
0.9833893078
 40
0.9917519454
 40
1.0
 40
1.0
 40
1.0
 40
1.0
 10
4.8863971753
 20
4.8224542857
 30
0.0
 10
4.8863971753
 20
4.8216937315
 30
0.0
 10
4.8862981493
 20
4.8201602855
 30
0.0
 10
4.8858543331
 20
4.8178738571
 30
0.0
 10
4.8851169087
 20
4.8156006691
 30
0.0
 10
4.8840889332
 20
4.8133471825
 30
0.0
 10
4.882773983
 20
4.8111186117
 30
0.0
 10
4.8811760835
 20
4.8089199472
 30
0.0
 10
4.8792995931
 20
4.8067559186
 30
0.0
 10
4.8771492839
 20
4.8046311884
 30
0.0
 10
4.8747304009
 20
4.8025503967
 30
0.0
 10
4.872048725
 20
4.8005181786
 30
0.0
 10
4.8691106128
 20
4.798539146
 30
0.0
 10
4.8659230162
 20
4.7966178625
 30
0.0
 10
4.862493484
 20
4.7947588102
 30
0.0
 10
4.8588301616
 20
4.7929663824
 30
0.0
 10
4.854941751
 20
4.7912447818
 30
0.0
 10
4.8493694113
 20
4.7890093132
 30
0.0
 10
4.8418976415
 20
4.7864351815
 30
0.0
 10
4.8323522645
 20
4.7837418353
 30
0.0
 10
4.8221631744
 20
4.7814170923
 30
0.0
 10
4.8114278137
 20
4.7794834443
 30
0.0
 10
4.8002486278
 20
4.7779596511
 30
0.0
 10
4.7887326704
 20
4.7768605221
 30
0.0
 10
4.7769903153
 20
4.7761967375
 30
0.0
 10
4.7651341986
 20
4.7759747544
 30
0.0
 10
4.7532780819
 20
4.7761967372
 30
0.0
 10
4.7415357268
 20
4.7768605215
 30
0.0
 10
4.7300197694
 20
4.7779596502
 30
0.0
 10
4.7188405834
 20
4.7794834431
 30
0.0
 10
4.7081052226
 20
4.7814170909
 30
0.0
 10
4.6979161325
 20
4.7837418336
 30
0.0
 10
4.6883707554
 20
4.7864351795
 30
0.0
 10
4.6808989855
 20
4.789009311
 30
0.0
 10
4.6753266458
 20
4.7912447795
 30
0.0
 10
4.6714382351
 20
4.7929663799
 30
0.0
 10
4.6677749127
 20
4.7947588077
 30
0.0
 10
4.6643453804
 20
4.7966178598
 30
0.0
 10
4.6611577838
 20
4.7985391433
 30
0.0
 10
4.6582196716
 20
4.8005181759
 30
0.0
 10
4.6555379956
 20
4.8025503938
 30
0.0
 10
4.6531191125
 20
4.8046311855
 30
0.0
 10
4.6509688032
 20
4.8067559156
 30
0.0
 10
4.6490923128
 20
4.8089199442
 30
0.0
 10
4.6474944133
 20
4.8111186086
 30
0.0
 10
4.646179463
 20
4.8133471794
 30
0.0
 10
4.6451514874
 20
4.815600666
 30
0.0
 10
4.644414063
 20
4.817873854
 30
0.0
 10
4.6439702467
 20
4.8201602824
 30
0.0
 10
4.6438712207
 20
4.8216937283
 30
0.0
 10
4.6438712207
 20
4.8224542826
 30
0.0
  0
SPLINE
  5
383
100
AcDbEntity
  8
0
100
AcDbSpline
 62
7
  6
CONTINUOUS
 70
0
 71
3
 72
11
 73
7
 74
0
 42
0.0000001
 43
0.0000001
 44
0.0000000001
 40
0.0
 40
0.0
 40
0.0
 40
0.0
 40
0.2405464606
 40
0.4850032721
 40
0.7370591383
 40
1.0
 40
1.0
 40
1.0
 40
1.0
 10
4.9563106642
 20
4.6957895334
 30
0.0
 10
4.9563106642
 20
4.6970895997
 30
0.0
 10
4.9561267272
 20
4.6997143919
 30
0.0
 10
4.9553029288
 20
4.7036236368
 30
0.0
 10
4.9539355623
 20
4.707505113
 30
0.0
 10
4.9526960183
 20
4.7100053326
 30
0.0
 10
4.9519972406
 20
4.7112427633
 30
0.0
  0
SPLINE
  5
384
100
AcDbEntity
  8
0
100
AcDbSpline
 62
7
  6
CONTINUOUS
 70
0
 71
3
 72
59
 73
55
 74
0
 42
0.0000001
 43
0.0000001
 44
0.0000000001
 40
0.0
 40
0.0
 40
0.0
 40
0.0
 40
0.0082572359
 40
0.0166295977
 40
0.0252263723
 40
0.0341466571
 40
0.0434762581
 40
0.0532865895
 40
0.0636348131
 40
0.0745648627
 40
0.0861088458
 40
0.0982885386
 40
0.1111167954
 40
0.1245987973
 40
0.1387331204
 40
0.1535126337
 40
0.1689252467
 40
0.1849545327
 40
0.2015802514
 40
0.2187787895
 40
0.2365235383
 40
0.2547852206
 40
0.2927278333
 40
0.3323323616
 40
0.3732943213
 40
0.4152884841
 40
0.4579744926
 40
0.5010021225
 40
0.5440163529
 40
0.58666235
 40
0.6285904547
 40
0.6694612625
 40
0.7089509068
 40
0.7467567078
 40
0.7649424796
 40
0.7826067481
 40
0.7997206187
 40
0.816257912
 40
0.8321954975
 40
0.8475136793
 40
0.8621966484
 40
0.8762330188
 40
0.8896164681
 40
0.9023465062
 40
0.9144293973
 40
0.9258792557
 40
0.9367193206
 40
0.9469833853
 40
0.9567172918
 40
0.9659803003
 40
0.9748460067
 40
0.9834023436
 40
0.9917501539
 40
1.0
 40
1.0
 40
1.0
 40
1.0
 10
4.9563106642
 20
4.6957895334
 30
0.0
 10
4.9563106642
 20
4.694587643
 30
0.0
 10
4.9561537933
 20
4.6921642918
 30
0.0
 10
4.9554507423
 20
4.6885510846
 30
0.0
 10
4.9542826444
 20
4.6849589137
 30
0.0
 10
4.9526543125
 20
4.6813980326
 30
0.0
 10
4.9505714823
 20
4.6778767189
 30
0.0
 10
4.9480405386
 20
4.6744028882
 30
0.0
 10
4.9450684236
 20
4.6709840402
 30
0.0
 10
4.9416627235
 20
4.6676275733
 30
0.0
 10
4.9378317788
 20
4.6643408524
 30
0.0
 10
4.9335847846
 20
4.6611312336
 30
0.0
 10
4.9289318541
 20
4.6580060362
 30
0.0
 10
4.9238840483
 20
4.6549725004
 30
0.0
 10
4.9184533809
 20
4.6520377416
 30
0.0
 10
4.9126528052
 20
4.6492087082
 30
0.0
 10
4.9064961893
 20
4.6464921444
 30
0.0
 10
4.8999982856
 20
4.6438945599
 30
0.0
 10
4.8931746906
 20
4.6414221981
 30
0.0
 10
4.8860418186
 20
4.639081032
 30
0.0
 10
4.878616807
 20
4.6368766698
 30
0.0
 10
4.8682184872
 20
4.6340917078
 30
0.0
 10
4.8546126686
 20
4.6310047179
 30
0.0
 10
4.8376271588
 20
4.6279663467
 30
0.0
 10
4.8199431068
 20
4.6255779283
 30
0.0
 10
4.8017309975
 20
4.6238627567
 30
0.0
 10
4.7831661137
 20
4.622837594
 30
0.0
 10
4.764427401
 20
4.6225124564
 30
0.0
 10
4.7456955025
 20
4.6228905225
 30
0.0
 10
4.7271509932
 20
4.6239680965
 30
0.0
 10
4.708972616
 20
4.62573465
 30
0.0
 10
4.6913353142
 20
4.6281729197
 30
0.0
 10
4.6744091092
 20
4.6312591266
 30
0.0
 10
4.6608610194
 20
4.6343849374
 30
0.0
 10
4.6505149609
 20
4.6371997995
 30
0.0
 10
4.6431328312
 20
4.6394251277
 30
0.0
 10
4.6360454751
 20
4.6417864273
 30
0.0
 10
4.6292699178
 20
4.6442780439
 30
0.0
 10
4.6228224545
 20
4.6468939598
 30
0.0
 10
4.6167185566
 20
4.6496278906
 30
0.0
 10
4.6109728456
 20
4.6524732892
 30
0.0
 10
4.6055990538
 20
4.6554233786
 30
0.0
 10
4.600609994
 20
4.6584711827
 30
0.0
 10
4.5960175371
 20
4.6616095646
 30
0.0
 10
4.5918326004
 20
4.664831269
 30
0.0
 10
4.5880651561
 20
4.6681289688
 30
0.0
 10
4.5847242655
 20
4.6714953051
 30
0.0
 10
4.5818181487
 20
4.6749229118
 30
0.0
 10
4.5793542869
 20
4.6784043802
 30
0.0
 10
4.5773395372
 20
4.6819321768
 30
0.0
 10
4.5757801922
 20
4.6854983107
 30
0.0
 10
4.5746818856
 20
4.6890943742
 30
0.0
 10
4.57404921
 20
4.6927099645
 30
0.0
 10
4.5739397378
 20
4.695131275
 30
0.0
 10
4.5739629947
 20
4.6963318646
 30
0.0
  0
SPLINE
  5
385
100
AcDbEntity
  8
0
100
AcDbSpline
 62
7
  6
CONTINUOUS
 70
0
 71
3
 72
11
 73
7
 74
0
 42
0.0000001
 43
0.0000001
 44
0.0000000001
 40
0.0
 40
0.0
 40
0.0
 40
0.0
 40
0.240544898
 40
0.4850033209
 40
0.7370586732
 40
1.0
 40
1.0
 40
1.0
 40
1.0
 10
4.6438712207
 20
4.8224542826
 30
0.0
 10
4.6438712207
 20
4.8232789069
 30
0.0
 10
4.6439878886
 20
4.8249438081
 30
0.0
 10
4.6445104188
 20
4.8274234346
 30
0.0
 10
4.6453777426
 20
4.8298854519
 30
0.0
 10
4.6461639857
 20
4.8314713347
 30
0.0
 10
4.6466072164
 20
4.8322562381
 30
0.0
  0
SPLINE
  5
386
100
AcDbEntity
  8
0
100
AcDbSpline
 62
7
  6
CONTINUOUS
 70
0
 71
3
 72
23
 73
19
 74
0
 42
0.0000001
 43
0.0000001
 44
0.0000000001
 40
0.0
 40
0.0
 40
0.0
 40
0.0
 40
0.0628259036
 40
0.1256381515
 40
0.1884267911
 40
0.2511797478
 40
0.3138875108
 40
0.3765420697
 40
0.4391374559
 40
0.5016699641
 40
0.5641382962
 40
0.6265436223
 40
0.6888895403
 40
0.7511819438
 40
0.8134288
 40
0.8756398469
 40
0.9378262158
 40
1.0
 40
1.0
 40
1.0
 40
1.0
 10
4.4190174949
 20
4.8203811768
 30
0.0
 10
4.4190174949
 20
4.8219104273
 30
0.0
 10
4.419166207
 20
4.8249706783
 30
0.0
 10
4.4198333248
 20
4.8295153638
 30
0.0
 10
4.4209380161
 20
4.8339725708
 30
0.0
 10
4.4224697044
 20
4.8382988483
 30
0.0
 10
4.4244136501
 20
4.8424526769
 30
0.0
 10
4.4267511532
 20
4.8463940259
 30
0.0
 10
4.4294597248
 20
4.8500849504
 30
0.0
 10
4.4325133084
 20
4.8534898924
 30
0.0
 10
4.4358825248
 20
4.8565760384
 30
0.0
 10
4.4395349362
 20
4.8593136529
 30
0.0
 10
4.443435373
 20
4.8616763497
 30
0.0
 10
4.447546288
 20
4.8636413456
 30
0.0
 10
4.451828046
 20
4.8651896803
 30
0.0
 10
4.4562395505
 20
4.8663064287
 30
0.0
 10
4.4607377109
 20
4.8669808209
 30
0.0
 10
4.4637669188
 20
4.8671311768
 30
0.0
 10
4.465280296
 20
4.8671311768
 30
0.0
  0
SPLINE
  5
387
100
AcDbEntity
  8
0
100
AcDbSpline
 62
7
  6
CONTINUOUS
 70
0
 71
3
 72
15
 73
11
 74
0
 42
0.0000001
 43
0.0000001
 44
0.0000000001
 40
0.0
 40
0.0
 40
0.0
 40
0.0
 40
0.1075308068
 40
0.2170118481
 40
0.3302708121
 40
0.4489144525
 40
0.574280601
 40
0.7074266584
 40
0.8491464825
 40
1.0
 40
1.0
 40
1.0
 40
1.0
 10
4.9832664133
 20
4.6623892506
 30
0.0
 10
4.9832664137
 20
4.6639577629
 30
0.0
 10
4.9830313337
 20
4.6671280026
 30
0.0
 10
4.9819792716
 20
4.6718450206
 30
0.0
 10
4.9802338799
 20
4.6765244907
 30
0.0
 10
4.9778050161
 20
4.6811493313
 30
0.0
 10
4.9747039381
 20
4.6857062558
 30
0.0
 10
4.9709425962
 20
4.6901826746
 30
0.0
 10
4.9665342415
 20
4.6945662145
 30
0.0
 10
4.9632769833
 20
4.6973306352
 30
0.0
 10
4.9615522194
 20
4.6986970709
 30
0.0
  0
SPLINE
  5
388
100
AcDbEntity
  8
0
100
AcDbSpline
 62
7
  6
CONTINUOUS
 70
0
 71
3
 72
23
 73
19
 74
0
 42
0.0000001
 43
0.0000001
 44
0.0000000001
 40
0.0
 40
0.0
 40
0.0
 40
0.0
 40
0.0636117127
 40
0.1271800577
 40
0.1906664799
 40
0.2540323652
 40
0.3172447579
 40
0.3802761649
 40
0.4431058589
 40
0.5057207041
 40
0.5681157266
 40
0.6302943982
 40
0.6922685825
 40
0.7540581528
 40
0.8156902849
 40
0.8771984376
 40
0.9386210469
 40
1.0
 40
1.0
 40
1.0
 40
1.0
 10
4.3728123869
 20
4.8203811768
 30
0.0
 10
4.3728123869
 20
4.8219103379
 30
0.0
 10
4.3729572875
 20
4.8249695978
 30
0.0
 10
4.3736073653
 20
4.8295133004
 30
0.0
 10
4.3746838652
 20
4.8339696294
 30
0.0
 10
4.3761765167
 20
4.8382952154
 30
0.0
 10
4.3780710038
 20
4.8424485711
 30
0.0
 10
4.3803491582
 20
4.8463896917
 30
0.0
 10
4.3829891225
 20
4.8500806371
 30
0.0
 10
4.3859655602
 20
4.8534858353
 30
0.0
 10
4.3892498892
 20
4.8565724392
 30
0.0
 10
4.392810533
 20
4.8593106621
 30
0.0
 10
4.3966132344
 20
4.8616740531
 30
0.0
 10
4.4006213978
 20
4.8636397564
 30
0.0
 10
4.4047963657
 20
4.8651887379
 30
0.0
 10
4.4090980434
 20
4.8663060043
 30
0.0
 10
4.4134843332
 20
4.8669807311
 30
0.0
 10
4.4164385596
 20
4.8671311768
 30
0.0
 10
4.4179140474
 20
4.8671311768
 30
0.0
  0
SPLINE
  5
389
100
AcDbEntity
  8
0
100
AcDbSpline
 62
7
  6
CONTINUOUS
 70
0
 71
3
 72
21
 73
17
 74
0
 42
0.0000001
 43
0.0000001
 44
0.0000000001
 40
0.0
 40
0.0
 40
0.0
 40
0.0
 40
0.0503399353
 40
0.1010448209
 40
0.1524700436
 40
0.2049528295
 40
0.2588054492
 40
0.3143105241
 40
0.4311777524
 40
0.493010596
 40
0.5573025883
 40
0.6241792411
 40
0.6937398748
 40
0.7660601368
 40
0.8411943188
 40
1.0
 40
1.0
 40
1.0
 40
1.0
 10
5.0095091966
 20
4.6623892591
 30
0.0
 10
5.0095091966
 20
4.661285337
 30
0.0
 10
5.009406337
 20
4.6590681399
 30
0.0
 10
5.0089443256
 20
4.655752196
 30
0.0
 10
5.0081752735
 20
4.6524453767
 30
0.0
 10
5.007100612
 20
4.6491525975
 30
0.0
 10
5.005722074
 20
4.645877893
 30
0.0
 10
5.0034432831
 20
4.6414666354
 30
0.0
 10
5.0005799837
 20
4.6371796069
 30
0.0
 10
4.9972186374
 20
4.6330424675
 30
0.0
 10
4.9943597422
 20
4.6299181159
 30
0.0
 10
4.9912148034
 20
4.6268354841
 30
0.0
 10
4.9877875047
 20
4.6237978452
 30
0.0
 10
4.9840821327
 20
4.6208088685
 30
0.0
 10
4.978677185
 20
4.6168198008
 30
0.0
 10
4.9743669488
 20
4.6140259789
 30
0.0
 10
4.9713835787
 20
4.6122294973
 30
0.0
  0
SPLINE
  5
38A
100
AcDbEntity
  8
0
100
AcDbSpline
 62
7
  6
CONTINUOUS
 70
0
 71
3
 72
18
 73
14
 74
0
 42
0.0000001
 43
0.0000001
 44
0.0000000001
 40
0.0
 40
0.0
 40
0.0
 40
0.0
 40
0.0492171851
 40
0.1004492839
 40
0.1536728406
 40
0.2088532341
 40
0.2659458806
 40
0.3248973117
 40
0.4481134356
 40
0.5779388111
 40
0.71370385
 40
0.8546611718
 40
1.0
 40
1.0
 40
1.0
 40
1.0
 10
4.9713835787
 20
4.6122294973
 30
0.0
 10
4.9694812705
 20
4.6110839935
 30
0.0
 10
4.965548827
 20
4.6088282236
 30
0.0
 10
4.9594057871
 20
4.6056102643
 30
0.0
 10
4.9529101785
 20
4.6024953426
 30
0.0
 10
4.9460738582
 20
4.5994891632
 30
0.0
 10
4.9389090965
 20
4.5965970722
 30
0.0
 10
4.9287859606
 20
4.5928448836
 30
0.0
 10
4.9153914438
 20
4.5884946128
 30
0.0
 10
4.8984608866
 20
4.5838809175
 30
0.0
 10
4.8805649025
 20
4.5798331783
 30
0.0
 10
4.8618333024
 20
4.576380983
 30
0.0
 10
4.8490478488
 20
4.5745180507
 30
0.0
 10
4.8425433719
 20
4.5736867707
 30
0.0
  0
SPLINE
  5
38B
100
AcDbEntity
  8
0
100
AcDbSpline
 62
7
  6
CONTINUOUS
 70
0
 71
3
 72
11
 73
7
 74
0
 42
0.0000001
 43
0.0000001
 44
0.0000000001
 40
0.0
 40
0.0
 40
0.0
 40
0.0
 40
0.2451354291
 40
0.4944272273
 40
0.7465116364
 40
1.0
 40
1.0
 40
1.0
 40
1.0
 10
4.8425433719
 20
4.5736867707
 30
0.0
 10
4.8362531003
 20
4.5728828664
 30
0.0
 10
4.8235374332
 20
4.5714770868
 30
0.0
 10
4.8042811029
 20
4.5699765088
 30
0.0
 10
4.784771324
 20
4.5690721991
 30
0.0
 10
4.7716917164
 20
4.5688709922
 30
0.0
 10
4.7651342001
 20
4.5688709921
 30
0.0
  0
SPLINE
  5
38C
100
AcDbEntity
  8
0
100
AcDbSpline
 62
7
  6
CONTINUOUS
 70
0
 71
3
 72
23
 73
19
 74
0
 42
0.0000001
 43
0.0000001
 44
0.0000000001
 40
0.0
 40
0.0
 40
0.0
 40
0.0
 40
0.0636117127
 40
0.1271800577
 40
0.1906664799
 40
0.2540323652
 40
0.3172447579
 40
0.3802761649
 40
0.4431058589
 40
0.5057207041
 40
0.5681157266
 40
0.6302943982
 40
0.6922685825
 40
0.7540581528
 40
0.8156902849
 40
0.8771984376
 40
0.9386210469
 40
1.0
 40
1.0
 40
1.0
 40
1.0
 10
4.2902150862
 20
4.8203811768
 30
0.0
 10
4.2902150862
 20
4.8219103379
 30
0.0
 10
4.2903599869
 20
4.8249695978
 30
0.0
 10
4.2910100647
 20
4.8295133004
 30
0.0
 10
4.2920865645
 20
4.8339696294
 30
0.0
 10
4.2935792161
 20
4.8382952154
 30
0.0
 10
4.2954737031
 20
4.8424485711
 30
0.0
 10
4.2977518576
 20
4.8463896917
 30
0.0
 10
4.3003918218
 20
4.8500806371
 30
0.0
 10
4.3033682595
 20
4.8534858353
 30
0.0
 10
4.3066525886
 20
4.8565724392
 30
0.0
 10
4.3102132323
 20
4.8593106621
 30
0.0
 10
4.3140159338
 20
4.8616740531
 30
0.0
 10
4.3180240971
 20
4.8636397564
 30
0.0
 10
4.322199065
 20
4.8651887379
 30
0.0
 10
4.3265007427
 20
4.8663060043
 30
0.0
 10
4.3308870325
 20
4.8669807311
 30
0.0
 10
4.3338412589
 20
4.8671311768
 30
0.0
 10
4.3353167467
 20
4.8671311768
 30
0.0
  0
SPLINE
  5
38D
100
AcDbEntity
  8
0
100
AcDbSpline
 62
7
  6
CONTINUOUS
 70
0
 71
3
 72
35
 73
31
 74
0
 42
0.0000001
 43
0.0000001
 44
0.0000000001
 40
0.0
 40
0.0
 40
0.0
 40
0.0
 40
0.0164958209
 40
0.0332204489
 40
0.0503914163
 40
0.0682058272
 40
0.0774118584
 40
0.0868404101
 40
0.1064257564
 40
0.1270817331
 40
0.1488960761
 40
0.1719330152
 40
0.1962362308
 40
0.221831649
 40
0.2487299207
 40
0.2769285448
 40
0.306413653
 40
0.3371614974
 40
0.369139692
 40
0.4023082514
 40
0.4366204698
 40
0.4720236711
 40
0.5084598601
 40
0.5458662935
 40
0.58417599
 40
0.6632138936
 40
0.7449749968
 40
0.8288136776
 40
0.9140539771
 40
1.0
 40
1.0
 40
1.0
 40
1.0
 10
4.5207592041
 20
4.6199831822
 30
0.0
 10
4.5207592041
 20
4.6184504638
 30
0.0
 10
4.5209587486
 20
4.6153602039
 30
0.0
 10
4.5218531932
 20
4.6107524457
 30
0.0
 10
4.5233391742
 20
4.6061715661
 30
0.0
 10
4.5250469976
 20
4.6024278744
 30
0.0
 10
4.5266887448
 20
4.5994644121
 30
0.0
 10
4.5285638017
 20
4.5964469743
 30
0.0
 10
4.5312811007
 20
4.5927079721
 30
0.0
 10
4.535062564
 20
4.5883471235
 30
0.0
 10
4.5393960054
 20
4.5840652035
 30
0.0
 10
4.5442706421
 20
4.5798719085
 30
0.0
 10
4.5496748879
 20
4.5757764796
 30
0.0
 10
4.5555959142
 20
4.5717882402
 30
0.0
 10
4.5620197156
 20
4.567916377
 30
0.0
 10
4.5689310735
 20
4.5641699301
 30
0.0
 10
4.5763135809
 20
4.5605577261
 30
0.0
 10
4.5841496704
 20
4.5570883352
 30
0.0
 10
4.5924206546
 20
4.5537700302
 30
0.0
 10
4.6011067724
 20
4.5506107523
 30
0.0
 10
4.6101872379
 20
4.5476180832
 30
0.0
 10
4.6196402981
 20
4.5447992143
 30
0.0
 10
4.6294432701
 20
4.5421609436
 30
0.0
 10
4.6395726694
 20
4.5397095816
 30
0.0
 10
4.6536272843
 20
4.536666786
 30
0.0
 10
4.6718412795
 20
4.5333862876
 30
0.0
 10
4.6943698379
 20
4.5303154505
 30
0.0
 10
4.7175774955
 20
4.5281004339
 30
0.0
 10
4.7412409595
 20
4.5267627432
 30
0.0
 10
4.7571484777
 20
4.5264649215
 30
0.0
 10
4.7651342006
 20
4.5264649216
 30
0.0
  0
SPLINE
  5
38E
100
AcDbEntity
  8
0
100
AcDbSpline
 62
7
  6
CONTINUOUS
 70
0
 71
3
 72
61
 73
57
 74
0
 42
0.0000001
 43
0.0000001
 44
0.0000000001
 40
0.0
 40
0.0
 40
0.0
 40
0.0
 40
0.011635276
 40
0.0226512824
 40
0.0330787351
 40
0.0429600562
 40
0.052350822
 40
0.0613208634
 40
0.0699545833
 40
0.0783499685
 40
0.0866158764
 40
0.0948675627
 40
0.1032210085
 40
0.1117871036
 40
0.1206668066
 40
0.1299479845
 40
0.1347639782
 40
0.1397066156
 40
0.1499965074
 40
0.160865746
 40
0.1723477615
 40
0.1844654208
 40
0.1972324648
 40
0.2106547877
 40
0.2247315335
 40
0.2394560185
 40
0.2548164991
 40
0.2707968118
 40
0.287376909
 40
0.3045333104
 40
0.3222394889
 40
0.3404662047
 40
0.3591817975
 40
0.3979397815
 40
0.4382240225
 40
0.4797179231
 40
0.5220867021
 40
0.5649828747
 40
0.6080514621
 40
0.6509350608
 40
0.6932788692
 40
0.7347357606
 40
0.7749714987
 40
0.8136702321
 40
0.8323524696
 40
0.8505435263
 40
0.8682119035
 40
0.8853285425
 40
0.9018671194
 40
0.9178043823
 40
0.9331205417
 40
0.9477997267
 40
0.961830528
 40
0.9752066455
 40
0.9879276665
 40
1.0
 40
1.0
 40
1.0
 40
1.0
 10
4.5687158777
 20
4.6986968247
 30
0.0
 10
4.5671974544
 20
4.6974938465
 30
0.0
 10
4.5643100172
 20
4.6950631045
 30
0.0
 10
4.5603447572
 20
4.6912344275
 30
0.0
 10
4.5568752976
 20
4.6873328794
 30
0.0
 10
4.5539106833
 20
4.6833671092
 30
0.0
 10
4.5514589461
 20
4.6793456853
 30
0.0
 10
4.549527528
 20
4.6752775716
 30
0.0
 10
4.5481231525
 20
4.6711724193
 30
0.0
 10
4.5472515174
 20
4.6670409495
 30
0.0
 10
4.5469166617
 20
4.6628950902
 30
0.0
 10
4.5471202713
 20
4.6587476419
 30
0.0
 10
4.5478613054
 20
4.6546115284
 30
0.0
 10
4.5491362679
 20
4.650498894
 30
0.0
 10
4.5509396902
 20
4.6464209405
 30
0.0
 10
4.5528539259
 20
4.6431006789
 30
0.0
 10
4.5546304775
 20
4.6404741628
 30
0.0
 10
4.5566264183
 20
4.6377973446
 30
0.0
 10
4.5594527579
 20
4.6344889562
 30
0.0
 10
4.563297951
 20
4.630641806
 30
0.0
 10
4.567632007
 20
4.6268736062
 30
0.0
 10
4.5724442501
 20
4.6231930606
 30
0.0
 10
4.577723218
 20
4.6196085166
 30
0.0
 10
4.5834562806
 20
4.6161283289
 30
0.0
 10
4.5896297319
 20
4.6127606868
 30
0.0
 10
4.5962287739
 20
4.6095135994
 30
0.0
 10
4.6032375527
 20
4.6063948425
 30
0.0
 10
4.6106391921
 20
4.6034119239
 30
0.0
 10
4.6184158353
 20
4.6005720522
 30
0.0
 10
4.6265486941
 20
4.5978821051
 30
0.0
 10
4.635018082
 20
4.5953486253
 30
0.0
 10
4.6438035267
 20
4.5929777235
 30
0.0
 10
4.6560531525
 20
4.5900065771
 30
0.0
 10
4.6720077399
 20
4.5867545682
 30
0.0
 10
4.6918366934
 20
4.5836244335
 30
0.0
 10
4.7123757277
 20
4.5812531963
 30
0.0
 10
4.7334257398
 20
4.5796641068
 30
0.0
 10
4.7547830033
 20
4.5788727805
 30
0.0
 10
4.7762405629
 20
4.5788869892
 30
0.0
 10
4.7975905088
 20
4.5797065932
 30
0.0
 10
4.8186259589
 20
4.581323543
 30
0.0
 10
4.839143334
 20
4.5837219497
 30
0.0
 10
4.8589437463
 20
4.586878297
 30
0.0
 10
4.8748700176
 20
4.5901516429
 30
0.0
 10
4.8870936528
 20
4.5931392922
 30
0.0
 10
4.8958575236
 20
4.5955218434
 30
0.0
 10
4.9043038665
 20
4.5980665508
 30
0.0
 10
4.9124122663
 20
4.6007672776
 30
0.0
 10
4.920163097
 20
4.6036174553
 30
0.0
 10
4.9275376355
 20
4.6066101829
 30
0.0
 10
4.9345180905
 20
4.6097382282
 30
0.0
 10
4.9410876632
 20
4.6129940688
 30
0.0
 10
4.9472305495
 20
4.6163698922
 30
0.0
 10
4.9529321095
 20
4.6198577416
 30
0.0
 10
4.958178429
 20
4.6234491836
 30
0.0
 10
4.9614490816
 20
4.6259725486
 30
0.0
 10
4.9629997806
 20
4.6272513469
 30
0.0
  0
SPLINE
  5
38F
100
AcDbEntity
  8
0
100
AcDbSpline
 62
7
  6
CONTINUOUS
 70
0
 71
3
 72
35
 73
31
 74
0
 42
0.0000001
 43
0.0000001
 44
0.0000000001
 40
0.0
 40
0.0
 40
0.0
 40
0.0
 40
0.0856672889
 40
0.1706407439
 40
0.2542360761
 40
0.3357883127
 40
0.4146618858
 40
0.452908859
 40
0.490266858
 40
0.526669724
 40
0.5620553972
 40
0.5963664064
 40
0.6295504175
 40
0.6615608552
 40
0.69235762
 40
0.7219079237
 40
0.7501872769
 40
0.7771806648
 40
0.8028839549
 40
0.8273055845
 40
0.8504685686
 40
0.8724128517
 40
0.8931979747
 40
0.9129059339
 40
0.9223911249
 40
0.9316495335
 40
0.9495521332
 40
0.9667819087
 40
0.9835277624
 40
1.0
 40
1.0
 40
1.0
 40
1.0
 10
4.7651342006
 20
4.5264649216
 30
0.0
 10
4.7730652555
 20
4.5264649217
 30
0.0
 10
4.7888647414
 20
4.5267587038
 30
0.0
 10
4.8123701783
 20
4.5280782841
 30
0.0
 10
4.8354290469
 20
4.5302635092
 30
0.0
 10
4.8578225058
 20
4.5332934552
 30
0.0
 10
4.8759352128
 20
4.5365304036
 30
0.0
 10
4.8899191983
 20
4.5395330474
 30
0.0
 10
4.9000037018
 20
4.5419527279
 30
0.0
 10
4.9097681826
 20
4.544557263
 30
0.0
 10
4.9191895658
 20
4.5473405075
 30
0.0
 10
4.9282455506
 20
4.5502958404
 30
0.0
 10
4.9369147357
 20
4.5534162559
 30
0.0
 10
4.9451766544
 20
4.556694366
 30
0.0
 10
4.9530118316
 20
4.5601224296
 30
0.0
 10
4.9604018308
 20
4.5636923792
 30
0.0
 10
4.9673292993
 20
4.5673958528
 30
0.0
 10
4.9737780086
 20
4.5712242328
 30
0.0
 10
4.9797328825
 20
4.5751686863
 30
0.0
 10
4.9851800244
 20
4.5792202277
 30
0.0
 10
4.990106685
 20
4.5833697297
 30
0.0
 10
4.9945013358
 20
4.58760813
 30
0.0
 10
4.998353241
 20
4.5919259354
 30
0.0
 10
5.001138016
 20
4.5956293983
 30
0.0
 10
5.0030720921
 20
4.5986195345
 30
0.0
 10
5.0047739212
 20
4.6015557971
 30
0.0
 10
5.0065624094
 20
4.6052652016
 30
0.0
 10
5.0081562559
 20
4.6098072982
 30
0.0
 10
5.0091678076
 20
4.6143783694
 30
0.0
 10
5.0094520342
 20
4.6174503301
 30
0.0
 10
5.0094949891
 20
4.6189747204
 30
0.0
  0
SPLINE
  5
390
100
AcDbEntity
  8
0
100
AcDbSpline
 62
7
  6
CONTINUOUS
 70
0
 71
3
 72
11
 73
7
 74
0
 42
0.0000001
 43
0.0000001
 44
0.0000000001
 40
0.0
 40
0.0
 40
0.0
 40
0.0
 40
0.2629413268
 40
0.5149966791
 40
0.759455102
 40
1.0
 40
1.0
 40
1.0
 40
1.0
 10
4.8836611793
 20
4.8322562412
 30
0.0
 10
4.88410441
 20
4.8314713378
 30
0.0
 10
4.8848906532
 20
4.8298854551
 30
0.0
 10
4.885757977
 20
4.8274234377
 30
0.0
 10
4.8862805073
 20
4.8249438112
 30
0.0
 10
4.8863971753
 20
4.8232789101
 30
0.0
 10
4.8863971753
 20
4.8224542857
 30
0.0
  0
SPLINE
  5
391
100
AcDbEntity
  8
0
100
AcDbSpline
 62
7
  6
CONTINUOUS
 70
0
 71
3
 72
14
 73
10
 74
0
 42
0.0000001
 43
0.0000001
 44
0.0000000001
 40
0.0
 40
0.0
 40
0.0
 40
0.0
 40
0.2533090393
 40
0.3794749211
 40
0.5049188185
 40
0.629615046
 40
0.7536073973
 40
0.8770105771
 40
1.0
 40
1.0
 40
1.0
 40
1.0
 10
6.054767449
 20
4.7230188916
 30
0.0
 10
6.055297503
 20
4.7230358813
 30
0.0
 10
6.0560946991
 20
4.7231835268
 30
0.0
 10
6.0570651221
 20
4.7236100831
 30
0.0
 10
6.0577317458
 20
4.7240364072
 30
0.0
 10
6.0583196136
 20
4.7245588885
 30
0.0
 10
6.0588145759
 20
4.7251648329
 30
0.0
 10
6.0592040977
 20
4.7258390658
 30
0.0
 10
6.0593873639
 20
4.7263241524
 30
0.0
 10
6.0594584127
 20
4.7265716461
 30
0.0
  0
SPLINE
  5
392
100
AcDbEntity
  8
0
100
AcDbSpline
 62
7
  6
CONTINUOUS
 70
0
 71
3
 72
15
 73
11
 74
0
 42
0.0000001
 43
0.0000001
 44
0.0000000001
 40
0.0
 40
0.0
 40
0.0
 40
0.0
 40
0.1271644412
 40
0.2538545122
 40
0.3799281694
 40
0.5052810503
 40
0.6298862425
 40
0.7537878915
 40
0.8771007088
 40
1.0
 40
1.0
 40
1.0
 40
1.0
 10
6.054767449
 20
4.917743462
 30
0.0
 10
6.0550337356
 20
4.9177349273
 30
0.0
 10
6.0555649113
 20
4.9176774957
 30
0.0
 10
6.0563370095
 20
4.9174720921
 30
0.0
 10
6.057065303
 20
4.917152344
 30
0.0
 10
6.0577316392
 20
4.9167260377
 30
0.0
 10
6.058319581
 20
4.9162035584
 30
0.0
 10
6.0588145256
 20
4.9155976255
 30
0.0
 10
6.059204059
 20
4.9149234043
 30
0.0
 10
6.0593873312
 20
4.9144383259
 30
0.0
 10
6.0594583844
 20
4.9141908361
 30
0.0
  0
SPLINE
  5
393
100
AcDbEntity
  8
0
100
AcDbSpline
 62
7
  6
CONTINUOUS
 70
0
 71
3
 72
15
 73
11
 74
0
 42
0.0000001
 43
0.0000001
 44
0.0000000001
 40
0.0
 40
0.0
 40
0.0
 40
0.0
 40
0.1443962347
 40
0.2768475876
 40
0.3999440062
 40
0.5169817948
 40
0.6317580081
 40
0.7482033085
 40
0.8699487028
 40
1.0
 40
1.0
 40
1.0
 40
1.0
 10
6.054767449
 20
4.917743462
 30
0.0
 10
6.0546879323
 20
4.9180415875
 30
0.0
 10
6.054507296
 20
4.9186064385
 30
0.0
 10
6.054146625
 20
4.9193840412
 30
0.0
 10
6.0537064404
 20
4.9200515179
 30
0.0
 10
6.0531850123
 20
4.9206076831
 30
0.0
 10
6.0525825371
 20
4.9210515941
 30
0.0
 10
6.0519010459
 20
4.9213837267
 30
0.0
 10
6.0511433267
 20
4.9216070894
 30
0.0
 10
6.0506089343
 20
4.9216836491
 30
0.0
 10
6.0503320334
 20
4.921707137
 30
0.0
  0
SPLINE
  5
394
100
AcDbEntity
  8
0
100
AcDbSpline
 62
7
  6
CONTINUOUS
 70
0
 71
3
 72
11
 73
7
 74
0
 42
0.0000001
 43
0.0000001
 44
0.0000000001
 40
0.0
 40
0.0
 40
0.0
 40
0.0
 40
0.2534861818
 40
0.5055692904
 40
0.7548615382
 40
1.0
 40
1.0
 40
1.0
 40
1.0
 10
4.7651342001
 20
4.5688709921
 30
0.0
 10
4.7585787181
 20
4.5688709921
 30
0.0
 10
4.7455031463
 20
4.5690720744
 30
0.0
 10
4.7259993194
 20
4.5699758256
 30
0.0
 10
4.7067487062
 20
4.5714754812
 30
0.0
 10
4.6940367369
 20
4.5728803936
 30
0.0
 10
4.6877482512
 20
4.5736838016
 30
0.0
  0
SPLINE
  5
395
100
AcDbEntity
  8
0
100
AcDbSpline
 62
7
  6
CONTINUOUS
 70
0
 71
3
 72
18
 73
14
 74
0
 42
0.0000001
 43
0.0000001
 44
0.0000000001
 40
0.0
 40
0.0
 40
0.0
 40
0.0
 40
0.1453393779
 40
0.2862975833
 40
0.4220635686
 40
0.551889697
 40
0.6751061453
 40
0.7340575128
 40
0.7911499139
 40
0.8463298602
 40
0.8995527511
 40
0.9507839527
 40
1.0
 40
1.0
 40
1.0
 40
1.0
 10
4.6877482512
 20
4.5736838016
 30
0.0
 10
4.68124259
 20
4.5745149556
 30
0.0
 10
4.6684547856
 20
4.5763777037
 30
0.0
 10
4.6497197116
 20
4.5798298186
 30
0.0
 10
4.6318203806
 20
4.5838776753
 30
0.0
 10
4.6148866659
 20
4.5884916765
 30
0.0
 10
4.6014896731
 20
4.5928423598
 30
0.0
 10
4.5913647009
 20
4.5965949688
 30
0.0
 10
4.5841986746
 20
4.5994874059
 30
0.0
 10
4.5773611785
 20
4.6024939679
 30
0.0
 10
4.5708644885
 20
4.6056093066
 30
0.0
 10
4.5647204672
 20
4.6088277148
 30
0.0
 10
4.5607874157
 20
4.6110838167
 30
0.0
 10
4.5588848225
 20
4.6122294921
 30
0.0
  0
SPLINE
  5
396
100
AcDbEntity
  8
0
100
AcDbSpline
 62
7
  6
CONTINUOUS
 70
0
 71
3
 72
21
 73
17
 74
0
 42
0.0000001
 43
0.0000001
 44
0.0000000001
 40
0.0
 40
0.0
 40
0.0
 40
0.0
 40
0.1588056811
 40
0.233939863
 40
0.3062601251
 40
0.3758207588
 40
0.4426974115
 40
0.5069894037
 40
0.5688222476
 40
0.6856894756
 40
0.7411945506
 40
0.7950471704
 40
0.8475299564
 40
0.8989551789
 40
0.9496600646
 40
1.0
 40
1.0
 40
1.0
 40
1.0
 10
4.5588848225
 20
4.6122294921
 30
0.0
 10
4.5559014524
 20
4.6140259736
 30
0.0
 10
4.5515912161
 20
4.6168197954
 30
0.0
 10
4.5461862683
 20
4.6208088629
 30
0.0
 10
4.5424808963
 20
4.6237978395
 30
0.0
 10
4.5390535976
 20
4.6268354783
 30
0.0
 10
4.5359086587
 20
4.62991811
 30
0.0
 10
4.5330497633
 20
4.6330424616
 30
0.0
 10
4.529688417
 20
4.6371796009
 30
0.0
 10
4.5268251175
 20
4.6414666293
 30
0.0
 10
4.5245463266
 20
4.6458778869
 30
0.0
 10
4.5231677884
 20
4.6491525913
 30
0.0
 10
4.5220931269
 20
4.6524453705
 30
0.0
 10
4.5213240746
 20
4.6557521898
 30
0.0
 10
4.5208620632
 20
4.6590681336
 30
0.0
 10
4.5207592035
 20
4.6612853307
 30
0.0
 10
4.5207592035
 20
4.6623892528
 30
0.0
  0
SPLINE
  5
397
100
AcDbEntity
  8
0
100
AcDbSpline
 62
7
  6
CONTINUOUS
 70
0
 71
3
 72
49
 73
45
 74
0
 42
0.0000001
 43
0.0000001
 44
0.0000000001
 40
0.0
 40
0.0
 40
0.0
 40
0.0
 40
0.0919253932
 40
0.1814490153
 40
0.2682419244
 40
0.3520752588
 40
0.4327863528
 40
0.510243294
 40
0.5843069393
 40
0.6547900111
 40
0.688607353
 40
0.7214135697
 40
0.7531448326
 40
0.7837282812
 40
0.8130709604
 40
0.8410533519
 40
0.8675411217
 40
0.8923579689
 40
0.9153063328
 40
0.9260026732
 40
0.9361343121
 40
0.9456660925
 40
0.9545607968
 40
0.9627802536
 40
0.9702860277
 40
0.9770368067
 40
0.9829880326
 40
0.9880951053
 40
0.9903205163
 40
0.9923232644
 40
0.994100595
 40
0.9956497531
 40
0.9969679843
 40
0.9980525523
 40
0.9985063666
 40
0.9989007498
 40
0.9992353631
 40
0.9995098673
 40
0.9997239229
 40
0.9998771903
 40
0.9999309221
 40
0.9999693293
 40
0.9999923695
 40
1.0
 40
1.0
 40
1.0
 40
1.0
 10
4.8746251604
 20
4.8461327617
 30
0.0
 10
4.8740388334
 20
4.8489002675
 30
0.0
 10
4.8726937456
 20
4.8543252032
 30
0.0
 10
4.8701633715
 20
4.8621890055
 30
0.0
 10
4.8672078904
 20
4.8696357196
 30
0.0
 10
4.8638915339
 20
4.8766292399
 30
0.0
 10
4.8602801958
 20
4.8831479523
 30
0.0
 10
4.8564386831
 20
4.889179613
 30
0.0
 10
4.8524322754
 20
4.8947182247
 30
0.0
 10
4.8489653786
 20
4.8989777876
 30
0.0
 10
4.846168558
 20
4.9021375722
 30
0.0
 10
4.8441025546
 20
4.9043501104
 30
0.0
 10
4.8420500066
 20
4.9064376447
 30
0.0
 10
4.8400223956
 20
4.9083989435
 30
0.0
 10
4.8380327263
 20
4.9102323349
 30
0.0
 10
4.836095913
 20
4.9119360261
 30
0.0
 10
4.8342283378
 20
4.9135065915
 30
0.0
 10
4.8324490911
 20
4.9149406682
 30
0.0
 10
4.8310261572
 20
4.9160417924
 30
0.0
 10
4.8299494963
 20
4.9168515708
 30
0.0
 10
4.829198118
 20
4.9174068766
 30
0.0
 10
4.8284872411
 20
4.9179236495
 30
0.0
 10
4.8278203764
 20
4.918400847
 30
0.0
 10
4.8272010941
 20
4.918837364
 30
0.0
 10
4.8266330294
 20
4.9192319949
 30
0.0
 10
4.8261200815
 20
4.9195835947
 30
0.0
 10
4.8256664059
 20
4.9198910862
 30
0.0
 10
4.8253271645
 20
4.9201191871
 30
0.0
 10
4.8250884393
 20
4.9202790082
 30
0.0
 10
4.8249347068
 20
4.9203815885
 30
0.0
 10
4.8247981369
 20
4.9204723943
 30
0.0
 10
4.8246789622
 20
4.9205513163
 30
0.0
 10
4.8245774152
 20
4.9206182427
 30
0.0
 10
4.8245038849
 20
4.9206664274
 30
0.0
 10
4.8244540731
 20
4.920698928
 30
0.0
 10
4.8244235569
 20
4.9207187814
 30
0.0
 10
4.8243976687
 20
4.920735587
 30
0.0
 10
4.824376353
 20
4.9207493645
 30
0.0
 10
4.8243598843
 20
4.920760043
 30
0.0
 10
4.8243487301
 20
4.9207671313
 30
0.0
 10
4.8243427292
 20
4.92077112
 30
0.0
 10
4.8243391701
 20
4.9207731958
 30
0.0
 10
4.8243384014
 20
4.920774065
 30
0.0
 10
4.8243365562
 20
4.9207748665
 30
0.0
 10
4.8243367908
 20
4.9207748776
 30
0.0
  0
SPLINE
  5
398
100
AcDbEntity
  8
0
100
AcDbSpline
 62
7
  6
CONTINUOUS
 70
0
 71
3
 72
27
 73
23
 74
0
 42
0.0000001
 43
0.0000001
 44
0.0000000001
 40
0.0
 40
0.0
 40
0.0
 40
0.0
 40
0.0623766771
 40
0.0935759147
 40
0.1247768519
 40
0.1871670458
 40
0.2495702373
 40
0.2807872862
 40
0.3120088596
 40
0.3744480249
 40
0.4369087833
 40
0.4993924536
 40
0.5618994804
 40
0.6244294023
 40
0.6869808858
 40
0.7182734499
 40
0.749570528
 40
0.8121579018
 40
0.874758213
 40
0.906071443
 40
0.937385976
 40
1.0
 40
1.0
 40
1.0
 40
1.0
 10
5.5281244533
 20
3.3597707879
 30
0.0
 10
5.5281244534
 20
3.3567173646
 30
0.0
 10
5.5278983381
 20
3.3521325002
 30
0.0
 10
5.5271474997
 20
3.3460690598
 30
0.0
 10
5.5260989639
 20
3.3400487674
 30
0.0
 10
5.5242337665
 20
3.3326304369
 30
0.0
 10
5.5216475835
 20
3.3254307855
 30
0.0
 10
5.5191622139
 20
3.3198454577
 30
0.0
 10
5.5164044945
 20
3.3143875341
 30
0.0
 10
5.5124575934
 20
3.3078276043
 30
0.0
 10
5.5069711756
 20
3.3004585793
 30
0.0
 10
5.5007859829
 20
3.2936604324
 30
0.0
 10
5.4939616944
 20
3.2874990672
 30
0.0
 10
5.4865644737
 20
3.2820339126
 30
0.0
 10
5.4799806464
 20
3.2781029957
 30
0.0
 10
5.4745027748
 20
3.2753562743
 30
0.0
 10
5.4688954305
 20
3.2728801167
 30
0.0
 10
5.4616677202
 20
3.2703037637
 30
0.0
 10
5.4542220912
 20
3.2684460495
 30
0.0
 10
5.4481793639
 20
3.2674016326
 30
0.0
 10
5.4420926596
 20
3.2666536427
 30
0.0
 10
5.4374905784
 20
3.2664284204
 30
0.0
 10
5.4344255366
 20
3.2664284204
 30
0.0
  0
SPLINE
  5
399
100
AcDbEntity
  8
0
100
AcDbSpline
 62
7
  6
CONTINUOUS
 70
0
 71
3
 72
27
 73
23
 74
0
 42
0.0000001
 43
0.0000001
 44
0.0000000001
 40
0.0
 40
0.0
 40
0.0
 40
0.0
 40
0.0623766772
 40
0.0935759148
 40
0.1247768521
 40
0.1871670461
 40
0.2495702377
 40
0.2807872866
 40
0.31200886
 40
0.3744480253
 40
0.4369087838
 40
0.499392454
 40
0.5618994808
 40
0.6244294027
 40
0.6869808862
 40
0.7182734503
 40
0.7495705284
 40
0.8121579021
 40
0.8747582132
 40
0.9060714432
 40
0.9373859761
 40
1.0
 40
1.0
 40
1.0
 40
1.0
 10
5.3407266198
 20
3.3479402319
 30
0.0
 10
5.3407266198
 20
3.3448868086
 30
0.0
 10
5.3409527351
 20
3.3403019441
 30
0.0
 10
5.3417035734
 20
3.3342385037
 30
0.0
 10
5.3427521092
 20
3.3282182114
 30
0.0
 10
5.3446173067
 20
3.3207998809
 30
0.0
 10
5.3472034897
 20
3.3136002294
 30
0.0
 10
5.3496888593
 20
3.3080149016
 30
0.0
 10
5.3524465787
 20
3.3025569781
 30
0.0
 10
5.3563934799
 20
3.2959970482
 30
0.0
 10
5.3618798977
 20
3.2886280232
 30
0.0
 10
5.3680650903
 20
3.2818298764
 30
0.0
 10
5.3748893789
 20
3.2756685111
 30
0.0
 10
5.3822865995
 20
3.2702033566
 30
0.0
 10
5.3888704268
 20
3.2662724396
 30
0.0
 10
5.3943482984
 20
3.2635257183
 30
0.0
 10
5.3999556428
 20
3.2610495607
 30
0.0
 10
5.407183353
 20
3.2584732077
 30
0.0
 10
5.414628982
 20
3.2566154935
 30
0.0
 10
5.4206717093
 20
3.2555710766
 30
0.0
 10
5.4267584136
 20
3.2548230866
 30
0.0
 10
5.4313604948
 20
3.2545978643
 30
0.0
 10
5.4344255366
 20
3.2545978643
 30
0.0
  0
SPLINE
  5
39A
100
AcDbEntity
  8
0
100
AcDbSpline
 62
7
  6
CONTINUOUS
 70
0
 71
3
 72
15
 73
11
 74
0
 42
0.0000001
 43
0.0000001
 44
0.0000000001
 40
0.0
 40
0.0
 40
0.0
 40
0.0
 40
0.1300513297
 40
0.2517966092
 40
0.3682417393
 40
0.4830178461
 40
0.6000555285
 40
0.723151924
 40
0.8556034107
 40
1.0
 40
1.0
 40
1.0
 40
1.0
 10
6.050332036
 20
4.7190552169
 30
0.0
 10
6.0506089368
 20
4.7190787048
 30
0.0
 10
6.0511433287
 20
4.7191552643
 30
0.0
 10
6.0519010468
 20
4.719378627
 30
0.0
 10
6.0525825365
 20
4.7197107597
 30
0.0
 10
6.0531850104
 20
4.7201546702
 30
0.0
 10
6.053706437
 20
4.7207108358
 30
0.0
 10
6.054146618
 20
4.721378314
 30
0.0
 10
6.0545072959
 20
4.7221559134
 30
0.0
 10
6.0546879355
 20
4.7227207647
 30
0.0
 10
6.054767449
 20
4.7230188916
 30
0.0
  0
SPLINE
  5
39B
100
AcDbEntity
  8
0
100
AcDbSpline
 62
7
  6
CONTINUOUS
 70
0
 71
3
 72
27
 73
23
 74
0
 42
0.0000001
 43
0.0000001
 44
0.0000000001
 40
0.0
 40
0.0
 40
0.0
 40
0.0
 40
0.0626140239
 40
0.0939285568
 40
0.1252417868
 40
0.1878420979
 40
0.2504294716
 40
0.2817265497
 40
0.3130191138
 40
0.3755705973
 40
0.4381005192
 40
0.500607546
 40
0.5630912162
 40
0.6255519747
 40
0.68799114
 40
0.7192127134
 40
0.7504297623
 40
0.8128329539
 40
0.8752231479
 40
0.9064240852
 40
0.9376233228
 40
1.0
 40
1.0
 40
1.0
 40
1.0
 10
5.4344255366
 20
3.2545978643
 30
0.0
 10
5.4374905784
 20
3.2545978643
 30
0.0
 10
5.4420926596
 20
3.2548230866
 30
0.0
 10
5.4481793639
 20
3.2555710766
 30
0.0
 10
5.4542220912
 20
3.2566154935
 30
0.0
 10
5.4616677201
 20
3.2584732077
 30
0.0
 10
5.4688954304
 20
3.2610495607
 30
0.0
 10
5.4745027748
 20
3.2635257183
 30
0.0
 10
5.4799806464
 20
3.2662724396
 30
0.0
 10
5.4865644736
 20
3.2702033566
 30
0.0
 10
5.4939616943
 20
3.2756685111
 30
0.0
 10
5.5007859829
 20
3.2818298764
 30
0.0
 10
5.5069711755
 20
3.2886280232
 30
0.0
 10
5.5124575933
 20
3.2959970482
 30
0.0
 10
5.5164044945
 20
3.3025569781
 30
0.0
 10
5.5191622139
 20
3.3080149016
 30
0.0
 10
5.5216475835
 20
3.3136002294
 30
0.0
 10
5.5242337665
 20
3.3207998809
 30
0.0
 10
5.5260989639
 20
3.3282182114
 30
0.0
 10
5.5271474997
 20
3.3342385037
 30
0.0
 10
5.5278983381
 20
3.3403019441
 30
0.0
 10
5.5281244533
 20
3.3448868086
 30
0.0
 10
5.5281244533
 20
3.3479402319
 30
0.0
  0
SPLINE
  5
39C
100
AcDbEntity
  8
0
100
AcDbSpline
 62
7
  6
CONTINUOUS
 70
0
 71
3
 72
27
 73
23
 74
0
 42
0.0000001
 43
0.0000001
 44
0.0000000001
 40
0.0
 40
0.0
 40
0.0
 40
0.0
 40
0.062614024
 40
0.093928557
 40
0.1252417869
 40
0.1878420982
 40
0.250429472
 40
0.2817265501
 40
0.3130191142
 40
0.3755705978
 40
0.4381005197
 40
0.5006075465
 40
0.5630912167
 40
0.6255519752
 40
0.6879911404
 40
0.7192127138
 40
0.7504297627
 40
0.8128329542
 40
0.8752231481
 40
0.9064240853
 40
0.9376233229
 40
1.0
 40
1.0
 40
1.0
 40
1.0
 10
5.4344255366
 20
3.2664284204
 30
0.0
 10
5.4313604948
 20
3.2664284204
 30
0.0
 10
5.4267584136
 20
3.2666536427
 30
0.0
 10
5.4206717093
 20
3.2674016326
 30
0.0
 10
5.4146289819
 20
3.2684460495
 30
0.0
 10
5.407183353
 20
3.2703037637
 30
0.0
 10
5.3999556427
 20
3.2728801167
 30
0.0
 10
5.3943482984
 20
3.2753562743
 30
0.0
 10
5.3888704267
 20
3.2781029957
 30
0.0
 10
5.3822865995
 20
3.2820339126
 30
0.0
 10
5.3748893788
 20
3.2874990672
 30
0.0
 10
5.3680650902
 20
3.2936604324
 30
0.0
 10
5.3618798976
 20
3.3004585793
 30
0.0
 10
5.3563934798
 20
3.3078276043
 30
0.0
 10
5.3524465787
 20
3.3143875341
 30
0.0
 10
5.3496888593
 20
3.3198454577
 30
0.0
 10
5.3472034896
 20
3.3254307855
 30
0.0
 10
5.3446173067
 20
3.3326304369
 30
0.0
 10
5.3427521092
 20
3.3400487674
 30
0.0
 10
5.3417035734
 20
3.3460690598
 30
0.0
 10
5.3409527351
 20
3.3521325002
 30
0.0
 10
5.3407266198
 20
3.3567173646
 30
0.0
 10
5.3407266198
 20
3.3597707879
 30
0.0
  0
SPLINE
  5
39D
100
AcDbEntity
  8
0
100
AcDbSpline
 62
7
  6
CONTINUOUS
 70
0
 71
3
 72
11
 73
7
 74
0
 42
0.0000001
 43
0.0000001
 44
0.0000000001
 40
0.0
 40
0.0
 40
0.0
 40
0.0
 40
0.2404556852
 40
0.4850666465
 40
0.7372364802
 40
1.0
 40
1.0
 40
1.0
 40
1.0
 10
4.5739629947
 20
4.6963318646
 30
0.0
 10
4.5739873241
 20
4.6975878266
 30
0.0
 10
4.5742080651
 20
4.7001212627
 30
0.0
 10
4.5750481846
 20
4.7038905834
 30
0.0
 10
4.5763939428
 20
4.7076336128
 30
0.0
 10
4.5775961627
 20
4.7100474366
 30
0.0
 10
4.5782711577
 20
4.7112427585
 30
0.0
  0
SPLINE
  5
39E
100
AcDbEntity
  8
0
100
AcDbSpline
 62
7
  6
CONTINUOUS
 70
0
 71
3
 72
17
 73
13
 74
0
 42
0.0000001
 43
0.0000001
 44
0.0000000001
 40
0.0
 40
0.0
 40
0.0
 40
0.0
 40
0.1496802521
 40
0.2905803738
 40
0.4232730567
 40
0.4868005918
 40
0.5485932329
 40
0.667487361
 40
0.7812886547
 40
0.8915280393
 40
0.9458815304
 40
1.0
 40
1.0
 40
1.0
 40
1.0
 10
4.9629997806
 20
4.6272513469
 30
0.0
 10
4.9646128343
 20
4.6285815666
 30
0.0
 10
4.9676587018
 20
4.6312710349
 30
0.0
 10
4.9717746359
 20
4.6355243705
 30
0.0
 10
4.9747418221
 20
4.6391910124
 30
0.0
 10
4.9767906175
 20
4.6421579123
 30
0.0
 10
4.9785785874
 20
4.6450645745
 30
0.0
 10
4.9804415775
 20
4.6487434878
 30
0.0
 10
4.9820677496
 20
4.653262694
 30
0.0
 10
4.982888235
 20
4.6570776881
 30
0.0
 10
4.9832124765
 20
4.6601175154
 30
0.0
 10
4.9832664132
 20
4.6616333015
 30
0.0
 10
4.9832664133
 20
4.6623892506
 30
0.0
  0
ENDSEC
  0
SECTION
  2
OBJECTS
  0
DICTIONARY
  5
C
100
AcDbDictionary
280
0
281
1
  3
ACAD_GROUP
350
D
  3
ACAD_MLINESTYLE
350
17
  3
ACAD_LAYOUT
350
1A
  3
ACAD_PLOTSETTINGS
350
19
  3
ACAD_PLOTSTYLENAME
350
E
  0
DICTIONARY
  5
D
102
{ACAD_REACTORS
330
C
102
}
100
AcDbDictionary
280
0
281
1
  0
ACDBDICTIONARYWDFLT
  5
E
102
{ACAD_REACTORS
330
C
102
}
100
AcDbDictionary
281
1
  3
Normal
350
F
100
AcDbDictionaryWithDefault
340
F
  0
DICTIONARY
  5
17
102
{ACAD_REACTORS
330
C
102
}
100
AcDbDictionary
280
0
281
1
  3
Standard
350
18
  0
DICTIONARY
  5
19
102
{ACAD_REACTORS
330
C
102
}
100
AcDbDictionary
281
1
  0
DICTIONARY
  5
1A
102
{ACAD_REACTORS
330
C
102
}
100
AcDbDictionary
281
1
  3
Model
350
39F
  3
Layout1
350
3A0
  0
ACDBPLACEHOLDER
  5
F
102
{ACAD_REACTORS
330
E
102
}
  0
MLINESTYLE
  5
18
102
{ACAD_REACTORS
330
17
102
}
100
AcDbMlineStyle
  2
STANDARD
 70
0
  3

 62
256
 51
90.0
 52
90.0
 71
2
 49
0.5
 62
256
  6
BYLAYER
 49
-0.5
 62
256
  6
BYLAYER
  0
LAYOUT
  5
39F
102
{ACAD_REACTORS
330
1A
102
}
100
AcDbPlotSettings
  1

  2
none_device
  4
ANSI_A_(11.00_x_8.50_Inches)
  6

 40
0.0
 41
0.0
 42
0.0
 43
0.0
 44
279.4
 45
215.9
 46
0.0
 47
0.0
 48
0.0
 49
0.0
140
0.0
141
0.0
142
1.0
143
1.0
 70
1024
 72
0
 73
0
 74
0
  7

 75
0
147
1.0
148
0.0
149
0.0
100
AcDbLayout
  1
Model
 70
0
 71
0
 10
0.0
 20
0.0
 11
11.0
 21
8.5
 12
0.0
 22
0.0
 32
0.0
 14
0.0
 24
0.0
 34
0.0
 15
0.0
 25
0.0
 35
0.0
146
0.0
 13
0.0
 23
0.0
 33
0.0
 16
1.0
 26
0.0
 36
0.0
 17
0.0
 27
1.0
 37
0.0
 76
0
330
202
345
0
346
0
  0
LAYOUT
  5
3A0
102
{ACAD_REACTORS
330
1A
102
}
100
AcDbPlotSettings
  1

  2
none_device
  4
ANSI_A_(11.00_x_8.50_Inches)
  6

 40
0.0
 41
0.0
 42
0.0
 43
0.0
 44
279.4
 45
215.9
 46
0.0
 47
0.0
 48
0.0
 49
0.0
140
0.0
141
0.0
142
1.0
143
1.0
 70
0
 72
0
 73
0
 74
0
  7

 75
0
147
1.0
148
0.0
149
0.0
100
AcDbLayout
  1
Layout1
 70
0
 71
1
 10
0.0
 20
0.0
 11
11.0
 21
8.5
 12
0.0
 22
0.0
 32
0.0
 14
0.0
 24
0.0
 34
0.0
 15
0.0
 25
0.0
 35
0.0
146
0.0
 13
0.0
 23
0.0
 33
0.0
 16
1.0
 26
0.0
 36
0.0
 17
0.0
 27
1.0
 37
0.0
 76
0
330
203
345
0
346
0
  0
ENDSEC
  0
EOF
