999
DXF file: E:\BT Custom\CADOUTPUT\_RIGHT.dxf
999
Pro/ENGINEER 2018400 by Parametric Technology Corporation
  0
SECTION
  2
HEADER
  9
$ACADVER
  1
AC1018
  9
$DWGCODEPAGE
  3
ANSI_1252
  9
$EXTMAX
 10
22.0
 20
17.0
 30
0.0
  9
$EXTMIN
 10
0.0
 20
0.0
 30
0.0
  9
$LIMMIN
 10
0.0
 20
0.0
  9
$LIMMAX
 10
22.0
 20
17.0
  9
$VIEWCTR
 10
11.0
 20
8.5
  9
$VIEWSIZE
 40
17.0
  9
$CLAYER
  8
0
  9
$LTSCALE
 40
1.21
  9
$CELTYPE
  6
BYLAYER
  9
$DIMSCALE
 40
1.0
  9
$DIMASZ
 40
0.1
  9
$DIMEXO
 40
0.0625
  9
$DIMDLI
 40
0.836
  9
$DIMEXE
 40
0.125
  9
$DIMCEN
 40
0.198
  9
$DIMLFAC
 40
1.0
  9
$DIMBLK
  1
_FILLED
  9
$DIMALT
 70
1
  9
$DIMALTD
 70
2
  9
$DIMALTTD
 70
2
  9
$DIMALTF
 40
25.4
  9
$DIMTXT
 40
0.08
  9
$DIMTOL
 70
1
  9
$DIMLIM
 70
0
  9
$DIMTFAC
 40
1.0
  9
$DIMTP
 40
0.001
  9
$DIMTM
 40
0.001
  9
$DIMGAP
 40
0.09
  9
$DIMDSEP
 70
46
  9
$AUNITS
 70
0
  9
$PDMODE
 70
3
  9
$PDSIZE
 40
0.06
  9
$HANDSEED
  5
496
  9
$TILEMODE
 70
1
  9
$MEASUREMENT
 70
0
  9
$INSUNITS
 70
1
  0
ENDSEC
  0
SECTION
  2
CLASSES
  0
CLASS
  1
ACDBDICTIONARYWDFLT
  2
AcDbDictionaryWithDefault
  3
AutoCAD 2000
 90
0
 91
1
280
0
281
0
  0
CLASS
  1
ACDBPLACEHOLDER
  2
AcDbPlaceHolder
  3
AutoCAD 2000
 90
0
 91
1
280
0
281
0
  0
CLASS
  1
LAYOUT
  2
AcDbLayout
  3
AutoCAD 2000
 90
0
 91
0
280
0
281
0
  0
ENDSEC
  0
SECTION
  2
TABLES
  0
TABLE
  2
VPORT
  5
8
100
AcDbSymbolTable
 70
2
  0
VPORT
  5
1F4
100
AcDbSymbolTableRecord
100
AcDbViewportTableRecord
  2
*ACTIVE
 70
0
 10
0.0
 20
0.0
 11
1.0
 21
1.0
 12
11.0
 22
8.5
 13
0.0
 23
0.0
 14
1.0
 24
1.0
 15
0.0
 25
0.0
 16
0.0
 26
0.0
 36
1.0
 17
0.0
 27
0.0
 37
0.0
 40
17.0
 41
1.2941176471
 42
50.0
 43
0.0
 44
0.0
 50
0.0
 51
0.0
 71
0
 72
100
 73
1
 74
1
 75
0
 76
0
 77
0
 78
0
  0
ENDTAB
  0
TABLE
  2
LTYPE
  5
5
100
AcDbSymbolTable
 70
6
  0
LTYPE
  5
14
100
AcDbSymbolTableRecord
100
AcDbLinetypeTableRecord
  2
BYBLOCK
 70
0
  3

 72
65
 73
0
 40
0.0
  0
LTYPE
  5
15
100
AcDbSymbolTableRecord
100
AcDbLinetypeTableRecord
  2
BYLAYER
 70
0
  3

 72
65
 73
0
 40
0.0
  0
LTYPE
  5
16
100
AcDbSymbolTableRecord
100
AcDbLinetypeTableRecord
  2
CONTINUOUS
 70
64
  3
Solid line
 72
65
 73
0
 40
0.0
  0
LTYPE
  5
1F5
100
AcDbSymbolTableRecord
100
AcDbLinetypeTableRecord
  2
CENTER
 70
64
  3
____ _ ____ _ ____ _ ____ _ ____ _ ____ _ ____
 72
65
 73
4
 40
0.6
 49
0.375
 74
0
 49
-0.075
 74
0
 49
0.075
 74
0
 49
-0.075
 74
0
  0
LTYPE
  5
1F6
100
AcDbSymbolTableRecord
100
AcDbLinetypeTableRecord
  2
HIDDEN
 70
64
  3
- - - - - - - - - - - - - - - - - - - -
 72
65
 73
2
 40
0.2
 49
0.1
 74
0
 49
-0.1
 74
0
  0
LTYPE
  5
1F7
100
AcDbSymbolTableRecord
100
AcDbLinetypeTableRecord
  2
PHANTOM
 70
64
  3
_____ _ _ _____ _ _ _____ _ _ _____
 72
65
 73
6
 40
0.8
 49
0.45
 74
0
 49
-0.05
 74
0
 49
0.1
 74
0
 49
-0.05
 74
0
 49
0.1
 74
0
 49
-0.05
 74
0
  0
LTYPE
  5
1F8
100
AcDbSymbolTableRecord
100
AcDbLinetypeTableRecord
  2
DOT
 70
64
  3
. . . . . . . . . . . . . . . . . . . .
 72
65
 73
2
 40
0.2
 49
0.1
 74
0
 49
-0.1
 74
0
  0
LTYPE
  5
1F9
100
AcDbSymbolTableRecord
100
AcDbLinetypeTableRecord
  2
DASHED
 70
64
  3
- - - - - - - - - - - - - - - - - - - -
 72
65
 73
2
 40
0.2
 49
0.1
 74
0
 49
-0.1
 74
0
  0
ENDTAB
  0
TABLE
  2
LAYER
  5
2
100
AcDbSymbolTable
 70
36
  0
LAYER
  5
10
100
AcDbSymbolTableRecord
100
AcDbLayerTableRecord
  2
0
 70
0
 62
7
  6
CONTINUOUS
370
-3
390
F
  0
LAYER
  5
1FA
100
AcDbSymbolTableRecord
100
AcDbLayerTableRecord
  2
DEFAULT_1
 70
0
 62
7
  6
CENTER
370
-3
390
F
  0
LAYER
  5
1FB
100
AcDbSymbolTableRecord
100
AcDbLayerTableRecord
  2
DEFAULT_2
 70
0
 62
8
  6
HIDDEN
370
-3
390
F
  0
LAYER
  5
1FC
100
AcDbSymbolTableRecord
100
AcDbLayerTableRecord
  2
DEFAULT_3
 70
0
 62
7
  6
PHANTOM
370
-3
390
F
  0
LAYER
  5
1FD
100
AcDbSymbolTableRecord
100
AcDbLayerTableRecord
  2
ALL_FEATURES
 70
0
 62
7
  6
CONTINUOUS
370
-3
390
F
  0
LAYER
  5
1FE
100
AcDbSymbolTableRecord
100
AcDbLayerTableRecord
  2
AXES_FEATURES
 70
0
 62
7
  6
CONTINUOUS
370
-3
390
F
  0
LAYER
  5
1FF
100
AcDbSymbolTableRecord
100
AcDbLayerTableRecord
  2
DIMENSIONS
 70
0
 62
7
  6
CONTINUOUS
370
-3
390
F
  0
ENDTAB
  0
TABLE
  2
STYLE
  5
3
100
AcDbSymbolTable
 70
1
  0
STYLE
  5
11
100
AcDbSymbolTableRecord
100
AcDbTextStyleTableRecord
  2
STANDARD
 70
0
 40
0.0
 41
0.8
 50
0.0
 71
0
 42
0.2
  3
txt
  4

  0
STYLE
  5
200
100
AcDbSymbolTableRecord
100
AcDbTextStyleTableRecord
  2
TEXTSTYLE_1
 70
0
 40
0.0
 41
0.8
 50
0.0
 71
0
 42
0.2
  3
gdt
  4

  0
ENDTAB
  0
TABLE
  2
VIEW
  5
6
100
AcDbSymbolTable
 70
0
  0
ENDTAB
  0
TABLE
  2
UCS
  5
7
100
AcDbSymbolTable
 70
0
  0
ENDTAB
  0
TABLE
  2
APPID
  5
9
100
AcDbSymbolTable
 70
1
  0
APPID
  5
201
100
AcDbSymbolTableRecord
100
AcDbRegAppTableRecord
  2
ACAD
 70
0
  0
ENDTAB
  0
TABLE
  2
BLOCK_RECORD
  5
1
100
AcDbSymbolTable
 70
0
  0
BLOCK_RECORD
  5
202
100
AcDbSymbolTableRecord
100
AcDbBlockTableRecord
  2
*Model_Space
  0
BLOCK_RECORD
  5
203
100
AcDbSymbolTableRecord
100
AcDbBlockTableRecord
  2
*Paper_Space
  0
BLOCK_RECORD
  5
204
100
AcDbSymbolTableRecord
100
AcDbBlockTableRecord
  2
_FILLED
  0
ENDTAB
  0
TABLE
  2
DIMSTYLE
  5
A
100
AcDbSymbolTable
 70
1
100
AcDbDimStyleTable
 71
0
  0
DIMSTYLE
105
205
100
AcDbSymbolTableRecord
100
AcDbDimStyleTableRecord
  2
STANDARD
 70
0
  3

  4

 40
1.0
 41
0.1
 42
0.0625
 43
0.38
 44
0.125
 45
0.0
 46
0.0
 47
0.001
 48
0.001
140
0.08
141
0.09
142
0.0
143
25.4
144
1.0
145
0.0
146
1.0
147
0.09
 71
1.0
 72
0.0
 73
1
 74
1
 75
0
 76
0
 77
0
 78
4
 79
1
170
1
171
2
172
0
173
0
174
0
175
0
176
0
177
0
178
0
270
2
179
3
271
3
272
3
273
2
274
2
275
0
280
0
281
0
282
0
283
1
284
4
285
0
286
0
287
3
288
0
340
11
278
46
341
204
342
204
343
204
344
204
  0
ENDTAB
  0
ENDSEC
  0
SECTION
  2
BLOCKS
  0
BLOCK
  5
20
100
AcDbEntity
  8
0
100
AcDbBlockBegin
  2
*Model_Space
 70
0
 10
0.0
 20
0.0
 30
0.0
  3
*Model_Space
  1

  0
ENDBLK
  5
21
100
AcDbEntity
  8
0
100
AcDbBlockEnd
  0
BLOCK
  5
1C
100
AcDbEntity
  8
0
100
AcDbBlockBegin
  2
*Paper_Space
 70
0
 10
0.0
 20
0.0
 30
0.0
  3
*Paper_Space
  1

  0
ENDBLK
  5
1D
100
AcDbEntity
  8
0
100
AcDbBlockEnd
  0
BLOCK
  5
206
100
AcDbEntity
  8
0
100
AcDbBlockBegin
  2
_FILLED
 70
64
 10
0.0
 20
0.0
  3
_FILLED
  1

  0
SOLID
  5
207
100
AcDbEntity
  8
0
  6
BYBLOCK
 62
0
100
AcDbTrace
 10
0.0
 20
0.0
 11
-1.0
 21
0.2
 12
-1.0
 22
-0.2
 13
-1.0
 23
-0.2
  0
ENDBLK
  5
208
100
AcDbEntity
  8
0
  6
BYBLOCK
 62
0
100
AcDbBlockEnd
  0
ENDSEC
  0
SECTION
  2
ENTITIES
  0
LINE
  5
209
100
AcDbEntity
  8
0
100
AcDbLine
 62
7
  6
CONTINUOUS
 10
13.6079176839
 20
0.4879530656
 11
15.9579145345
 21
0.4879530656
  0
LINE
  5
20A
100
AcDbEntity
  8
0
100
AcDbLine
 62
7
  6
CONTINUOUS
 10
15.9579161092
 20
0.6379530656
 11
13.6079161092
 21
0.6379530656
  0
LINE
  5
20B
100
AcDbEntity
  8
0
100
AcDbLine
 62
7
  6
CONTINUOUS
 10
13.6579161092
 20
0.6879530656
 11
15.9079161092
 21
0.6879530656
  0
LINE
  5
20C
100
AcDbEntity
  8
0
100
AcDbLine
 62
7
  6
CONTINUOUS
 10
13.6086496786
 20
0.8979530656
 11
15.9534006129
 21
0.8979530656
  0
LINE
  5
20D
100
AcDbEntity
  8
0
100
AcDbLine
 62
7
  6
CONTINUOUS
 10
15.9545699369
 20
0.8979530656
 11
15.9571825399
 21
0.8979530656
  0
LINE
  5
20E
100
AcDbEntity
  8
0
100
AcDbLine
 62
7
  6
CONTINUOUS
 10
13.6112622815
 20
0.9979530656
 11
13.6086496786
 21
0.9979530656
  0
LINE
  5
20F
100
AcDbEntity
  8
0
100
AcDbLine
 62
7
  6
CONTINUOUS
 10
13.6124316055
 20
0.9979530656
 11
15.9571825399
 21
0.9979530656
  0
LINE
  5
210
100
AcDbEntity
  8
0
100
AcDbLine
 62
7
  6
CONTINUOUS
 10
15.782890112
 20
1.0979530656
 11
13.7829421064
 21
1.0979530656
  0
LINE
  5
211
100
AcDbEntity
  8
0
100
AcDbLine
 62
7
  6
CONTINUOUS
 10
5.86346825
 20
12.5289696632
 11
5.9896546505
 21
13.3530512456
  0
LINE
  5
212
100
AcDbEntity
  8
0
100
AcDbLine
 62
7
  6
CONTINUOUS
 10
5.4622512271
 20
10.8924857951
 11
5.8285279883
 21
12.3157122964
  0
LINE
  5
213
100
AcDbEntity
  8
0
100
AcDbLine
 62
7
  6
CONTINUOUS
 10
5.7762412511
 20
10.833280497
 11
5.7745785482
 21
10.8076085672
  0
LINE
  5
214
100
AcDbEntity
  8
0
100
AcDbLine
 62
7
  6
CONTINUOUS
 10
5.799925623
 20
10.80372733
 11
5.8015883259
 21
10.8293992598
  0
LINE
  5
215
100
AcDbEntity
  8
0
100
AcDbLine
 62
7
  6
CONTINUOUS
 10
5.8729096159
 20
10.7925517528
 11
5.8745723188
 21
10.8182236825
  0
LINE
  5
216
100
AcDbEntity
  8
0
100
AcDbLine
 62
7
  6
CONTINUOUS
 10
5.9847275804
 20
10.7754297751
 11
5.9863902833
 21
10.8011017049
  0
LINE
  5
217
100
AcDbEntity
  8
0
100
AcDbLine
 62
7
  6
CONTINUOUS
 10
6.1218926197
 20
10.7544265602
 11
6.1235553225
 21
10.78009849
  0
LINE
  5
218
100
AcDbEntity
  8
0
100
AcDbLine
 62
7
  6
CONTINUOUS
 10
5.975957288
 20
10.7767727145
 11
5.9820526145
 21
10.8017659047
  0
LINE
  5
219
100
AcDbEntity
  8
0
100
AcDbLine
 62
7
  6
CONTINUOUS
 10
6.0877752525
 20
10.7596507368
 11
6.093870579
 21
10.784643927
  0
LINE
  5
21A
100
AcDbEntity
  8
0
100
AcDbLine
 62
7
  6
CONTINUOUS
 10
6.2249402917
 20
10.7386475219
 11
6.2310356182
 21
10.7636407121
  0
LINE
  5
21B
100
AcDbEntity
  8
0
100
AcDbLine
 62
7
  6
CONTINUOUS
 10
6.3709082776
 20
10.7162963675
 11
6.3770036041
 21
10.7412895576
  0
LINE
  5
21C
100
AcDbEntity
  8
0
100
AcDbLine
 62
7
  6
CONTINUOUS
 10
14.4053661092
 20
4.5840172832
 11
14.3785225794
 21
4.5768245811
  0
LINE
  5
21D
100
AcDbEntity
  8
0
100
AcDbLine
 62
7
  6
CONTINUOUS
 10
15.4503554257
 20
4.8440625241
 11
15.4232772266
 21
4.8378110292
  0
LINE
  5
21E
100
AcDbEntity
  8
0
100
AcDbLine
 62
7
  6
CONTINUOUS
 10
14.3606695478
 20
4.6119467946
 11
14.3333896699
 21
4.6066441235
  0
LINE
  5
21F
100
AcDbEntity
  8
0
100
AcDbLine
 62
7
  6
CONTINUOUS
 10
15.4212531619
 20
4.7984638085
 11
15.3938048417
 21
4.7941164216
  0
LINE
  5
220
100
AcDbEntity
  8
0
100
AcDbLine
 62
7
  6
CONTINUOUS
 10
14.3180301292
 20
4.6429261456
 11
14.2904468081
 21
4.6395393396
  0
LINE
  5
221
100
AcDbEntity
  8
0
100
AcDbLine
 62
7
  6
CONTINUOUS
 10
15.3890409841
 20
4.7550062404
 11
15.3613562682
 21
4.7525841416
  0
LINE
  5
222
100
AcDbEntity
  8
0
100
AcDbLine
 62
7
  6
CONTINUOUS
 10
6.2678606056
 20
10.7320754057
 11
6.2695233084
 21
10.7577473355
  0
LINE
  5
223
100
AcDbEntity
  8
0
100
AcDbLine
 62
7
  6
CONTINUOUS
 10
6.4050256448
 20
10.7110721908
 11
6.4066883477
 21
10.7367441206
  0
LINE
  5
224
100
AcDbEntity
  8
0
100
AcDbLine
 62
7
  6
CONTINUOUS
 10
6.5168436093
 20
10.6939502132
 11
6.5185063122
 21
10.7196221429
  0
LINE
  5
225
100
AcDbEntity
  8
0
100
AcDbLine
 62
7
  6
CONTINUOUS
 10
7.2522694925
 20
13.0099474514
 11
7.2746770659
 21
13.1562838907
  0
LWPOLYLINE
  5
226
100
AcDbEntity
  8
0
100
AcDbPolyline
 62
7
  6
CONTINUOUS
 90
7
 70
0
 10
7.3466462563
 20
12.8378129314
 10
7.3493033663
 20
12.8519034405
 10
7.3478544022
 20
12.866159602
 10
7.3424193344
 20
12.879422832
 10
7.3334440757
 20
12.8905996063
 10
7.3216771965
 20
12.8987652013
 10
7.316604781
 20
12.9009556873
  0
LINE
  5
227
100
AcDbEntity
  8
0
100
AcDbLine
 62
7
  6
CONTINUOUS
 10
6.5080733169
 20
10.6952931526
 11
6.5141686434
 21
10.7202863427
  0
LINE
  5
228
100
AcDbEntity
  8
0
100
AcDbLine
 62
7
  6
CONTINUOUS
 10
6.6198912814
 20
10.6781711749
 11
6.6259866079
 21
10.703164365
  0
LINE
  5
229
100
AcDbEntity
  8
0
100
AcDbLine
 62
7
  6
CONTINUOUS
 10
6.6928752743
 20
10.6669955977
 11
6.6989706008
 21
10.6919887878
  0
LINE
  5
22A
100
AcDbEntity
  8
0
100
AcDbLine
 62
7
  6
CONTINUOUS
 10
6.7243176756
 20
10.6881075506
 11
6.7182223491
 21
10.6631143604
  0
LINE
  5
22B
100
AcDbEntity
  8
0
100
AcDbLine
 62
7
  6
CONTINUOUS
 10
7.4882880992
 20
11.8175852813
 11
7.4926821098
 21
11.8220205044
  0
LINE
  5
22C
100
AcDbEntity
  8
0
100
AcDbLine
 62
7
  6
CONTINUOUS
 10
15.1604661092
 20
5.891888848
 11
15.187309639
 21
5.8990815502
  0
LINE
  5
22D
100
AcDbEntity
  8
0
100
AcDbLine
 62
7
  6
CONTINUOUS
 10
14.1154767927
 20
5.6318436072
 11
14.1425549918
 21
5.6380951021
  0
LINE
  5
22E
100
AcDbEntity
  8
0
100
AcDbLine
 62
7
  6
CONTINUOUS
 10
15.2051626706
 20
5.8639593367
 11
15.2324425485
 21
5.8692620078
  0
LINE
  5
22F
100
AcDbEntity
  8
0
100
AcDbLine
 62
7
  6
CONTINUOUS
 10
14.2499032072
 20
4.6753499673
 11
14.2776555883
 21
4.6768044079
  0
LINE
  5
230
100
AcDbEntity
  8
0
100
AcDbLine
 62
7
  6
CONTINUOUS
 10
15.3260895924
 20
4.7134165301
 11
15.3538758268
 21
4.7139015406
  0
LINE
  5
231
100
AcDbEntity
  8
0
100
AcDbLine
 62
9
  6
CONTINUOUS
 10
14.4254161092
 20
5.0255097984
 11
14.4454161092
 21
5.0255097984
  0
LINE
  5
232
100
AcDbEntity
  8
0
100
AcDbLine
 62
9
  6
CONTINUOUS
 10
15.1204161092
 20
5.0255097984
 11
15.1404161092
 21
5.0255097984
  0
LINE
  5
233
100
AcDbEntity
  8
0
100
AcDbLine
 62
7
  6
CONTINUOUS
 10
14.2119563916
 20
4.7139015406
 11
14.239742626
 21
4.7134165301
  0
LINE
  5
234
100
AcDbEntity
  8
0
100
AcDbLine
 62
7
  6
CONTINUOUS
 10
15.2881766301
 20
4.6768044079
 11
15.3159290112
 21
4.6753499673
  0
LINE
  5
235
100
AcDbEntity
  8
0
100
AcDbLine
 62
7
  6
CONTINUOUS
 10
14.2044759502
 20
4.7525841416
 11
14.1767912343
 21
4.7550062404
  0
LINE
  5
236
100
AcDbEntity
  8
0
100
AcDbLine
 62
9
  6
CONTINUOUS
 10
7.430084741
 20
11.7453765967
 11
7.4255613769
 21
12.7144470004
  0
LINE
  5
237
100
AcDbEntity
  8
0
100
AcDbLine
 62
7
  6
CONTINUOUS
 10
7.0416369447
 20
10.6506444496
 11
7.082067118
 21
11.4274994009
  0
LINE
  5
238
100
AcDbEntity
  8
0
100
AcDbLine
 62
7
  6
CONTINUOUS
 10
14.1445790565
 20
5.6774423228
 11
14.1720273768
 21
5.6817897096
  0
LINE
  5
239
100
AcDbEntity
  8
0
100
AcDbLine
 62
7
  6
CONTINUOUS
 10
15.2478020892
 20
5.8329799857
 11
15.2753854103
 21
5.8363667916
  0
LINE
  5
23A
100
AcDbEntity
  8
0
100
AcDbLine
 62
7
  6
CONTINUOUS
 10
14.1767912343
 20
5.7208998909
 11
14.2044759502
 21
5.7233219897
  0
LINE
  5
23B
100
AcDbEntity
  8
0
100
AcDbLine
 62
7
  6
CONTINUOUS
 10
15.3159290112
 20
5.800556164
 11
15.2881766301
 21
5.7991017234
  0
LINE
  5
23C
100
AcDbEntity
  8
0
100
AcDbLine
 62
7
  6
CONTINUOUS
 10
14.239742626
 20
5.7624896012
 11
14.2119563916
 21
5.7620045906
  0
LINE
  5
23D
100
AcDbEntity
  8
0
100
AcDbLine
 62
9
  6
CONTINUOUS
 10
14.5879161092
 20
5.5879530656
 11
14.9779161092
 21
5.5879530656
  0
LINE
  5
23E
100
AcDbEntity
  8
0
100
AcDbLine
 62
7
  6
CONTINUOUS
 10
15.2753854103
 20
4.6395393396
 11
15.2478020892
 21
4.6429261456
  0
LINE
  5
23F
100
AcDbEntity
  8
0
100
AcDbLine
 62
7
  6
CONTINUOUS
 10
14.1720273768
 20
4.7941164216
 11
14.1445790565
 21
4.7984638085
  0
LINE
  5
240
100
AcDbEntity
  8
0
100
AcDbLine
 62
7
  6
CONTINUOUS
 10
15.2324425485
 20
4.6066441235
 11
15.2051626706
 21
4.6119467946
  0
LINE
  5
241
100
AcDbEntity
  8
0
100
AcDbLine
 62
7
  6
CONTINUOUS
 10
14.1425549918
 20
4.8378110292
 11
14.1154767927
 21
4.8440625241
  0
LINE
  5
242
100
AcDbEntity
  8
0
100
AcDbLine
 62
7
  6
CONTINUOUS
 10
7.4885971373
 20
11.7513779914
 11
7.4841272025
 21
12.7090018902
  0
LINE
  5
243
100
AcDbEntity
  8
0
100
AcDbLine
 62
9
  6
CONTINUOUS
 10
7.4926821098
 20
11.8220205044
 11
7.4921722936
 21
11.9312418187
  0
LINE
  5
244
100
AcDbEntity
  8
0
100
AcDbLine
 62
7
  6
CONTINUOUS
 10
7.49610244
 20
11.8303882223
 11
7.495670548
 21
11.9229153217
  0
LINE
  5
245
100
AcDbEntity
  8
0
100
AcDbLine
 62
7
  6
CONTINUOUS
 10
14.5489161092
 20
5.9379530656
 11
15.0169161092
 21
5.9379530656
  0
LINE
  5
246
100
AcDbEntity
  8
0
100
AcDbLine
 62
7
  6
CONTINUOUS
 10
14.4829161092
 20
6.0129530656
 11
15.0829161092
 21
6.0129530656
  0
LINE
  5
247
100
AcDbEntity
  8
0
100
AcDbLine
 62
7
  6
CONTINUOUS
 10
14.4829161092
 20
6.1379530656
 11
15.0829161092
 21
6.1379530656
  0
LINE
  5
248
100
AcDbEntity
  8
0
100
AcDbLine
 62
7
  6
CONTINUOUS
 10
15.3538758268
 20
5.7620045906
 11
15.3260895924
 21
5.7624896012
  0
LINE
  5
249
100
AcDbEntity
  8
0
100
AcDbLine
 62
7
  6
CONTINUOUS
 10
14.2776555883
 20
5.7991017234
 11
14.2499032072
 21
5.800556164
  0
LINE
  5
24A
100
AcDbEntity
  8
0
100
AcDbLine
 62
7
  6
CONTINUOUS
 10
15.3613562682
 20
5.7233219897
 11
15.3890409841
 21
5.7208998909
  0
LINE
  5
24B
100
AcDbEntity
  8
0
100
AcDbLine
 62
7
  6
CONTINUOUS
 10
14.2904468081
 20
5.8363667916
 11
14.3180301292
 21
5.8329799857
  0
LINE
  5
24C
100
AcDbEntity
  8
0
100
AcDbLine
 62
7
  6
CONTINUOUS
 10
15.187309639
 20
4.5768245811
 11
15.1604661092
 21
4.5840172832
  0
LINE
  5
24D
100
AcDbEntity
  8
0
100
AcDbLine
 62
7
  6
CONTINUOUS
 10
14.1162023818
 20
4.8834550886
 11
14.0896262261
 21
4.8915802348
  0
LINE
  5
24E
100
AcDbEntity
  8
0
100
AcDbLine
 62
7
  6
CONTINUOUS
 10
15.1402065649
 20
4.5502259902
 11
15.1139301621
 21
4.5592736813
  0
LINE
  5
24F
100
AcDbEntity
  8
0
100
AcDbLine
 62
7
  6
CONTINUOUS
 10
14.0930979341
 20
4.9308262264
 11
14.0671532981
 21
4.9407854391
  0
LINE
  5
250
100
AcDbEntity
  8
0
100
AcDbLine
 62
7
  6
CONTINUOUS
 10
15.3938048417
 20
5.6817897096
 11
15.4212531619
 21
5.6774423228
  0
LINE
  5
251
100
AcDbEntity
  8
0
100
AcDbLine
 62
7
  6
CONTINUOUS
 10
14.3333896699
 20
5.8692620078
 11
14.3606695478
 21
5.8639593367
  0
LINE
  5
252
100
AcDbEntity
  8
0
100
AcDbLine
 62
7
  6
CONTINUOUS
 10
15.4232772266
 20
5.6380951021
 11
15.4503554257
 21
5.6318436072
  0
LINE
  5
253
100
AcDbEntity
  8
0
100
AcDbLine
 62
7
  6
CONTINUOUS
 10
14.3785225794
 20
5.8990815502
 11
14.4053661092
 21
5.891888848
  0
LINE
  5
254
100
AcDbEntity
  8
0
100
AcDbLine
 62
7
  6
CONTINUOUS
 10
15.0913628076
 20
4.5269779365
 11
15.0657815479
 21
4.5378365371
  0
LINE
  5
255
100
AcDbEntity
  8
0
100
AcDbLine
 62
7
  6
CONTINUOUS
 10
14.0733542113
 20
4.9796936554
 11
14.0481674946
 21
4.9914384143
  0
LINE
  5
256
100
AcDbEntity
  8
0
100
AcDbLine
 62
7
  6
CONTINUOUS
 10
15.0410163291
 20
4.5071936822
 11
15.0162548417
 21
4.5198102902
  0
LINE
  5
257
100
AcDbEntity
  8
0
100
AcDbLine
 62
7
  6
CONTINUOUS
 10
15.9079161092
 20
0.6879530656
 11
15.9579161092
 21
0.6379530656
  0
LINE
  5
258
100
AcDbEntity
  8
0
100
AcDbLine
 62
9
  6
CONTINUOUS
 10
15.7329161092
 20
7.3179530656
 11
15.0829161092
 21
7.3179530656
  0
LINE
  5
259
100
AcDbEntity
  8
0
100
AcDbLine
 62
9
  6
CONTINUOUS
 10
14.4829161092
 20
7.3179530656
 11
13.8329161092
 21
7.3179530656
  0
LINE
  5
25A
100
AcDbEntity
  8
0
100
AcDbLine
 62
7
  6
CONTINUOUS
 10
13.7829421064
 20
7.3479530656
 11
14.4829161092
 21
7.3479530656
  0
LINE
  5
25B
100
AcDbEntity
  8
0
100
AcDbLine
 62
7
  6
CONTINUOUS
 10
15.0829161092
 20
7.3479530656
 11
15.782890112
 21
7.3479530656
  0
LINE
  5
25C
100
AcDbEntity
  8
0
100
AcDbLine
 62
7
  6
CONTINUOUS
 10
13.7329161092
 20
7.3979530656
 11
14.4829161092
 21
7.3979530656
  0
LINE
  5
25D
100
AcDbEntity
  8
0
100
AcDbLine
 62
7
  6
CONTINUOUS
 10
15.0829161092
 20
7.3979530656
 11
15.8329161092
 21
7.3979530656
  0
LINE
  5
25E
100
AcDbEntity
  8
0
100
AcDbLine
 62
7
  6
CONTINUOUS
 10
13.6829455414
 20
7.4479530656
 11
14.4829161092
 21
7.4479530656
  0
LINE
  5
25F
100
AcDbEntity
  8
0
100
AcDbLine
 62
7
  6
CONTINUOUS
 10
15.0829161092
 20
7.4479530656
 11
15.882886677
 21
7.4479530656
  0
LINE
  5
260
100
AcDbEntity
  8
0
100
AcDbLine
 62
7
  6
CONTINUOUS
 10
15.882886677
 20
7.7479530656
 11
15.0829161092
 21
7.7479530656
  0
LINE
  5
261
100
AcDbEntity
  8
0
100
AcDbLine
 62
7
  6
CONTINUOUS
 10
14.4829161092
 20
7.7479530656
 11
13.6829455414
 21
7.7479530656
  0
LINE
  5
262
100
AcDbEntity
  8
0
100
AcDbLine
 62
7
  6
CONTINUOUS
 10
15.4496298366
 20
5.5924510427
 11
15.4762059923
 21
5.5843258965
  0
LINE
  5
263
100
AcDbEntity
  8
0
100
AcDbLine
 62
7
  6
CONTINUOUS
 10
14.4256256535
 20
5.925680141
 11
14.4519020563
 21
5.91663245
  0
LINE
  5
264
100
AcDbEntity
  8
0
100
AcDbLine
 62
7
  6
CONTINUOUS
 10
15.4727342843
 20
5.5450799048
 11
15.4986789203
 21
5.5351206921
  0
LINE
  5
265
100
AcDbEntity
  8
0
100
AcDbLine
 62
7
  6
CONTINUOUS
 10
14.4744694108
 20
5.9489281948
 11
14.5000506705
 21
5.9380695942
  0
LINE
  5
266
100
AcDbEntity
  8
0
100
AcDbLine
 62
7
  6
CONTINUOUS
 10
14.0570674026
 20
5.0298192983
 11
14.0327613125
 21
5.043292384
  0
LINE
  5
267
100
AcDbEntity
  8
0
100
AcDbLine
 62
7
  6
CONTINUOUS
 10
14.9894124122
 20
4.4909696141
 11
14.9655913326
 21
4.5052827627
  0
LINE
  5
268
100
AcDbEntity
  8
0
100
AcDbLine
 62
7
  6
CONTINUOUS
 10
14.0443168559
 20
5.0809589479
 11
14.0210098091
 21
5.096094721
  0
LINE
  5
269
100
AcDbEntity
  8
0
100
AcDbLine
 62
7
  6
CONTINUOUS
 10
14.936802466
 20
4.4783847743
 11
14.9140378482
 21
4.4943247313
  0
LINE
  5
26A
100
AcDbEntity
  8
0
100
AcDbLine
 62
7
  6
CONTINUOUS
 10
15.8329161092
 20
7.7979530656
 11
15.0829161092
 21
7.7979530656
  0
LINE
  5
26B
100
AcDbEntity
  8
0
100
AcDbLine
 62
7
  6
CONTINUOUS
 10
14.4829161092
 20
7.7979530656
 11
13.7329161092
 21
7.7979530656
  0
LINE
  5
26C
100
AcDbEntity
  8
0
100
AcDbLine
 62
7
  6
CONTINUOUS
 10
15.7328914162
 20
7.8979530656
 11
15.0829161092
 21
7.8979530656
  0
LINE
  5
26D
100
AcDbEntity
  8
0
100
AcDbLine
 62
7
  6
CONTINUOUS
 10
14.4829161092
 20
7.8979530656
 11
13.8329408022
 21
7.8979530656
  0
LINE
  5
26E
100
AcDbEntity
  8
0
100
AcDbLine
 62
7
  6
CONTINUOUS
 10
14.2129161092
 20
7.9129530656
 11
14.4829161092
 21
7.9129530656
  0
LINE
  5
26F
100
AcDbEntity
  8
0
100
AcDbLine
 62
7
  6
CONTINUOUS
 10
15.0829161092
 20
7.9129530656
 11
15.3529161092
 21
7.9129530656
  0
LINE
  5
270
100
AcDbEntity
  8
0
100
AcDbLine
 62
7
  6
CONTINUOUS
 10
15.4924780072
 20
5.4962124759
 11
15.5176647238
 21
5.484467717
  0
LINE
  5
271
100
AcDbEntity
  8
0
100
AcDbLine
 62
7
  6
CONTINUOUS
 10
14.5248158893
 20
5.9687124491
 11
14.5452001173
 21
5.9583261662
  0
LINE
  5
272
100
AcDbEntity
  8
0
100
AcDbLine
 62
7
  6
CONTINUOUS
 10
15.5087648158
 20
5.446086833
 11
15.5330709059
 21
5.4326137473
  0
LINE
  5
273
100
AcDbEntity
  8
0
100
AcDbLine
 62
9
  6
CONTINUOUS
 10
15.140416085
 20
5.0255097957
 11
15.1533348376
 21
5.0178329179
  0
LINE
  5
274
100
AcDbEntity
  8
0
100
AcDbLine
 62
7
  6
CONTINUOUS
 10
14.0351646905
 20
5.1328634571
 11
14.0129702367
 21
5.1495881776
  0
LINE
  5
275
100
AcDbEntity
  8
0
100
AcDbLine
 62
7
  6
CONTINUOUS
 10
14.883442801
 20
4.4695004749
 11
14.8618455518
 21
4.4869895824
  0
LINE
  5
276
100
AcDbEntity
  8
0
100
AcDbLine
 62
7
  6
CONTINUOUS
 10
14.0296554949
 20
5.1852799523
 11
14.0086817632
 21
5.2035121391
  0
LINE
  5
277
100
AcDbEntity
  8
0
100
AcDbLine
 62
7
  6
CONTINUOUS
 10
14.4604161092
 20
8.7179530656
 11
15.1054161092
 21
8.7179530656
  0
LINE
  5
278
100
AcDbEntity
  8
0
100
AcDbLine
 62
7
  6
CONTINUOUS
 10
15.1054161092
 20
8.8379530656
 11
14.4604161092
 21
8.8379530656
  0
LINE
  5
279
100
AcDbEntity
  8
0
100
AcDbLine
 62
7
  6
CONTINUOUS
 10
15.5215153625
 20
5.3949471834
 11
15.5448224093
 21
5.3798114102
  0
LINE
  5
27A
100
AcDbEntity
  8
0
100
AcDbLine
 62
7
  6
CONTINUOUS
 10
15.5306675279
 20
5.3430426742
 11
15.5528619817
 21
5.3263179536
  0
LINE
  5
27B
100
AcDbEntity
  8
0
100
AcDbLine
 62
7
  6
CONTINUOUS
 10
14.8295933801
 20
4.4643599992
 11
14.8092687192
 21
4.4833130522
  0
LINE
  5
27C
100
AcDbEntity
  8
0
100
AcDbLine
 62
7
  6
CONTINUOUS
 10
7.492172021
 20
11.9313002203
 11
7.4877367979
 21
11.9356942309
  0
LINE
  5
27D
100
AcDbEntity
  8
0
100
AcDbLine
 62
7
  6
CONTINUOUS
 10
14.0278161092
 20
5.2379530656
 11
14.0081652815
 21
5.2576038933
  0
LINE
  5
27E
100
AcDbEntity
  8
0
100
AcDbLine
 62
7
  6
CONTINUOUS
 10
14.7755165522
 20
4.4629883912
 11
14.7565634992
 21
4.4833130522
  0
LINE
  5
27F
100
AcDbEntity
  8
0
100
AcDbLine
 62
7
  6
CONTINUOUS
 10
14.0296554949
 20
5.290626179
 11
14.0114233081
 21
5.3115999106
  0
LINE
  5
280
100
AcDbEntity
  8
0
100
AcDbLine
 62
7
  6
CONTINUOUS
 10
15.5361767236
 20
5.290626179
 11
15.5571504552
 21
5.2723939922
  0
LINE
  5
281
100
AcDbEntity
  8
0
100
AcDbLine
 62
7
  6
CONTINUOUS
 10
15.5380161092
 20
5.2379530656
 11
15.5576669369
 21
5.218302238
  0
LINE
  5
282
100
AcDbEntity
  8
0
100
AcDbLine
 62
7
  6
CONTINUOUS
 10
14.7214757742
 20
4.4653923332
 11
14.7039866666
 21
4.4869895824
  0
LINE
  5
283
100
AcDbEntity
  8
0
100
AcDbLine
 62
7
  6
CONTINUOUS
 10
14.0351646905
 20
5.3430426742
 11
14.01843997
 21
5.365237128
  0
LINE
  5
284
100
AcDbEntity
  8
0
100
AcDbLine
 62
7
  6
CONTINUOUS
 10
14.6677343273
 20
4.4715601135
 11
14.6517943702
 21
4.4943247313
  0
LINE
  5
285
100
AcDbEntity
  8
0
100
AcDbLine
 62
7
  6
CONTINUOUS
 10
5.7845771663
 20
10.7951702517
 11
5.9626943452
 21
10.7678962947
  0
LINE
  5
286
100
AcDbEntity
  8
0
100
AcDbLine
 62
7
  6
CONTINUOUS
 10
5.9947298491
 20
10.7629909006
 11
6.074509181
 21
10.7507747961
  0
LINE
  5
287
100
AcDbEntity
  8
0
100
AcDbLine
 62
7
  6
CONTINUOUS
 10
6.1318980859
 20
10.7419871961
 11
6.2116710226
 21
10.7297720708
  0
LINE
  5
288
100
AcDbEntity
  8
0
100
AcDbLine
 62
7
  6
CONTINUOUS
 10
6.2778793083
 20
10.7196340148
 11
6.3576257721
 21
10.7074229432
  0
LINE
  5
289
100
AcDbEntity
  8
0
100
AcDbLine
 62
7
  6
CONTINUOUS
 10
6.4150309409
 20
10.6986328527
 11
6.4948042179
 21
10.6864176754
  0
LINE
  5
28A
100
AcDbEntity
  8
0
100
AcDbLine
 62
7
  6
CONTINUOUS
 10
6.526845661
 20
10.6815113719
 11
6.7049243968
 21
10.6542433014
  0
LINE
  5
28B
100
AcDbEntity
  8
0
100
AcDbLine
 62
9
  6
CONTINUOUS
 10
5.7745785482
 20
10.8076085672
 11
5.975957288
 21
10.7767727145
  0
LINE
  5
28C
100
AcDbEntity
  8
0
100
AcDbLine
 62
9
  6
CONTINUOUS
 10
5.9847275804
 20
10.7754297751
 11
6.0877752525
 21
10.7596507368
  0
LINE
  5
28D
100
AcDbEntity
  8
0
100
AcDbLine
 62
9
  6
CONTINUOUS
 10
6.1218926197
 20
10.7544265602
 11
6.2249402917
 21
10.7386475219
  0
LINE
  5
28E
100
AcDbEntity
  8
0
100
AcDbLine
 62
9
  6
CONTINUOUS
 10
6.2678606056
 20
10.7320754057
 11
6.3709082776
 21
10.7162963675
  0
LINE
  5
28F
100
AcDbEntity
  8
0
100
AcDbLine
 62
9
  6
CONTINUOUS
 10
6.4050256448
 20
10.7110721908
 11
6.5080733169
 21
10.6952931526
  0
LINE
  5
290
100
AcDbEntity
  8
0
100
AcDbLine
 62
9
  6
CONTINUOUS
 10
6.5168436093
 20
10.6939502132
 11
6.7182223491
 21
10.6631143604
  0
LINE
  5
291
100
AcDbEntity
  8
0
100
AcDbLine
 62
7
  6
CONTINUOUS
 10
5.4704220618
 20
10.8801086552
 11
7.0301368648
 21
10.6412793924
  0
LINE
  5
292
100
AcDbEntity
  8
0
100
AcDbLine
 62
9
  6
CONTINUOUS
 10
5.4622512271
 20
10.8924857951
 11
7.0416369447
 21
10.6506444496
  0
LINE
  5
293
100
AcDbEntity
  8
0
100
AcDbLine
 62
7
  6
CONTINUOUS
 10
13.7829161092
 20
7.3479530656
 11
13.7329161092
 21
7.3979530656
  0
LINE
  5
294
100
AcDbEntity
  8
0
100
AcDbLine
 62
7
  6
CONTINUOUS
 10
15.5361767236
 20
5.1852799523
 11
15.5544089104
 21
5.1643062206
  0
LINE
  5
295
100
AcDbEntity
  8
0
100
AcDbLine
 62
7
  6
CONTINUOUS
 10
14.0443168559
 20
5.3949471834
 11
14.0291810828
 21
5.4182542301
  0
LINE
  5
296
100
AcDbEntity
  8
0
100
AcDbLine
 62
7
  6
CONTINUOUS
 10
14.6145540345
 20
4.4814616831
 11
14.6002408858
 21
4.5052827627
  0
LINE
  5
297
100
AcDbEntity
  8
0
100
AcDbLine
 62
7
  6
CONTINUOUS
 10
14.0570674026
 20
5.446086833
 11
14.0435943168
 21
5.4703929231
  0
LINE
  5
298
100
AcDbEntity
  8
0
100
AcDbLine
 62
7
  6
CONTINUOUS
 10
14.5621939848
 20
4.4950488028
 11
14.5495773768
 21
4.5198102902
  0
LINE
  5
299
100
AcDbEntity
  8
0
100
AcDbLine
 62
9
  6
CONTINUOUS
 10
7.082067118
 20
11.4274994009
 11
7.0730735771
 21
11.428876525
  0
LINE
  5
29A
100
AcDbEntity
  8
0
100
AcDbLine
 62
9
  6
CONTINUOUS
 10
7.1026068025
 20
11.672935259
 11
7.1569044267
 21
11.6646210072
  0
LINE
  5
29B
100
AcDbEntity
  8
0
100
AcDbLine
 62
7
  6
CONTINUOUS
 10
15.5306675279
 20
5.1328634571
 11
15.5473922485
 21
5.1106690033
  0
LINE
  5
29C
100
AcDbEntity
  8
0
100
AcDbLine
 62
7
  6
CONTINUOUS
 10
15.5215153625
 20
5.0809589479
 11
15.5366511356
 21
5.0576519012
  0
LINE
  5
29D
100
AcDbEntity
  8
0
100
AcDbLine
 62
7
  6
CONTINUOUS
 10
14.0733542113
 20
5.4962124759
 11
14.0616094524
 21
5.5213991925
  0
LINE
  5
29E
100
AcDbEntity
  8
0
100
AcDbLine
 62
7
  6
CONTINUOUS
 10
14.510909271
 20
4.5122552773
 11
14.5000506705
 21
4.5378365371
  0
LINE
  5
29F
100
AcDbEntity
  8
0
100
AcDbLine
 62
7
  6
CONTINUOUS
 10
14.0930979341
 20
5.5450799048
 11
14.0831387215
 21
5.5710245409
  0
LINE
  5
2A0
100
AcDbEntity
  8
0
100
AcDbLine
 62
7
  6
CONTINUOUS
 10
14.4609497473
 20
4.5329972785
 11
14.4519020563
 21
4.5592736813
  0
LINE
  5
2A1
100
AcDbEntity
  8
0
100
AcDbLine
 62
7
  6
CONTINUOUS
 10
7.2093261828
 20
11.6500605614
 11
7.3914913222
 21
11.6525006905
  0
LINE
  5
2A2
100
AcDbEntity
  8
0
100
AcDbLine
 62
9
  6
CONTINUOUS
 10
7.0127032895
 20
12.1343870223
 11
5.8285279883
 21
12.3157122964
  0
LINE
  5
2A3
100
AcDbEntity
  8
0
100
AcDbLine
 62
9
  6
CONTINUOUS
 10
7.0288396615
 20
12.1659735132
 11
5.8204249296
 21
12.3510104181
  0
LINE
  5
2A4
100
AcDbEntity
  8
0
100
AcDbLine
 62
9
  6
CONTINUOUS
 10
5.8449501441
 20
12.5012222923
 11
7.0495910361
 21
12.3167632517
  0
LINE
  5
2A5
100
AcDbEntity
  8
0
100
AcDbLine
 62
9
  6
CONTINUOUS
 10
5.86346825
 20
12.5289696632
 11
7.0425027308
 21
12.3484315703
  0
LINE
  5
2A6
100
AcDbEntity
  8
0
100
AcDbLine
 62
7
  6
CONTINUOUS
 10
15.5087648158
 20
5.0298192983
 11
15.5222379016
 21
5.0055132081
  0
LINE
  5
2A7
100
AcDbEntity
  8
0
100
AcDbLine
 62
7
  6
CONTINUOUS
 10
15.4924780072
 20
4.9796936554
 11
15.504222766
 21
4.9545069388
  0
LINE
  5
2A8
100
AcDbEntity
  8
0
100
AcDbLine
 62
7
  6
CONTINUOUS
 10
14.1162023818
 20
5.5924510427
 11
14.1080772356
 21
5.6190271985
  0
LINE
  5
2A9
100
AcDbEntity
  8
0
100
AcDbLine
 62
7
  6
CONTINUOUS
 10
14.4125588113
 20
4.5571737534
 11
14.4053661092
 21
4.5840172832
  0
LINE
  5
2AA
100
AcDbEntity
  8
0
100
AcDbLine
 62
7
  6
CONTINUOUS
 10
14.1425549918
 20
5.6380951021
 11
14.1363034969
 21
5.6651733012
  0
LINE
  5
2AB
100
AcDbEntity
  8
0
100
AcDbLine
 62
7
  6
CONTINUOUS
 10
14.3659722189
 20
4.5846669168
 11
14.3606695478
 21
4.6119467946
  0
LINE
  5
2AC
100
AcDbEntity
  8
0
100
AcDbLine
 62
7
  6
CONTINUOUS
 10
14.2044759502
 20
5.7233219897
 11
14.2020538514
 21
5.7510067056
  0
LINE
  5
2AD
100
AcDbEntity
  8
0
100
AcDbLine
 62
7
  6
CONTINUOUS
 10
14.2776555883
 20
4.6768044079
 11
14.279110029
 21
4.6490520268
  0
LINE
  5
2AE
100
AcDbEntity
  8
0
100
AcDbLine
 62
7
  6
CONTINUOUS
 10
13.6079161092
 20
0.4879530656
 11
13.6079161092
 21
0.6379530656
  0
LINE
  5
2AF
100
AcDbEntity
  8
0
100
AcDbLine
 62
7
  6
CONTINUOUS
 10
13.6086496786
 20
0.9979530656
 11
13.6086496786
 21
0.8979530656
  0
LINE
  5
2B0
100
AcDbEntity
  8
0
100
AcDbLine
 62
7
  6
CONTINUOUS
 10
13.6107431168
 20
0.8979530656
 11
13.6107431168
 21
0.9979530656
  0
LINE
  5
2B1
100
AcDbEntity
  8
0
100
AcDbLine
 62
7
  6
CONTINUOUS
 10
13.6124316055
 20
0.9979530656
 11
13.6124316055
 21
0.8979530656
  0
LINE
  5
2B2
100
AcDbEntity
  8
0
100
AcDbLine
 62
7
  6
CONTINUOUS
 10
13.616612744
 20
0.8979530656
 11
13.616612744
 21
0.9979530656
  0
LINE
  5
2B3
100
AcDbEntity
  8
0
100
AcDbLine
 62
7
  6
CONTINUOUS
 10
13.619421749
 20
0.9979530656
 11
13.619421749
 21
0.8979530656
  0
LINE
  5
2B4
100
AcDbEntity
  8
0
100
AcDbLine
 62
7
  6
CONTINUOUS
 10
13.6256791277
 20
0.8979530656
 11
13.6256791277
 21
0.9979530656
  0
LINE
  5
2B5
100
AcDbEntity
  8
0
100
AcDbLine
 62
7
  6
CONTINUOUS
 10
13.6296009498
 20
0.9979530656
 11
13.6296009498
 21
0.8979530656
  0
LINE
  5
2B6
100
AcDbEntity
  8
0
100
AcDbLine
 62
7
  6
CONTINUOUS
 10
13.6379174174
 20
0.8979530656
 11
13.6379174174
 21
0.9979530656
  0
LINE
  5
2B7
100
AcDbEntity
  8
0
100
AcDbLine
 62
7
  6
CONTINUOUS
 10
13.6429413072
 20
0.9979530656
 11
13.6429413072
 21
0.8979530656
  0
LINE
  5
2B8
100
AcDbEntity
  8
0
100
AcDbLine
 62
7
  6
CONTINUOUS
 10
13.653294069
 20
0.8979530656
 11
13.653294069
 21
0.9979530656
  0
LINE
  5
2B9
100
AcDbEntity
  8
0
100
AcDbLine
 62
7
  6
CONTINUOUS
 10
13.6579161092
 20
0.6879530656
 11
13.6579161092
 21
0.8979530656
  0
LINE
  5
2BA
100
AcDbEntity
  8
0
100
AcDbLine
 62
7
  6
CONTINUOUS
 10
13.6594062564
 20
0.9979530656
 11
13.6594062564
 21
0.8979530656
  0
LINE
  5
2BB
100
AcDbEntity
  8
0
100
AcDbLine
 62
7
  6
CONTINUOUS
 10
13.6717669361
 20
0.8979530656
 11
13.6717669361
 21
0.9979530656
  0
LINE
  5
2BC
100
AcDbEntity
  8
0
100
AcDbLine
 62
7
  6
CONTINUOUS
 10
13.6789506679
 20
0.9979530656
 11
13.6789506679
 21
0.8979530656
  0
LINE
  5
2BD
100
AcDbEntity
  8
0
100
AcDbLine
 62
7
  6
CONTINUOUS
 10
13.6829161092
 20
7.4479530656
 11
13.6829161092
 21
7.7479530656
  0
LINE
  5
2BE
100
AcDbEntity
  8
0
100
AcDbLine
 62
7
  6
CONTINUOUS
 10
13.6932853859
 20
0.8979530656
 11
13.6932853859
 21
0.9979530656
  0
LINE
  5
2BF
100
AcDbEntity
  8
0
100
AcDbLine
 62
7
  6
CONTINUOUS
 10
13.701520972
 20
0.9979530656
 11
13.701520972
 21
0.8979530656
  0
LINE
  5
2C0
100
AcDbEntity
  8
0
100
AcDbLine
 62
7
  6
CONTINUOUS
 10
13.7177904377
 20
0.8979530656
 11
13.7177904377
 21
0.9979530656
  0
LINE
  5
2C1
100
AcDbEntity
  8
0
100
AcDbLine
 62
7
  6
CONTINUOUS
 10
13.727055305
 20
0.9979530656
 11
13.727055305
 21
0.8979530656
  0
LINE
  5
2C2
100
AcDbEntity
  8
0
100
AcDbLine
 62
7
  6
CONTINUOUS
 10
13.7329161092
 20
7.3979530656
 11
13.7329161092
 21
7.4479530656
  0
LINE
  5
2C3
100
AcDbEntity
  8
0
100
AcDbLine
 62
7
  6
CONTINUOUS
 10
13.7329161092
 20
7.7479530656
 11
13.7329161092
 21
7.7979530656
  0
LINE
  5
2C4
100
AcDbEntity
  8
0
100
AcDbLine
 62
7
  6
CONTINUOUS
 10
13.745214925
 20
0.8979530656
 11
13.745214925
 21
0.9979530656
  0
LINE
  5
2C5
100
AcDbEntity
  8
0
100
AcDbLine
 62
7
  6
CONTINUOUS
 10
13.755483679
 20
0.9979530656
 11
13.755483679
 21
0.8979530656
  0
LINE
  5
2C6
100
AcDbEntity
  8
0
100
AcDbLine
 62
7
  6
CONTINUOUS
 10
13.775483679
 20
0.8979530656
 11
13.775483679
 21
0.9979530656
  0
LINE
  5
2C7
100
AcDbEntity
  8
0
100
AcDbLine
 62
7
  6
CONTINUOUS
 10
13.7867281739
 20
0.9979530656
 11
13.7867281739
 21
0.8979530656
  0
LINE
  5
2C8
100
AcDbEntity
  8
0
100
AcDbLine
 62
7
  6
CONTINUOUS
 10
13.8085137353
 20
0.8979530656
 11
13.8085137353
 21
0.9979530656
  0
LINE
  5
2C9
100
AcDbEntity
  8
0
100
AcDbLine
 62
7
  6
CONTINUOUS
 10
13.8207031508
 20
0.9979530656
 11
13.8207031508
 21
0.8979530656
  0
LINE
  5
2CA
100
AcDbEntity
  8
0
100
AcDbLine
 62
7
  6
CONTINUOUS
 10
13.8329161092
 20
1.0979530656
 11
13.8329161092
 21
4.7959000979
  0
LINE
  5
2CB
100
AcDbEntity
  8
0
100
AcDbLine
 62
7
  6
CONTINUOUS
 10
13.8329161092
 20
5.6800417984
 11
13.8329161092
 21
7.3179530656
  0
LINE
  5
2CC
100
AcDbEntity
  8
0
100
AcDbLine
 62
7
  6
CONTINUOUS
 10
13.8442145609
 20
0.8979530656
 11
13.8442145609
 21
0.9979530656
  0
LINE
  5
2CD
100
AcDbEntity
  8
0
100
AcDbLine
 62
7
  6
CONTINUOUS
 10
13.8573154864
 20
0.9979530656
 11
13.8573154864
 21
0.8979530656
  0
LINE
  5
2CE
100
AcDbEntity
  8
0
100
AcDbLine
 62
7
  6
CONTINUOUS
 10
13.8824883021
 20
0.8979530656
 11
13.8824883021
 21
0.9979530656
  0
LINE
  5
2CF
100
AcDbEntity
  8
0
100
AcDbLine
 62
7
  6
CONTINUOUS
 10
13.896464829
 20
0.9979530656
 11
13.896464829
 21
0.8979530656
  0
LINE
  5
2D0
100
AcDbEntity
  8
0
100
AcDbLine
 62
7
  6
CONTINUOUS
 10
13.9232300533
 20
0.8979530656
 11
13.9232300533
 21
0.9979530656
  0
LINE
  5
2D1
100
AcDbEntity
  8
0
100
AcDbLine
 62
7
  6
CONTINUOUS
 10
13.938043873
 20
0.9979530656
 11
13.938043873
 21
0.8979530656
  0
LINE
  5
2D2
100
AcDbEntity
  8
0
100
AcDbLine
 62
7
  6
CONTINUOUS
 10
13.9663281443
 20
0.8979530656
 11
13.9663281443
 21
0.9979530656
  0
LINE
  5
2D3
100
AcDbEntity
  8
0
100
AcDbLine
 62
7
  6
CONTINUOUS
 10
13.981938653
 20
0.9979530656
 11
13.981938653
 21
0.8979530656
  0
LINE
  5
2D4
100
AcDbEntity
  8
0
100
AcDbLine
 62
7
  6
CONTINUOUS
 10
14.0101841617
 20
0.8979530656
 11
14.0101841617
 21
0.9979530656
  0
LINE
  5
2D5
100
AcDbEntity
  8
0
100
AcDbLine
 62
7
  6
CONTINUOUS
 10
14.0116644461
 20
0.8979530656
 11
14.0116644461
 21
0.9979530656
  0
LINE
  5
2D6
100
AcDbEntity
  8
0
100
AcDbLine
 62
7
  6
CONTINUOUS
 10
14.0280288566
 20
0.9979530656
 11
14.0280288566
 21
0.8979530656
  0
LINE
  5
2D7
100
AcDbEntity
  8
0
100
AcDbLine
 62
7
  6
CONTINUOUS
 10
14.0561581837
 20
0.8979530656
 11
14.0561581837
 21
0.9979530656
  0
LINE
  5
2D8
100
AcDbEntity
  8
0
100
AcDbLine
 62
7
  6
CONTINUOUS
 10
14.0591146951
 20
0.8979530656
 11
14.0591146951
 21
0.9979530656
  0
LINE
  5
2D9
100
AcDbEntity
  8
0
100
AcDbLine
 62
7
  6
CONTINUOUS
 10
14.0761881537
 20
0.9979530656
 11
14.0761881537
 21
0.8979530656
  0
LINE
  5
2DA
100
AcDbEntity
  8
0
100
AcDbLine
 62
7
  6
CONTINUOUS
 10
14.1041241986
 20
0.8979530656
 11
14.1041241986
 21
0.9979530656
  0
LINE
  5
2DB
100
AcDbEntity
  8
0
100
AcDbLine
 62
7
  6
CONTINUOUS
 10
14.1085488335
 20
0.8979530656
 11
14.1085488335
 21
0.9979530656
  0
LINE
  5
2DC
100
AcDbEntity
  8
0
100
AcDbLine
 62
7
  6
CONTINUOUS
 10
14.1262845429
 20
0.9979530656
 11
14.1262845429
 21
0.8979530656
  0
LWPOLYLINE
  5
2DD
100
AcDbEntity
  8
0
100
AcDbPolyline
 62
7
  6
CONTINUOUS
 90
7
 70
0
 10
7.1725842823
 20
11.5218644221
 10
7.1788654361
 20
11.5228603718
 10
7.1925745784
 20
11.5281520372
 10
7.2041626644
 20
11.537210379
 10
7.2126132594
 20
11.5492477445
 10
7.2171951633
 20
11.5632183107
 10
7.2175141356
 20
11.5779283775
  0
LINE
  5
2DE
100
AcDbEntity
  8
0
100
AcDbLine
 62
9
  6
CONTINUOUS
 10
7.2710662726
 20
12.7685826157
 11
7.21642301
 21
12.7769497928
  0
LINE
  5
2DF
100
AcDbEntity
  8
0
100
AcDbLine
 62
7
  6
CONTINUOUS
 10
7.3393850517
 20
12.8163501938
 11
7.4023404807
 21
12.8055521996
  0
LINE
  5
2E0
100
AcDbEntity
  8
0
100
AcDbLine
 62
7
  6
CONTINUOUS
 10
15.0549229474
 20
5.963650854
 11
15.0657815479
 21
5.9380695942
  0
LINE
  5
2E1
100
AcDbEntity
  8
0
100
AcDbLine
 62
7
  6
CONTINUOUS
 10
15.4727342843
 20
4.9308262264
 11
15.4826934969
 21
4.9048815904
  0
LINE
  5
2E2
100
AcDbEntity
  8
0
100
AcDbLine
 62
7
  6
CONTINUOUS
 10
15.1048824711
 20
5.9429088528
 11
15.1139301621
 21
5.91663245
  0
LINE
  5
2E3
100
AcDbEntity
  8
0
100
AcDbLine
 62
7
  6
CONTINUOUS
 10
15.4496298366
 20
4.8834550886
 11
15.4577549828
 21
4.8568789328
  0
LINE
  5
2E4
100
AcDbEntity
  8
0
100
AcDbLine
 62
7
  6
CONTINUOUS
 10
14.1720273768
 20
5.6817897096
 11
14.1676799899
 21
5.7092380299
  0
LINE
  5
2E5
100
AcDbEntity
  8
0
100
AcDbLine
 62
7
  6
CONTINUOUS
 10
14.3214169352
 20
4.6153428245
 11
14.3180301292
 21
4.6429261456
  0
LINE
  5
2E6
100
AcDbEntity
  8
0
100
AcDbLine
 62
7
  6
CONTINUOUS
 10
14.2392576154
 20
5.7902758355
 11
14.239742626
 21
5.7624896012
  0
LINE
  5
2E7
100
AcDbEntity
  8
0
100
AcDbLine
 62
7
  6
CONTINUOUS
 10
14.153950735
 20
0.8979530656
 11
14.153950735
 21
0.9979530656
  0
LINE
  5
2E8
100
AcDbEntity
  8
0
100
AcDbLine
 62
7
  6
CONTINUOUS
 10
14.1598313657
 20
0.8979530656
 11
14.1598313657
 21
0.9979530656
  0
LINE
  5
2E9
100
AcDbEntity
  8
0
100
AcDbLine
 62
7
  6
CONTINUOUS
 10
14.1781807137
 20
0.9979530656
 11
14.1781807137
 21
0.8979530656
  0
LINE
  5
2EA
100
AcDbEntity
  8
0
100
AcDbLine
 62
7
  6
CONTINUOUS
 10
14.2055012218
 20
0.8979530656
 11
14.2055012218
 21
0.9979530656
  0
LINE
  5
2EB
100
AcDbEntity
  8
0
100
AcDbLine
 62
7
  6
CONTINUOUS
 10
14.2128217298
 20
0.8979530656
 11
14.2128217298
 21
0.9979530656
  0
LINE
  5
2EC
100
AcDbEntity
  8
0
100
AcDbLine
 62
7
  6
CONTINUOUS
 10
14.2130435775
 20
12.8839530656
 11
14.2130435775
 21
7.9129530656
  0
LINE
  5
2ED
100
AcDbEntity
  8
0
100
AcDbLine
 62
7
  6
CONTINUOUS
 10
14.2317344221
 20
0.9979530656
 11
14.2317344221
 21
0.8979530656
  0
LINE
  5
2EE
100
AcDbEntity
  8
0
100
AcDbLine
 62
7
  6
CONTINUOUS
 10
14.2586343626
 20
0.8979530656
 11
14.2586343626
 21
0.9979530656
  0
LINE
  5
2EF
100
AcDbEntity
  8
0
100
AcDbLine
 62
7
  6
CONTINUOUS
 10
14.2673746831
 20
0.8979530656
 11
14.2673746831
 21
0.9979530656
  0
LINE
  5
2F0
100
AcDbEntity
  8
0
100
AcDbLine
 62
7
  6
CONTINUOUS
 10
14.2867988812
 20
0.9979530656
 11
14.2867988812
 21
0.8979530656
  0
LINE
  5
2F1
100
AcDbEntity
  8
0
100
AcDbLine
 62
7
  6
CONTINUOUS
 10
14.3132045232
 20
0.8979530656
 11
14.3132045232
 21
0.9979530656
  0
LINE
  5
2F2
100
AcDbEntity
  8
0
100
AcDbLine
 62
7
  6
CONTINUOUS
 10
14.3233406995
 20
0.8979530656
 11
14.3233406995
 21
0.9979530656
  0
LINE
  5
2F3
100
AcDbEntity
  8
0
100
AcDbLine
 62
7
  6
CONTINUOUS
 10
14.3432231632
 20
0.9979530656
 11
14.3432231632
 21
0.8979530656
  0
LINE
  5
2F4
100
AcDbEntity
  8
0
100
AcDbLine
 62
7
  6
CONTINUOUS
 10
14.3690621307
 20
0.8979530656
 11
14.3690621307
 21
0.9979530656
  0
LINE
  5
2F5
100
AcDbEntity
  8
0
100
AcDbLine
 62
7
  6
CONTINUOUS
 10
14.3805663802
 20
0.8979530656
 11
14.3805663802
 21
0.9979530656
  0
LINE
  5
2F6
100
AcDbEntity
  8
0
100
AcDbLine
 62
7
  6
CONTINUOUS
 10
14.4008526129
 20
0.9979530656
 11
14.4008526129
 21
0.8979530656
  0
LINE
  5
2F7
100
AcDbEntity
  8
0
100
AcDbLine
 62
9
  6
CONTINUOUS
 10
14.4254161092
 20
5.0255110723
 11
14.4254161092
 21
5.1639553541
  0
LINE
  5
2F8
100
AcDbEntity
  8
0
100
AcDbLine
 62
7
  6
CONTINUOUS
 10
14.4260540832
 20
0.8979530656
 11
14.4260540832
 21
0.9979530656
  0
LINE
  5
2F9
100
AcDbEntity
  8
0
100
AcDbLine
 62
7
  6
CONTINUOUS
 10
14.4388948736
 20
0.8979530656
 11
14.4388948736
 21
0.9979530656
  0
LINE
  5
2FA
100
AcDbEntity
  8
0
100
AcDbLine
 62
7
  6
CONTINUOUS
 10
14.4454161092
 20
4.9054530656
 11
14.4454161092
 21
5.0959780006
  0
LINE
  5
2FB
100
AcDbEntity
  8
0
100
AcDbLine
 62
7
  6
CONTINUOUS
 10
14.4595292722
 20
0.9979530656
 11
14.4595292722
 21
0.8979530656
  0
LINE
  5
2FC
100
AcDbEntity
  8
0
100
AcDbLine
 62
7
  6
CONTINUOUS
 10
14.4829161092
 20
6.1379530656
 11
14.4829161092
 21
8.7179530656
  0
LINE
  5
2FD
100
AcDbEntity
  8
0
100
AcDbLine
 62
7
  6
CONTINUOUS
 10
14.4840241696
 20
0.8979530656
 11
14.4840241696
 21
0.9979530656
  0
LINE
  5
2FE
100
AcDbEntity
  8
0
100
AcDbLine
 62
7
  6
CONTINUOUS
 10
14.4981663052
 20
0.8979530656
 11
14.4981663052
 21
0.9979530656
  0
LINE
  5
2FF
100
AcDbEntity
  8
0
100
AcDbLine
 62
7
  6
CONTINUOUS
 10
14.5190923123
 20
0.9979530656
 11
14.5190923123
 21
0.8979530656
  0
LINE
  5
300
100
AcDbEntity
  8
0
100
AcDbLine
 62
7
  6
CONTINUOUS
 10
14.5428134981
 20
0.8979530656
 11
14.5428134981
 21
0.9979530656
  0
LINE
  5
301
100
AcDbEntity
  8
0
100
AcDbLine
 62
7
  6
CONTINUOUS
 10
14.5582182163
 20
0.8979530656
 11
14.5582182163
 21
0.9979530656
  0
LINE
  5
302
100
AcDbEntity
  8
0
100
AcDbLine
 62
7
  6
CONTINUOUS
 10
14.579378475
 20
0.9979530656
 11
14.579378475
 21
0.8979530656
  0
LINE
  5
303
100
AcDbEntity
  8
0
100
AcDbLine
 62
7
  6
CONTINUOUS
 10
14.5879161092
 20
5.9379530656
 11
14.5879161092
 21
5.2379530656
  0
LINE
  5
304
100
AcDbEntity
  8
0
100
AcDbLine
 62
7
  6
CONTINUOUS
 10
14.6022609312
 20
0.8979530656
 11
14.6022609312
 21
0.9979530656
  0
LINE
  5
305
100
AcDbEntity
  8
0
100
AcDbLine
 62
7
  6
CONTINUOUS
 10
14.6188860087
 20
0.8979530656
 11
14.6188860087
 21
0.9979530656
  0
LINE
  5
306
100
AcDbEntity
  8
0
100
AcDbLine
 62
7
  6
CONTINUOUS
 10
14.6402225203
 20
0.9979530656
 11
14.6402225203
 21
0.8979530656
  0
LINE
  5
307
100
AcDbEntity
  8
0
100
AcDbLine
 62
7
  6
CONTINUOUS
 10
14.6622035275
 20
0.8979530656
 11
14.6622035275
 21
0.9979530656
  0
LINE
  5
308
100
AcDbEntity
  8
0
100
AcDbLine
 62
7
  6
CONTINUOUS
 10
14.6800033961
 20
0.8979530656
 11
14.6800033961
 21
0.9979530656
  0
LINE
  5
309
100
AcDbEntity
  8
0
100
AcDbLine
 62
7
  6
CONTINUOUS
 10
14.7014576788
 20
0.9979530656
 11
14.7014576788
 21
0.8979530656
  0
LINE
  5
30A
100
AcDbEntity
  8
0
100
AcDbLine
 62
7
  6
CONTINUOUS
 10
14.7224769886
 20
0.8979530656
 11
14.7224769886
 21
0.9979530656
  0
LINE
  5
30B
100
AcDbEntity
  8
0
100
AcDbLine
 62
7
  6
CONTINUOUS
 10
14.7414028602
 20
0.8979530656
 11
14.7414028602
 21
0.9979530656
  0
LINE
  5
30C
100
AcDbEntity
  8
0
100
AcDbLine
 62
7
  6
CONTINUOUS
 10
14.7629161092
 20
0.9979530656
 11
14.7629161092
 21
0.8979530656
  0
LINE
  5
30D
100
AcDbEntity
  8
0
100
AcDbLine
 62
9
  6
CONTINUOUS
 10
14.7829161092
 20
4.5679530656
 11
14.7829161092
 21
4.5417707108
  0
LINE
  5
30E
100
AcDbEntity
  8
0
100
AcDbLine
 62
7
  6
CONTINUOUS
 10
14.7829161092
 20
0.8979530656
 11
14.7829161092
 21
0.9979530656
  0
LINE
  5
30F
100
AcDbEntity
  8
0
100
AcDbLine
 62
7
  6
CONTINUOUS
 10
14.239742626
 20
4.7134165301
 11
14.2392576154
 21
4.6856302957
  0
LINE
  5
310
100
AcDbEntity
  8
0
100
AcDbLine
 62
7
  6
CONTINUOUS
 10
14.279110029
 20
5.8268541045
 11
14.2776555883
 21
5.7991017234
  0
LINE
  5
311
100
AcDbEntity
  8
0
100
AcDbLine
 62
7
  6
CONTINUOUS
 10
14.2020538514
 20
4.7248994257
 11
14.2044759502
 21
4.7525841416
  0
LINE
  5
312
100
AcDbEntity
  8
0
100
AcDbLine
 62
7
  6
CONTINUOUS
 10
14.3180301292
 20
5.8329799857
 11
14.3214169352
 21
5.8605633068
  0
LINE
  5
313
100
AcDbEntity
  8
0
100
AcDbLine
 62
7
  6
CONTINUOUS
 10
14.1676799899
 20
4.7666681014
 11
14.1720273768
 21
4.7941164216
  0
LINE
  5
314
100
AcDbEntity
  8
0
100
AcDbLine
 62
9
  6
CONTINUOUS
 10
15.3527886409
 20
12.8839530656
 11
14.2130435775
 21
12.8839530656
  0
LINE
  5
315
100
AcDbEntity
  8
0
100
AcDbLine
 62
9
  6
CONTINUOUS
 10
7.2425505231
 20
13.0114356557
 11
7.2522694925
 21
13.0099474514
  0
LINE
  5
316
100
AcDbEntity
  8
0
100
AcDbLine
 62
9
  6
CONTINUOUS
 10
7.2746770659
 20
13.1562838907
 11
5.9896546505
 21
13.3530512456
  0
LINE
  5
317
100
AcDbEntity
  8
0
100
AcDbLine
 62
9
  6
CONTINUOUS
 10
7.2932219277
 20
13.1840271646
 11
5.9802611594
 21
13.3850725428
  0
LINE
  5
318
100
AcDbEntity
  8
0
100
AcDbLine
 62
7
  6
CONTINUOUS
 10
7.2565781773
 20
13.3684253938
 11
6.07040364
 21
13.5500567984
  0
LINE
  5
319
100
AcDbEntity
  8
0
100
AcDbLine
 62
7
  6
CONTINUOUS
 10
6.103841991
 20
13.5702279828
 11
7.2307078014
 21
13.3976781485
  0
LINE
  5
31A
100
AcDbEntity
  8
0
100
AcDbLine
 62
7
  6
CONTINUOUS
 10
15.1532734071
 20
5.9187323778
 11
15.1604661092
 21
5.891888848
  0
LINE
  5
31B
100
AcDbEntity
  8
0
100
AcDbLine
 62
7
  6
CONTINUOUS
 10
15.4232772266
 20
4.8378110292
 11
15.4295287215
 21
4.8107328301
  0
LINE
  5
31C
100
AcDbEntity
  8
0
100
AcDbLine
 62
7
  6
CONTINUOUS
 10
15.1998599995
 20
5.8912392145
 11
15.2051626706
 21
5.8639593367
  0
LINE
  5
31D
100
AcDbEntity
  8
0
100
AcDbLine
 62
7
  6
CONTINUOUS
 10
15.3938048417
 20
4.7941164216
 11
15.3981522285
 21
4.7666681014
  0
LINE
  5
31E
100
AcDbEntity
  8
0
100
AcDbLine
 62
7
  6
CONTINUOUS
 10
15.3613562682
 20
4.7525841416
 11
15.363778367
 21
4.7248994257
  0
LINE
  5
31F
100
AcDbEntity
  8
0
100
AcDbLine
 62
7
  6
CONTINUOUS
 10
15.2881766301
 20
5.7991017234
 11
15.2867221894
 21
5.8268541045
  0
LINE
  5
320
100
AcDbEntity
  8
0
100
AcDbLine
 62
7
  6
CONTINUOUS
 10
15.326574603
 20
4.6856302957
 11
15.3260895924
 21
4.7134165301
  0
LINE
  5
321
100
AcDbEntity
  8
0
100
AcDbLine
 62
7
  6
CONTINUOUS
 10
14.8029161092
 20
0.8979530656
 11
14.8029161092
 21
0.9979530656
  0
LINE
  5
322
100
AcDbEntity
  8
0
100
AcDbLine
 62
7
  6
CONTINUOUS
 10
14.8244293582
 20
0.9979530656
 11
14.8244293582
 21
0.8979530656
  0
LINE
  5
323
100
AcDbEntity
  8
0
100
AcDbLine
 62
7
  6
CONTINUOUS
 10
14.8433552298
 20
0.8979530656
 11
14.8433552298
 21
0.9979530656
  0
LINE
  5
324
100
AcDbEntity
  8
0
100
AcDbLine
 62
7
  6
CONTINUOUS
 10
14.8643745396
 20
0.8979530656
 11
14.8643745396
 21
0.9979530656
  0
LINE
  5
325
100
AcDbEntity
  8
0
100
AcDbLine
 62
7
  6
CONTINUOUS
 10
14.8858288223
 20
0.9979530656
 11
14.8858288223
 21
0.8979530656
  0
LINE
  5
326
100
AcDbEntity
  8
0
100
AcDbLine
 62
7
  6
CONTINUOUS
 10
14.9036286909
 20
0.8979530656
 11
14.9036286909
 21
0.9979530656
  0
LINE
  5
327
100
AcDbEntity
  8
0
100
AcDbLine
 62
7
  6
CONTINUOUS
 10
14.9256096981
 20
0.8979530656
 11
14.9256096981
 21
0.9979530656
  0
LINE
  5
328
100
AcDbEntity
  8
0
100
AcDbLine
 62
7
  6
CONTINUOUS
 10
14.9469462097
 20
0.9979530656
 11
14.9469462097
 21
0.8979530656
  0
LINE
  5
329
100
AcDbEntity
  8
0
100
AcDbLine
 62
7
  6
CONTINUOUS
 10
14.9635712873
 20
0.8979530656
 11
14.9635712873
 21
0.9979530656
  0
LINE
  5
32A
100
AcDbEntity
  8
0
100
AcDbLine
 62
7
  6
CONTINUOUS
 10
14.9779161092
 20
5.9379530656
 11
14.9779161092
 21
5.2379530656
  0
LINE
  5
32B
100
AcDbEntity
  8
0
100
AcDbLine
 62
7
  6
CONTINUOUS
 10
14.9864537434
 20
0.8979530656
 11
14.9864537434
 21
0.9979530656
  0
LINE
  5
32C
100
AcDbEntity
  8
0
100
AcDbLine
 62
7
  6
CONTINUOUS
 10
15.0076140021
 20
0.9979530656
 11
15.0076140021
 21
0.8979530656
  0
LINE
  5
32D
100
AcDbEntity
  8
0
100
AcDbLine
 62
7
  6
CONTINUOUS
 10
15.0230187203
 20
0.8979530656
 11
15.0230187203
 21
0.9979530656
  0
LINE
  5
32E
100
AcDbEntity
  8
0
100
AcDbLine
 62
7
  6
CONTINUOUS
 10
15.0467399061
 20
0.8979530656
 11
15.0467399061
 21
0.9979530656
  0
LINE
  5
32F
100
AcDbEntity
  8
0
100
AcDbLine
 62
7
  6
CONTINUOUS
 10
15.0676659132
 20
0.9979530656
 11
15.0676659132
 21
0.8979530656
  0
LINE
  5
330
100
AcDbEntity
  8
0
100
AcDbLine
 62
7
  6
CONTINUOUS
 10
15.0818080488
 20
0.8979530656
 11
15.0818080488
 21
0.9979530656
  0
LINE
  5
331
100
AcDbEntity
  8
0
100
AcDbLine
 62
7
  6
CONTINUOUS
 10
15.0829161092
 20
6.1379530656
 11
15.0829161092
 21
8.7179530656
  0
LINE
  5
332
100
AcDbEntity
  8
0
100
AcDbLine
 62
7
  6
CONTINUOUS
 10
15.1063029462
 20
0.8979530656
 11
15.1063029462
 21
0.9979530656
  0
LINE
  5
333
100
AcDbEntity
  8
0
100
AcDbLine
 62
7
  6
CONTINUOUS
 10
15.1204161092
 20
4.9054530656
 11
15.1204161092
 21
5.0959780006
  0
LINE
  5
334
100
AcDbEntity
  8
0
100
AcDbLine
 62
7
  6
CONTINUOUS
 10
15.1269373448
 20
0.9979530656
 11
15.1269373448
 21
0.8979530656
  0
LINE
  5
335
100
AcDbEntity
  8
0
100
AcDbLine
 62
7
  6
CONTINUOUS
 10
15.1397781353
 20
0.8979530656
 11
15.1397781353
 21
0.9979530656
  0
LINE
  5
336
100
AcDbEntity
  8
0
100
AcDbLine
 62
9
  6
CONTINUOUS
 10
15.1404161092
 20
5.1639553541
 11
15.1404161092
 21
5.0255095145
  0
LINE
  5
337
100
AcDbEntity
  8
0
100
AcDbLine
 62
7
  6
CONTINUOUS
 10
15.1649796055
 20
0.8979530656
 11
15.1649796055
 21
0.9979530656
  0
LINE
  5
338
100
AcDbEntity
  8
0
100
AcDbLine
 62
7
  6
CONTINUOUS
 10
15.1852658382
 20
0.9979530656
 11
15.1852658382
 21
0.8979530656
  0
LINE
  5
339
100
AcDbEntity
  8
0
100
AcDbLine
 62
7
  6
CONTINUOUS
 10
15.1967700877
 20
0.8979530656
 11
15.1967700877
 21
0.9979530656
  0
LINE
  5
33A
100
AcDbEntity
  8
0
100
AcDbLine
 62
7
  6
CONTINUOUS
 10
15.2226090552
 20
0.8979530656
 11
15.2226090552
 21
0.9979530656
  0
LINE
  5
33B
100
AcDbEntity
  8
0
100
AcDbLine
 62
7
  6
CONTINUOUS
 10
15.2424915189
 20
0.9979530656
 11
15.2424915189
 21
0.8979530656
  0
LINE
  5
33C
100
AcDbEntity
  8
0
100
AcDbLine
 62
7
  6
CONTINUOUS
 10
15.2526276952
 20
0.8979530656
 11
15.2526276952
 21
0.9979530656
  0
LINE
  5
33D
100
AcDbEntity
  8
0
100
AcDbLine
 62
7
  6
CONTINUOUS
 10
15.2790333372
 20
0.8979530656
 11
15.2790333372
 21
0.9979530656
  0
LINE
  5
33E
100
AcDbEntity
  8
0
100
AcDbLine
 62
7
  6
CONTINUOUS
 10
15.2984575353
 20
0.9979530656
 11
15.2984575353
 21
0.8979530656
  0
LINE
  5
33F
100
AcDbEntity
  8
0
100
AcDbLine
 62
7
  6
CONTINUOUS
 10
15.3071978558
 20
0.8979530656
 11
15.3071978558
 21
0.9979530656
  0
LINE
  5
340
100
AcDbEntity
  8
0
100
AcDbLine
 62
7
  6
CONTINUOUS
 10
15.3340977963
 20
0.8979530656
 11
15.3340977963
 21
0.9979530656
  0
LINE
  5
341
100
AcDbEntity
  8
0
100
AcDbLine
 62
7
  6
CONTINUOUS
 10
15.3527886409
 20
12.8839530656
 11
15.3527886409
 21
7.9129530656
  0
LINE
  5
342
100
AcDbEntity
  8
0
100
AcDbLine
 62
7
  6
CONTINUOUS
 10
15.3530104886
 20
0.9979530656
 11
15.3530104886
 21
0.8979530656
  0
LINE
  5
343
100
AcDbEntity
  8
0
100
AcDbLine
 62
7
  6
CONTINUOUS
 10
15.3603309967
 20
0.8979530656
 11
15.3603309967
 21
0.9979530656
  0
LINE
  5
344
100
AcDbEntity
  8
0
100
AcDbLine
 62
7
  6
CONTINUOUS
 10
15.3876515047
 20
0.8979530656
 11
15.3876515047
 21
0.9979530656
  0
LINE
  5
345
100
AcDbEntity
  8
0
100
AcDbLine
 62
7
  6
CONTINUOUS
 10
15.4060008528
 20
0.9979530656
 11
15.4060008528
 21
0.8979530656
  0
LINE
  5
346
100
AcDbEntity
  8
0
100
AcDbLine
 62
7
  6
CONTINUOUS
 10
15.4118814834
 20
0.8979530656
 11
15.4118814834
 21
0.9979530656
  0
LINE
  5
347
100
AcDbEntity
  8
0
100
AcDbLine
 62
7
  6
CONTINUOUS
 10
15.4395476755
 20
0.8979530656
 11
15.4395476755
 21
0.9979530656
  0
LINE
  5
348
100
AcDbEntity
  8
0
100
AcDbLine
 62
7
  6
CONTINUOUS
 10
15.457283385
 20
0.9979530656
 11
15.457283385
 21
0.8979530656
  0
LINE
  5
349
100
AcDbEntity
  8
0
100
AcDbLine
 62
7
  6
CONTINUOUS
 10
15.4617080198
 20
0.8979530656
 11
15.4617080198
 21
0.9979530656
  0
LINE
  5
34A
100
AcDbEntity
  8
0
100
AcDbLine
 62
7
  6
CONTINUOUS
 10
15.3260895924
 20
5.7624896012
 11
15.326574603
 21
5.7902758355
  0
LINE
  5
34B
100
AcDbEntity
  8
0
100
AcDbLine
 62
7
  6
CONTINUOUS
 10
14.3606695478
 20
5.8639593367
 11
14.3659722189
 21
5.8912392145
  0
LINE
  5
34C
100
AcDbEntity
  8
0
100
AcDbLine
 62
7
  6
CONTINUOUS
 10
14.1363034969
 20
4.8107328301
 11
14.1425549918
 21
4.8378110292
  0
LINE
  5
34D
100
AcDbEntity
  8
0
100
AcDbLine
 62
7
  6
CONTINUOUS
 10
14.4053661092
 20
5.891888848
 11
14.4125588113
 21
5.9187323778
  0
LINE
  5
34E
100
AcDbEntity
  8
0
100
AcDbLine
 62
7
  6
CONTINUOUS
 10
14.1080772356
 20
4.8568789328
 11
14.1162023818
 21
4.8834550886
  0
LINE
  5
34F
100
AcDbEntity
  8
0
100
AcDbLine
 62
7
  6
CONTINUOUS
 10
14.4519020563
 20
5.91663245
 11
14.4609497473
 21
5.9429088528
  0
LINE
  5
350
100
AcDbEntity
  8
0
100
AcDbLine
 62
7
  6
CONTINUOUS
 10
14.0831387215
 20
4.9048815904
 11
14.0930979341
 21
4.9308262264
  0
LINE
  5
351
100
AcDbEntity
  8
0
100
AcDbLine
 62
7
  6
CONTINUOUS
 10
14.5000506705
 20
5.9380695942
 11
14.510909271
 21
5.963650854
  0
LINE
  5
352
100
AcDbEntity
  8
0
100
AcDbLine
 62
7
  6
CONTINUOUS
 10
14.0616094524
 20
4.9545069388
 11
14.0733542113
 21
4.9796936554
  0
LINE
  5
353
100
AcDbEntity
  8
0
100
AcDbLine
 62
7
  6
CONTINUOUS
 10
14.0327613125
 20
5.4326137473
 11
14.0570674026
 21
5.446086833
  0
LINE
  5
354
100
AcDbEntity
  8
0
100
AcDbLine
 62
7
  6
CONTINUOUS
 10
15.0206321011
 20
5.9583261662
 11
15.0410163291
 21
5.9687124491
  0
LINE
  5
355
100
AcDbEntity
  8
0
100
AcDbLine
 62
7
  6
CONTINUOUS
 10
14.0481674946
 20
5.484467717
 11
14.0733542113
 21
5.4962124759
  0
LINE
  5
356
100
AcDbEntity
  8
0
100
AcDbLine
 62
7
  6
CONTINUOUS
 10
15.0657815479
 20
5.9380695942
 11
15.0913628076
 21
5.9489281948
  0
LINE
  5
357
100
AcDbEntity
  8
0
100
AcDbLine
 62
7
  6
CONTINUOUS
 10
14.0671532981
 20
5.5351206921
 11
14.0930979341
 21
5.5450799048
  0
LINE
  5
358
100
AcDbEntity
  8
0
100
AcDbLine
 62
7
  6
CONTINUOUS
 10
15.1139301621
 20
5.91663245
 11
15.1402065649
 21
5.925680141
  0
LINE
  5
359
100
AcDbEntity
  8
0
100
AcDbLine
 62
7
  6
CONTINUOUS
 10
14.0896262261
 20
5.5843258965
 11
14.1162023818
 21
5.5924510427
  0
LINE
  5
35A
100
AcDbEntity
  8
0
100
AcDbLine
 62
7
  6
CONTINUOUS
 10
15.2444152833
 20
5.8605633068
 11
15.2478020892
 21
5.8329799857
  0
LINE
  5
35B
100
AcDbEntity
  8
0
100
AcDbLine
 62
7
  6
CONTINUOUS
 10
15.4896440647
 20
0.8979530656
 11
15.4896440647
 21
0.9979530656
  0
LINE
  5
35C
100
AcDbEntity
  8
0
100
AcDbLine
 62
7
  6
CONTINUOUS
 10
15.5067175233
 20
0.9979530656
 11
15.5067175233
 21
0.8979530656
  0
LINE
  5
35D
100
AcDbEntity
  8
0
100
AcDbLine
 62
7
  6
CONTINUOUS
 10
15.5096740347
 20
0.8979530656
 11
15.5096740347
 21
0.9979530656
  0
LINE
  5
35E
100
AcDbEntity
  8
0
100
AcDbLine
 62
7
  6
CONTINUOUS
 10
15.5378033618
 20
0.8979530656
 11
15.5378033618
 21
0.9979530656
  0
LINE
  5
35F
100
AcDbEntity
  8
0
100
AcDbLine
 62
7
  6
CONTINUOUS
 10
15.5541677723
 20
0.9979530656
 11
15.5541677723
 21
0.8979530656
  0
LINE
  5
360
100
AcDbEntity
  8
0
100
AcDbLine
 62
7
  6
CONTINUOUS
 10
15.5556480567
 20
0.8979530656
 11
15.5556480567
 21
0.9979530656
  0
LINE
  5
361
100
AcDbEntity
  8
0
100
AcDbLine
 62
7
  6
CONTINUOUS
 10
15.5838935654
 20
0.8979530656
 11
15.5838935654
 21
0.9979530656
  0
LINE
  5
362
100
AcDbEntity
  8
0
100
AcDbLine
 62
7
  6
CONTINUOUS
 10
15.5995040742
 20
0.9979530656
 11
15.5995040742
 21
0.8979530656
  0
LINE
  5
363
100
AcDbEntity
  8
0
100
AcDbLine
 62
7
  6
CONTINUOUS
 10
15.6277883454
 20
0.8979530656
 11
15.6277883454
 21
0.9979530656
  0
LINE
  5
364
100
AcDbEntity
  8
0
100
AcDbLine
 62
7
  6
CONTINUOUS
 10
15.6426021651
 20
0.9979530656
 11
15.6426021651
 21
0.8979530656
  0
LINE
  5
365
100
AcDbEntity
  8
0
100
AcDbLine
 62
7
  6
CONTINUOUS
 10
15.6693673894
 20
0.8979530656
 11
15.6693673894
 21
0.9979530656
  0
LINE
  5
366
100
AcDbEntity
  8
0
100
AcDbLine
 62
7
  6
CONTINUOUS
 10
15.6833439164
 20
0.9979530656
 11
15.6833439164
 21
0.8979530656
  0
LINE
  5
367
100
AcDbEntity
  8
0
100
AcDbLine
 62
7
  6
CONTINUOUS
 10
15.708516732
 20
0.8979530656
 11
15.708516732
 21
0.9979530656
  0
LINE
  5
368
100
AcDbEntity
  8
0
100
AcDbLine
 62
7
  6
CONTINUOUS
 10
15.7216176576
 20
0.9979530656
 11
15.7216176576
 21
0.8979530656
  0
LINE
  5
369
100
AcDbEntity
  8
0
100
AcDbLine
 62
7
  6
CONTINUOUS
 10
15.7329161092
 20
1.0979530656
 11
15.7329161092
 21
4.7958643329
  0
LINE
  5
36A
100
AcDbEntity
  8
0
100
AcDbLine
 62
7
  6
CONTINUOUS
 10
15.7329161092
 20
5.6800060334
 11
15.7329161092
 21
7.3179530656
  0
LINE
  5
36B
100
AcDbEntity
  8
0
100
AcDbLine
 62
7
  6
CONTINUOUS
 10
15.7451290676
 20
0.8979530656
 11
15.7451290676
 21
0.9979530656
  0
LINE
  5
36C
100
AcDbEntity
  8
0
100
AcDbLine
 62
7
  6
CONTINUOUS
 10
15.7573184831
 20
0.9979530656
 11
15.7573184831
 21
0.8979530656
  0
LINE
  5
36D
100
AcDbEntity
  8
0
100
AcDbLine
 62
7
  6
CONTINUOUS
 10
15.7791040445
 20
0.8979530656
 11
15.7791040445
 21
0.9979530656
  0
LINE
  5
36E
100
AcDbEntity
  8
0
100
AcDbLine
 62
7
  6
CONTINUOUS
 10
15.7903485394
 20
0.9979530656
 11
15.7903485394
 21
0.8979530656
  0
LINE
  5
36F
100
AcDbEntity
  8
0
100
AcDbLine
 62
7
  6
CONTINUOUS
 10
15.8103485394
 20
0.8979530656
 11
15.8103485394
 21
0.9979530656
  0
LINE
  5
370
100
AcDbEntity
  8
0
100
AcDbLine
 62
7
  6
CONTINUOUS
 10
15.8206172935
 20
0.9979530656
 11
15.8206172935
 21
0.8979530656
  0
LINE
  5
371
100
AcDbEntity
  8
0
100
AcDbLine
 62
7
  6
CONTINUOUS
 10
15.8329161092
 20
7.3979530656
 11
15.8329161092
 21
7.4479530656
  0
LINE
  5
372
100
AcDbEntity
  8
0
100
AcDbLine
 62
7
  6
CONTINUOUS
 10
15.8329161092
 20
7.7479530656
 11
15.8329161092
 21
7.7979530656
  0
LINE
  5
373
100
AcDbEntity
  8
0
100
AcDbLine
 62
7
  6
CONTINUOUS
 10
15.8387769135
 20
0.8979530656
 11
15.8387769135
 21
0.9979530656
  0
LINE
  5
374
100
AcDbEntity
  8
0
100
AcDbLine
 62
7
  6
CONTINUOUS
 10
15.8480417807
 20
0.9979530656
 11
15.8480417807
 21
0.8979530656
  0
LINE
  5
375
100
AcDbEntity
  8
0
100
AcDbLine
 62
7
  6
CONTINUOUS
 10
15.8643112464
 20
0.8979530656
 11
15.8643112464
 21
0.9979530656
  0
LINE
  5
376
100
AcDbEntity
  8
0
100
AcDbLine
 62
7
  6
CONTINUOUS
 10
15.8725468325
 20
0.9979530656
 11
15.8725468325
 21
0.8979530656
  0
LINE
  5
377
100
AcDbEntity
  8
0
100
AcDbLine
 62
7
  6
CONTINUOUS
 10
15.8829161092
 20
7.4479530656
 11
15.8829161092
 21
7.7479530656
  0
LINE
  5
378
100
AcDbEntity
  8
0
100
AcDbLine
 62
7
  6
CONTINUOUS
 10
15.8868815505
 20
0.8979530656
 11
15.8868815505
 21
0.9979530656
  0
LINE
  5
379
100
AcDbEntity
  8
0
100
AcDbLine
 62
7
  6
CONTINUOUS
 10
15.8940652823
 20
0.9979530656
 11
15.8940652823
 21
0.8979530656
  0
LINE
  5
37A
100
AcDbEntity
  8
0
100
AcDbLine
 62
7
  6
CONTINUOUS
 10
15.9064259621
 20
0.8979530656
 11
15.9064259621
 21
0.9979530656
  0
LINE
  5
37B
100
AcDbEntity
  8
0
100
AcDbLine
 62
7
  6
CONTINUOUS
 10
15.9079161092
 20
0.6879530656
 11
15.9079161092
 21
0.8979530656
  0
LINE
  5
37C
100
AcDbEntity
  8
0
100
AcDbLine
 62
7
  6
CONTINUOUS
 10
15.9125381494
 20
0.9979530656
 11
15.9125381494
 21
0.8979530656
  0
LINE
  5
37D
100
AcDbEntity
  8
0
100
AcDbLine
 62
7
  6
CONTINUOUS
 10
15.9228909112
 20
0.8979530656
 11
15.9228909112
 21
0.9979530656
  0
LINE
  5
37E
100
AcDbEntity
  8
0
100
AcDbLine
 62
7
  6
CONTINUOUS
 10
15.927914801
 20
0.9979530656
 11
15.927914801
 21
0.8979530656
  0
LINE
  5
37F
100
AcDbEntity
  8
0
100
AcDbLine
 62
7
  6
CONTINUOUS
 10
15.9362312686
 20
0.8979530656
 11
15.9362312686
 21
0.9979530656
  0
LINE
  5
380
100
AcDbEntity
  8
0
100
AcDbLine
 62
7
  6
CONTINUOUS
 10
15.9401530908
 20
0.9979530656
 11
15.9401530908
 21
0.8979530656
  0
LINE
  5
381
100
AcDbEntity
  8
0
100
AcDbLine
 62
7
  6
CONTINUOUS
 10
15.9464104694
 20
0.8979530656
 11
15.9464104694
 21
0.9979530656
  0
LINE
  5
382
100
AcDbEntity
  8
0
100
AcDbLine
 62
7
  6
CONTINUOUS
 10
15.9492194744
 20
0.9979530656
 11
15.9492194744
 21
0.8979530656
  0
LINE
  5
383
100
AcDbEntity
  8
0
100
AcDbLine
 62
7
  6
CONTINUOUS
 10
15.9534006129
 20
0.8979530656
 11
15.9534006129
 21
0.9979530656
  0
LINE
  5
384
100
AcDbEntity
  8
0
100
AcDbLine
 62
7
  6
CONTINUOUS
 10
15.9550891016
 20
0.9979530656
 11
15.9550891016
 21
0.8979530656
  0
LINE
  5
385
100
AcDbEntity
  8
0
100
AcDbLine
 62
7
  6
CONTINUOUS
 10
15.9571825399
 20
0.8979530656
 11
15.9571825399
 21
0.9979530656
  0
LINE
  5
386
100
AcDbEntity
  8
0
100
AcDbLine
 62
7
  6
CONTINUOUS
 10
15.9579161092
 20
0.4879530656
 11
15.9579161092
 21
0.6379530656
  0
LINE
  5
387
100
AcDbEntity
  8
0
100
AcDbLine
 62
7
  6
CONTINUOUS
 10
15.2867221894
 20
4.6490520268
 11
15.2881766301
 21
4.6768044079
  0
LINE
  5
388
100
AcDbEntity
  8
0
100
AcDbLine
 62
7
  6
CONTINUOUS
 10
15.363778367
 20
5.7510067056
 11
15.3613562682
 21
5.7233219897
  0
LINE
  5
389
100
AcDbEntity
  8
0
100
AcDbLine
 62
7
  6
CONTINUOUS
 10
15.2478020892
 20
4.6429261456
 11
15.2444152833
 21
4.6153428245
  0
LINE
  5
38A
100
AcDbEntity
  8
0
100
AcDbLine
 62
7
  6
CONTINUOUS
 10
15.3981522285
 20
5.7092380299
 11
15.3938048417
 21
5.6817897096
  0
LINE
  5
38B
100
AcDbEntity
  8
0
100
AcDbLine
 62
7
  6
CONTINUOUS
 10
15.2051626706
 20
4.6119467946
 11
15.1998599995
 21
4.5846669168
  0
LINE
  5
38C
100
AcDbEntity
  8
0
100
AcDbLine
 62
7
  6
CONTINUOUS
 10
15.4295287215
 20
5.6651733012
 11
15.4232772266
 21
5.6380951021
  0
LINE
  5
38D
100
AcDbEntity
  8
0
100
AcDbLine
 62
7
  6
CONTINUOUS
 10
14.0435943168
 20
5.0055132081
 11
14.0570674026
 21
5.0298192983
  0
LINE
  5
38E
100
AcDbEntity
  8
0
100
AcDbLine
 62
7
  6
CONTINUOUS
 10
14.0291810828
 20
5.0576519012
 11
14.0443168559
 21
5.0809589479
  0
LINE
  5
38F
100
AcDbEntity
  8
0
100
AcDbLine
 62
7
  6
CONTINUOUS
 10
14.01843997
 20
5.1106690033
 11
14.0351646905
 21
5.1328634571
  0
LINE
  5
390
100
AcDbEntity
  8
0
100
AcDbLine
 62
7
  6
CONTINUOUS
 10
14.0114233081
 20
5.1643062206
 11
14.0296554949
 21
5.1852799523
  0
LINE
  5
391
100
AcDbEntity
  8
0
100
AcDbLine
 62
7
  6
CONTINUOUS
 10
15.7829161092
 20
7.3479530656
 11
15.8329161092
 21
7.3979530656
  0
LINE
  5
392
100
AcDbEntity
  8
0
100
AcDbLine
 62
7
  6
CONTINUOUS
 10
14.0081652815
 20
5.218302238
 11
14.0278161092
 21
5.2379530656
  0
LINE
  5
393
100
AcDbEntity
  8
0
100
AcDbLine
 62
7
  6
CONTINUOUS
 10
14.0086817632
 20
5.2723939922
 11
14.0296554949
 21
5.290626179
  0
LINE
  5
394
100
AcDbEntity
  8
0
100
AcDbLine
 62
7
  6
CONTINUOUS
 10
14.0129702367
 20
5.3263179536
 11
14.0351646905
 21
5.3430426742
  0
LINE
  5
395
100
AcDbEntity
  8
0
100
AcDbLine
 62
7
  6
CONTINUOUS
 10
14.0210098091
 20
5.3798114102
 11
14.0443168559
 21
5.3949471834
  0
LINE
  5
396
100
AcDbEntity
  8
0
100
AcDbLine
 62
9
  6
CONTINUOUS
 10
14.4125003241
 20
5.0178346332
 11
14.4254161092
 21
5.0255026081
  0
LINE
  5
397
100
AcDbEntity
  8
0
100
AcDbLine
 62
7
  6
CONTINUOUS
 10
14.4519020563
 20
4.5592736813
 11
14.4256256535
 21
4.5502259902
  0
LINE
  5
398
100
AcDbEntity
  8
0
100
AcDbLine
 62
7
  6
CONTINUOUS
 10
15.4762059923
 20
4.8915802348
 11
15.4496298366
 21
4.8834550886
  0
LINE
  5
399
100
AcDbEntity
  8
0
100
AcDbLine
 62
7
  6
CONTINUOUS
 10
15.1604661092
 20
4.5840172832
 11
15.1532734071
 21
4.5571737534
  0
LINE
  5
39A
100
AcDbEntity
  8
0
100
AcDbLine
 62
7
  6
CONTINUOUS
 10
15.4577549828
 20
5.6190271985
 11
15.4496298366
 21
5.5924510427
  0
LINE
  5
39B
100
AcDbEntity
  8
0
100
AcDbLine
 62
7
  6
CONTINUOUS
 10
15.1139301621
 20
4.5592736813
 11
15.1048824711
 21
4.5329972785
  0
LINE
  5
39C
100
AcDbEntity
  8
0
100
AcDbLine
 62
7
  6
CONTINUOUS
 10
15.4826934969
 20
5.5710245409
 11
15.4727342843
 21
5.5450799048
  0
LINE
  5
39D
100
AcDbEntity
  8
0
100
AcDbLine
 62
7
  6
CONTINUOUS
 10
15.0657815479
 20
4.5378365371
 11
15.0549229474
 21
4.5122552773
  0
LINE
  5
39E
100
AcDbEntity
  8
0
100
AcDbLine
 62
7
  6
CONTINUOUS
 10
15.504222766
 20
5.5213991925
 11
15.4924780072
 21
5.4962124759
  0
LINE
  5
39F
100
AcDbEntity
  8
0
100
AcDbLine
 62
7
  6
CONTINUOUS
 10
15.0162548417
 20
4.5198102902
 11
15.0036382337
 21
4.4950488028
  0
LINE
  5
3A0
100
AcDbEntity
  8
0
100
AcDbLine
 62
7
  6
CONTINUOUS
 10
15.5222379016
 20
5.4703929231
 11
15.5087648158
 21
5.446086833
  0
LINE
  5
3A1
100
AcDbEntity
  8
0
100
AcDbLine
 62
7
  6
CONTINUOUS
 10
14.9655913326
 20
4.5052827627
 11
14.9512781839
 21
4.4814616831
  0
LINE
  5
3A2
100
AcDbEntity
  8
0
100
AcDbLine
 62
7
  6
CONTINUOUS
 10
15.5366511356
 20
5.4182542301
 11
15.5215153625
 21
5.3949471834
  0
LINE
  5
3A3
100
AcDbEntity
  8
0
100
AcDbLine
 62
7
  6
CONTINUOUS
 10
14.9140378482
 20
4.4943247313
 11
14.8980978911
 21
4.4715601135
  0
LINE
  5
3A4
100
AcDbEntity
  8
0
100
AcDbLine
 62
7
  6
CONTINUOUS
 10
15.5473922485
 20
5.365237128
 11
15.5306675279
 21
5.3430426742
  0
LINE
  5
3A5
100
AcDbEntity
  8
0
100
AcDbLine
 62
7
  6
CONTINUOUS
 10
14.8618455518
 20
4.4869895824
 11
14.8443564443
 21
4.4653923332
  0
LINE
  5
3A6
100
AcDbEntity
  8
0
100
AcDbLine
 62
7
  6
CONTINUOUS
 10
15.5544089104
 20
5.3115999106
 11
15.5361767236
 21
5.290626179
  0
LINE
  5
3A7
100
AcDbEntity
  8
0
100
AcDbLine
 62
7
  6
CONTINUOUS
 10
14.8092687192
 20
4.4833130522
 11
14.7903156662
 21
4.4629883912
  0
LINE
  5
3A8
100
AcDbEntity
  8
0
100
AcDbLine
 62
7
  6
CONTINUOUS
 10
15.5576669369
 20
5.2576038933
 11
15.5380161092
 21
5.2379530656
  0
LINE
  5
3A9
100
AcDbEntity
  8
0
100
AcDbLine
 62
7
  6
CONTINUOUS
 10
14.7565634992
 20
4.4833130522
 11
14.7362388383
 21
4.4643599992
  0
LINE
  5
3AA
100
AcDbEntity
  8
0
100
AcDbLine
 62
7
  6
CONTINUOUS
 10
15.5571504552
 20
5.2035121391
 11
15.5361767236
 21
5.1852799523
  0
LINE
  5
3AB
100
AcDbEntity
  8
0
100
AcDbLine
 62
7
  6
CONTINUOUS
 10
14.7039866666
 20
4.4869895824
 11
14.6823894174
 21
4.4695004749
  0
LINE
  5
3AC
100
AcDbEntity
  8
0
100
AcDbLine
 62
7
  6
CONTINUOUS
 10
15.5528619817
 20
5.1495881776
 11
15.5306675279
 21
5.1328634571
  0
LINE
  5
3AD
100
AcDbEntity
  8
0
100
AcDbLine
 62
7
  6
CONTINUOUS
 10
14.6517943702
 20
4.4943247313
 11
14.6290297524
 21
4.4783847743
  0
LINE
  5
3AE
100
AcDbEntity
  8
0
100
AcDbLine
 62
7
  6
CONTINUOUS
 10
15.5448224093
 20
5.096094721
 11
15.5215153625
 21
5.0809589479
  0
LINE
  5
3AF
100
AcDbEntity
  8
0
100
AcDbLine
 62
7
  6
CONTINUOUS
 10
14.6002408858
 20
4.5052827627
 11
14.5764198063
 21
4.4909696141
  0
LINE
  5
3B0
100
AcDbEntity
  8
0
100
AcDbLine
 62
7
  6
CONTINUOUS
 10
15.5330709059
 20
5.043292384
 11
15.5087648158
 21
5.0298192983
  0
LINE
  5
3B1
100
AcDbEntity
  8
0
100
AcDbLine
 62
7
  6
CONTINUOUS
 10
14.5495773768
 20
4.5198102902
 11
14.5248158893
 21
4.5071936822
  0
LINE
  5
3B2
100
AcDbEntity
  8
0
100
AcDbLine
 62
7
  6
CONTINUOUS
 10
15.5176647238
 20
4.9914384143
 11
15.4924780072
 21
4.9796936554
  0
LINE
  5
3B3
100
AcDbEntity
  8
0
100
AcDbLine
 62
7
  6
CONTINUOUS
 10
14.5000506705
 20
4.5378365371
 11
14.4744694108
 21
4.5269779365
  0
LINE
  5
3B4
100
AcDbEntity
  8
0
100
AcDbLine
 62
7
  6
CONTINUOUS
 10
15.4986789203
 20
4.9407854391
 11
15.4727342843
 21
4.9308262264
  0
LINE
  5
3B5
100
AcDbEntity
  8
0
100
AcDbLine
 62
7
  6
CONTINUOUS
 10
13.6579161092
 20
0.6879530656
 11
13.6079161092
 21
0.6379530656
  0
ARC
  5
3B6
100
AcDbEntity
  8
0
100
AcDbCircle
 62
9
  6
CONTINUOUS
 10
-123.6987989621
 20
37.1287041083
 40
133.074012954
100
AcDbArc
 50
349.2681427499
 51
349.4643043463
  0
ARC
  5
3B7
100
AcDbEntity
  8
0
100
AcDbCircle
 62
9
  6
CONTINUOUS
 10
-106.1404543208
 20
34.4354669103
 40
115.4074217801
100
AcDbArc
 50
348.9690385353
 51
349.1831576418
  0
ARC
  5
3B8
100
AcDbEntity
  8
0
100
AcDbCircle
 62
9
  6
CONTINUOUS
 10
-41.6769232391
 20
12.3016646118
 40
48.6943097955
100
AcDbArc
 50
359.2568251635
 51
359.8015599935
  0
ARC
  5
3B9
100
AcDbEntity
  8
0
100
AcDbCircle
 62
9
  6
CONTINUOUS
 10
-32.0641836702
 20
11.8993985631
 40
39.1674434289
100
AcDbArc
 50
359.6687181464
 51
0.3066796492
  0
ARC
  5
3BA
100
AcDbEntity
  8
0
100
AcDbCircle
 62
7
  6
CONTINUOUS
 10
13.6829161092
 20
1.0979530656
 40
0.1
100
AcDbArc
 50
275.8922132682
 51
360.0
  0
ARC
  5
3BB
100
AcDbEntity
  8
0
100
AcDbCircle
 62
7
  6
CONTINUOUS
 10
14.4733024728
 20
5.9379530656
 40
0.0756136364
100
AcDbArc
 50
0.0
 51
82.6955544394
  0
ARC
  5
3BC
100
AcDbEntity
  8
0
100
AcDbCircle
 62
7
  6
CONTINUOUS
 10
14.4829161092
 20
6.0754530656
 40
0.0625
100
AcDbArc
 50
90.0
 51
270.0
  0
ARC
  5
3BD
100
AcDbEntity
  8
0
100
AcDbCircle
 62
7
  6
CONTINUOUS
 10
15.8829161092
 20
1.0979530656
 40
0.1
100
AcDbArc
 50
180.0
 51
264.1077867318
  0
ARC
  5
3BE
100
AcDbEntity
  8
0
100
AcDbCircle
 62
7
  6
CONTINUOUS
 10
14.7829161092
 20
5.2379530656
 40
1.05
100
AcDbArc
 50
106.6764720488
 51
73.3270328213
  0
ARC
  5
3BF
100
AcDbEntity
  8
0
100
AcDbCircle
 62
9
  6
CONTINUOUS
 10
14.7829161092
 20
5.2379530656
 40
1.03
100
AcDbArc
 50
107.0047665875
 51
72.9916828948
  0
ARC
  5
3C0
100
AcDbEntity
  8
0
100
AcDbCircle
 62
7
  6
CONTINUOUS
 10
14.7829161092
 20
5.2379530656
 40
0.97
100
AcDbArc
 50
108.0766162113
 51
71.9233837887
  0
ARC
  5
3C1
100
AcDbEntity
  8
0
100
AcDbCircle
 62
7
  6
CONTINUOUS
 10
14.7829161092
 20
5.2379530656
 40
0.775
100
AcDbArc
 50
173.4529421543
 51
174.5470578458
  0
ARC
  5
3C2
100
AcDbEntity
  8
0
100
AcDbCircle
 62
7
  6
CONTINUOUS
 10
14.7829161092
 20
5.2379530656
 40
0.775
100
AcDbArc
 50
169.4529421543
 51
170.5470578457
  0
ARC
  5
3C3
100
AcDbEntity
  8
0
100
AcDbCircle
 62
7
  6
CONTINUOUS
 10
14.7829161092
 20
5.2379530656
 40
0.775
100
AcDbArc
 50
165.4529421543
 51
166.5470578458
  0
ARC
  5
3C4
100
AcDbEntity
  8
0
100
AcDbCircle
 62
7
  6
CONTINUOUS
 10
14.7829161092
 20
5.2379530656
 40
0.775
100
AcDbArc
 50
161.4529421542
 51
162.5470578458
  0
ARC
  5
3C5
100
AcDbEntity
  8
0
100
AcDbCircle
 62
7
  6
CONTINUOUS
 10
14.7829161092
 20
5.2379530656
 40
0.775
100
AcDbArc
 50
157.4529421543
 51
158.5470578457
  0
ARC
  5
3C6
100
AcDbEntity
  8
0
100
AcDbCircle
 62
7
  6
CONTINUOUS
 10
14.7829161092
 20
5.2379530656
 40
0.775
100
AcDbArc
 50
153.4529421543
 51
154.5470578457
  0
ARC
  5
3C7
100
AcDbEntity
  8
0
100
AcDbCircle
 62
7
  6
CONTINUOUS
 10
14.7829161092
 20
5.2379530656
 40
0.775
100
AcDbArc
 50
149.4529421543
 51
150.5470578457
  0
ARC
  5
3C8
100
AcDbEntity
  8
0
100
AcDbCircle
 62
7
  6
CONTINUOUS
 10
14.7829161092
 20
5.2379530656
 40
0.775
100
AcDbArc
 50
145.4529421542
 51
146.5470578457
  0
ARC
  5
3C9
100
AcDbEntity
  8
0
100
AcDbCircle
 62
7
  6
CONTINUOUS
 10
14.7829161092
 20
5.2379530656
 40
0.775
100
AcDbArc
 50
141.4529421542
 51
142.5470578457
  0
ARC
  5
3CA
100
AcDbEntity
  8
0
100
AcDbCircle
 62
7
  6
CONTINUOUS
 10
14.7829161092
 20
5.2379530656
 40
0.775
100
AcDbArc
 50
137.4529421543
 51
138.5470578457
  0
ARC
  5
3CB
100
AcDbEntity
  8
0
100
AcDbCircle
 62
7
  6
CONTINUOUS
 10
14.7829161092
 20
5.2379530656
 40
0.775
100
AcDbArc
 50
133.4529421542
 51
134.5470578457
  0
ARC
  5
3CC
100
AcDbEntity
  8
0
100
AcDbCircle
 62
7
  6
CONTINUOUS
 10
14.7829161092
 20
5.2379530656
 40
0.775
100
AcDbArc
 50
129.4529421542
 51
130.5470578457
  0
ARC
  5
3CD
100
AcDbEntity
  8
0
100
AcDbCircle
 62
7
  6
CONTINUOUS
 10
14.7829161092
 20
5.2379530656
 40
0.775
100
AcDbArc
 50
125.4529421542
 51
126.5470578457
  0
ARC
  5
3CE
100
AcDbEntity
  8
0
100
AcDbCircle
 62
7
  6
CONTINUOUS
 10
14.7829161092
 20
5.2379530656
 40
0.775
100
AcDbArc
 50
121.4529421543
 51
122.5470578457
  0
ARC
  5
3CF
100
AcDbEntity
  8
0
100
AcDbCircle
 62
7
  6
CONTINUOUS
 10
14.7829161092
 20
5.2379530656
 40
0.775
100
AcDbArc
 50
117.4529421543
 51
118.5470578457
  0
ARC
  5
3D0
100
AcDbEntity
  8
0
100
AcDbCircle
 62
7
  6
CONTINUOUS
 10
14.7829161092
 20
5.2379530656
 40
0.775
100
AcDbArc
 50
113.4529421543
 51
114.5470578458
  0
ARC
  5
3D1
100
AcDbEntity
  8
0
100
AcDbCircle
 62
7
  6
CONTINUOUS
 10
14.7829161092
 20
5.2379530656
 40
0.775
100
AcDbArc
 50
109.4529421542
 51
110.5470578457
  0
ARC
  5
3D2
100
AcDbEntity
  8
0
100
AcDbCircle
 62
7
  6
CONTINUOUS
 10
14.7829161092
 20
5.2379530656
 40
0.775
100
AcDbArc
 50
69.4529421543
 51
70.5470578457
  0
ARC
  5
3D3
100
AcDbEntity
  8
0
100
AcDbCircle
 62
7
  6
CONTINUOUS
 10
14.7829161092
 20
5.2379530656
 40
0.775
100
AcDbArc
 50
65.4529421543
 51
66.5470578457
  0
ARC
  5
3D4
100
AcDbEntity
  8
0
100
AcDbCircle
 62
7
  6
CONTINUOUS
 10
14.7829161092
 20
5.2379530656
 40
0.775
100
AcDbArc
 50
61.4529421543
 51
62.5470578457
  0
ARC
  5
3D5
100
AcDbEntity
  8
0
100
AcDbCircle
 62
7
  6
CONTINUOUS
 10
14.7829161092
 20
5.2379530656
 40
0.775
100
AcDbArc
 50
57.4529421543
 51
58.5470578458
  0
ARC
  5
3D6
100
AcDbEntity
  8
0
100
AcDbCircle
 62
7
  6
CONTINUOUS
 10
14.7829161092
 20
5.2379530656
 40
0.775
100
AcDbArc
 50
53.4529421543
 51
54.5470578457
  0
ARC
  5
3D7
100
AcDbEntity
  8
0
100
AcDbCircle
 62
7
  6
CONTINUOUS
 10
14.7829161092
 20
5.2379530656
 40
0.775
100
AcDbArc
 50
49.4529421543
 51
50.5470578457
  0
ARC
  5
3D8
100
AcDbEntity
  8
0
100
AcDbCircle
 62
7
  6
CONTINUOUS
 10
14.7829161092
 20
5.2379530656
 40
0.775
100
AcDbArc
 50
45.4529421543
 51
46.5470578457
  0
ARC
  5
3D9
100
AcDbEntity
  8
0
100
AcDbCircle
 62
7
  6
CONTINUOUS
 10
14.7829161092
 20
5.2379530656
 40
0.775
100
AcDbArc
 50
41.4529421543
 51
42.5470578458
  0
ARC
  5
3DA
100
AcDbEntity
  8
0
100
AcDbCircle
 62
7
  6
CONTINUOUS
 10
14.7829161092
 20
5.2379530656
 40
0.775
100
AcDbArc
 50
37.4529421543
 51
38.5470578457
  0
ARC
  5
3DB
100
AcDbEntity
  8
0
100
AcDbCircle
 62
7
  6
CONTINUOUS
 10
14.7829161092
 20
5.2379530656
 40
0.775
100
AcDbArc
 50
33.4529421543
 51
34.5470578457
  0
ARC
  5
3DC
100
AcDbEntity
  8
0
100
AcDbCircle
 62
7
  6
CONTINUOUS
 10
14.7829161092
 20
5.2379530656
 40
0.775
100
AcDbArc
 50
29.4529421543
 51
30.5470578457
  0
ARC
  5
3DD
100
AcDbEntity
  8
0
100
AcDbCircle
 62
7
  6
CONTINUOUS
 10
14.7829161092
 20
5.2379530656
 40
0.775
100
AcDbArc
 50
25.4529421543
 51
26.5470578458
  0
ARC
  5
3DE
100
AcDbEntity
  8
0
100
AcDbCircle
 62
7
  6
CONTINUOUS
 10
14.7829161092
 20
5.2379530656
 40
0.775
100
AcDbArc
 50
21.4529421542
 51
22.5470578458
  0
ARC
  5
3DF
100
AcDbEntity
  8
0
100
AcDbCircle
 62
7
  6
CONTINUOUS
 10
14.7829161092
 20
5.2379530656
 40
0.775
100
AcDbArc
 50
17.4529421543
 51
18.5470578457
  0
ARC
  5
3E0
100
AcDbEntity
  8
0
100
AcDbCircle
 62
7
  6
CONTINUOUS
 10
14.7829161092
 20
5.2379530656
 40
0.775
100
AcDbArc
 50
13.4529421543
 51
14.5470578457
  0
ARC
  5
3E1
100
AcDbEntity
  8
0
100
AcDbCircle
 62
7
  6
CONTINUOUS
 10
14.7829161092
 20
5.2379530656
 40
0.775
100
AcDbArc
 50
9.4529421543
 51
10.5470578457
  0
ARC
  5
3E2
100
AcDbEntity
  8
0
100
AcDbCircle
 62
7
  6
CONTINUOUS
 10
14.7829161092
 20
5.2379530656
 40
0.775
100
AcDbArc
 50
5.4529421543
 51
6.5470578457
  0
ARC
  5
3E3
100
AcDbEntity
  8
0
100
AcDbCircle
 62
7
  6
CONTINUOUS
 10
14.7829161092
 20
5.2379530656
 40
0.775
100
AcDbArc
 50
1.4529421543
 51
2.5470578457
  0
ARC
  5
3E4
100
AcDbEntity
  8
0
100
AcDbCircle
 62
7
  6
CONTINUOUS
 10
14.7829161092
 20
5.2379530656
 40
0.775
100
AcDbArc
 50
357.4529421543
 51
358.5470578457
  0
ARC
  5
3E5
100
AcDbEntity
  8
0
100
AcDbCircle
 62
7
  6
CONTINUOUS
 10
14.7829161092
 20
5.2379530656
 40
0.775
100
AcDbArc
 50
353.4529421543
 51
354.5470578458
  0
ARC
  5
3E6
100
AcDbEntity
  8
0
100
AcDbCircle
 62
7
  6
CONTINUOUS
 10
14.7829161092
 20
5.2379530656
 40
0.775
100
AcDbArc
 50
349.4529421543
 51
350.5470578457
  0
ARC
  5
3E7
100
AcDbEntity
  8
0
100
AcDbCircle
 62
7
  6
CONTINUOUS
 10
14.7829161092
 20
5.2379530656
 40
0.775
100
AcDbArc
 50
345.4529421542
 51
346.5470578458
  0
ARC
  5
3E8
100
AcDbEntity
  8
0
100
AcDbCircle
 62
7
  6
CONTINUOUS
 10
14.7829161092
 20
5.2379530656
 40
0.775
100
AcDbArc
 50
341.4529421542
 51
342.5470578458
  0
ARC
  5
3E9
100
AcDbEntity
  8
0
100
AcDbCircle
 62
7
  6
CONTINUOUS
 10
14.7829161092
 20
5.2379530656
 40
0.775
100
AcDbArc
 50
337.4529421543
 51
338.5470578457
  0
ARC
  5
3EA
100
AcDbEntity
  8
0
100
AcDbCircle
 62
7
  6
CONTINUOUS
 10
14.7829161092
 20
5.2379530656
 40
0.775
100
AcDbArc
 50
333.4529421543
 51
334.5470578457
  0
ARC
  5
3EB
100
AcDbEntity
  8
0
100
AcDbCircle
 62
7
  6
CONTINUOUS
 10
14.7829161092
 20
5.2379530656
 40
0.775
100
AcDbArc
 50
329.4529421543
 51
330.5470578457
  0
ARC
  5
3EC
100
AcDbEntity
  8
0
100
AcDbCircle
 62
7
  6
CONTINUOUS
 10
14.7829161092
 20
5.2379530656
 40
0.775
100
AcDbArc
 50
325.4529421542
 51
326.5470578457
  0
ARC
  5
3ED
100
AcDbEntity
  8
0
100
AcDbCircle
 62
7
  6
CONTINUOUS
 10
14.7829161092
 20
5.2379530656
 40
0.775
100
AcDbArc
 50
321.4529421542
 51
322.5470578457
  0
ARC
  5
3EE
100
AcDbEntity
  8
0
100
AcDbCircle
 62
7
  6
CONTINUOUS
 10
14.7829161092
 20
5.2379530656
 40
0.775
100
AcDbArc
 50
317.4529421543
 51
318.5470578457
  0
ARC
  5
3EF
100
AcDbEntity
  8
0
100
AcDbCircle
 62
7
  6
CONTINUOUS
 10
14.7829161092
 20
5.2379530656
 40
0.775
100
AcDbArc
 50
313.4529421542
 51
314.5470578457
  0
ARC
  5
3F0
100
AcDbEntity
  8
0
100
AcDbCircle
 62
7
  6
CONTINUOUS
 10
14.7829161092
 20
5.2379530656
 40
0.775
100
AcDbArc
 50
309.4529421542
 51
310.5470578457
  0
ARC
  5
3F1
100
AcDbEntity
  8
0
100
AcDbCircle
 62
7
  6
CONTINUOUS
 10
14.7829161092
 20
5.2379530656
 40
0.775
100
AcDbArc
 50
305.4529421542
 51
306.5470578457
  0
ARC
  5
3F2
100
AcDbEntity
  8
0
100
AcDbCircle
 62
7
  6
CONTINUOUS
 10
14.7829161092
 20
5.2379530656
 40
0.775
100
AcDbArc
 50
301.4529421543
 51
302.5470578457
  0
ARC
  5
3F3
100
AcDbEntity
  8
0
100
AcDbCircle
 62
7
  6
CONTINUOUS
 10
14.7829161092
 20
5.2379530656
 40
0.775
100
AcDbArc
 50
297.4529421543
 51
298.5470578457
  0
ARC
  5
3F4
100
AcDbEntity
  8
0
100
AcDbCircle
 62
7
  6
CONTINUOUS
 10
14.7829161092
 20
5.2379530656
 40
0.775
100
AcDbArc
 50
293.4529421543
 51
294.5470578458
  0
ARC
  5
3F5
100
AcDbEntity
  8
0
100
AcDbCircle
 62
7
  6
CONTINUOUS
 10
14.7829161092
 20
5.2379530656
 40
0.775
100
AcDbArc
 50
289.4529421542
 51
290.5470578457
  0
ARC
  5
3F6
100
AcDbEntity
  8
0
100
AcDbCircle
 62
7
  6
CONTINUOUS
 10
14.7829161092
 20
5.2379530656
 40
0.775
100
AcDbArc
 50
285.4529421543
 51
286.5470578457
  0
ARC
  5
3F7
100
AcDbEntity
  8
0
100
AcDbCircle
 62
7
  6
CONTINUOUS
 10
14.7829161092
 20
5.2379530656
 40
0.775
100
AcDbArc
 50
281.4529421542
 51
282.5470578457
  0
ARC
  5
3F8
100
AcDbEntity
  8
0
100
AcDbCircle
 62
7
  6
CONTINUOUS
 10
14.7829161092
 20
5.2379530656
 40
0.775
100
AcDbArc
 50
277.4529421543
 51
278.5470578458
  0
ARC
  5
3F9
100
AcDbEntity
  8
0
100
AcDbCircle
 62
7
  6
CONTINUOUS
 10
14.7829161092
 20
5.2379530656
 40
0.775
100
AcDbArc
 50
273.4529421543
 51
274.5470578458
  0
ARC
  5
3FA
100
AcDbEntity
  8
0
100
AcDbCircle
 62
7
  6
CONTINUOUS
 10
14.7829161092
 20
5.2379530656
 40
0.775
100
AcDbArc
 50
269.4529421543
 51
270.5470578457
  0
ARC
  5
3FB
100
AcDbEntity
  8
0
100
AcDbCircle
 62
7
  6
CONTINUOUS
 10
14.7829161092
 20
5.2379530656
 40
0.775
100
AcDbArc
 50
265.4529421543
 51
266.5470578457
  0
ARC
  5
3FC
100
AcDbEntity
  8
0
100
AcDbCircle
 62
7
  6
CONTINUOUS
 10
14.7829161092
 20
5.2379530656
 40
0.775
100
AcDbArc
 50
261.4529421543
 51
262.5470578458
  0
ARC
  5
3FD
100
AcDbEntity
  8
0
100
AcDbCircle
 62
7
  6
CONTINUOUS
 10
14.7829161092
 20
5.2379530656
 40
0.775
100
AcDbArc
 50
257.4529421543
 51
258.5470578458
  0
ARC
  5
3FE
100
AcDbEntity
  8
0
100
AcDbCircle
 62
7
  6
CONTINUOUS
 10
14.7829161092
 20
5.2379530656
 40
0.775
100
AcDbArc
 50
253.4529421543
 51
254.5470578457
  0
ARC
  5
3FF
100
AcDbEntity
  8
0
100
AcDbCircle
 62
7
  6
CONTINUOUS
 10
14.7829161092
 20
5.2379530656
 40
0.775
100
AcDbArc
 50
249.4529421543
 51
250.5470578457
  0
ARC
  5
400
100
AcDbEntity
  8
0
100
AcDbCircle
 62
7
  6
CONTINUOUS
 10
14.7829161092
 20
5.2379530656
 40
0.775
100
AcDbArc
 50
245.4529421543
 51
246.5470578457
  0
ARC
  5
401
100
AcDbEntity
  8
0
100
AcDbCircle
 62
7
  6
CONTINUOUS
 10
14.7829161092
 20
5.2379530656
 40
0.775
100
AcDbArc
 50
241.4529421543
 51
242.5470578458
  0
ARC
  5
402
100
AcDbEntity
  8
0
100
AcDbCircle
 62
7
  6
CONTINUOUS
 10
14.7829161092
 20
5.2379530656
 40
0.775
100
AcDbArc
 50
237.4529421543
 51
238.5470578458
  0
ARC
  5
403
100
AcDbEntity
  8
0
100
AcDbCircle
 62
7
  6
CONTINUOUS
 10
14.7829161092
 20
5.2379530656
 40
0.775
100
AcDbArc
 50
233.4529421543
 51
234.5470578457
  0
ARC
  5
404
100
AcDbEntity
  8
0
100
AcDbCircle
 62
7
  6
CONTINUOUS
 10
14.7829161092
 20
5.2379530656
 40
0.775
100
AcDbArc
 50
229.4529421543
 51
230.5470578457
  0
ARC
  5
405
100
AcDbEntity
  8
0
100
AcDbCircle
 62
7
  6
CONTINUOUS
 10
14.7829161092
 20
5.2379530656
 40
0.775
100
AcDbArc
 50
225.4529421543
 51
226.5470578457
  0
ARC
  5
406
100
AcDbEntity
  8
0
100
AcDbCircle
 62
7
  6
CONTINUOUS
 10
14.7829161092
 20
5.2379530656
 40
0.775
100
AcDbArc
 50
221.4529421543
 51
222.5470578458
  0
ARC
  5
407
100
AcDbEntity
  8
0
100
AcDbCircle
 62
7
  6
CONTINUOUS
 10
14.7829161092
 20
5.2379530656
 40
0.775
100
AcDbArc
 50
217.4529421543
 51
218.5470578457
  0
ARC
  5
408
100
AcDbEntity
  8
0
100
AcDbCircle
 62
7
  6
CONTINUOUS
 10
14.7829161092
 20
5.2379530656
 40
0.775
100
AcDbArc
 50
213.4529421543
 51
214.5470578457
  0
ARC
  5
409
100
AcDbEntity
  8
0
100
AcDbCircle
 62
7
  6
CONTINUOUS
 10
14.7829161092
 20
5.2379530656
 40
0.775
100
AcDbArc
 50
209.4529421543
 51
210.5470578457
  0
ARC
  5
40A
100
AcDbEntity
  8
0
100
AcDbCircle
 62
7
  6
CONTINUOUS
 10
14.7829161092
 20
5.2379530656
 40
0.775
100
AcDbArc
 50
205.4529421543
 51
206.5470578458
  0
ARC
  5
40B
100
AcDbEntity
  8
0
100
AcDbCircle
 62
7
  6
CONTINUOUS
 10
14.7829161092
 20
5.2379530656
 40
0.775
100
AcDbArc
 50
201.4529421542
 51
202.5470578458
  0
ARC
  5
40C
100
AcDbEntity
  8
0
100
AcDbCircle
 62
7
  6
CONTINUOUS
 10
14.7829161092
 20
5.2379530656
 40
0.775
100
AcDbArc
 50
197.4529421543
 51
198.5470578457
  0
ARC
  5
40D
100
AcDbEntity
  8
0
100
AcDbCircle
 62
7
  6
CONTINUOUS
 10
14.7829161092
 20
5.2379530656
 40
0.775
100
AcDbArc
 50
193.4529421543
 51
194.5470578457
  0
ARC
  5
40E
100
AcDbEntity
  8
0
100
AcDbCircle
 62
7
  6
CONTINUOUS
 10
14.7829161092
 20
5.2379530656
 40
0.775
100
AcDbArc
 50
189.4529421543
 51
190.5470578457
  0
ARC
  5
40F
100
AcDbEntity
  8
0
100
AcDbCircle
 62
7
  6
CONTINUOUS
 10
14.7829161092
 20
5.2379530656
 40
0.775
100
AcDbArc
 50
185.4529421543
 51
186.5470578457
  0
ARC
  5
410
100
AcDbEntity
  8
0
100
AcDbCircle
 62
7
  6
CONTINUOUS
 10
14.7829161092
 20
5.2379530656
 40
0.775
100
AcDbArc
 50
181.4529421543
 51
182.5470578457
  0
ARC
  5
411
100
AcDbEntity
  8
0
100
AcDbCircle
 62
7
  6
CONTINUOUS
 10
14.7829161092
 20
5.2379530656
 40
0.775
100
AcDbArc
 50
177.4529421543
 51
178.5470578457
  0
ARC
  5
412
100
AcDbEntity
  8
0
100
AcDbCircle
 62
7
  6
CONTINUOUS
 10
14.7829161092
 20
5.2379530656
 40
0.725
100
AcDbArc
 50
105.6761730705
 51
74.3228802582
  0
ARC
  5
413
100
AcDbEntity
  8
0
100
AcDbCircle
 62
9
  6
CONTINUOUS
 10
14.7829161092
 20
5.2379530656
 40
0.4308842451
100
AcDbArc
 50
116.9798184364
 51
210.7207675171
  0
ARC
  5
414
100
AcDbEntity
  8
0
100
AcDbCircle
 62
9
  6
CONTINUOUS
 10
14.7829161092
 20
5.2379530656
 40
0.4308842451
100
AcDbArc
 50
329.2792324829
 51
63.0186923403
  0
ARC
  5
415
100
AcDbEntity
  8
0
100
AcDbCircle
 62
9
  6
CONTINUOUS
 10
14.7829161092
 20
5.2379530656
 40
0.41585862
100
AcDbArc
 50
118.0739174658
 51
210.7206166291
  0
ARC
  5
416
100
AcDbEntity
  8
0
100
AcDbCircle
 62
9
  6
CONTINUOUS
 10
14.7829161092
 20
5.2379530656
 40
0.41585862
100
AcDbArc
 50
329.2791988529
 51
61.9118996115
  0
ARC
  5
417
100
AcDbEntity
  8
0
100
AcDbCircle
 62
7
  6
CONTINUOUS
 10
14.7829161092
 20
5.2379530656
 40
0.3675
100
AcDbArc
 50
122.2906575016
 51
57.7093424984
  0
ARC
  5
418
100
AcDbEntity
  8
0
100
AcDbCircle
 62
9
  6
CONTINUOUS
 10
14.7829161092
 20
5.2504530656
 40
0.3575
100
AcDbArc
 50
51.6789613868
 51
56.8852622775
  0
ARC
  5
419
100
AcDbEntity
  8
0
100
AcDbCircle
 62
9
  6
CONTINUOUS
 10
14.7829161092
 20
5.2504530656
 40
0.3575
100
AcDbArc
 50
123.1625431732
 51
128.6200786499
  0
ARC
  5
41A
100
AcDbEntity
  8
0
100
AcDbCircle
 62
7
  6
CONTINUOUS
 10
14.7829161092
 20
4.9054530656
 40
0.3375
100
AcDbArc
 50
179.9999999997
 51
360.0
  0
ARC
  5
41B
100
AcDbEntity
  8
0
100
AcDbCircle
 62
9
  6
CONTINUOUS
 10
14.7829161092
 20
5.2379530656
 40
0.3075
100
AcDbArc
 50
129.5625496786
 51
50.4616844711
  0
ARC
  5
41C
100
AcDbEntity
  8
0
100
AcDbCircle
 62
9
  6
CONTINUOUS
 10
14.7829161092
 20
5.2379530656
 40
0.215
100
AcDbArc
 50
156.1417693768
 51
23.9460604399
  0
ARC
  5
41D
100
AcDbEntity
  8
0
100
AcDbCircle
 62
7
  6
CONTINUOUS
 10
14.7829161092
 20
5.2379530656
 40
0.195
100
AcDbArc
 50
180.0
 51
360.0
  0
ARC
  5
41E
100
AcDbEntity
  8
0
100
AcDbCircle
 62
7
  6
CONTINUOUS
 10
15.0925297456
 20
5.9379530656
 40
0.0756136364
100
AcDbArc
 50
97.3044455606
 51
180.0
  0
ARC
  5
41F
100
AcDbEntity
  8
0
100
AcDbCircle
 62
7
  6
CONTINUOUS
 10
15.0829161092
 20
6.0754530656
 40
0.0625
100
AcDbArc
 50
270.0
 51
90.0
  0
ARC
  5
420
100
AcDbEntity
  8
0
100
AcDbCircle
 62
9
  6
CONTINUOUS
 10
7.1742212899
 20
11.4234837841
 40
0.1012913813
100
AcDbArc
 50
171.2948404013
 51
176.9481356723
  0
ARC
  5
421
100
AcDbEntity
  8
0
100
AcDbCircle
 62
7
  6
CONTINUOUS
 10
7.1819319667
 20
11.4223020946
 40
0.1
100
AcDbArc
 50
95.3636482411
 51
177.0208205852
  0
ARC
  5
422
100
AcDbEntity
  8
0
100
AcDbCircle
 62
7
  6
CONTINUOUS
 10
7.3901730198
 20
11.7509170583
 40
0.0984251969
100
AcDbArc
 50
270.767439731
 51
0.2674395874
  0
ARC
  5
423
100
AcDbEntity
  8
0
100
AcDbCircle
 62
9
  6
CONTINUOUS
 10
7.1676227908
 20
11.5737962683
 40
0.0500218713
100
AcDbArc
 50
271.5720877958
 51
7.1242264038
  0
ARC
  5
424
100
AcDbEntity
  8
0
100
AcDbCircle
 62
7
  6
CONTINUOUS
 10
6.681400564
 20
10.6697940442
 40
0.0118110236
100
AcDbArc
 50
261.2942799924
 51
346.2942799924
  0
ARC
  5
425
100
AcDbEntity
  8
0
100
AcDbCircle
 62
7
  6
CONTINUOUS
 10
6.6084165711
 20
10.6809696214
 40
0.0118110236
100
AcDbArc
 50
261.2942799924
 51
346.2942799924
  0
ARC
  5
426
100
AcDbEntity
  8
0
100
AcDbCircle
 62
7
  6
CONTINUOUS
 10
6.5286299381
 20
10.6931868439
 40
0.0118110236
100
AcDbArc
 50
176.2942799925
 51
261.2942799925
  0
ARC
  5
427
100
AcDbEntity
  8
0
100
AcDbCircle
 62
7
  6
CONTINUOUS
 10
6.4965986066
 20
10.6980915991
 40
0.0118110236
100
AcDbArc
 50
261.2942799924
 51
346.2942799924
  0
ARC
  5
428
100
AcDbEntity
  8
0
100
AcDbCircle
 62
7
  6
CONTINUOUS
 10
6.4168119736
 20
10.7103088215
 40
0.0118110236
100
AcDbArc
 50
176.2942799925
 51
261.2942799925
  0
ARC
  5
429
100
AcDbEntity
  8
0
100
AcDbCircle
 62
7
  6
CONTINUOUS
 10
6.3594335673
 20
10.719094814
 40
0.0118110236
100
AcDbArc
 50
261.2942799924
 51
346.2942799924
  0
ARC
  5
42A
100
AcDbEntity
  8
0
100
AcDbCircle
 62
7
  6
CONTINUOUS
 10
6.2796469344
 20
10.7313120364
 40
0.0118110236
100
AcDbArc
 50
176.2942799924
 51
261.2942799924
  0
ARC
  5
42B
100
AcDbEntity
  8
0
100
AcDbCircle
 62
7
  6
CONTINUOUS
 10
6.2134655814
 20
10.7414459684
 40
0.0118110236
100
AcDbArc
 50
261.2942799929
 51
346.2942799924
  0
ARC
  5
42C
100
AcDbEntity
  8
0
100
AcDbCircle
 62
7
  6
CONTINUOUS
 10
6.1336789485
 20
10.7536631909
 40
0.0118110236
100
AcDbArc
 50
176.2942799924
 51
261.2942799924
  0
ARC
  5
42D
100
AcDbEntity
  8
0
100
AcDbCircle
 62
7
  6
CONTINUOUS
 10
6.0763005422
 20
10.7624491834
 40
0.0118110236
100
AcDbArc
 50
261.2942799962
 51
346.2942799924
  0
ARC
  5
42E
100
AcDbEntity
  8
0
100
AcDbCircle
 62
7
  6
CONTINUOUS
 10
5.9965139092
 20
10.7746664058
 40
0.0118110236
100
AcDbArc
 50
176.2942799924
 51
261.2942799924
  0
ARC
  5
42F
100
AcDbEntity
  8
0
100
AcDbCircle
 62
7
  6
CONTINUOUS
 10
5.9644825777
 20
10.779571161
 40
0.0118110236
100
AcDbArc
 50
261.2942799955
 51
346.2942799924
  0
ARC
  5
430
100
AcDbEntity
  8
0
100
AcDbCircle
 62
7
  6
CONTINUOUS
 10
5.8846959447
 20
10.7917883835
 40
0.0118110236
100
AcDbArc
 50
176.2942799924
 51
261.2942799925
  0
ARC
  5
431
100
AcDbEntity
  8
0
100
AcDbCircle
 62
7
  6
CONTINUOUS
 10
5.8117119518
 20
10.8029639607
 40
0.0118110236
100
AcDbArc
 50
176.2942799925
 51
261.2942799925
  0
ARC
  5
432
100
AcDbEntity
  8
0
100
AcDbCircle
 62
7
  6
CONTINUOUS
 10
5.786364877
 20
10.806845198
 40
0.0118110236
100
AcDbArc
 50
176.2942799904
 51
261.2942799925
  0
ARC
  5
433
100
AcDbEntity
  8
0
100
AcDbCircle
 62
7
  6
CONTINUOUS
 10
6.7067476388
 20
10.6659128069
 40
0.0118110236
100
AcDbArc
 50
261.2942799925
 51
346.2942799945
  0
ARC
  5
434
100
AcDbEntity
  8
0
100
AcDbCircle
 62
7
  6
CONTINUOUS
 10
7.483859422
 20
11.9229096913
 40
0.0118110236
100
AcDbArc
 50
0.2673196885
 51
45.2673168798
  0
ARC
  5
435
100
AcDbEntity
  8
0
100
AcDbCircle
 62
7
  6
CONTINUOUS
 10
7.4842915452
 20
11.8303330675
 40
0.0118110236
100
AcDbArc
 50
315.2675623202
 51
0.2675594827
  0
ARC
  5
436
100
AcDbEntity
  8
0
100
AcDbCircle
 62
7
  6
CONTINUOUS
 10
7.0316504599
 20
10.6511641802
 40
0.01
100
AcDbArc
 50
261.2942799925
 51
351.2942799925
  0
ARC
  5
437
100
AcDbEntity
  8
0
100
AcDbCircle
 62
7
  6
CONTINUOUS
 10
5.4719356569
 20
10.889993443
 40
0.01
100
AcDbArc
 50
171.2942799924
 51
261.2942799925
  0
ARC
  5
438
100
AcDbEntity
  8
0
100
AcDbCircle
 62
7
  6
CONTINUOUS
 10
5.8967030889
 20
12.4156760381
 40
0.1
100
AcDbArc
 50
121.1845948494
 51
220.2899655399
  0
ARC
  5
439
100
AcDbEntity
  8
0
100
AcDbCircle
 62
7
  6
CONTINUOUS
 10
5.824522186
 20
12.5349332276
 40
0.0394
100
AcDbArc
 50
301.1845948508
 51
351.2942799924
  0
ARC
  5
43A
100
AcDbEntity
  8
0
100
AcDbCircle
 62
7
  6
CONTINUOUS
 10
5.7903713349
 20
12.3255321638
 40
0.0394
100
AcDbArc
 50
345.5677393977
 51
40.28996554
  0
ARC
  5
43B
100
AcDbEntity
  8
0
100
AcDbCircle
 62
7
  6
CONTINUOUS
 10
6.0552676896
 20
13.4512089203
 40
0.1
100
AcDbArc
 50
81.2942799924
 51
221.403965136
  0
ARC
  5
43C
100
AcDbEntity
  8
0
100
AcDbCircle
 62
7
  6
CONTINUOUS
 10
5.9507085865
 20
13.35901481
 40
0.0394
100
AcDbArc
 50
351.2942799924
 51
41.4039651448
  0
ARC
  5
43D
100
AcDbEntity
  8
0
100
AcDbCircle
 62
9
  6
CONTINUOUS
 10
6.9927117236
 20
12.2455571717
 40
0.1780844566
100
AcDbArc
 50
11.5762714275
 51
24.1840422465
  0
ARC
  5
43E
100
AcDbEntity
  8
0
100
AcDbCircle
 62
9
  6
CONTINUOUS
 10
6.9954895194
 20
12.248707595
 40
0.1757925468
100
AcDbArc
 50
320.5117104484
 51
335.793702165
  0
ARC
  5
43F
100
AcDbEntity
  8
0
100
AcDbCircle
 62
7
  6
CONTINUOUS
 10
7.3857030738
 20
12.7085433543
 40
0.0984251969
100
AcDbArc
 50
0.2674395874
 51
80.267907779
  0
ARC
  5
440
100
AcDbEntity
  8
0
100
AcDbCircle
 62
9
  6
CONTINUOUS
 10
7.0119304571
 20
12.2400356598
 40
0.072189095
100
AcDbArc
 50
355.1199515039
 51
356.1557455308
  0
ARC
  5
441
100
AcDbEntity
  8
0
100
AcDbCircle
 62
7
  6
CONTINUOUS
 10
7.445661686
 20
12.5151196239
 40
0.0472440945
100
AcDbArc
 50
326.7101298267
 51
33.8247493478
  0
ARC
  5
442
100
AcDbEntity
  8
0
100
AcDbCircle
 62
7
  6
CONTINUOUS
 10
7.4453368286
 20
12.5847159899
 40
0.0472440945
100
AcDbArc
 50
326.7101298254
 51
33.824749348
  0
ARC
  5
443
100
AcDbEntity
  8
0
100
AcDbCircle
 62
7
  6
CONTINUOUS
 10
7.4450119711
 20
12.6543123559
 40
0.0472440945
100
AcDbArc
 50
326.7101298289
 51
33.8247493486
  0
ARC
  5
444
100
AcDbEntity
  8
0
100
AcDbCircle
 62
7
  6
CONTINUOUS
 10
7.4457962463
 20
12.4862918653
 40
0.0472440945
100
AcDbArc
 50
326.7101298252
 51
17.941271708
  0
ARC
  5
445
100
AcDbEntity
  8
0
100
AcDbCircle
 62
7
  6
CONTINUOUS
 10
7.4448774108
 20
12.6831401145
 40
0.0472440945
100
AcDbArc
 50
342.5936074679
 51
33.8268883917
  0
ARC
  5
446
100
AcDbEntity
  8
0
100
AcDbCircle
 62
9
  6
CONTINUOUS
 10
7.0596218953
 20
12.1311790102
 40
0.0470297301
100
AcDbArc
 50
171.2932646871
 51
176.0883854995
  0
ARC
  5
447
100
AcDbEntity
  8
0
100
AcDbCircle
 62
7
  6
CONTINUOUS
 10
7.2414422269
 20
13.2695775157
 40
0.1
100
AcDbArc
 50
301.1845948489
 51
81.2942799924
  0
ARC
  5
448
100
AcDbEntity
  8
0
100
AcDbCircle
 62
7
  6
CONTINUOUS
 10
7.3511173706
 20
12.994811501
 40
0.1
100
AcDbArc
 50
171.2942799925
 51
249.810554093
  0
ARC
  5
449
100
AcDbEntity
  8
0
100
AcDbCircle
 62
9
  6
CONTINUOUS
 10
7.298734389
 20
12.852292769
 40
0.0500209029
100
AcDbArc
 50
341.1485725339
 51
74.0543405112
  0
ARC
  5
44A
100
AcDbEntity
  8
0
100
AcDbCircle
 62
7
  6
CONTINUOUS
 10
7.3136231298
 20
13.1503203262
 40
0.0394
100
AcDbArc
 50
121.1845948433
 51
171.2942799924
  0
ARC
  5
44B
100
AcDbEntity
  8
0
100
AcDbCircle
 62
9
  6
CONTINUOUS
 10
9.9958033109
 20
11.9329315478
 40
2.8500008132
100
AcDbArc
 50
162.9497188865
 51
172.9790480429
  0
ARC
  5
44C
100
AcDbEntity
  8
0
100
AcDbCircle
 62
9
  6
CONTINUOUS
 10
9.9947889208
 20
11.926618509
 40
2.8499528228
100
AcDbArc
 50
174.9672804471
 51
185.2746753599
  0
ARC
  5
44D
100
AcDbEntity
  8
0
100
AcDbCircle
 62
7
  6
CONTINUOUS
 10
9.9953195284
 20
11.9297766437
 40
2.8
100
AcDbArc
 50
161.077675002
 51
187.2183543755
  0
ARC
  5
44E
100
AcDbEntity
  8
0
100
AcDbCircle
 62
7
  6
CONTINUOUS
 10
15.8329161092
 20
7.8979530656
 40
0.1
100
AcDbArc
 50
180.0
 51
270.0
  0
ARC
  5
44F
100
AcDbEntity
  8
0
100
AcDbCircle
 62
7
  6
CONTINUOUS
 10
13.7329161092
 20
7.8979530656
 40
0.1
100
AcDbArc
 50
270.0
 51
360.0
  0
ARC
  5
450
100
AcDbEntity
  8
0
100
AcDbCircle
 62
7
  6
CONTINUOUS
 10
15.1054161092
 20
8.7779530656
 40
0.06
100
AcDbArc
 50
270.0
 51
90.0
  0
ARC
  5
451
100
AcDbEntity
  8
0
100
AcDbCircle
 62
7
  6
CONTINUOUS
 10
14.4604161092
 20
8.7779530656
 40
0.06
100
AcDbArc
 50
90.0
 51
270.0
  0
ARC
  5
452
100
AcDbEntity
  8
0
100
AcDbCircle
 62
7
  6
CONTINUOUS
 10
13.8629161092
 20
7.3179530656
 40
0.03
100
AcDbArc
 50
90.0
 51
180.0
  0
ARC
  5
453
100
AcDbEntity
  8
0
100
AcDbCircle
 62
7
  6
CONTINUOUS
 10
15.7029161092
 20
7.3179530656
 40
0.03
100
AcDbArc
 50
0.0
 51
90.0
  0
ARC
  5
454
100
AcDbEntity
  8
0
100
AcDbCircle
 62
9
  6
CONTINUOUS
 10
13.5625548525
 20
11.1773356992
 40
6.4895988145
100
AcDbArc
 50
164.6811027073
 51
165.8063718218
  0
ARC
  5
455
100
AcDbEntity
  8
0
100
AcDbCircle
 62
9
  6
CONTINUOUS
 10
13.4216507178
 20
11.7254645874
 40
6.2650412807
100
AcDbArc
 50
180.5564424517
 51
181.6545402561
  0
SPLINE
  5
456
100
AcDbEntity
  8
0
100
AcDbSpline
 62
9
  6
CONTINUOUS
 70
0
 71
3
 72
19
 73
15
 74
0
 42
0.0000001
 43
0.0000001
 44
0.0000000001
 40
0.0
 40
0.0
 40
0.0
 40
0.0
 40
0.1106558545
 40
0.1693002091
 40
0.2299845972
 40
0.2927254345
 40
0.3571629969
 40
0.4890853458
 40
0.5560766292
 40
0.6232029816
 40
0.6899254438
 40
0.7556174038
 40
0.8819144919
 40
1.0
 40
1.0
 40
1.0
 40
1.0
 10
7.3437797835
 20
12.8294082247
 30
0.0
 10
7.3447770604
 20
12.8323475603
 30
0.0
 10
7.3458200512
 20
12.8370280784
 30
0.0
 10
7.3462084925
 20
12.8434764565
 30
0.0
 10
7.3459346214
 20
12.8485887054
 30
0.0
 10
7.3450268718
 20
12.8537923346
 30
0.0
 10
7.3429753105
 20
12.8607757202
 30
0.0
 10
7.3396985066
 20
12.8674850371
 30
0.0
 10
7.3352746415
 20
12.8735113544
 30
0.0
 10
7.3314499936
 20
12.8776634041
 30
0.0
 10
7.3272364096
 20
12.8813632262
 30
0.0
 10
7.3213050331
 20
12.8855654636
 30
0.0
 10
7.3134454181
 20
12.8894353794
 30
0.0
 10
7.3067920857
 20
12.8912592341
 30
0.0
 10
7.3035293446
 20
12.8918301397
 30
0.0
  0
SPLINE
  5
457
100
AcDbEntity
  8
0
100
AcDbSpline
 62
9
  6
CONTINUOUS
 70
0
 71
3
 72
23
 73
19
 74
0
 42
0.0000001
 43
0.0000001
 44
0.0000000001
 40
0.0
 40
0.0
 40
0.0
 40
0.0
 40
0.0066541985
 40
0.0092486137
 40
0.0122944906
 40
0.0198389628
 40
0.0294504502
 40
0.0412495127
 40
0.0553404235
 40
0.071819289
 40
0.1121224516
 40
0.1619623735
 40
0.2209351141
 40
0.2886269637
 40
0.4470098453
 40
0.6263294891
 40
0.8144664336
 40
1.0
 40
1.0
 40
1.0
 40
1.0
 10
7.3183852015
 20
12.7507654435
 30
0.0
 10
7.3184182486
 20
12.7508731976
 30
0.0
 10
7.318325768
 20
12.7510408327
 30
0.0
 10
7.3181919335
 20
12.7511934909
 30
0.0
 10
7.318030443
 20
12.7513502576
 30
0.0
 10
7.3177617435
 20
12.7515617298
 30
0.0
 10
7.3173541512
 20
12.7518355941
 30
0.0
 10
7.3168375757
 20
12.7521435699
 30
0.0
 10
7.3162073502
 20
12.7524871688
 30
0.0
 10
7.315136625
 20
12.7530301977
 30
0.0
 10
7.3134972495
 20
12.7537889338
 30
0.0
 10
7.3111762344
 20
12.7547853744
 30
0.0
 10
7.3084049039
 20
12.7559072653
 30
0.0
 10
7.3039001576
 20
12.757644892
 30
0.0
 10
7.2974430797
 20
12.7599824348
 30
0.0
 10
7.2890174352
 20
12.76287056
 30
0.0
 10
7.2801120885
 20
12.7657742286
 30
0.0
 10
7.2740711243
 20
12.7676629657
 30
0.0
 10
7.2710661642
 20
12.7685826312
 30
0.0
  0
SPLINE
  5
458
100
AcDbEntity
  8
0
100
AcDbSpline
 62
9
  6
CONTINUOUS
 70
0
 71
3
 72
23
 73
19
 74
0
 42
0.0000001
 43
0.0000001
 44
0.0000000001
 40
0.0
 40
0.0
 40
0.0
 40
0.0
 40
0.0069893063
 40
0.009722137
 40
0.0129286809
 40
0.0208581169
 40
0.03093259
 40
0.043263242
 40
0.0579443871
 40
0.0750619229
 40
0.1167354013
 40
0.1679487963
 40
0.2281476986
 40
0.2967673345
 40
0.4556923786
 40
0.6336661868
 40
0.8186513343
 40
1.0
 40
1.0
 40
1.0
 40
1.0
 10
7.2163152193
 20
12.2720266258
 30
0.0
 10
7.2163295326
 20
12.2721428465
 30
0.0
 10
7.2162022925
 20
12.2722968595
 30
0.0
 10
7.2160368851
 20
12.2724278619
 30
0.0
 10
7.21584227
 20
12.2725581771
 30
0.0
 10
7.2155286144
 20
12.2727245696
 30
0.0
 10
7.2150626604
 20
12.2729291108
 30
0.0
 10
7.214481146
 20
12.2731482385
 30
0.0
 10
7.2137797289
 20
12.2733825355
 30
0.0
 10
7.2126010908
 20
12.2737379885
 30
0.0
 10
7.2108183016
 20
12.2742072248
 30
0.0
 10
7.2083207373
 20
12.2747913374
 30
0.0
 10
7.2053700342
 20
12.2754176544
 30
0.0
 10
7.2006384139
 20
12.27634174
 30
0.0
 10
7.1939443434
 20
12.2775067121
 30
0.0
 10
7.1853056884
 20
12.2788594288
 30
0.0
 10
7.1762759838
 20
12.2801368287
 30
0.0
 10
7.1701889018
 20
12.2809234982
 30
0.0
 10
7.1671734155
 20
12.2812952388
 30
0.0
  0
SPLINE
  5
459
100
AcDbEntity
  8
0
100
AcDbSpline
 62
9
  6
CONTINUOUS
 70
0
 71
3
 72
14
 73
10
 74
0
 42
0.0000001
 43
0.0000001
 44
0.0000000001
 40
0.0
 40
0.0
 40
0.0
 40
0.0
 40
0.0586511416
 40
0.1331330102
 40
0.2265317355
 40
0.3401293099
 40
0.474451781
 40
0.6295514422
 40
1.0
 40
1.0
 40
1.0
 40
1.0
 10
7.3124762972
 20
12.9003887412
 30
0.0
 10
7.3122293259
 20
12.9004020495
 30
0.0
 10
7.3116632579
 20
12.9002954006
 30
0.0
 10
7.3108028422
 20
12.8998694317
 30
0.0
 10
7.3098352157
 20
12.8991753316
 30
0.0
 10
7.3087630231
 20
12.8982125457
 30
0.0
 10
7.3075851838
 20
12.8969857903
 30
0.0
 10
7.3057681439
 20
12.894877149
 30
0.0
 10
7.3044342982
 20
12.8931037681
 30
0.0
 10
7.3035294764
 20
12.8918303222
 30
0.0
  0
SPLINE
  5
45A
100
AcDbEntity
  8
0
100
AcDbSpline
 62
9
  6
CONTINUOUS
 70
0
 71
3
 72
17
 73
13
 74
0
 42
0.0000001
 43
0.0000001
 44
0.0000000001
 40
0.0
 40
0.0
 40
0.0
 40
0.0
 40
0.1161688512
 40
0.2385518427
 40
0.3017853869
 40
0.3660087981
 40
0.4959992082
 40
0.6265399431
 40
0.6914096272
 40
0.755530509
 40
0.8804352393
 40
1.0
 40
1.0
 40
1.0
 40
1.0
 10
7.2425505231
 20
13.0114356557
 30
0.0
 10
7.2417116026
 20
13.005956944
 30
0.0
 10
7.2409200961
 20
12.9945455078
 30
0.0
 10
7.2423270592
 20
12.9801389667
 30
0.0
 10
7.2450730125
 20
12.9685238402
 30
0.0
 10
7.2489576738
 20
12.9568572571
 30
0.0
 10
7.2558312857
 20
12.9428621908
 30
0.0
 10
7.2652864661
 20
12.930422156
 30
0.0
 10
7.2740724504
 20
12.9216764301
 30
0.0
 10
7.2834249898
 20
12.9139512614
 30
0.0
 10
7.2960641779
 20
12.9062315074
 30
0.0
 10
7.3069966378
 20
12.9019748566
 30
0.0
 10
7.3124762924
 20
12.9003887426
 30
0.0
  0
SPLINE
  5
45B
100
AcDbEntity
  8
0
100
AcDbSpline
 62
9
  6
CONTINUOUS
 70
0
 71
3
 72
17
 73
13
 74
0
 42
0.0000001
 43
0.0000001
 44
0.0000000001
 40
0.0
 40
0.0
 40
0.0
 40
0.0
 40
0.1428128512
 40
0.2841841988
 40
0.4225115695
 40
0.5562144685
 40
0.6832135401
 40
0.8012259712
 40
0.8560873996
 40
0.9077272765
 40
0.9558075539
 40
1.0
 40
1.0
 40
1.0
 40
1.0
 10
7.216422508
 20
12.7769498921
 30
0.0
 10
7.2179224871
 20
12.7838448801
 30
0.0
 10
7.2219147076
 20
12.7973627296
 30
0.0
 10
7.2304292
 20
12.8164820935
 30
0.0
 10
7.2410026917
 20
12.8340133935
 30
0.0
 10
7.2529648162
 20
12.8497275675
 30
0.0
 10
7.2656898751
 20
12.8634816035
 30
0.0
 10
7.2766975868
 20
12.8734308446
 30
0.0
 10
7.2854146433
 20
12.8802966181
 30
0.0
 10
7.2916310868
 20
12.8847394825
 30
0.0
 10
7.2976192523
 20
12.8885794205
 30
0.0
 10
7.3015922003
 20
12.8908226811
 30
0.0
 10
7.3035292709
 20
12.8918303891
 30
0.0
  0
SPLINE
  5
45C
100
AcDbEntity
  8
0
100
AcDbSpline
 62
9
  6
CONTINUOUS
 70
0
 71
3
 72
9
 73
5
 74
0
 42
0.0000001
 43
0.0000001
 44
0.0000000001
 40
0.0
 40
0.0
 40
0.0
 40
0.0
 40
0.2501275007
 40
1.0
 40
1.0
 40
1.0
 40
1.0
 10
7.1551669089
 20
12.3185130488
 30
0.0
 10
7.1537843218
 20
12.3215994745
 30
0.0
 10
7.1479088865
 20
12.3337808604
 30
0.0
 10
7.1407076189
 20
12.3453164153
 30
0.0
 10
7.1346919552
 20
12.3534779135
 30
0.0
  0
SPLINE
  5
45D
100
AcDbEntity
  8
0
100
AcDbSpline
 62
9
  6
CONTINUOUS
 70
0
 71
3
 72
14
 73
10
 74
0
 42
0.0000001
 43
0.0000001
 44
0.0000000001
 40
0.0
 40
0.0
 40
0.0
 40
0.0
 40
0.0814772662
 40
0.1802480478
 40
0.2950301636
 40
0.4232271716
 40
0.5617234
 40
0.706650636
 40
1.0
 40
1.0
 40
1.0
 40
1.0
 10
7.131743378
 20
12.7963775716
 30
0.0
 10
7.1339992172
 20
12.7956826662
 30
0.0
 10
7.1390158169
 20
12.794230248
 30
0.0
 10
7.1472745334
 20
12.7920268844
 30
0.0
 10
7.1568821897
 20
12.7896342712
 30
0.0
 10
7.1676404389
 20
12.7871038768
 30
0.0
 10
7.1792791248
 20
12.7845058483
 30
0.0
 10
7.1956219409
 20
12.781023871
 30
0.0
 10
7.2080752746
 20
12.7785435212
 30
0.0
 10
7.216422997
 20
12.7769497247
 30
0.0
  0
SPLINE
  5
45E
100
AcDbEntity
  8
0
100
AcDbSpline
 62
9
  6
CONTINUOUS
 70
0
 71
3
 72
11
 73
7
 74
0
 42
0.0000001
 43
0.0000001
 44
0.0000000001
 40
0.0
 40
0.0
 40
0.0
 40
0.0
 40
0.2437566979
 40
0.4968295131
 40
0.7515859492
 40
1.0
 40
1.0
 40
1.0
 40
1.0
 10
7.0565022171
 20
12.3190924548
 30
0.0
 10
7.0549926871
 20
12.3211441466
 30
0.0
 10
7.0522994031
 20
12.3256175167
 30
0.0
 10
7.0493964498
 20
12.3329542175
 30
0.0
 10
7.0477863316
 20
12.3407275963
 30
0.0
 10
7.0475568228
 20
12.3460084164
 30
0.0
 10
7.0476712493
 20
12.3486017399
 30
0.0
  0
SPLINE
  5
45F
100
AcDbEntity
  8
0
100
AcDbSpline
 62
9
  6
CONTINUOUS
 70
0
 71
3
 72
16
 73
12
 74
0
 42
0.0000001
 43
0.0000001
 44
0.0000000001
 40
0.0
 40
0.0
 40
0.0
 40
0.0
 40
0.0421609905
 40
0.0882265048
 40
0.137930246
 40
0.1909966321
 40
0.3061697894
 40
0.4318195403
 40
0.5660564164
 40
0.7069349697
 40
1.0
 40
1.0
 40
1.0
 40
1.0
 10
7.0476712493
 20
12.3486017399
 30
0.0
 10
7.0488962022
 20
12.3486046356
 30
0.0
 10
7.0514594677
 20
12.348648259
 30
0.0
 10
7.0554645775
 20
12.3487881692
 30
0.0
 10
7.0597844395
 20
12.348985276
 30
0.0
 10
7.0661085642
 20
12.349304562
 30
0.0
 10
7.0746358759
 20
12.349746305
 30
0.0
 10
7.0855162664
 20
12.3503499187
 30
0.0
 10
7.0971392335
 20
12.3510489267
 30
0.0
 10
7.1136146307
 20
12.3520870083
 30
0.0
 10
7.1261957007
 20
12.3529096568
 30
0.0
 10
7.1346914539
 20
12.3534786739
 30
0.0
  0
SPLINE
  5
460
100
AcDbEntity
  8
0
100
AcDbSpline
 62
9
  6
CONTINUOUS
 70
0
 71
3
 72
9
 73
5
 74
0
 42
0.0000001
 43
0.0000001
 44
0.0000000001
 40
0.0
 40
0.0
 40
0.0
 40
0.0
 40
0.4745370297
 40
1.0
 40
1.0
 40
1.0
 40
1.0
 10
7.0495909778
 20
12.3167631616
 30
0.0
 10
7.0507279301
 20
12.3169726686
 30
0.0
 10
7.0530896794
 20
12.3176084667
 30
0.0
 10
7.0553464245
 20
12.3185421786
 30
0.0
 10
7.0565023494
 20
12.319092319
 30
0.0
  0
SPLINE
  5
461
100
AcDbEntity
  8
0
100
AcDbSpline
 62
9
  6
CONTINUOUS
 70
0
 71
3
 72
13
 73
9
 74
0
 42
0.0000001
 43
0.0000001
 44
0.0000000001
 40
0.0
 40
0.0
 40
0.0
 40
0.0
 40
0.0861108313
 40
0.187265097
 40
0.4267844012
 40
0.5612285248
 40
0.70287241
 40
1.0
 40
1.0
 40
1.0
 40
1.0
 10
7.0565023506
 20
12.3190923026
 30
0.0
 10
7.0587164118
 20
12.3201469052
 30
0.0
 10
7.0635245219
 20
12.3224546207
 30
0.0
 10
7.0744937158
 20
12.3276901125
 30
0.0
 10
7.086770878
 20
12.3333819141
 30
0.0
 10
7.1002146462
 20
12.3392900397
 30
0.0
 10
7.1152375272
 20
12.3456794056
 30
0.0
 10
7.1268179401
 20
12.3503779928
 30
0.0
 10
7.1346914764
 20
12.3534786173
 30
0.0
  0
SPLINE
  5
462
100
AcDbEntity
  8
0
100
AcDbSpline
 62
9
  6
CONTINUOUS
 70
0
 71
3
 72
14
 73
10
 74
0
 42
0.0000001
 43
0.0000001
 44
0.0000000001
 40
0.0
 40
0.0
 40
0.0
 40
0.0
 40
0.301560379
 40
0.4489201979
 40
0.5883966584
 40
0.715956803
 40
0.828500663
 40
0.9235285852
 40
1.0
 40
1.0
 40
1.0
 40
1.0
 10
7.1551802342
 20
12.3184859565
 30
0.0
 10
7.1473024033
 20
12.3149748845
 30
0.0
 10
7.1355392933
 20
12.309827453
 30
0.0
 10
7.1200439561
 20
12.3032624275
 30
0.0
 10
7.1090912964
 20
12.2987331515
 30
0.0
 10
7.0990165652
 20
12.2946880632
 30
0.0
 10
7.0900790371
 20
12.2912240313
 30
0.0
 10
7.0824585486
 20
12.2884080226
 30
0.0
 10
7.0778229162
 20
12.2868027659
 30
0.0
 10
7.0757438191
 20
12.2861238551
 30
0.0
  0
SPLINE
  5
463
100
AcDbEntity
  8
0
100
AcDbSpline
 62
9
  6
CONTINUOUS
 70
0
 71
3
 72
11
 73
7
 74
0
 42
0.0000001
 43
0.0000001
 44
0.0000000001
 40
0.0
 40
0.0
 40
0.0
 40
0.0
 40
0.2365459322
 40
0.4871085786
 40
0.7446129201
 40
1.0
 40
1.0
 40
1.0
 40
1.0
 10
7.0495910047
 20
12.3167632121
 30
0.0
 10
7.0480412499
 20
12.3188755222
 30
0.0
 10
7.045349064
 20
12.3236042238
 30
0.0
 10
7.0427423313
 20
12.331484046
 30
0.0
 10
7.0417375215
 20
12.3399303239
 30
0.0
 10
7.0420737953
 20
12.3456357629
 30
0.0
 10
7.0425019248
 20
12.3484316937
 30
0.0
  0
LINE
  5
464
100
AcDbEntity
  8
0
100
AcDbLine
 62
7
  6
CONTINUOUS
 10
7.2103476449
 20
12.2194869779
 11
7.163450382
 21
12.2242443819
  0
SPLINE
  5
465
100
AcDbEntity
  8
0
100
AcDbSpline
 62
9
  6
CONTINUOUS
 70
0
 71
3
 72
13
 73
9
 74
0
 42
0.0000001
 43
0.0000001
 44
0.0000000001
 40
0.0
 40
0.0
 40
0.0
 40
0.0
 40
0.2500025782
 40
0.3749934761
 40
0.4999832011
 40
0.6249718236
 40
0.7499694027
 40
1.0
 40
1.0
 40
1.0
 40
1.0
 10
7.1671734507
 20
12.2812918623
 30
0.0
 10
7.1670851762
 20
12.2765265178
 30
0.0
 10
7.1668773783
 20
12.2693798311
 30
0.0
 10
7.166457442
 20
12.259857079
 30
0.0
 10
7.1660669236
 20
12.2527190044
 30
0.0
 10
7.1655824928
 20
12.2455864508
 30
0.0
 10
7.1647852577
 20
12.2360869624
 30
0.0
 10
7.1640200381
 20
12.2289770432
 30
0.0
 10
7.1634505134
 20
12.2242444927
 30
0.0
  0
SPLINE
  5
466
100
AcDbEntity
  8
0
100
AcDbSpline
 62
9
  6
CONTINUOUS
 70
0
 71
3
 72
13
 73
9
 74
0
 42
0.0000001
 43
0.0000001
 44
0.0000000001
 40
0.0
 40
0.0
 40
0.0
 40
0.0
 40
0.2500167199
 40
0.3750171548
 40
0.5000083476
 40
0.6249937252
 40
0.7499816209
 40
1.0
 40
1.0
 40
1.0
 40
1.0
 10
7.1634503023
 20
12.2242444674
 30
0.0
 10
7.1629706725
 20
12.220253509
 30
0.0
 10
7.1621744573
 20
12.2142762936
 30
0.0
 10
7.1610060828
 20
12.20632269
 30
0.0
 10
7.1600835832
 20
12.2003648647
 30
0.0
 10
7.1591063168
 20
12.1944159589
 30
0.0
 10
7.1577175161
 20
12.186498003
 30
0.0
 10
7.1565901352
 20
12.1805748586
 30
0.0
 10
7.1558230764
 20
12.1766290217
 30
0.0
  0
SPLINE
  5
467
100
AcDbEntity
  8
0
100
AcDbSpline
 62
9
  6
CONTINUOUS
 70
0
 71
3
 72
14
 73
10
 74
0
 42
0.0000001
 43
0.0000001
 44
0.0000000001
 40
0.0
 40
0.0
 40
0.0
 40
0.0
 40
0.2993487668
 40
0.4461074397
 40
0.5854043006
 40
0.7132257537
 40
0.82641655
 40
0.9223942871
 40
1.0
 40
1.0
 40
1.0
 40
1.0
 10
7.1311601293
 20
12.1369158121
 30
0.0
 10
7.1245464553
 20
12.1423316462
 30
0.0
 10
7.1146346169
 20
12.1503350799
 30
0.0
 10
7.1015046103
 20
12.1606820519
 30
0.0
 10
7.092158182
 20
12.16791601
 30
0.0
 10
7.0835010353
 20
12.1744734848
 30
0.0
 10
7.0757598387
 20
12.1801905226
 30
0.0
 10
7.069095751
 20
12.1849504679
 30
0.0
 10
7.0650029548
 20
12.187748046
 30
0.0
 10
7.0631516303
 20
12.1889661373
 30
0.0
  0
SPLINE
  5
468
100
AcDbEntity
  8
0
100
AcDbSpline
 62
9
  6
CONTINUOUS
 70
0
 71
3
 72
12
 73
8
 74
0
 42
0.0000001
 43
0.0000001
 44
0.0000000001
 40
0.0
 40
0.0
 40
0.0
 40
0.0
 40
0.2571018159
 40
0.3866693456
 40
0.5151718178
 40
0.7648833608
 40
1.0
 40
1.0
 40
1.0
 40
1.0
 10
7.0131341312
 20
12.1382982306
 30
0.0
 10
7.0135563892
 20
12.1410559773
 30
0.0
 10
7.0145766161
 20
12.1451562781
 30
0.0
 10
7.0166288883
 20
12.1503617116
 30
0.0
 10
7.0191181071
 20
12.155286574
 30
0.0
 10
7.0229818502
 20
12.1607577596
 30
0.0
 10
7.0268127715
 20
12.164424141
 30
0.0
 10
7.0288397235
 20
12.1659735589
 30
0.0
  0
SPLINE
  5
469
100
AcDbEntity
  8
0
100
AcDbSpline
 62
9
  6
CONTINUOUS
 70
0
 71
3
 72
12
 73
8
 74
0
 42
0.0000001
 43
0.0000001
 44
0.0000000001
 40
0.0
 40
0.0
 40
0.0
 40
0.0
 40
0.1201288897
 40
0.2441181787
 40
0.4983606105
 40
0.7535442589
 40
1.0
 40
1.0
 40
1.0
 40
1.0
 10
7.0341462557
 20
12.1623358154
 30
0.0
 10
7.0330514984
 20
12.161482287
 30
0.0
 10
7.0309165417
 20
12.1596295487
 30
0.0
 10
7.0269435993
 20
12.155452355
 30
0.0
 10
7.0226535719
 20
12.1494607368
 30
0.0
 10
7.0189989347
 20
12.1414767318
 30
0.0
 10
7.0175362266
 20
12.1358288155
 30
0.0
 10
7.0170939057
 20
12.1330154211
 30
0.0
  0
SPLINE
  5
46A
100
AcDbEntity
  8
0
100
AcDbSpline
 62
9
  6
CONTINUOUS
 70
0
 71
3
 72
9
 73
5
 74
0
 42
0.0000001
 43
0.0000001
 44
0.0000000001
 40
0.0
 40
0.0
 40
0.0
 40
0.0
 40
0.4973813029
 40
1.0
 40
1.0
 40
1.0
 40
1.0
 10
7.0127032955
 20
12.1343871109
 30
0.0
 10
7.0134593099
 20
12.1342713013
 30
0.0
 10
7.0149646606
 20
12.1339272789
 30
0.0
 10
7.016399823
 20
12.1333557945
 30
0.0
 10
7.0170937363
 20
12.1330154446
 30
0.0
  0
LINE
  5
46B
100
AcDbEntity
  8
0
100
AcDbLine
 62
7
  6
CONTINUOUS
 10
7.0839571253
 20
12.2351957733
 11
7.1634503023
 21
12.2242444674
  0
SPLINE
  5
46C
100
AcDbEntity
  8
0
100
AcDbSpline
 62
9
  6
CONTINUOUS
 70
0
 71
3
 72
9
 73
5
 74
0
 42
0.0000001
 43
0.0000001
 44
0.0000000001
 40
0.0
 40
0.0
 40
0.0
 40
0.0
 40
0.2502142151
 40
1.0
 40
1.0
 40
1.0
 40
1.0
 10
7.1026983771
 20
12.1090440285
 30
0.0
 10
7.1053057669
 20
12.1111089121
 30
0.0
 10
7.1155099103
 20
12.1196300291
 30
0.0
 10
7.124831664
 20
12.1292163677
 30
0.0
 10
7.1311601629
 20
12.1369159112
 30
0.0
  0
SPLINE
  5
46D
100
AcDbEntity
  8
0
100
AcDbSpline
 62
9
  6
CONTINUOUS
 70
0
 71
3
 72
13
 73
9
 74
0
 42
0.0000001
 43
0.0000001
 44
0.0000000001
 40
0.0
 40
0.0
 40
0.0
 40
0.0
 40
0.2972678528
 40
0.4392314016
 40
0.5740991995
 40
0.8136933364
 40
0.9144843856
 40
1.0
 40
1.0
 40
1.0
 40
1.0
 10
7.1027002488
 20
12.1090456288
 30
0.0
 10
7.09566577
 20
12.1140055499
 30
0.0
 10
7.0853465923
 20
12.1214422249
 30
0.0
 10
7.0720827879
 20
12.1314624667
 30
0.0
 10
7.0602846807
 20
12.1406499533
 30
0.0
 10
7.049618227
 20
12.1493464567
 30
0.0
 10
7.0401656064
 20
12.1572659872
 30
0.0
 10
7.0360423808
 20
12.1607443416
 30
0.0
 10
7.0341459478
 20
12.1623363314
 30
0.0
  0
SPLINE
  5
46E
100
AcDbEntity
  8
0
100
AcDbSpline
 62
9
  6
CONTINUOUS
 70
0
 71
3
 72
9
 73
5
 74
0
 42
0.0000001
 43
0.0000001
 44
0.0000000001
 40
0.0
 40
0.0
 40
0.0
 40
0.0
 40
0.5232458749
 40
1.0
 40
1.0
 40
1.0
 40
1.0
 10
7.0341457679
 20
12.1623362088
 30
0.0
 10
7.0332851325
 20
12.1630586918
 30
0.0
 10
7.0315798451
 20
12.1643698554
 30
0.0
 10
7.0297446756
 20
12.1654958639
 30
0.0
 10
7.0288390023
 20
12.1659733736
 30
0.0
  0
SPLINE
  5
46F
100
AcDbEntity
  8
0
100
AcDbSpline
 62
9
  6
CONTINUOUS
 70
0
 71
3
 72
17
 73
13
 74
0
 42
0.0000001
 43
0.0000001
 44
0.0000000001
 40
0.0
 40
0.0
 40
0.0
 40
0.0
 40
0.1474573183
 40
0.2928612116
 40
0.433764523
 40
0.5680850804
 40
0.6938538286
 40
0.8091407831
 40
0.8622466144
 40
0.9119566108
 40
0.9579708554
 40
1.0
 40
1.0
 40
1.0
 40
1.0
 10
7.1027002094
 20
12.1090455733
 30
0.0
 10
7.0985030957
 20
12.1102620009
 30
0.0
 10
7.0901641572
 20
12.1126670205
 30
0.0
 10
7.0778078771
 20
12.116210843
 30
0.0
 10
7.065824895
 20
12.1196441315
 30
0.0
 10
7.0543953449
 20
12.1228964264
 30
0.0
 10
7.0436838045
 20
12.1258980055
 30
0.0
 10
7.0352829804
 20
12.1282257687
 30
0.0
 10
7.0290536448
 20
12.1299493264
 30
0.0
 10
7.0247975767
 20
12.1311064603
 30
0.0
 10
7.0208467588
 20
12.1321344222
 30
0.0
 10
7.0183094373
 20
12.132743728
 30
0.0
 10
7.0170939155
 20
12.1330154202
 30
0.0
  0
SPLINE
  5
470
100
AcDbEntity
  8
0
100
AcDbSpline
 62
9
  6
CONTINUOUS
 70
0
 71
3
 72
11
 73
7
 74
0
 42
0.0000001
 43
0.0000001
 44
0.0000000001
 40
0.0
 40
0.0
 40
0.0
 40
0.0
 40
0.2576926146
 40
0.5102508066
 40
0.7575878597
 40
1.0
 40
1.0
 40
1.0
 40
1.0
 10
7.0495908993
 20
12.3167628348
 30
0.0
 10
7.05229689
 20
12.3145731699
 30
0.0
 10
7.0574749644
 20
12.3100084104
 30
0.0
 10
7.0645184906
 20
12.3025642894
 30
0.0
 10
7.0706815746
 20
12.2946343273
 30
0.0
 10
7.0741791218
 20
12.2890002956
 30
0.0
 10
7.0757435296
 20
12.2861236242
 30
0.0
  0
SPLINE
  5
471
100
AcDbEntity
  8
0
100
AcDbSpline
 62
9
  6
CONTINUOUS
 70
0
 71
3
 72
12
 73
8
 74
0
 42
0.0000001
 43
0.0000001
 44
0.0000000001
 40
0.0
 40
0.0
 40
0.0
 40
0.0
 40
0.2554335005
 40
0.506082681
 40
0.630174852
 40
0.7537179319
 40
1.0
 40
1.0
 40
1.0
 40
1.0
 10
7.0757440395
 20
12.2861240428
 30
0.0
 10
7.0778836586
 20
12.2821882325
 30
0.0
 10
7.0815177761
 20
12.2740418203
 30
0.0
 10
7.0842855671
 20
12.2632813337
 30
0.0
 10
7.0853009462
 20
12.2545900502
 30
0.0
 10
7.0855293108
 20
12.2459225816
 30
0.0
 10
7.0848166893
 20
12.2394286409
 30
0.0
 10
7.083956462
 20
12.2351958705
 30
0.0
  0
SPLINE
  5
472
100
AcDbEntity
  8
0
100
AcDbSpline
 62
9
  6
CONTINUOUS
 70
0
 71
3
 72
12
 73
8
 74
0
 42
0.0000001
 43
0.0000001
 44
0.0000000001
 40
0.0
 40
0.0
 40
0.0
 40
0.0
 40
0.2468075497
 40
0.370517739
 40
0.4946887788
 40
0.745176335
 40
1.0
 40
1.0
 40
1.0
 40
1.0
 10
7.0838580011
 20
12.2338945489
 30
0.0
 10
7.0835053285
 20
12.2297640705
 30
0.0
 10
7.0824299734
 20
12.2235921893
 30
0.0
 10
7.0799495162
 20
12.2156543998
 30
0.0
 10
7.0767671339
 20
12.2079010978
 30
0.0
 10
7.0714869029
 20
12.1986801976
 30
0.0
 10
7.066101451
 20
12.1920674624
 30
0.0
 10
7.0631517219
 20
12.1889660464
 30
0.0
  0
SPLINE
  5
473
100
AcDbEntity
  8
0
100
AcDbSpline
 62
9
  6
CONTINUOUS
 70
0
 71
3
 72
11
 73
7
 74
0
 42
0.0000001
 43
0.0000001
 44
0.0000000001
 40
0.0
 40
0.0
 40
0.0
 40
0.0
 40
0.242286062
 40
0.4895272219
 40
0.7421111034
 40
1.0
 40
1.0
 40
1.0
 40
1.0
 10
7.0631514648
 20
12.1889663864
 30
0.0
 10
7.0608370184
 20
12.1865333917
 30
0.0
 10
7.0558582196
 20
12.1818978776
 30
0.0
 10
7.047586174
 20
12.1757545279
 30
0.0
 10
7.0385452551
 20
12.1703789798
 30
0.0
 10
7.0321365482
 20
12.167354035
 30
0.0
 10
7.0288396037
 20
12.1659736819
 30
0.0
  0
LINE
  5
474
100
AcDbEntity
  8
0
100
AcDbLine
 62
9
  6
CONTINUOUS
 10
7.3166018283
 20
12.9009531803
 11
7.3124762923
 21
12.9003887426
  0
SPLINE
  5
475
100
AcDbEntity
  8
0
100
AcDbSpline
 62
9
  6
CONTINUOUS
 70
0
 71
3
 72
16
 73
12
 74
0
 42
0.0000001
 43
0.0000001
 44
0.0000000001
 40
0.0
 40
0.0
 40
0.0
 40
0.0
 40
0.3815743215
 40
0.5415840398
 40
0.6793630421
 40
0.7941119827
 40
0.8853727384
 40
0.9222224755
 40
0.9533386117
 40
0.9790337056
 40
1.0
 40
1.0
 40
1.0
 40
1.0
 10
7.1592216912
 20
11.5445732637
 30
0.0
 10
7.1600916902
 20
11.5417415732
 30
0.0
 10
7.1614238799
 20
11.5377501286
 30
0.0
 10
7.1633369157
 20
11.5328344221
 30
0.0
 10
7.164608337
 20
11.5298934975
 30
0.0
 10
7.165798431
 20
11.5275032904
 30
0.0
 10
7.1667770411
 20
11.5258859683
 30
0.0
 10
7.1675339688
 20
11.5249069406
 30
0.0
 10
7.1680351723
 20
11.5243776327
 30
0.0
 10
7.168509226
 20
11.524000072
 30
0.0
 10
7.1688388602
 20
11.5238372675
 30
0.0
 10
7.168995189
 20
11.5237919303
 30
0.0
  0
SPLINE
  5
476
100
AcDbEntity
  8
0
100
AcDbSpline
 62
9
  6
CONTINUOUS
 70
0
 71
3
 72
17
 73
13
 74
0
 42
0.0000001
 43
0.0000001
 44
0.0000000001
 40
0.0
 40
0.0
 40
0.0
 40
0.0
 40
0.1192317597
 40
0.2436111254
 40
0.3074186339
 40
0.3719679101
 40
0.5019805066
 40
0.6317326525
 40
0.695974944
 40
0.7593564525
 40
0.8824960621
 40
1.0
 40
1.0
 40
1.0
 40
1.0
 10
7.1689951941
 20
11.5237919304
 30
0.0
 10
7.1635113786
 20
11.5236189087
 30
0.0
 10
7.1523187348
 20
11.522302569
 30
0.0
 10
7.1386760104
 20
11.5182838679
 30
0.0
 10
7.1280525538
 20
11.5135155982
 30
0.0
 10
7.1176689477
 20
11.5076991389
 30
0.0
 10
7.1056537769
 20
11.4986996784
 30
0.0
 10
7.0955116645
 20
11.4876535007
 30
0.0
 10
7.0886968453
 20
11.4779526242
 30
0.0
 10
7.0828970123
 20
11.4679612096
 30
0.0
 10
7.0774833647
 20
11.4549852837
 30
0.0
 10
7.0749151656
 20
11.4441589595
 30
0.0
 10
7.0740967588
 20
11.438814218
 30
0.0
  0
SPLINE
  5
477
100
AcDbEntity
  8
0
100
AcDbSpline
 62
9
  6
CONTINUOUS
 70
0
 71
3
 72
28
 73
24
 74
0
 42
0.0000001
 43
0.0000001
 44
0.0000000001
 40
0.0
 40
0.0
 40
0.0
 40
0.0
 40
0.0075759588
 40
0.0119509461
 40
0.0167837182
 40
0.027941026
 40
0.0412117575
 40
0.0566314772
 40
0.0741687141
 40
0.0937636395
 40
0.1153397446
 40
0.1388066246
 40
0.1640665429
 40
0.2195571368
 40
0.2810413902
 40
0.347785181
 40
0.4191205352
 40
0.4944311388
 40
0.5731471645
 40
0.6547408121
 40
0.8245891406
 40
0.9119055275
 40
1.0
 40
1.0
 40
1.0
 40
1.0
 10
7.0730735771
 20
11.428876525
 30
0.0
 10
7.0724405033
 20
11.4289736512
 30
0.0
 10
7.0714711981
 20
11.4293262884
 30
0.0
 10
7.0702469224
 20
11.4300435376
 30
0.0
 10
7.068855663
 20
11.4310633855
 30
0.0
 10
7.0670599157
 20
11.4327774341
 30
0.0
 10
7.0648936853
 20
11.4353628269
 30
0.0
 10
7.0626305365
 20
11.4385530338
 30
0.0
 10
7.0602815195
 20
11.4423263811
 30
0.0
 10
7.0578596909
 20
11.4466603936
 30
0.0
 10
7.055378563
 20
11.4515304566
 30
0.0
 10
7.0528522176
 20
11.456911291
 30
0.0
 10
7.049331508
 20
11.4649889623
 30
0.0
 10
7.0449448004
 20
11.4761898344
 30
0.0
 10
7.0398716436
 20
11.49087347
 30
0.0
 10
7.0349474652
 20
11.507013955
 30
0.0
 10
7.0302805165
 20
11.5244436777
 30
0.0
 10
7.025977059
 20
11.5430073202
 30
0.0
 10
7.0221379914
 20
11.5625577987
 30
0.0
 10
7.0177118966
 20
11.59012069
 30
0.0
 10
7.0147067083
 20
11.6186338032
 30
0.0
 10
7.0133153556
 20
11.647794632
 30
0.0
 10
7.0131948409
 20
11.6626287045
 30
0.0
 10
7.0132889683
 20
11.6700757262
 30
0.0
  0
SPLINE
  5
478
100
AcDbEntity
  8
0
100
AcDbSpline
 62
9
  6
CONTINUOUS
 70
0
 71
3
 72
14
 73
10
 74
0
 42
0.0000001
 43
0.0000001
 44
0.0000000001
 40
0.0
 40
0.0
 40
0.0
 40
0.0
 40
0.0845411596
 40
0.1879544081
 40
0.3075093541
 40
0.439172339
 40
0.578557425
 40
0.7211915784
 40
1.0
 40
1.0
 40
1.0
 40
1.0
 10
7.0132896151
 20
11.6700560928
 30
0.0
 10
7.0157929831
 20
11.6703410834
 30
0.0
 10
7.0213720606
 20
11.6708546863
 30
0.0
 10
7.0305159601
 20
11.6714760634
 30
0.0
 10
7.0410723614
 20
11.6720001009
 30
0.0
 10
7.0527060548
 20
11.6724185643
 30
0.0
 10
7.0650314259
 20
11.6727183805
 30
0.0
 10
7.0817438757
 20
11.6729627179
 30
0.0
 10
7.0943046319
 20
11.6729840754
 30
0.0
 10
7.1026136701
 20
11.6729342074
 30
0.0
  0
LINE
  5
479
100
AcDbEntity
  8
0
100
AcDbLine
 62
9
  6
CONTINUOUS
 10
7.1689951925
 20
11.5237919307
 11
7.1725823547
 21
11.5218668025
  0
SPLINE
  5
47A
100
AcDbEntity
  8
0
100
AcDbSpline
 62
9
  6
CONTINUOUS
 70
0
 71
3
 72
21
 73
17
 74
0
 42
0.0000001
 43
0.0000001
 44
0.0000000001
 40
0.0
 40
0.0
 40
0.0
 40
0.0
 40
0.1051835733
 40
0.1614617562
 40
0.2201986878
 40
0.2815611014
 40
0.3452339953
 40
0.4774344403
 40
0.5454469056
 40
0.6140457533
 40
0.6825173201
 40
0.7500396924
 40
0.8158842704
 40
0.879746843
 40
0.9412806126
 40
1.0
 40
1.0
 40
1.0
 40
1.0
 10
7.2155192335
 20
11.5940530662
 30
0.0
 10
7.2158783425
 20
11.5910796344
 30
0.0
 10
7.2158792416
 20
11.5864270737
 30
0.0
 10
7.2147818298
 20
11.5802430475
 30
0.0
 10
7.213288915
 20
11.5754322507
 30
0.0
 10
7.2110975069
 20
11.5706644753
 30
0.0
 10
7.2072531924
 20
11.564415011
 30
0.0
 10
7.2021872135
 20
11.5587479103
 30
0.0
 10
7.1961237913
 20
11.5540543067
 30
0.0
 10
7.1911271097
 20
11.5510088931
 30
0.0
 10
7.1858546935
 20
11.5485077856
 30
0.0
 10
7.1804286507
 20
11.5465819121
 30
0.0
 10
7.1749590307
 20
11.5452654564
 30
0.0
 10
7.1695571881
 20
11.5445150118
 30
0.0
 10
7.1643132589
 20
11.5442756663
 30
0.0
 10
7.1608870578
 20
11.5444245806
 30
0.0
 10
7.1592216741
 20
11.5445731662
 30
0.0
  0
SPLINE
  5
47B
100
AcDbEntity
  8
0
100
AcDbSpline
 62
9
  6
CONTINUOUS
 70
0
 71
3
 72
29
 73
25
 74
0
 42
0.0000001
 43
0.0000001
 44
0.0000000001
 40
0.0
 40
0.0
 40
0.0
 40
0.0
 40
0.0081667079
 40
0.0127606521
 40
0.017766095
 40
0.0232223153
 40
0.0291571555
 40
0.0425280483
 40
0.0579541651
 40
0.075427914
 40
0.0949078075
 40
0.1163321386
 40
0.1396219295
 40
0.164688712
 40
0.2197754869
 40
0.2808721208
 40
0.3472841547
 40
0.4183659016
 40
0.4935208629
 40
0.5721841445
 40
0.6538244211
 40
0.824007416
 40
0.9115919186
 40
1.0
 40
1.0
 40
1.0
 40
1.0
 10
7.2425505231
 20
13.0114356557
 30
0.0
 10
7.2418818308
 20
13.0115378656
 30
0.0
 10
7.2408051648
 20
13.0115077792
 30
0.0
 10
7.2393655992
 20
13.0111995066
 30
0.0
 10
7.2381778184
 20
13.0108113701
 30
0.0
 10
7.2369279038
 20
13.0102767769
 30
0.0
 10
7.2351054776
 20
13.0093322615
 30
0.0
 10
7.2326850479
 20
13.0077657201
 30
0.0
 10
7.2296628551
 20
13.0054033527
 30
0.0
 10
7.2264316823
 20
13.0025038113
 30
0.0
 10
7.2230097148
 20
12.9990847613
 30
0.0
 10
7.2194155446
 20
12.9951642441
 30
0.0
 10
7.2156690237
 20
12.9907613269
 30
0.0
 10
7.2103282608
 20
12.9840595904
 30
0.0
 10
7.2034392453
 20
12.9745955233
 30
0.0
 10
7.1951230844
 20
12.9619568314
 30
0.0
 10
7.1866744267
 20
12.9478372195
 30
0.0
 10
7.1782466598
 20
12.9323650055
 30
0.0
 10
7.1699910223
 20
12.9156601059
 30
0.0
 10
7.1620499772
 20
12.8978404784
 30
0.0
 10
7.1519278712
 20
12.8724000486
 30
0.0
 10
7.1431869076
 20
12.8456362919
 30
0.0
 10
7.1360742621
 20
12.8178515508
 30
0.0
 10
7.1330826886
 20
12.803577862
 30
0.0
 10
7.131743642
 20
12.7963783777
 30
0.0
  0
SPLINE
  5
47C
100
AcDbEntity
  8
0
100
AcDbSpline
 62
9
  6
CONTINUOUS
 70
0
 71
3
 72
9
 73
5
 74
0
 42
0.0000001
 43
0.0000001
 44
0.0000000001
 40
0.0
 40
0.0
 40
0.0
 40
0.0
 40
0.5005675285
 40
1.0
 40
1.0
 40
1.0
 40
1.0
 10
7.0476714487
 20
12.3486018509
 30
0.0
 10
7.0468266001
 20
12.3484079628
 30
0.0
 10
7.0450963184
 20
12.348186353
 30
0.0
 10
7.0433576067
 20
12.3483006297
 30
0.0
 10
7.0425027194
 20
12.3484314956
 30
0.0
  0
SPLINE
  5
47D
100
AcDbEntity
  8
0
100
AcDbSpline
 62
9
  6
CONTINUOUS
 70
0
 71
3
 72
15
 73
11
 74
0
 42
0.0000001
 43
0.0000001
 44
0.0000000001
 40
0.0
 40
0.0
 40
0.0
 40
0.0
 40
0.1014064344
 40
0.2134004598
 40
0.3338933017
 40
0.4608978089
 40
0.5925760571
 40
0.7272970732
 40
0.8636388031
 40
1.0
 40
1.0
 40
1.0
 40
1.0
 10
7.159222644
 20
11.5445733646
 30
0.0
 10
7.1560875618
 20
11.548221452
 30
0.0
 10
7.1497813665
 20
11.5561514676
 30
0.0
 10
7.140733793
 20
11.5691624955
 30
0.0
 10
7.1318874742
 20
11.5837540581
 30
0.0
 10
7.1235659483
 20
11.5997138281
 30
0.0
 10
7.1160918492
 20
11.6168301985
 30
0.0
 10
7.1098221824
 20
11.6348997451
 30
0.0
 10
7.1051224714
 20
11.6536720476
 30
0.0
 10
7.1032115591
 20
11.6664937286
 30
0.0
 10
7.1026143043
 20
11.6729342656
 30
0.0
  0
LINE
  5
47E
100
AcDbEntity
  8
0
100
AcDbLine
 62
7
  6
CONTINUOUS
 10
7.3229990174
 20
12.765660469
 11
7.3928448956
 21
12.7535296222
  0
SPLINE
  5
47F
100
AcDbEntity
  8
0
100
AcDbSpline
 62
9
  6
CONTINUOUS
 70
0
 71
3
 72
15
 73
11
 74
0
 42
0.0000001
 43
0.0000001
 44
0.0000000001
 40
0.0
 40
0.0
 40
0.0
 40
0.0
 40
0.1244437597
 40
0.2491095161
 40
0.3739124965
 40
0.4987301673
 40
0.6237277138
 40
0.7490612148
 40
0.8745520021
 40
1.0
 40
1.0
 40
1.0
 40
1.0
 10
7.3928449818
 20
12.7535292238
 30
0.0
 10
7.3951029814
 20
12.7531369675
 30
0.0
 10
7.3995600392
 20
12.7519324127
 30
0.0
 10
7.4058219587
 20
12.7489906827
 30
0.0
 10
7.4114985172
 20
12.7450206079
 30
0.0
 10
7.4164104042
 20
12.7401236796
 30
0.0
 10
7.4203653825
 20
12.7344142909
 30
0.0
 10
7.4232877429
 20
12.7281034042
 30
0.0
 10
7.4251128843
 20
12.7213860522
 30
0.0
 10
7.4255499692
 20
12.7167572845
 30
0.0
 10
7.4255609663
 20
12.7144469987
 30
0.0
  0
SPLINE
  5
480
100
AcDbEntity
  8
0
100
AcDbSpline
 62
9
  6
CONTINUOUS
 70
0
 71
3
 72
16
 73
12
 74
0
 42
0.0000001
 43
0.0000001
 44
0.0000000001
 40
0.0
 40
0.0
 40
0.0
 40
0.0
 40
0.1245805004
 40
0.2494369613
 40
0.3742369873
 40
0.4991569735
 40
0.6241913631
 40
0.7493300678
 40
0.8120572368
 40
0.874842676
 40
1.0
 40
1.0
 40
1.0
 40
1.0
 10
7.430084741
 20
11.7453765967
 30
0.0
 10
7.4300964031
 20
11.7428111272
 30
0.0
 10
7.4296229109
 20
11.73765925
 30
0.0
 10
7.4274656252
 20
11.7302138123
 30
0.0
 10
7.4239157369
 20
11.7233103232
 30
0.0
 10
7.41909845
 20
11.7172190754
 30
0.0
 10
7.413190566
 20
11.7121676586
 30
0.0
 10
7.4075257946
 20
11.7090024614
 30
0.0
 10
7.4026911743
 20
11.7071726292
 30
0.0
 10
7.3976999962
 20
11.7058323722
 30
0.0
 10
7.3938218275
 20
11.7053844864
 30
0.0
 10
7.3912446922
 20
11.7053493637
 30
0.0
  0
LINE
  5
481
100
AcDbEntity
  8
0
100
AcDbLine
 62
9
  6
CONTINUOUS
 10
7.3912446973
 20
11.7053442221
 11
7.2052815742
 21
11.7028532876
  0
LINE
  5
482
100
AcDbEntity
  8
0
100
AcDbLine
 62
9
  6
CONTINUOUS
 10
7.2052815742
 20
11.7028532876
 11
7.2045308846
 21
11.7028431628
  0
SPLINE
  5
483
100
AcDbEntity
  8
0
100
AcDbSpline
 62
9
  6
CONTINUOUS
 70
0
 71
3
 72
31
 73
27
 74
0
 42
0.0000001
 43
0.0000001
 44
0.0000000001
 40
0.0
 40
0.0
 40
0.0
 40
0.0
 40
0.0003455153
 40
0.0011634999
 40
0.0025018461
 40
0.0043745999
 40
0.006791021
 40
0.0097590137
 40
0.01737889
 40
0.0272910169
 40
0.0395505829
 40
0.0542122415
 40
0.0713303968
 40
0.090937942
 40
0.1129821825
 40
0.1373889889
 40
0.1640841928
 40
0.2240429902
 40
0.2922648877
 40
0.368026563
 40
0.4500866927
 40
0.5370743982
 40
0.6276187516
 40
0.7203809368
 40
0.8141506649
 40
1.0
 40
1.0
 40
1.0
 40
1.0
 10
7.4023416959
 20
12.8055518049
 30
0.0
 10
7.4023357068
 20
12.8055529186
 30
0.0
 10
7.4023205385
 20
12.80553114
 30
0.0
 10
7.4023050674
 20
12.805494913
 30
0.0
 10
7.4022804604
 20
12.8054254756
 30
0.0
 10
7.4022525954
 20
12.8053314136
 30
0.0
 10
7.4022188172
 20
12.8052075388
 30
0.0
 10
7.4021625849
 20
12.804985472
 30
0.0
 10
7.4020802275
 20
12.8046333786
 30
0.0
 10
7.4019672291
 20
12.8041204802
 30
0.0
 10
7.4018330588
 20
12.8034850531
 30
0.0
 10
7.4016773707
 20
12.8027243694
 30
0.0
 10
7.4014998756
 20
12.801835911
 30
0.0
 10
7.401300609
 20
12.8008190797
 30
0.0
 10
7.4010798881
 20
12.7996755066
 30
0.0
 10
7.4008384091
 20
12.7984086754
 30
0.0
 10
7.4004754756
 20
12.7964844925
 30
0.0
 10
7.3999761458
 20
12.7937999175
 30
0.0
 10
7.3993274573
 20
12.7902632093
 30
0.0
 10
7.3986166026
 20
12.7863417442
 30
0.0
 10
7.3978536536
 20
12.7820934775
 30
0.0
 10
7.3970508073
 20
12.7775875778
 30
0.0
 10
7.3962205242
 20
12.7728949109
 30
0.0
 10
7.3953747689
 20
12.768083554
 30
0.0
 10
7.3942444784
 20
12.7616161339
 30
0.0
 10
7.3934021889
 20
12.7567586595
 30
0.0
 10
7.3928449976
 20
12.7535296758
 30
0.0
  0
SPLINE
  5
484
100
AcDbEntity
  8
0
100
AcDbSpline
 62
9
  6
CONTINUOUS
 70
0
 71
3
 72
23
 73
19
 74
0
 42
0.0000001
 43
0.0000001
 44
0.0000000001
 40
0.0
 40
0.0
 40
0.0
 40
0.0
 40
0.0069903522
 40
0.0097309975
 40
0.0129482812
 40
0.020907622
 40
0.0310227404
 40
0.0434043885
 40
0.0581466052
 40
0.0753350788
 40
0.1171764561
 40
0.168577816
 40
0.2289661661
 40
0.2977582226
 40
0.4569067279
 40
0.6348356797
 40
0.8194101712
 40
1.0
 40
1.0
 40
1.0
 40
1.0
 10
7.2061138873
 20
12.1753996555
 30
0.0
 10
7.2061035529
 20
12.1752823008
 30
0.0
 10
7.2059449806
 20
12.1751580233
 30
0.0
 10
7.2057542392
 20
12.1750643854
 30
0.0
 10
7.2055343759
 20
12.1749773965
 30
0.0
 10
7.2051893403
 20
12.1748800558
 30
0.0
 10
7.2046857824
 20
12.1747772955
 30
0.0
 10
7.2040650012
 20
12.1746845272
 30
0.0
 10
7.203322592
 20
12.1746020928
 30
0.0
 10
7.2020832933
 20
12.1745011375
 30
0.0
 10
7.2002236595
 20
12.1744156175
 30
0.0
 10
7.1976347866
 20
12.174367687
 30
0.0
 10
7.1945912464
 20
12.174373611
 30
0.0
 10
7.1897326581
 20
12.174461736
 30
0.0
 10
7.1828969746
 20
12.1747257181
 30
0.0
 10
7.174118789
 20
12.1752134071
 30
0.0
 10
7.1649882845
 20
12.1758558322
 30
0.0
 10
7.158854789
 20
12.1763613512
 30
0.0
 10
7.1558230983
 20
12.1766291246
 30
0.0
  0
SPLINE
  5
485
100
AcDbEntity
  8
0
100
AcDbSpline
 62
9
  6
CONTINUOUS
 70
0
 71
3
 72
22
 73
18
 74
0
 42
0.0000001
 43
0.0000001
 44
0.0000000001
 40
0.0
 40
0.0
 40
0.0
 40
0.0
 40
0.006844395
 40
0.0127581618
 40
0.020694919
 40
0.030800938
 40
0.0431861607
 40
0.0579446801
 40
0.0751627029
 40
0.1171025335
 40
0.1686439234
 40
0.2292007215
 40
0.2981771312
 40
0.457673901
 40
0.6357527069
 40
0.8200951452
 40
1.0
 40
1.0
 40
1.0
 40
1.0
 10
7.2071760675
 20
11.6723741545
 30
0.0
 10
7.2071867872
 20
11.6722580469
 30
0.0
 10
7.2070069697
 20
11.672065221
 30
0.0
 10
7.2067186596
 20
11.6718879136
 30
0.0
 10
7.2063459134
 20
11.6717078154
 30
0.0
 10
7.2058641032
 20
11.6715211404
 30
0.0
 10
7.2052611372
 20
11.671320492
 30
0.0
 10
7.2045356874
 20
11.6711090311
 30
0.0
 10
7.2033171051
 20
11.6707907137
 30
0.0
 10
7.2014767801
 20
11.6703769017
 30
0.0
 10
7.1989019617
 20
11.6698692831
 30
0.0
 10
7.1958640233
 20
11.6693326894
 30
0.0
 10
7.1910021618
 20
11.6685523738
 30
0.0
 10
7.1841426114
 20
11.6675906861
 30
0.0
 10
7.175317979
 20
11.666500728
 30
0.0
 10
7.1661329838
 20
11.6654998679
 30
0.0
 10
7.1599565832
 20
11.6648998385
 30
0.0
 10
7.1569044268
 20
11.6646210064
 30
0.0
  0
SPLINE
  5
486
100
AcDbEntity
  8
0
100
AcDbSpline
 62
9
  6
CONTINUOUS
 70
0
 71
3
 72
25
 73
21
 74
0
 42
0.0000001
 43
0.0000001
 44
0.0000000001
 40
0.0
 40
0.0
 40
0.0
 40
0.0
 40
0.179997215
 40
0.3634799186
 40
0.4533377761
 40
0.5400314936
 40
0.6220456795
 40
0.6978694965
 40
0.7661564512
 40
0.826192668
 40
0.8774305199
 40
0.9193453021
 40
0.9366825909
 40
0.9516607222
 40
0.964378713
 40
0.9749516301
 40
0.983524225
 40
0.9903001769
 40
0.9956056032
 40
1.0
 40
1.0
 40
1.0
 40
1.0
 10
7.4300847404
 20
11.7453767299
 30
0.0
 10
7.4336503351
 20
11.7453964028
 30
0.0
 10
7.4408503353
 20
11.7454998823
 30
0.0
 10
7.449826637
 20
11.7457920917
 30
0.0
 10
7.4569501138
 20
11.7461455452
 30
0.0
 10
7.4620625468
 20
11.7464615926
 30
0.0
 10
7.4668930096
 20
11.7468262854
 30
0.0
 10
7.4713539627
 20
11.7472353521
 30
0.0
 10
7.4753730267
 20
11.7476869618
 30
0.0
 10
7.4788975412
 20
11.7481702961
 30
0.0
 10
7.4818902349
 20
11.7486755387
 30
0.0
 10
7.4840327786
 20
11.7491290292
 30
0.0
 10
7.4854537821
 20
11.7495085362
 30
0.0
 10
7.4863053268
 20
11.7497755498
 30
0.0
 10
7.4870156263
 20
11.7500418882
 30
0.0
 10
7.4875893782
 20
11.7503067686
 30
0.0
 10
7.488032073
 20
11.7505695759
 30
0.0
 10
7.4883494276
 20
11.750831331
 30
0.0
 10
7.4885482156
 20
11.7510963602
 30
0.0
 10
7.4885974259
 20
11.751289748
 30
0.0
 10
7.4885970181
 20
11.7513767977
 30
0.0
  0
SPLINE
  5
487
100
AcDbEntity
  8
0
100
AcDbSpline
 62
9
  6
CONTINUOUS
 70
0
 71
3
 72
32
 73
28
 74
0
 42
0.0000001
 43
0.0000001
 44
0.0000000001
 40
0.0
 40
0.0
 40
0.0
 40
0.0
 40
0.000321427
 40
0.0011314524
 40
0.0024661546
 40
0.0043371817
 40
0.0067529449
 40
0.0097209483
 40
0.0132483435
 40
0.0173421169
 40
0.0272563166
 40
0.0395182717
 40
0.0541822975
 40
0.0713025435
 40
0.0909117551
 40
0.1129572081
 40
0.1373647472
 40
0.1640601915
 40
0.2240179853
 40
0.2922369146
 40
0.3679941391
 40
0.4500496525
 40
0.5370339045
 40
0.6275773122
 40
0.7203422443
 40
0.8141192419
 40
1.0
 40
1.0
 40
1.0
 40
1.0
 10
7.3914913061
 20
11.6525009306
 30
0.0
 10
7.3914969683
 20
11.6525010038
 30
0.0
 10
7.3915047315
 20
11.6525266291
 30
0.0
 10
7.3915123677
 20
11.6525633942
 30
0.0
 10
7.3915211486
 20
11.6526369594
 30
0.0
 10
7.3915294522
 20
11.6527341827
 30
0.0
 10
7.3915377282
 20
11.6528623054
 30
0.0
 10
7.3915456539
 20
11.6530188878
 30
0.0
 10
7.3915532844
 20
11.6532053568
 30
0.0
 10
7.3915636499
 20
11.6535140762
 30
0.0
 10
7.3915751384
 20
11.653976761
 30
0.0
 10
7.3915866941
 20
11.6546256706
 30
0.0
 10
7.3915965538
 20
11.6554015812
 30
0.0
 10
7.3916045999
 20
11.6563069512
 30
0.0
 10
7.3916107032
 20
11.6573423794
 30
0.0
 10
7.3916148593
 20
11.6585061984
 30
0.0
 10
7.3916170355
 20
11.659794862
 30
0.0
 10
7.3916172604
 20
11.6617514336
 30
0.0
 10
7.3916119489
 20
11.6644798327
 30
0.0
 10
7.391597636
 20
11.6680725348
 30
0.0
 10
7.391575038
 20
11.6720544991
 30
0.0
 10
7.3915448354
 20
11.6763670121
 30
0.0
 10
7.3915076998
 20
11.6809399699
 30
0.0
 10
7.3914643478
 20
11.6857015501
 30
0.0
 10
7.3914154721
 20
11.6905827515
 30
0.0
 10
7.3913445059
 20
11.6971433831
 30
0.0
 10
7.3912858909
 20
11.7020698006
 30
0.0
 10
7.3912447511
 20
11.7053442257
 30
0.0
  0
SPLINE
  5
488
100
AcDbEntity
  8
0
100
AcDbSpline
 62
9
  6
CONTINUOUS
 70
0
 71
3
 72
25
 73
21
 74
0
 42
0.0000001
 43
0.0000001
 44
0.0000000001
 40
0.0
 40
0.0
 40
0.0
 40
0.0
 40
0.0043879266
 40
0.0096878638
 40
0.0164594834
 40
0.0250286992
 40
0.035598989
 40
0.0483149662
 40
0.0632916108
 40
0.0806278871
 40
0.1225415794
 40
0.1737792014
 40
0.2338160341
 40
0.3021045065
 40
0.3779305832
 40
0.4599474793
 40
0.5466442608
 40
0.6365054543
 40
0.8199954128
 40
1.0
 40
1.0
 40
1.0
 40
1.0
 10
7.4841271021
 20
12.7090027741
 30
0.0
 10
7.4841266961
 20
12.7090896921
 30
0.0
 10
7.4840756522
 20
12.7092823615
 30
0.0
 10
7.4838743783
 20
12.7095450828
 30
0.0
 10
7.4835546063
 20
12.7098034284
 30
0.0
 10
7.4831094907
 20
12.7100616608
 30
0.0
 10
7.4825333031
 20
12.7103207455
 30
0.0
 10
7.4818205559
 20
12.7105800143
 30
0.0
 10
7.4809665589
 20
12.710838641
 30
0.0
 10
7.4795420566
 20
12.7112042663
 30
0.0
 10
7.4773953698
 20
12.7116370179
 30
0.0
 10
7.4743981035
 20
12.7121135047
 30
0.0
 10
7.4708692429
 20
12.7125631566
 30
0.0
 10
7.4668461441
 20
12.71297652
 30
0.0
 10
7.4623815687
 20
12.7133432875
 30
0.0
 10
7.4575479129
 20
12.7136623079
 30
0.0
 10
7.4524327551
 20
12.7139301319
 30
0.0
 10
7.4453062873
 20
12.7142165348
 30
0.0
 10
7.4363276501
 20
12.7144245046
 30
0.0
 10
7.429127001
 20
12.7144606303
 30
0.0
 10
7.4255613769
 20
12.714447
 30
0.0
  0
LINE
  5
489
100
AcDbEntity
  8
0
100
AcDbLine
 62
9
  6
CONTINUOUS
 10
14.4124977682
 20
5.0178360845
 11
14.4161229805
 21
4.8968098061
  0
SPLINE
  5
48A
100
AcDbEntity
  8
0
100
AcDbSpline
 62
9
  6
CONTINUOUS
 70
0
 71
3
 72
22
 73
18
 74
0
 42
0.0000001
 43
0.0000001
 44
0.0000000001
 40
0.0
 40
0.0
 40
0.0
 40
0.0
 40
0.0572985442
 40
0.1161582533
 40
0.1762328253
 40
0.2372784107
 40
0.299112705
 40
0.3615830928
 40
0.424539431
 40
0.487864234
 40
0.5514696673
 40
0.6152836448
 40
0.6792490607
 40
0.7433131227
 40
0.8074572151
 40
0.8716842089
 40
1.0
 40
1.0
 40
1.0
 40
1.0
 10
14.4161229805
 20
4.8968098061
 30
0.0
 10
14.4164364663
 20
4.8860341833
 30
0.0
 10
14.418059162
 20
4.8642065467
 30
0.0
 10
14.423457261
 20
4.8314482331
 30
0.0
 10
14.4320435233
 20
4.7986416577
 30
0.0
 10
14.4438547535
 20
4.7662563283
 30
0.0
 10
14.458878245
 20
4.7347272922
 30
0.0
 10
14.4770490373
 20
4.7044798866
 30
0.0
 10
14.4982100514
 20
4.6758917776
 30
0.0
 10
14.522208866
 20
4.6493508093
 30
0.0
 10
14.5487912368
 20
4.62515676
 30
0.0
 10
14.5777213732
 20
4.603621845
 30
0.0
 10
14.6086925876
 20
4.5849742683
 30
0.0
 10
14.6414011286
 20
4.5694331084
 30
0.0
 10
14.6755328719
 20
4.5571679557
 30
0.0
 10
14.7224173884
 20
4.54537124
 30
0.0
 10
14.7587747008
 20
4.5417707269
 30
0.0
 10
14.7829161092
 20
4.5417707108
 30
0.0
  0
SPLINE
  5
48B
100
AcDbEntity
  8
0
100
AcDbSpline
 62
9
  6
CONTINUOUS
 70
0
 71
3
 72
17
 73
13
 74
0
 42
0.0000001
 43
0.0000001
 44
0.0000000001
 40
0.0
 40
0.0
 40
0.0
 40
0.0
 40
0.0324320633
 40
0.0680391704
 40
0.153689299
 40
0.2068777338
 40
0.2671408713
 40
0.4058999979
 40
0.5626300556
 40
0.7227926092
 40
0.87112629
 40
1.0
 40
1.0
 40
1.0
 40
1.0
 10
15.1204161092
 20
4.9054530654
 30
0.0
 10
15.120416109
 20
4.9050919456
 30
0.0
 10
15.120504975
 20
4.9043320038
 30
0.0
 10
15.1210797635
 20
4.9027065829
 30
0.0
 10
15.12233344
 20
4.9011486315
 30
0.0
 10
15.1240837557
 20
4.8997855879
 30
0.0
 10
15.1265036135
 20
4.8983459182
 30
0.0
 10
15.1302233506
 20
4.8969022947
 30
0.0
 10
15.1352202311
 20
4.8959257757
 30
0.0
 10
15.1404028506
 20
4.8955804615
 30
0.0
 10
15.1452754438
 20
4.8958900282
 30
0.0
 10
15.1483191365
 20
4.8964537968
 30
0.0
 10
15.1497092378
 20
4.896809803
 30
0.0
  0
SPLINE
  5
48C
100
AcDbEntity
  8
0
100
AcDbSpline
 62
9
  6
CONTINUOUS
 70
0
 71
3
 72
22
 73
18
 74
0
 42
0.0000001
 43
0.0000001
 44
0.0000000001
 40
0.0
 40
0.0
 40
0.0
 40
0.0
 40
0.1283179191
 40
0.1925467227
 40
0.2566918647
 40
0.3207563004
 40
0.3847220207
 40
0.4485362543
 40
0.5121416857
 40
0.5754663573
 40
0.6384222761
 40
0.7008922636
 40
0.7627258996
 40
0.8237702575
 40
0.8838433813
 40
0.9427019123
 40
1.0
 40
1.0
 40
1.0
 40
1.0
 10
14.7829161092
 20
4.5417707108
 30
0.0
 10
14.8070579229
 20
4.5417707353
 30
0.0
 10
14.8434159401
 20
4.5453716419
 30
0.0
 10
14.8903014251
 20
4.5571684383
 30
0.0
 10
14.9244335753
 20
4.5694342778
 30
0.0
 10
14.9571424487
 20
4.5849755242
 30
0.0
 10
14.9881134703
 20
4.6036237765
 30
0.0
 10
15.0170437611
 20
4.6251586575
 30
0.0
 10
15.0436258281
 20
4.6493531167
 30
0.0
 10
15.067624271
 20
4.6758942589
 30
0.0
 10
15.0887852561
 20
4.7044821961
 30
0.0
 10
15.1069552619
 20
4.7347297479
 30
0.0
 10
15.1219787801
 20
4.7662583044
 30
0.0
 10
15.1337890376
 20
4.7986433353
 30
0.0
 10
15.1423752374
 20
4.83144916
 30
0.0
 10
15.1477732023
 20
4.8642069274
 30
0.0
 10
15.1493957649
 20
4.8860342666
 30
0.0
 10
15.1497092379
 20
4.8968098061
 30
0.0
  0
LINE
  5
48D
100
AcDbEntity
  8
0
100
AcDbLine
 62
9
  6
CONTINUOUS
 10
15.149709666
 20
4.8968099035
 11
15.1533333376
 21
5.0178261097
  0
SPLINE
  5
48E
100
AcDbEntity
  8
0
100
AcDbSpline
 62
9
  6
CONTINUOUS
 70
0
 71
3
 72
13
 73
9
 74
0
 42
0.0000001
 43
0.0000001
 44
0.0000000001
 40
0.0
 40
0.0
 40
0.0
 40
0.0
 40
0.0912250204
 40
0.1879352042
 40
0.2937353608
 40
0.4110232717
 40
0.6830206163
 40
1.0
 40
1.0
 40
1.0
 40
1.0
 10
15.1204161273
 20
5.025501326
 30
0.0
 10
15.1204173807
 20
5.025022087
 30
0.0
 10
15.1205669709
 20
5.0240307053
 30
0.0
 10
15.1211981481
 20
5.0226062801
 30
0.0
 10
15.1222158452
 20
5.021254056
 30
0.0
 10
15.1241510303
 20
5.0194984897
 30
0.0
 10
15.1274366677
 20
5.0176824719
 30
0.0
 10
15.1304025531
 20
5.0167486504
 30
0.0
 10
15.1320244019
 20
5.0163710895
 30
0.0
  0
SPLINE
  5
48F
100
AcDbEntity
  8
0
100
AcDbSpline
 62
9
  6
CONTINUOUS
 70
0
 71
3
 72
11
 73
7
 74
0
 42
0.0000001
 43
0.0000001
 44
0.0000000001
 40
0.0
 40
0.0
 40
0.0
 40
0.0
 40
0.2528627788
 40
0.514154284
 40
0.7680713494
 40
1.0
 40
1.0
 40
1.0
 40
1.0
 10
15.1320244019
 20
5.0163710895
 30
0.0
 10
15.1338027152
 20
5.0159575718
 30
0.0
 10
15.1374930912
 20
5.0154212862
 30
0.0
 10
15.1430562699
 20
5.015399786
 30
0.0
 10
15.14841634
 20
5.0161487861
 30
0.0
 10
15.1517944905
 20
5.0171759256
 30
0.0
 10
15.1533348376
 20
5.0178329179
 30
0.0
  0
SPLINE
  5
490
100
AcDbEntity
  8
0
100
AcDbSpline
 62
9
  6
CONTINUOUS
 70
0
 71
3
 72
19
 73
15
 74
0
 42
0.0000001
 43
0.0000001
 44
0.0000000001
 40
0.0
 40
0.0
 40
0.0
 40
0.0
 40
0.0637049901
 40
0.1445188449
 40
0.1949430728
 40
0.2524602367
 40
0.3167220734
 40
0.3873409353
 40
0.4636990397
 40
0.5440583728
 40
0.7079961112
 40
0.7874326084
 40
0.8633042062
 40
1.0
 40
1.0
 40
1.0
 40
1.0
 10
14.4454161092
 20
4.9054525608
 30
0.0
 10
14.4454160352
 20
4.904743187
 30
0.0
 10
14.4450373086
 20
4.90312072
 30
0.0
 10
14.4436862477
 20
4.9013545896
 30
0.0
 10
14.4420668001
 20
4.9000103079
 30
0.0
 10
14.4404427374
 20
4.8989805488
 30
0.0
 10
14.4385141711
 20
4.898039246
 30
0.0
 10
14.4363034589
 20
4.8972243884
 30
0.0
 10
14.4338527659
 20
4.8965769577
 30
0.0
 10
14.4303384848
 20
4.8959332402
 30
0.0
 10
14.426731961
 20
4.8956426874
 30
0.0
 10
14.4231756128
 20
4.8957231511
 30
0.0
 10
14.4199355242
 20
4.8960113604
 30
0.0
 10
14.4175975401
 20
4.8964321623
 30
0.0
 10
14.4161229807
 20
4.8968097983
 30
0.0
  0
SPLINE
  5
491
100
AcDbEntity
  8
0
100
AcDbSpline
 62
9
  6
CONTINUOUS
 70
0
 71
3
 72
19
 73
15
 74
0
 42
0.0000001
 43
0.0000001
 44
0.0000000001
 40
0.0
 40
0.0
 40
0.0
 40
0.0
 40
0.0383157926
 40
0.078973328
 40
0.1235066452
 40
0.1729292829
 40
0.2276664077
 40
0.2876352139
 40
0.4212583869
 40
0.5676605475
 40
0.6432037505
 40
0.718775669
 40
0.8656626446
 40
1.0
 40
1.0
 40
1.0
 40
1.0
 10
14.445416105
 20
5.0255097982
 30
0.0
 10
14.4454163471
 20
5.0250318443
 30
0.0
 10
14.4452684954
 20
5.0240421176
 30
0.0
 10
14.4446376989
 20
5.0226202889
 30
0.0
 10
14.4436215674
 20
5.021267988
 30
0.0
 10
14.442239872
 20
5.0200173289
 30
0.0
 10
14.4405281081
 20
5.0188829377
 30
0.0
 10
14.4377514226
 20
5.0174964053
 30
0.0
 10
14.4336821893
 20
5.016209469
 30
0.0
 10
14.429275111
 20
5.0155758304
 30
0.0
 10
14.4255639508
 20
5.0154400124
 30
0.0
 10
14.4218459192
 20
5.0155493561
 30
0.0
 10
14.4174185812
 20
5.0161444358
 30
0.0
 10
14.4140424377
 20
5.0171789126
 30
0.0
 10
14.4125003241
 20
5.0178346332
 30
0.0
  0
SPLINE
  5
492
100
AcDbEntity
  8
0
100
AcDbSpline
 62
7
  6
CONTINUOUS
 70
0
 71
3
 72
94
 73
90
 74
0
 42
0.0000001
 43
0.0000001
 44
0.0000000001
 40
0.0
 40
0.0
 40
0.0
 40
0.0
 40
0.013867722
 40
0.0282362486
 40
0.0430620811
 40
0.0506325092
 40
0.0583017387
 40
0.0660718498
 40
0.0739524635
 40
0.0819554688
 40
0.0900821439
 40
0.0982476956
 40
0.1063380392
 40
0.1103250363
 40
0.1142609842
 40
0.1181542302
 40
0.1220179356
 40
0.1258651393
 40
0.129708044
 40
0.1374036074
 40
0.1451360818
 40
0.1529194595
 40
0.1607515487
 40
0.1686300749
 40
0.1845086573
 40
0.2004745779
 40
0.2164465549
 40
0.2244320579
 40
0.2324182353
 40
0.2404097332
 40
0.2484138852
 40
0.2564383614
 40
0.2644930356
 40
0.2725968399
 40
0.2807483582
 40
0.2848261571
 40
0.2888972126
 40
0.2970143324
 40
0.3050934475
 40
0.3131275673
 40
0.3211125302
 40
0.3290517392
 40
0.3369489589
 40
0.3448076109
 40
0.3604239374
 40
0.3759303145
 40
0.3913480162
 40
0.3990287627
 40
0.406692742
 40
0.4219870886
 40
0.4372694798
 40
0.4525762123
 40
0.4602496406
 40
0.4679392143
 40
0.4833601758
 40
0.4988276913
 40
0.5143314563
 40
0.5298635425
 40
0.5609905948
 40
0.5765898296
 40
0.5922128307
 40
0.6078644321
 40
0.6235527808
 40
0.6392810653
 40
0.6550462516
 40
0.6629434699
 40
0.6708487128
 40
0.6866625072
 40
0.7024532883
 40
0.7182243852
 40
0.7497569203
 40
0.7813275925
 40
0.7971367835
 40
0.8129602993
 40
0.8288000302
 40
0.8446580734
 40
0.8605389659
 40
0.8684911281
 40
0.8764523204
 40
0.8844183936
 40
0.8923749402
 40
0.9003062208
 40
0.908197275
 40
0.923850042
 40
0.9393514497
 40
0.9547154702
 40
0.9699468772
 40
0.9850442434
 40
1.0
 40
1.0
 40
1.0
 40
1.0
 10
6.103841991
 20
13.5702279828
 30
0.0
 10
6.1137189772
 20
13.6347313705
 30
0.0
 10
6.1339269074
 20
13.7660537954
 30
0.0
 10
6.1672338547
 20
13.965936765
 30
0.0
 10
6.1994969169
 20
14.1359261219
 30
0.0
 10
6.2292850984
 20
14.2742362219
 30
0.0
 10
6.2540806704
 20
14.379639961
 30
0.0
 10
6.2815278471
 20
14.485895255
 30
0.0
 10
6.3120460009
 20
14.5929467725
 30
0.0
 10
6.3460323762
 20
14.7007122414
 30
0.0
 10
6.3837197369
 20
14.8086634938
 30
0.0
 10
6.4250008647
 20
14.9157366057
 30
0.0
 10
6.4623254931
 20
15.003392648
 30
0.0
 10
6.4933414604
 20
15.0720661838
 30
0.0
 10
6.5168971135
 20
15.1224334538
 30
0.0
 10
6.5408342805
 20
15.1719765929
 30
0.0
 10
6.5651725071
 20
15.2208577434
 30
0.0
 10
6.5899414638
 20
15.2692558992
 30
0.0
 10
6.6235615286
 20
15.3333752381
 30
0.0
 10
6.666882118
 20
15.4130466945
 30
0.0
 10
6.7211347799
 20
15.5078525019
 30
0.0
 10
6.7778810986
 20
15.6019393893
 30
0.0
 10
6.8372589367
 20
15.6952060823
 30
0.0
 10
6.9202592375
 20
15.8185357499
 30
0.0
 10
7.0308587346
 20
15.969346365
 30
0.0
 10
7.1737371224
 20
16.1433075357
 30
0.0
 10
7.3011090836
 20
16.2815472293
 30
0.0
 10
7.4075662047
 20
16.3876861481
 30
0.0
 10
7.489634943
 20
16.4650362858
 30
0.0
 10
7.5739294052
 20
16.5400858707
 30
0.0
 10
7.660488642
 20
16.6127934264
 30
0.0
 10
7.7493622815
 20
16.6831330741
 30
0.0
 10
7.8406411762
 20
16.7511123371
 30
0.0
 10
7.9344771454
 20
16.8165689978
 30
0.0
 10
8.0146817416
 20
16.8687714078
 30
0.0
 10
8.0799762448
 20
16.9090245427
 30
0.0
 10
8.1457926562
 20
16.9481024819
 30
0.0
 10
8.228971557
 20
16.9947908913
 30
0.0
 10
8.3301018555
 20
17.0474831225
 30
0.0
 10
8.4322000305
 20
17.0968605426
 30
0.0
 10
8.5350736312
 20
17.1430125342
 30
0.0
 10
8.6385952551
 20
17.1860373784
 30
0.0
 10
8.7426777772
 20
17.2260582656
 30
0.0
 10
8.8817997488
 20
17.2754715277
 30
0.0
 10
9.0569162108
 20
17.3303348689
 30
0.0
 10
9.2688423521
 20
17.3858292522
 30
0.0
 10
9.4465049538
 20
17.4240017565
 30
0.0
 10
9.5889122213
 20
17.4500057226
 30
0.0
 10
9.7312344347
 20
17.4730876782
 30
0.0
 10
9.9096748465
 20
17.4966743473
 30
0.0
 10
10.1246895471
 20
17.5168043659
 30
0.0
 10
10.3044892172
 20
17.5269954196
 30
0.0
 10
10.4487467967
 20
17.5313706439
 30
0.0
 10
10.5935962161
 20
17.5332509792
 30
0.0
 10
10.7751525362
 20
17.5308047374
 30
0.0
 10
10.9932311621
 20
17.519970222
 30
0.0
 10
11.2112859661
 20
17.5009743427
 30
0.0
 10
11.5015535106
 20
17.4644007655
 30
0.0
 10
11.7899170175
 20
17.4105737894
 30
0.0
 10
12.0744760814
 20
17.3388638644
 30
0.0
 10
12.2859170744
 20
17.2758142155
 30
0.0
 10
12.4947316753
 20
17.2032571409
 30
0.0
 10
12.7004345737
 20
17.1209337688
 30
0.0
 10
12.9024456327
 20
17.0286256901
 30
0.0
 10
13.0670718676
 20
16.9432627176
 30
0.0
 10
13.1962033727
 20
16.8698154515
 30
0.0
 10
13.3235613361
 20
16.7928911566
 30
0.0
 10
13.4789155017
 20
16.6906028576
 30
0.0
 10
13.6585954581
 20
16.5584770335
 30
0.0
 10
13.8885186575
 20
16.3704721082
 30
0.0
 10
14.1576240311
 20
16.1138914823
 30
0.0
 10
14.3996170549
 20
15.8313668816
 30
0.0
 10
14.5755476198
 20
15.5914463726
 30
0.0
 10
14.6984163116
 20
15.4047700673
 30
0.0
 10
14.8117589371
 20
15.2118968694
 30
0.0
 10
14.9150764583
 20
15.0131649271
 30
0.0
 10
14.9923296317
 20
14.8430139535
 30
0.0
 10
15.0485614721
 20
14.7043575174
 30
0.0
 10
15.087894908
 20
14.5990847523
 30
0.0
 10
15.124292931
 20
14.4927407447
 30
0.0
 10
15.1577445913
 20
14.3855815487
 30
0.0
 10
15.1882109307
 20
14.2779019758
 30
0.0
 10
15.2247012016
 20
14.1343446029
 30
0.0
 10
15.2629948249
 20
13.9545637733
 30
0.0
 10
15.2983325414
 20
13.7384677266
 30
0.0
 10
15.3240725593
 20
13.5230284897
 30
0.0
 10
15.3413171228
 20
13.3086629194
 30
0.0
 10
15.3509516706
 20
13.0957544865
 30
0.0
 10
15.3529161092
 20
12.9543280684
 30
0.0
 10
15.3529161092
 20
12.8839530656
 30
0.0
  0
SPLINE
  5
493
100
AcDbEntity
  8
0
100
AcDbSpline
 62
7
  6
CONTINUOUS
 70
0
 71
3
 72
77
 73
73
 74
0
 42
0.0000001
 43
0.0000001
 44
0.0000000001
 40
0.0
 40
0.0
 40
0.0
 40
0.0
 40
0.0175536392
 40
0.0346526711
 40
0.0512348337
 40
0.0672646405
 40
0.075059993
 40
0.0826907447
 40
0.0901424507
 40
0.0974188153
 40
0.1046412048
 40
0.111971713
 40
0.1195370986
 40
0.1273332475
 40
0.1352235519
 40
0.1431062684
 40
0.1509376336
 40
0.1586988241
 40
0.17402843
 40
0.1891539821
 40
0.2041905276
 40
0.2192416918
 40
0.2342922037
 40
0.2492819355
 40
0.2567274652
 40
0.2641229337
 40
0.2714476831
 40
0.2787100622
 40
0.2859831754
 40
0.2933084215
 40
0.3081458673
 40
0.3232402215
 40
0.3384902501
 40
0.353857588
 40
0.3693797619
 40
0.3850920577
 40
0.4010235309
 40
0.4171643152
 40
0.4334636156
 40
0.4498666286
 40
0.4663188041
 40
0.4992270275
 40
0.5156381162
 40
0.5319882754
 40
0.5482583267
 40
0.5644310562
 40
0.5964179687
 40
0.6278611376
 40
0.6433773642
 40
0.6587801157
 40
0.6740993111
 40
0.6893901451
 40
0.704715471
 40
0.720080008
 40
0.7354686996
 40
0.7508857346
 40
0.7663324695
 40
0.781793906
 40
0.8126809225
 40
0.8280820024
 40
0.8434211736
 40
0.8586710383
 40
0.8738062346
 40
0.8888598941
 40
0.8964119825
 40
0.9040131773
 40
0.9193958015
 40
0.935028997
 40
0.9509157909
 40
0.9670509668
 40
0.9834194961
 40
1.0
 40
1.0
 40
1.0
 40
1.0
 10
7.2307078014
 20
13.3976781485
 30
0.0
 10
7.2401916444
 20
13.4596140445
 30
0.0
 10
7.2590287941
 20
13.5818646775
 30
0.0
 10
7.2889999949
 20
13.7622840645
 30
0.0
 10
7.3220023367
 20
13.9366520095
 30
0.0
 10
7.3534797517
 20
14.0774514235
 30
0.0
 10
7.3816203899
 20
14.1861596321
 30
0.0
 10
7.4040029831
 20
14.2647041678
 30
0.0
 10
7.427945462
 20
14.3408494533
 30
0.0
 10
7.453702802
 20
14.414861155
 30
0.0
 10
7.4817744492
 20
14.487565073
 30
0.0
 10
7.5127092299
 20
14.560218444
 30
0.0
 10
7.5466379784
 20
14.6337800676
 30
0.0
 10
7.5832461205
 20
14.708275694
 30
0.0
 10
7.6219366818
 20
14.7829878199
 30
0.0
 10
7.6621849717
 20
14.8570157683
 30
0.0
 10
7.7038020022
 20
14.9297543897
 30
0.0
 10
7.7608104016
 20
15.0242782679
 30
0.0
 10
7.8354696076
 20
15.1385233523
 30
0.0
 10
7.9314670977
 20
15.2695912212
 30
0.0
 10
8.0340031143
 20
15.3943324407
 30
0.0
 10
8.1432350482
 20
15.5128908766
 30
0.0
 10
8.2588449421
 20
15.6249949271
 30
0.0
 10
8.3600984521
 20
15.7125918079
 30
0.0
 10
8.4435951343
 20
15.7786915655
 30
0.0
 10
8.507065638
 20
15.8259519508
 30
0.0
 10
8.5714178144
 20
15.8708726392
 30
0.0
 10
8.6368184431
 20
15.9134597589
 30
0.0
 10
8.7036025396
 20
15.9538475434
 30
0.0
 10
8.7952428219
 20
16.0052795168
 30
0.0
 10
8.9142303226
 20
16.0648752431
 30
0.0
 10
9.0624133888
 20
16.1287282995
 30
0.0
 10
9.215531163
 20
16.1853187949
 30
0.0
 10
9.3727511585
 20
16.2345941711
 30
0.0
 10
9.5337277586
 20
16.2767485039
 30
0.0
 10
9.698390362
 20
16.3120841273
 30
0.0
 10
9.8665522956
 20
16.3409004662
 30
0.0
 10
10.0377839084
 20
16.3634068771
 30
0.0
 10
10.2114090336
 20
16.3796586851
 30
0.0
 10
10.3866186795
 20
16.3896956198
 30
0.0
 10
10.6213388264
 20
16.3948652322
 30
0.0
 10
10.8562442844
 20
16.3875479157
 30
0.0
 10
11.0898097287
 20
16.3671852525
 30
0.0
 10
11.263498646
 20
16.3452915475
 30
0.0
 10
11.4353553056
 20
16.3167262001
 30
0.0
 10
11.6605689982
 20
16.2698808618
 30
0.0
 10
11.9349693368
 20
16.1947242497
 30
0.0
 10
12.199491379
 20
16.0963155213
 30
0.0
 10
12.4020472415
 20
16.0038104971
 30
0.0
 10
12.5486415244
 20
15.9278169641
 30
0.0
 10
12.690411937
 20
15.8447427581
 30
0.0
 10
12.8274024908
 20
15.754503938
 30
0.0
 10
12.9596692677
 20
15.6572040277
 30
0.0
 10
13.0870656125
 20
15.5530578473
 30
0.0
 10
13.2092443082
 20
15.4423486754
 30
0.0
 10
13.3258597241
 20
15.3253821212
 30
0.0
 10
13.4365976842
 20
15.202479081
 30
0.0
 10
13.5758792737
 20
15.0313498338
 30
0.0
 10
13.7020214251
 20
14.8500452114
 30
0.0
 10
13.813444984
 20
14.6602869786
 30
0.0
 10
13.8891565009
 20
14.5145375174
 30
0.0
 10
13.9566885598
 20
14.3658674976
 30
0.0
 10
14.0157214613
 20
14.2147113557
 30
0.0
 10
14.0576563605
 20
14.0866083578
 30
0.0
 10
14.0869470631
 20
13.9828276703
 30
0.0
 10
14.1137269576
 20
13.877158638
 30
0.0
 10
14.1423805998
 20
13.7422627285
 30
0.0
 10
14.1694099306
 20
13.5769845496
 30
0.0
 10
14.1896168234
 20
13.4080350638
 30
0.0
 10
14.2034130727
 20
13.2358171713
 30
0.0
 10
14.2112940757
 20
13.0607575192
 30
0.0
 10
14.2129161092
 20
12.9431372438
 30
0.0
 10
14.2129161092
 20
12.8839530656
 30
0.0
  0
ENDSEC
  0
SECTION
  2
OBJECTS
  0
DICTIONARY
  5
C
100
AcDbDictionary
280
0
281
1
  3
ACAD_GROUP
350
D
  3
ACAD_MLINESTYLE
350
17
  3
ACAD_LAYOUT
350
1A
  3
ACAD_PLOTSETTINGS
350
19
  3
ACAD_PLOTSTYLENAME
350
E
  0
DICTIONARY
  5
D
102
{ACAD_REACTORS
330
C
102
}
100
AcDbDictionary
280
0
281
1
  0
ACDBDICTIONARYWDFLT
  5
E
102
{ACAD_REACTORS
330
C
102
}
100
AcDbDictionary
281
1
  3
Normal
350
F
100
AcDbDictionaryWithDefault
340
F
  0
DICTIONARY
  5
17
102
{ACAD_REACTORS
330
C
102
}
100
AcDbDictionary
280
0
281
1
  3
Standard
350
18
  0
DICTIONARY
  5
19
102
{ACAD_REACTORS
330
C
102
}
100
AcDbDictionary
281
1
  0
DICTIONARY
  5
1A
102
{ACAD_REACTORS
330
C
102
}
100
AcDbDictionary
281
1
  3
Model
350
494
  3
Layout1
350
495
  0
ACDBPLACEHOLDER
  5
F
102
{ACAD_REACTORS
330
E
102
}
  0
MLINESTYLE
  5
18
102
{ACAD_REACTORS
330
17
102
}
100
AcDbMlineStyle
  2
STANDARD
 70
0
  3

 62
256
 51
90.0
 52
90.0
 71
2
 49
0.5
 62
256
  6
BYLAYER
 49
-0.5
 62
256
  6
BYLAYER
  0
LAYOUT
  5
494
102
{ACAD_REACTORS
330
1A
102
}
100
AcDbPlotSettings
  1

  2
none_device
  4
ANSI_C_(22.00_x_17.00_Inches)
  6

 40
0.0
 41
0.0
 42
0.0
 43
0.0
 44
558.8
 45
431.8
 46
0.0
 47
0.0
 48
0.0
 49
0.0
140
0.0
141
0.0
142
1.0
143
1.0
 70
1024
 72
0
 73
0
 74
0
  7

 75
0
147
1.0
148
0.0
149
0.0
100
AcDbLayout
  1
Model
 70
0
 71
0
 10
0.0
 20
0.0
 11
22.0
 21
17.0
 12
0.0
 22
0.0
 32
0.0
 14
0.0
 24
0.0
 34
0.0
 15
0.0
 25
0.0
 35
0.0
146
0.0
 13
0.0
 23
0.0
 33
0.0
 16
1.0
 26
0.0
 36
0.0
 17
0.0
 27
1.0
 37
0.0
 76
0
330
202
345
0
346
0
  0
LAYOUT
  5
495
102
{ACAD_REACTORS
330
1A
102
}
100
AcDbPlotSettings
  1

  2
none_device
  4
ANSI_C_(22.00_x_17.00_Inches)
  6

 40
0.0
 41
0.0
 42
0.0
 43
0.0
 44
558.8
 45
431.8
 46
0.0
 47
0.0
 48
0.0
 49
0.0
140
0.0
141
0.0
142
1.0
143
1.0
 70
0
 72
0
 73
0
 74
0
  7

 75
0
147
1.0
148
0.0
149
0.0
100
AcDbLayout
  1
Layout1
 70
0
 71
1
 10
0.0
 20
0.0
 11
22.0
 21
17.0
 12
0.0
 22
0.0
 32
0.0
 14
0.0
 24
0.0
 34
0.0
 15
0.0
 25
0.0
 35
0.0
146
0.0
 13
0.0
 23
0.0
 33
0.0
 16
1.0
 26
0.0
 36
0.0
 17
0.0
 27
1.0
 37
0.0
 76
0
330
203
345
0
346
0
  0
ENDSEC
  0
EOF
