999
DXF file: E:\BT Custom\CADOUTPUT\_RIGHT.dxf
999
Pro/ENGINEER 2018400 by Parametric Technology Corporation
  0
SECTION
  2
HEADER
  9
$ACADVER
  1
AC1018
  9
$DWGCODEPAGE
  3
ANSI_1252
  9
$EXTMAX
 10
22.0
 20
17.0
 30
0.0
  9
$EXTMIN
 10
0.0
 20
0.0
 30
0.0
  9
$LIMMIN
 10
0.0
 20
0.0
  9
$LIMMAX
 10
22.0
 20
17.0
  9
$VIEWCTR
 10
11.0
 20
8.5
  9
$VIEWSIZE
 40
17.0
  9
$CLAYER
  8
0
  9
$LTSCALE
 40
1.21
  9
$CELTYPE
  6
BYLAYER
  9
$DIMSCALE
 40
1.0
  9
$DIMASZ
 40
0.1
  9
$DIMEXO
 40
0.0625
  9
$DIMDLI
 40
0.836
  9
$DIMEXE
 40
0.125
  9
$DIMCEN
 40
0.198
  9
$DIMLFAC
 40
1.0
  9
$DIMBLK
  1
_FILLED
  9
$DIMALT
 70
1
  9
$DIMALTD
 70
2
  9
$DIMALTTD
 70
2
  9
$DIMALTF
 40
25.4
  9
$DIMTXT
 40
0.08
  9
$DIMTOL
 70
1
  9
$DIMLIM
 70
0
  9
$DIMTFAC
 40
1.0
  9
$DIMTP
 40
0.001
  9
$DIMTM
 40
0.001
  9
$DIMGAP
 40
0.09
  9
$DIMDSEP
 70
46
  9
$AUNITS
 70
0
  9
$PDMODE
 70
3
  9
$PDSIZE
 40
0.06
  9
$HANDSEED
  5
40F
  9
$TILEMODE
 70
1
  9
$MEASUREMENT
 70
0
  9
$INSUNITS
 70
1
  0
ENDSEC
  0
SECTION
  2
CLASSES
  0
CLASS
  1
ACDBDICTIONARYWDFLT
  2
AcDbDictionaryWithDefault
  3
AutoCAD 2000
 90
0
 91
1
280
0
281
0
  0
CLASS
  1
ACDBPLACEHOLDER
  2
AcDbPlaceHolder
  3
AutoCAD 2000
 90
0
 91
1
280
0
281
0
  0
CLASS
  1
LAYOUT
  2
AcDbLayout
  3
AutoCAD 2000
 90
0
 91
0
280
0
281
0
  0
ENDSEC
  0
SECTION
  2
TABLES
  0
TABLE
  2
VPORT
  5
8
100
AcDbSymbolTable
 70
2
  0
VPORT
  5
1F4
100
AcDbSymbolTableRecord
100
AcDbViewportTableRecord
  2
*ACTIVE
 70
0
 10
0.0
 20
0.0
 11
1.0
 21
1.0
 12
11.0
 22
8.5
 13
0.0
 23
0.0
 14
1.0
 24
1.0
 15
0.0
 25
0.0
 16
0.0
 26
0.0
 36
1.0
 17
0.0
 27
0.0
 37
0.0
 40
17.0
 41
1.2941176471
 42
50.0
 43
0.0
 44
0.0
 50
0.0
 51
0.0
 71
0
 72
100
 73
1
 74
1
 75
0
 76
0
 77
0
 78
0
  0
ENDTAB
  0
TABLE
  2
LTYPE
  5
5
100
AcDbSymbolTable
 70
6
  0
LTYPE
  5
14
100
AcDbSymbolTableRecord
100
AcDbLinetypeTableRecord
  2
BYBLOCK
 70
0
  3

 72
65
 73
0
 40
0.0
  0
LTYPE
  5
15
100
AcDbSymbolTableRecord
100
AcDbLinetypeTableRecord
  2
BYLAYER
 70
0
  3

 72
65
 73
0
 40
0.0
  0
LTYPE
  5
16
100
AcDbSymbolTableRecord
100
AcDbLinetypeTableRecord
  2
CONTINUOUS
 70
64
  3
Solid line
 72
65
 73
0
 40
0.0
  0
LTYPE
  5
1F5
100
AcDbSymbolTableRecord
100
AcDbLinetypeTableRecord
  2
CENTER
 70
64
  3
____ _ ____ _ ____ _ ____ _ ____ _ ____ _ ____
 72
65
 73
4
 40
0.6
 49
0.375
 74
0
 49
-0.075
 74
0
 49
0.075
 74
0
 49
-0.075
 74
0
  0
LTYPE
  5
1F6
100
AcDbSymbolTableRecord
100
AcDbLinetypeTableRecord
  2
HIDDEN
 70
64
  3
- - - - - - - - - - - - - - - - - - - -
 72
65
 73
2
 40
0.2
 49
0.1
 74
0
 49
-0.1
 74
0
  0
LTYPE
  5
1F7
100
AcDbSymbolTableRecord
100
AcDbLinetypeTableRecord
  2
PHANTOM
 70
64
  3
_____ _ _ _____ _ _ _____ _ _ _____
 72
65
 73
6
 40
0.8
 49
0.45
 74
0
 49
-0.05
 74
0
 49
0.1
 74
0
 49
-0.05
 74
0
 49
0.1
 74
0
 49
-0.05
 74
0
  0
LTYPE
  5
1F8
100
AcDbSymbolTableRecord
100
AcDbLinetypeTableRecord
  2
DOT
 70
64
  3
. . . . . . . . . . . . . . . . . . . .
 72
65
 73
2
 40
0.2
 49
0.1
 74
0
 49
-0.1
 74
0
  0
LTYPE
  5
1F9
100
AcDbSymbolTableRecord
100
AcDbLinetypeTableRecord
  2
DASHED
 70
64
  3
- - - - - - - - - - - - - - - - - - - -
 72
65
 73
2
 40
0.2
 49
0.1
 74
0
 49
-0.1
 74
0
  0
ENDTAB
  0
TABLE
  2
LAYER
  5
2
100
AcDbSymbolTable
 70
36
  0
LAYER
  5
10
100
AcDbSymbolTableRecord
100
AcDbLayerTableRecord
  2
0
 70
0
 62
7
  6
CONTINUOUS
370
-3
390
F
  0
LAYER
  5
1FA
100
AcDbSymbolTableRecord
100
AcDbLayerTableRecord
  2
DEFAULT_1
 70
0
 62
7
  6
CENTER
370
-3
390
F
  0
LAYER
  5
1FB
100
AcDbSymbolTableRecord
100
AcDbLayerTableRecord
  2
DEFAULT_2
 70
0
 62
8
  6
HIDDEN
370
-3
390
F
  0
LAYER
  5
1FC
100
AcDbSymbolTableRecord
100
AcDbLayerTableRecord
  2
DEFAULT_3
 70
0
 62
7
  6
PHANTOM
370
-3
390
F
  0
LAYER
  5
1FD
100
AcDbSymbolTableRecord
100
AcDbLayerTableRecord
  2
ALL_FEATURES
 70
0
 62
7
  6
CONTINUOUS
370
-3
390
F
  0
LAYER
  5
1FE
100
AcDbSymbolTableRecord
100
AcDbLayerTableRecord
  2
AXES_FEATURES
 70
0
 62
7
  6
CONTINUOUS
370
-3
390
F
  0
LAYER
  5
1FF
100
AcDbSymbolTableRecord
100
AcDbLayerTableRecord
  2
DEFAULT_COORDINATE_SYSTEM
 70
0
 62
7
  6
CONTINUOUS
370
-3
390
F
  0
LAYER
  5
200
100
AcDbSymbolTableRecord
100
AcDbLayerTableRecord
  2
DEFAULT_DATUM_AXES
 70
0
 62
7
  6
CONTINUOUS
370
-3
390
F
  0
LAYER
  5
201
100
AcDbSymbolTableRecord
100
AcDbLayerTableRecord
  2
DEFAULT_DATUM_PLANES
 70
0
 62
7
  6
CONTINUOUS
370
-3
390
F
  0
LAYER
  5
202
100
AcDbSymbolTableRecord
100
AcDbLayerTableRecord
  2
DIMENSIONS
 70
0
 62
7
  6
CONTINUOUS
370
-3
390
F
  0
ENDTAB
  0
TABLE
  2
STYLE
  5
3
100
AcDbSymbolTable
 70
1
  0
STYLE
  5
11
100
AcDbSymbolTableRecord
100
AcDbTextStyleTableRecord
  2
STANDARD
 70
0
 40
0.0
 41
0.8
 50
0.0
 71
0
 42
0.2
  3
txt
  4

  0
STYLE
  5
203
100
AcDbSymbolTableRecord
100
AcDbTextStyleTableRecord
  2
TEXTSTYLE_1
 70
0
 40
0.0
 41
0.8
 50
0.0
 71
0
 42
0.2
  3
gdt
  4

  0
ENDTAB
  0
TABLE
  2
VIEW
  5
6
100
AcDbSymbolTable
 70
0
  0
ENDTAB
  0
TABLE
  2
UCS
  5
7
100
AcDbSymbolTable
 70
0
  0
ENDTAB
  0
TABLE
  2
APPID
  5
9
100
AcDbSymbolTable
 70
1
  0
APPID
  5
204
100
AcDbSymbolTableRecord
100
AcDbRegAppTableRecord
  2
ACAD
 70
0
  0
ENDTAB
  0
TABLE
  2
BLOCK_RECORD
  5
1
100
AcDbSymbolTable
 70
0
  0
BLOCK_RECORD
  5
205
100
AcDbSymbolTableRecord
100
AcDbBlockTableRecord
  2
*Model_Space
  0
BLOCK_RECORD
  5
206
100
AcDbSymbolTableRecord
100
AcDbBlockTableRecord
  2
*Paper_Space
  0
BLOCK_RECORD
  5
207
100
AcDbSymbolTableRecord
100
AcDbBlockTableRecord
  2
_FILLED
  0
ENDTAB
  0
TABLE
  2
DIMSTYLE
  5
A
100
AcDbSymbolTable
 70
1
100
AcDbDimStyleTable
 71
0
  0
DIMSTYLE
105
208
100
AcDbSymbolTableRecord
100
AcDbDimStyleTableRecord
  2
STANDARD
 70
0
  3

  4

 40
1.0
 41
0.1
 42
0.0625
 43
0.38
 44
0.125
 45
0.0
 46
0.0
 47
0.001
 48
0.001
140
0.08
141
0.09
142
0.0
143
25.4
144
1.0
145
0.0
146
1.0
147
0.09
 71
1.0
 72
0.0
 73
1
 74
1
 75
0
 76
0
 77
0
 78
4
 79
1
170
1
171
2
172
0
173
0
174
0
175
0
176
0
177
0
178
0
270
2
179
3
271
3
272
3
273
2
274
2
275
0
280
0
281
0
282
0
283
1
284
4
285
0
286
0
287
3
288
0
340
11
278
46
341
207
342
207
343
207
344
207
  0
ENDTAB
  0
ENDSEC
  0
SECTION
  2
BLOCKS
  0
BLOCK
  5
20
100
AcDbEntity
  8
0
100
AcDbBlockBegin
  2
*Model_Space
 70
0
 10
0.0
 20
0.0
 30
0.0
  3
*Model_Space
  1

  0
ENDBLK
  5
21
100
AcDbEntity
  8
0
100
AcDbBlockEnd
  0
BLOCK
  5
1C
100
AcDbEntity
  8
0
100
AcDbBlockBegin
  2
*Paper_Space
 70
0
 10
0.0
 20
0.0
 30
0.0
  3
*Paper_Space
  1

  0
ENDBLK
  5
1D
100
AcDbEntity
  8
0
100
AcDbBlockEnd
  0
BLOCK
  5
209
100
AcDbEntity
  8
0
100
AcDbBlockBegin
  2
_FILLED
 70
64
 10
0.0
 20
0.0
  3
_FILLED
  1

  0
SOLID
  5
20A
100
AcDbEntity
  8
0
  6
BYBLOCK
 62
0
100
AcDbTrace
 10
0.0
 20
0.0
 11
-1.0
 21
0.2
 12
-1.0
 22
-0.2
 13
-1.0
 23
-0.2
  0
ENDBLK
  5
20B
100
AcDbEntity
  8
0
  6
BYBLOCK
 62
0
100
AcDbBlockEnd
  0
ENDSEC
  0
SECTION
  2
ENTITIES
  0
LINE
  5
20C
100
AcDbEntity
  8
0
100
AcDbLine
 62
7
  6
CONTINUOUS
 10
14.0152298924
 20
0.6106128084
 11
16.3652286868
 21
0.6106128084
  0
LINE
  5
20D
100
AcDbEntity
  8
0
100
AcDbLine
 62
7
  6
CONTINUOUS
 10
14.0152292896
 20
0.7606128084
 11
16.3652292896
 21
0.7606128084
  0
LINE
  5
20E
100
AcDbEntity
  8
0
100
AcDbLine
 62
7
  6
CONTINUOUS
 10
14.0652292896
 20
0.8106128084
 11
16.3152292896
 21
0.8106128084
  0
LINE
  5
20F
100
AcDbEntity
  8
0
100
AcDbLine
 62
7
  6
CONTINUOUS
 10
16.3650590645
 20
1.0206128084
 11
14.0153995147
 21
1.0206128084
  0
LINE
  5
210
100
AcDbEntity
  8
0
100
AcDbLine
 62
7
  6
CONTINUOUS
 10
14.0153995147
 20
1.1206128084
 11
16.3650590645
 21
1.1206128084
  0
LINE
  5
211
100
AcDbEntity
  8
0
100
AcDbLine
 62
7
  6
CONTINUOUS
 10
14.1902299121
 20
1.2206128084
 11
16.1902286671
 21
1.2206128084
  0
LINE
  5
212
100
AcDbEntity
  8
0
100
AcDbLine
 62
7
  6
CONTINUOUS
 10
5.5964131303
 20
12.4170235856
 11
5.0556013161
 21
11.0505482212
  0
LINE
  5
213
100
AcDbEntity
  8
0
100
AcDbLine
 62
7
  6
CONTINUOUS
 10
5.3549139923
 20
10.9274043166
 11
5.3597634846
 21
10.9526688171
  0
LINE
  5
214
100
AcDbEntity
  8
0
100
AcDbLine
 62
7
  6
CONTINUOUS
 10
5.3844291447
 20
10.9456585805
 11
5.3795796523
 21
10.92039408
  0
LINE
  5
215
100
AcDbEntity
  8
0
100
AcDbLine
 62
7
  6
CONTINUOUS
 10
5.4554510821
 20
10.9254734087
 11
5.4506015897
 21
10.9002089083
  0
LINE
  5
216
100
AcDbEntity
  8
0
100
AcDbLine
 62
7
  6
CONTINUOUS
 10
5.5642630031
 20
10.8945479314
 11
5.5594135107
 21
10.869283431
  0
LINE
  5
217
100
AcDbEntity
  8
0
100
AcDbLine
 62
7
  6
CONTINUOUS
 10
5.8855774921
 20
13.4261905036
 11
5.657661375
 21
12.6242630096
  0
LINE
  5
218
100
AcDbEntity
  8
0
100
AcDbLine
 62
7
  6
CONTINUOUS
 10
6.082347413
 20
13.825900174
 11
6.0259433585
 21
13.6274413607
  0
LINE
  5
219
100
AcDbEntity
  8
0
100
AcDbLine
 62
7
  6
CONTINUOUS
 10
6.026804014
 20
13.6012066648
 11
6.0336385996
 21
13.6252542933
  0
LINE
  5
21A
100
AcDbEntity
  8
0
100
AcDbLine
 62
7
  6
CONTINUOUS
 10
5.5600419454
 20
10.8957475998
 11
5.5508789933
 21
10.8717090294
  0
LINE
  5
21B
100
AcDbEntity
  8
0
100
AcDbLine
 62
7
  6
CONTINUOUS
 10
5.6688538664
 20
10.8648221225
 11
5.6596909143
 21
10.8407835521
  0
LINE
  5
21C
100
AcDbEntity
  8
0
100
AcDbLine
 62
7
  6
CONTINUOUS
 10
16.2402292896
 20
3.6886128084
 11
14.1402292896
 21
3.6886128084
  0
LINE
  5
21D
100
AcDbEntity
  8
0
100
AcDbLine
 62
7
  6
CONTINUOUS
 10
5.6977405841
 20
10.8566122175
 11
5.6928910918
 21
10.831347717
  0
LINE
  5
21E
100
AcDbEntity
  8
0
100
AcDbLine
 62
7
  6
CONTINUOUS
 10
5.839784459
 20
10.816241874
 11
5.8349349666
 21
10.7909773735
  0
LINE
  5
21F
100
AcDbEntity
  8
0
100
AcDbLine
 62
7
  6
CONTINUOUS
 10
5.97326204
 20
10.7783061601
 11
5.9684125476
 21
10.7530416596
  0
LINE
  5
220
100
AcDbEntity
  8
0
100
AcDbLine
 62
7
  6
CONTINUOUS
 10
6.082073961
 20
10.7473806827
 11
6.0772244686
 21
10.7221161823
  0
LINE
  5
221
100
AcDbEntity
  8
0
100
AcDbLine
 62
7
  6
CONTINUOUS
 10
7.1148199796
 20
13.3179713234
 11
7.107985394
 21
13.2939236949
  0
LINE
  5
222
100
AcDbEntity
  8
0
100
AcDbLine
 62
7
  6
CONTINUOUS
 10
5.8023314475
 20
10.8268864086
 11
5.7931684953
 21
10.8028478382
  0
LINE
  5
223
100
AcDbEntity
  8
0
100
AcDbLine
 62
7
  6
CONTINUOUS
 10
5.9443753223
 20
10.7865160651
 11
5.9352123702
 21
10.7624774946
  0
LINE
  5
224
100
AcDbEntity
  8
0
100
AcDbLine
 62
7
  6
CONTINUOUS
 10
6.0778529033
 20
10.7485803511
 11
6.0686899512
 21
10.7245417807
  0
LINE
  5
225
100
AcDbEntity
  8
0
100
AcDbLine
 62
7
  6
CONTINUOUS
 10
6.1866648243
 20
10.7176548738
 11
6.1775018722
 21
10.6936163034
  0
LINE
  5
226
100
AcDbEntity
  8
0
100
AcDbLine
 62
7
  6
CONTINUOUS
 10
6.2576867618
 20
10.6974697021
 11
6.2485238096
 21
10.6734311316
  0
LINE
  5
227
100
AcDbEntity
  8
0
100
AcDbLine
 62
7
  6
CONTINUOUS
 10
6.2731894697
 20
10.6664208951
 11
6.2823524218
 21
10.6904594655
  0
LWPOLYLINE
  5
228
100
AcDbEntity
  8
0
100
AcDbPolyline
 62
7
  6
CONTINUOUS
 90
12
 70
0
 10
7.1677678584
 20
12.745834271
 10
7.1703991381
 20
12.752325104
 10
7.17209762
 20
12.7591199766
 10
7.1728299584
 20
12.7660855308
 10
7.1725817796
 20
12.7730850856
 10
7.1713579512
 20
12.7799812917
 10
7.1691824872
 20
12.7866388278
 10
7.1660980752
 20
12.7929270566
 10
7.1621652386
 20
12.7987225899
 10
7.1574611479
 20
12.8039117071
 10
7.1520781074
 20
12.8083925871
 10
7.1458307741
 20
12.8122290162
  0
LINE
  5
229
100
AcDbEntity
  8
0
100
AcDbLine
 62
7
  6
CONTINUOUS
 10
16.2402292896
 20
3.8086128084
 11
14.1402292896
 21
3.8086128084
  0
LINE
  5
22A
100
AcDbEntity
  8
0
100
AcDbLine
 62
9
  6
CONTINUOUS
 10
16.1502292896
 20
3.8686128084
 11
14.2302292896
 21
3.8686128084
  0
LINE
  5
22B
100
AcDbEntity
  8
0
100
AcDbLine
 62
7
  6
CONTINUOUS
 10
16.1502292896
 20
3.9986128084
 11
14.2302292896
 21
3.9986128084
  0
LINE
  5
22C
100
AcDbEntity
  8
0
100
AcDbLine
 62
9
  6
CONTINUOUS
 10
15.9352292896
 20
4.2886128084
 11
14.4452292896
 21
4.2886128084
  0
LINE
  5
22D
100
AcDbEntity
  8
0
100
AcDbLine
 62
7
  6
CONTINUOUS
 10
6.729470105
 20
11.379495567
 11
6.5925278265
 21
10.613737755
  0
LINE
  5
22E
100
AcDbEntity
  8
0
100
AcDbLine
 62
7
  6
CONTINUOUS
 10
7.1789192753
 20
13.5142430692
 11
7.1225152207
 21
13.315784256
  0
LINE
  5
22F
100
AcDbEntity
  8
0
100
AcDbLine
 62
7
  6
CONTINUOUS
 10
7.1360541772
 20
13.0707920509
 11
7.0955819305
 21
12.9283896279
  0
LINE
  5
230
100
AcDbEntity
  8
0
100
AcDbLine
 62
7
  6
CONTINUOUS
 10
7.186056323
 20
11.7197610488
 11
7.1811437698
 21
11.7159080821
  0
LINE
  5
231
100
AcDbEntity
  8
0
100
AcDbLine
 62
7
  6
CONTINUOUS
 10
15.965193964
 20
4.5186128084
 11
14.4152646152
 21
4.5186128084
  0
LINE
  5
232
100
AcDbEntity
  8
0
100
AcDbLine
 62
7
  6
CONTINUOUS
 10
14.4152646152
 20
4.6186128084
 11
15.965193964
 21
4.6186128084
  0
LINE
  5
233
100
AcDbEntity
  8
0
100
AcDbLine
 62
9
  6
CONTINUOUS
 10
14.7593450445
 20
4.8018124519
 11
15.3807309145
 21
4.8018124519
  0
LINE
  5
234
100
AcDbEntity
  8
0
100
AcDbLine
 62
7
  6
CONTINUOUS
 10
15.3741025932
 20
4.8086128084
 11
14.7743706697
 21
4.8086128084
  0
LINE
  5
235
100
AcDbEntity
  8
0
100
AcDbLine
 62
9
  6
CONTINUOUS
 10
15.4877292896
 20
4.8953863541
 11
14.8927292896
 21
4.8953863541
  0
LINE
  5
236
100
AcDbEntity
  8
0
100
AcDbLine
 62
9
  6
CONTINUOUS
 10
15.5038831358
 20
4.9132914293
 11
14.8765754435
 21
4.9132914293
  0
LINE
  5
237
100
AcDbEntity
  8
0
100
AcDbLine
 62
7
  6
CONTINUOUS
 10
15.4977292896
 20
5.0329750131
 11
14.8827292896
 21
5.0329750131
  0
LINE
  5
238
100
AcDbEntity
  8
0
100
AcDbLine
 62
9
  6
CONTINUOUS
 10
7.1143941741
 20
11.6515169602
 11
7.2306912412
 21
12.6135943487
  0
LINE
  5
239
100
AcDbEntity
  8
0
100
AcDbLine
 62
7
  6
CONTINUOUS
 10
7.1731984036
 20
11.6501793643
 11
7.2881213726
 21
12.6008894093
  0
LINE
  5
23A
100
AcDbEntity
  8
0
100
AcDbLine
 62
9
  6
CONTINUOUS
 10
7.1991708609
 20
11.8282521794
 11
7.186056323
 21
11.7197610488
  0
LINE
  5
23B
100
AcDbEntity
  8
0
100
AcDbLine
 62
7
  6
CONTINUOUS
 10
7.1904774361
 20
11.7275089815
 11
7.2016184479
 21
11.81967395
  0
LINE
  5
23C
100
AcDbEntity
  8
0
100
AcDbLine
 62
9
  6
CONTINUOUS
 10
14.9952292896
 20
5.0529750131
 11
15.3852292896
 21
5.0529750131
  0
LINE
  5
23D
100
AcDbEntity
  8
0
100
AcDbLine
 62
9
  6
CONTINUOUS
 10
15.3852292896
 20
5.0729750131
 11
14.9952292896
 21
5.0729750131
  0
LINE
  5
23E
100
AcDbEntity
  8
0
100
AcDbLine
 62
7
  6
CONTINUOUS
 10
14.2902292896
 20
5.1229750131
 11
11.7102292896
 21
5.1229750131
  0
LINE
  5
23F
100
AcDbEntity
  8
0
100
AcDbLine
 62
7
  6
CONTINUOUS
 10
14.4902292896
 20
5.2279750131
 11
14.8402292896
 21
5.2279750131
  0
LINE
  5
240
100
AcDbEntity
  8
0
100
AcDbLine
 62
7
  6
CONTINUOUS
 10
14.4902292896
 20
5.6179750131
 11
14.8402292896
 21
5.6179750131
  0
LINE
  5
241
100
AcDbEntity
  8
0
100
AcDbLine
 62
7
  6
CONTINUOUS
 10
14.2902292896
 20
5.7229750131
 11
11.7102292896
 21
5.7229750131
  0
LINE
  5
242
100
AcDbEntity
  8
0
100
AcDbLine
 62
7
  6
CONTINUOUS
 10
15.8782381963
 20
4.6295880709
 11
15.872898606
 21
4.6304086146
  0
LWPOLYLINE
  5
243
100
AcDbEntity
  8
0
100
AcDbPolyline
 62
7
  6
CONTINUOUS
 90
17
 70
0
 10
15.872898606
 20
4.6304086146
 10
15.8570257126
 20
4.6329337579
 10
15.8452911755
 20
4.6348857351
 10
15.8311543355
 20
4.6373373188
 10
15.814742592
 20
4.6403261552
 10
15.7962027023
 20
4.6438962095
 10
15.7756997496
 20
4.6480973002
 10
15.7534179277
 20
4.6529844014
 10
15.7295579319
 20
4.658617735
 10
15.7043318623
 20
4.6650618625
 10
15.6779689336
 20
4.6723850139
 10
15.650702635
 20
4.6806599456
 10
15.6227630059
 20
4.6899666558
 10
15.5943884916
 20
4.7003887207
 10
15.565827762
 20
4.7120102601
 10
15.5373351581
 20
4.7249157526
 10
15.5116110372
 20
4.73788332
  0
LINE
  5
244
100
AcDbEntity
  8
0
100
AcDbLine
 62
7
  6
CONTINUOUS
 10
15.8815729348
 20
4.6287829963
 11
15.8782381963
 21
4.6295880709
  0
LWPOLYLINE
  5
245
100
AcDbEntity
  8
0
100
AcDbPolyline
 62
7
  6
CONTINUOUS
 90
3
 70
0
 10
15.5116110372
 20
4.73788332
 10
15.4212092179
 20
4.7866505508
 10
15.3830911993
 20
4.8064810673
  0
LINE
  5
246
100
AcDbEntity
  8
0
100
AcDbLine
 62
7
  6
CONTINUOUS
 10
16.3652292896
 20
0.7606128084
 11
16.3152292896
 21
0.8106128084
  0
LINE
  5
247
100
AcDbEntity
  8
0
100
AcDbLine
 62
7
  6
CONTINUOUS
 10
7.1953178941
 20
11.8331647327
 11
7.1991708609
 21
11.8282521794
  0
LINE
  5
248
100
AcDbEntity
  8
0
100
AcDbLine
 62
7
  6
CONTINUOUS
 10
5.9209274559
 20
10.7553287998
 11
5.8433248457
 21
10.7773842671
  0
LINE
  5
249
100
AcDbEntity
  8
0
100
AcDbLine
 62
7
  6
CONTINUOUS
 10
5.6453815739
 20
10.8336417994
 11
5.567827816
 21
10.8556833824
  0
LINE
  5
24A
100
AcDbEntity
  8
0
100
AcDbLine
 62
7
  6
CONTINUOUS
 10
5.3632843267
 20
10.913816765
 11
5.5366087372
 21
10.8645561686
  0
LINE
  5
24B
100
AcDbEntity
  8
0
100
AcDbLine
 62
7
  6
CONTINUOUS
 10
5.7012617891
 20
10.8177600623
 11
5.7789027628
 21
10.7956936917
  0
LINE
  5
24C
100
AcDbEntity
  8
0
100
AcDbLine
 62
7
  6
CONTINUOUS
 10
5.9767828821
 20
10.739454108
 11
6.0544245817
 21
10.7173875311
  0
LINE
  5
24D
100
AcDbEntity
  8
0
100
AcDbLine
 62
7
  6
CONTINUOUS
 10
6.0855950758
 20
10.7085285532
 11
6.2589241001
 21
10.6592666455
  0
LINE
  5
24E
100
AcDbEntity
  8
0
100
AcDbLine
 62
9
  6
CONTINUOUS
 10
5.3549139923
 20
10.9274043166
 11
5.5508789933
 21
10.8717090294
  0
LINE
  5
24F
100
AcDbEntity
  8
0
100
AcDbLine
 62
9
  6
CONTINUOUS
 10
5.5594135107
 20
10.869283431
 11
5.6596909143
 21
10.8407835521
  0
LINE
  5
250
100
AcDbEntity
  8
0
100
AcDbLine
 62
9
  6
CONTINUOUS
 10
5.6928910918
 20
10.831347717
 11
5.7931684953
 21
10.8028478382
  0
LINE
  5
251
100
AcDbEntity
  8
0
100
AcDbLine
 62
9
  6
CONTINUOUS
 10
5.8349349666
 20
10.7909773735
 11
5.9352123702
 21
10.7624774946
  0
LINE
  5
252
100
AcDbEntity
  8
0
100
AcDbLine
 62
9
  6
CONTINUOUS
 10
5.9684125476
 20
10.7530416596
 11
6.0686899512
 21
10.7245417807
  0
LINE
  5
253
100
AcDbEntity
  8
0
100
AcDbLine
 62
9
  6
CONTINUOUS
 10
6.0772244686
 20
10.7221161823
 11
6.2731894697
 21
10.6664208951
  0
LINE
  5
254
100
AcDbEntity
  8
0
100
AcDbLine
 62
7
  6
CONTINUOUS
 10
6.5799501613
 20
10.6058790991
 11
5.0621657452
 21
11.0372491834
  0
LINE
  5
255
100
AcDbEntity
  8
0
100
AcDbLine
 62
9
  6
CONTINUOUS
 10
6.5925278265
 20
10.613737755
 11
5.0556013161
 21
11.0505482212
  0
LINE
  5
256
100
AcDbEntity
  8
0
100
AcDbLine
 62
7
  6
CONTINUOUS
 10
11.5902292896
 20
5.1004750131
 11
11.5902292896
 21
5.7454750131
  0
LINE
  5
257
100
AcDbEntity
  8
0
100
AcDbLine
 62
7
  6
CONTINUOUS
 10
11.7102292896
 20
5.1004750131
 11
11.7102292896
 21
5.7454750131
  0
LINE
  5
258
100
AcDbEntity
  8
0
100
AcDbLine
 62
9
  6
CONTINUOUS
 10
6.729470105
 20
11.379495567
 11
6.7207183408
 21
11.3819829093
  0
LINE
  5
259
100
AcDbEntity
  8
0
100
AcDbLine
 62
9
  6
CONTINUOUS
 10
6.8332787273
 20
11.6054403592
 11
6.7804474859
 21
11.6204555464
  0
LINE
  5
25A
100
AcDbEntity
  8
0
100
AcDbLine
 62
9
  6
CONTINUOUS
 10
5.5964131303
 20
12.4170235856
 11
6.7487521533
 21
12.0895169664
  0
LINE
  5
25B
100
AcDbEntity
  8
0
100
AcDbLine
 62
9
  6
CONTINUOUS
 10
5.5927728252
 20
12.4530564197
 11
6.7687011628
 21
12.118845288
  0
LINE
  5
25C
100
AcDbEntity
  8
0
100
AcDbLine
 62
9
  6
CONTINUOUS
 10
6.8080853401
 20
12.2658727477
 11
5.6358031979
 21
12.5990475135
  0
LINE
  5
25D
100
AcDbEntity
  8
0
100
AcDbLine
 62
9
  6
CONTINUOUS
 10
6.8049986295
 20
12.2981777761
 11
5.657661375
 21
12.6242630096
  0
LWPOLYLINE
  5
25E
100
AcDbEntity
  8
0
100
AcDbPolyline
 62
7
  6
CONTINUOUS
 90
13
 70
0
 10
6.8310430946
 20
11.4618426498
 10
6.8380506734
 20
11.4621149212
 10
6.8445928128
 20
11.4632750801
 10
6.8509233644
 20
11.4652924218
 10
6.8569305427
 20
11.468131324
 10
6.8625082725
 20
11.4717416575
 10
6.8675580612
 20
11.4760596714
 10
6.871990737
 20
11.481009117
 10
6.8757280232
 20
11.4865025912
 10
6.8787039251
 20
11.4924430826
 10
6.8808658957
 20
11.498725685
 10
6.8821757643
 20
11.5052394533
 10
6.8826104093
 20
11.5118693548
  0
LINE
  5
25F
100
AcDbEntity
  8
0
100
AcDbLine
 62
7
  6
CONTINUOUS
 10
6.8834768796
 20
11.5844595968
 11
7.0645256319
 21
11.5641755932
  0
LINE
  5
260
100
AcDbEntity
  8
0
100
AcDbLine
 62
9
  6
CONTINUOUS
 10
7.0841482596
 20
12.6865641496
 11
7.0309739485
 21
12.7016768407
  0
LINE
  5
261
100
AcDbEntity
  8
0
100
AcDbLine
 62
9
  6
CONTINUOUS
 10
7.0861242398
 20
12.9310776018
 11
7.0955819305
 21
12.9283896279
  0
LINE
  5
262
100
AcDbEntity
  8
0
100
AcDbLine
 62
7
  6
CONTINUOUS
 10
7.2190070005
 20
12.7068833048
 11
7.1578882606
 21
12.7254439063
  0
LINE
  5
263
100
AcDbEntity
  8
0
100
AcDbLine
 62
7
  6
CONTINUOUS
 10
14.0152292896
 20
0.6106128084
 11
14.0152292896
 21
0.7606128084
  0
LINE
  5
264
100
AcDbEntity
  8
0
100
AcDbLine
 62
7
  6
CONTINUOUS
 10
14.0153995147
 20
1.0206128084
 11
14.0153995147
 21
1.1206128084
  0
LINE
  5
265
100
AcDbEntity
  8
0
100
AcDbLine
 62
7
  6
CONTINUOUS
 10
14.015962859
 20
1.0206128084
 11
14.015962859
 21
1.1206128084
  0
LINE
  5
266
100
AcDbEntity
  8
0
100
AcDbLine
 62
7
  6
CONTINUOUS
 10
14.0180562972
 20
1.0206128084
 11
14.0180562972
 21
1.1206128084
  0
LINE
  5
267
100
AcDbEntity
  8
0
100
AcDbLine
 62
7
  6
CONTINUOUS
 10
14.0197447859
 20
1.0206128084
 11
14.0197447859
 21
1.1206128084
  0
LINE
  5
268
100
AcDbEntity
  8
0
100
AcDbLine
 62
7
  6
CONTINUOUS
 10
14.0239259244
 20
1.0206128084
 11
14.0239259244
 21
1.1206128084
  0
LINE
  5
269
100
AcDbEntity
  8
0
100
AcDbLine
 62
7
  6
CONTINUOUS
 10
14.0267349295
 20
1.0206128084
 11
14.0267349295
 21
1.1206128084
  0
LINE
  5
26A
100
AcDbEntity
  8
0
100
AcDbLine
 62
7
  6
CONTINUOUS
 10
14.0329923081
 20
1.0206128084
 11
14.0329923081
 21
1.1206128084
  0
LINE
  5
26B
100
AcDbEntity
  8
0
100
AcDbLine
 62
7
  6
CONTINUOUS
 10
14.0369141302
 20
1.0206128084
 11
14.0369141302
 21
1.1206128084
  0
LINE
  5
26C
100
AcDbEntity
  8
0
100
AcDbLine
 62
7
  6
CONTINUOUS
 10
14.0452305978
 20
1.0206128084
 11
14.0452305978
 21
1.1206128084
  0
LINE
  5
26D
100
AcDbEntity
  8
0
100
AcDbLine
 62
7
  6
CONTINUOUS
 10
14.0502544876
 20
1.0206128084
 11
14.0502544876
 21
1.1206128084
  0
LINE
  5
26E
100
AcDbEntity
  8
0
100
AcDbLine
 62
7
  6
CONTINUOUS
 10
14.0606072494
 20
1.0206128084
 11
14.0606072494
 21
1.1206128084
  0
LINE
  5
26F
100
AcDbEntity
  8
0
100
AcDbLine
 62
7
  6
CONTINUOUS
 10
14.0652292896
 20
0.8106128084
 11
14.0652292896
 21
1.0206128084
  0
LINE
  5
270
100
AcDbEntity
  8
0
100
AcDbLine
 62
7
  6
CONTINUOUS
 10
14.0667194368
 20
1.0206128084
 11
14.0667194368
 21
1.1206128084
  0
LINE
  5
271
100
AcDbEntity
  8
0
100
AcDbLine
 62
7
  6
CONTINUOUS
 10
14.0790801165
 20
1.0206128084
 11
14.0790801165
 21
1.1206128084
  0
LINE
  5
272
100
AcDbEntity
  8
0
100
AcDbLine
 62
7
  6
CONTINUOUS
 10
14.0862638483
 20
1.0206128084
 11
14.0862638483
 21
1.1206128084
  0
LINE
  5
273
100
AcDbEntity
  8
0
100
AcDbLine
 62
7
  6
CONTINUOUS
 10
14.1005985663
 20
1.0206128084
 11
14.1005985663
 21
1.1206128084
  0
LINE
  5
274
100
AcDbEntity
  8
0
100
AcDbLine
 62
7
  6
CONTINUOUS
 10
14.1088341524
 20
1.0206128084
 11
14.1088341524
 21
1.1206128084
  0
LINE
  5
275
100
AcDbEntity
  8
0
100
AcDbLine
 62
7
  6
CONTINUOUS
 10
14.1251036181
 20
1.0206128084
 11
14.1251036181
 21
1.1206128084
  0
LINE
  5
276
100
AcDbEntity
  8
0
100
AcDbLine
 62
7
  6
CONTINUOUS
 10
14.1343684854
 20
1.0206128084
 11
14.1343684854
 21
1.1206128084
  0
LINE
  5
277
100
AcDbEntity
  8
0
100
AcDbLine
 62
7
  6
CONTINUOUS
 10
14.1402292896
 20
3.6886128084
 11
14.1402292896
 21
3.8086128084
  0
LINE
  5
278
100
AcDbEntity
  8
0
100
AcDbLine
 62
7
  6
CONTINUOUS
 10
14.1525281054
 20
1.0206128084
 11
14.1525281054
 21
1.1206128084
  0
LINE
  5
279
100
AcDbEntity
  8
0
100
AcDbLine
 62
7
  6
CONTINUOUS
 10
14.1627968594
 20
1.0206128084
 11
14.1627968594
 21
1.1206128084
  0
LINE
  5
27A
100
AcDbEntity
  8
0
100
AcDbLine
 62
9
  6
CONTINUOUS
 10
7.273228331
 20
12.4776854552
 11
7.2810454411
 21
12.4767405136
  0
LINE
  5
27B
100
AcDbEntity
  8
0
100
AcDbLine
 62
9
  6
CONTINUOUS
 10
5.8855774921
 20
13.4261905036
 11
7.1360541772
 21
13.0707920509
  0
LINE
  5
27C
100
AcDbEntity
  8
0
100
AcDbLine
 62
9
  6
CONTINUOUS
 10
5.8802483933
 20
13.4591329057
 11
7.1579123543
 21
13.096007547
  0
LINE
  5
27D
100
AcDbEntity
  8
0
100
AcDbLine
 62
7
  6
CONTINUOUS
 10
5.9902516186
 20
13.6115952349
 11
7.1445377894
 21
13.2835351247
  0
LINE
  5
27E
100
AcDbEntity
  8
0
100
AcDbLine
 62
7
  6
CONTINUOUS
 10
7.1225152207
 20
13.315784256
 11
6.0259433585
 21
13.6274413607
  0
LINE
  5
27F
100
AcDbEntity
  8
0
100
AcDbLine
 62
9
  6
CONTINUOUS
 10
7.1789192753
 20
13.5142430692
 11
6.082347413
 21
13.825900174
  0
LINE
  5
280
100
AcDbEntity
  8
0
100
AcDbLine
 62
7
  6
CONTINUOUS
 10
14.1827968594
 20
1.0206128084
 11
14.1827968594
 21
1.1206128084
  0
LINE
  5
281
100
AcDbEntity
  8
0
100
AcDbLine
 62
7
  6
CONTINUOUS
 10
14.1940413544
 20
1.0206128084
 11
14.1940413544
 21
1.1206128084
  0
LINE
  5
282
100
AcDbEntity
  8
0
100
AcDbLine
 62
7
  6
CONTINUOUS
 10
14.2158269158
 20
1.0206128084
 11
14.2158269158
 21
1.1206128084
  0
LINE
  5
283
100
AcDbEntity
  8
0
100
AcDbLine
 62
7
  6
CONTINUOUS
 10
14.2280163312
 20
1.0206128084
 11
14.2280163312
 21
1.1206128084
  0
LINE
  5
284
100
AcDbEntity
  8
0
100
AcDbLine
 62
7
  6
CONTINUOUS
 10
14.2302292896
 20
3.8686128084
 11
14.2302292896
 21
3.9986128084
  0
LINE
  5
285
100
AcDbEntity
  8
0
100
AcDbLine
 62
7
  6
CONTINUOUS
 10
14.2515277413
 20
1.0206128084
 11
14.2515277413
 21
1.1206128084
  0
LINE
  5
286
100
AcDbEntity
  8
0
100
AcDbLine
 62
7
  6
CONTINUOUS
 10
14.2646286668
 20
1.0206128084
 11
14.2646286668
 21
1.1206128084
  0
LINE
  5
287
100
AcDbEntity
  8
0
100
AcDbLine
 62
7
  6
CONTINUOUS
 10
14.2898014825
 20
1.0206128084
 11
14.2898014825
 21
1.1206128084
  0
LINE
  5
288
100
AcDbEntity
  8
0
100
AcDbLine
 62
7
  6
CONTINUOUS
 10
14.2902292896
 20
5.1229750131
 11
14.2902292896
 21
5.7229750131
  0
LINE
  5
289
100
AcDbEntity
  8
0
100
AcDbLine
 62
7
  6
CONTINUOUS
 10
14.3037780094
 20
1.0206128084
 11
14.3037780094
 21
1.1206128084
  0
LINE
  5
28A
100
AcDbEntity
  8
0
100
AcDbLine
 62
7
  6
CONTINUOUS
 10
14.3305432337
 20
1.0206128084
 11
14.3305432337
 21
1.1206128084
  0
LINE
  5
28B
100
AcDbEntity
  8
0
100
AcDbLine
 62
7
  6
CONTINUOUS
 10
14.3453570534
 20
1.0206128084
 11
14.3453570534
 21
1.1206128084
  0
LINE
  5
28C
100
AcDbEntity
  8
0
100
AcDbLine
 62
7
  6
CONTINUOUS
 10
14.3736413247
 20
1.0206128084
 11
14.3736413247
 21
1.1206128084
  0
LINE
  5
28D
100
AcDbEntity
  8
0
100
AcDbLine
 62
7
  6
CONTINUOUS
 10
14.3892518335
 20
1.0206128084
 11
14.3892518335
 21
1.1206128084
  0
LINE
  5
28E
100
AcDbEntity
  8
0
100
AcDbLine
 62
7
  6
CONTINUOUS
 10
14.4002292896
 20
3.6886128084
 11
14.4002292896
 21
1.2206128084
  0
LINE
  5
28F
100
AcDbEntity
  8
0
100
AcDbLine
 62
7
  6
CONTINUOUS
 10
14.4152292896
 20
5.1229750131
 11
14.4152292896
 21
5.7229750131
  0
LINE
  5
290
100
AcDbEntity
  8
0
100
AcDbLine
 62
7
  6
CONTINUOUS
 10
14.4152646152
 20
4.6186128084
 11
14.4152646152
 21
4.5186128084
  0
LINE
  5
291
100
AcDbEntity
  8
0
100
AcDbLine
 62
7
  6
CONTINUOUS
 10
14.4166362232
 20
4.6186128084
 11
14.4166362232
 21
4.5186128084
  0
LINE
  5
292
100
AcDbEntity
  8
0
100
AcDbLine
 62
7
  6
CONTINUOUS
 10
14.4174973421
 20
1.1206128084
 11
14.4174973421
 21
1.0206128084
  0
LINE
  5
293
100
AcDbEntity
  8
0
100
AcDbLine
 62
7
  6
CONTINUOUS
 10
14.4176685572
 20
4.6186128084
 11
14.4176685572
 21
4.5186128084
  0
LINE
  5
294
100
AcDbEntity
  8
0
100
AcDbLine
 62
7
  6
CONTINUOUS
 10
14.4189776265
 20
1.0206128084
 11
14.4189776265
 21
1.1206128084
  0
LINE
  5
295
100
AcDbEntity
  8
0
100
AcDbLine
 62
7
  6
CONTINUOUS
 10
14.4217766989
 20
4.6186128084
 11
14.4217766989
 21
4.5186128084
  0
LINE
  5
296
100
AcDbEntity
  8
0
100
AcDbLine
 62
7
  6
CONTINUOUS
 10
14.4238363375
 20
4.6186128084
 11
14.4238363375
 21
4.5186128084
  0
LINE
  5
297
100
AcDbEntity
  8
0
100
AcDbLine
 62
7
  6
CONTINUOUS
 10
14.4306609983
 20
4.6186128084
 11
14.4306609983
 21
4.5186128084
  0
LINE
  5
298
100
AcDbEntity
  8
0
100
AcDbLine
 62
7
  6
CONTINUOUS
 10
14.4337379071
 20
4.6186128084
 11
14.4337379071
 21
4.5186128084
  0
LINE
  5
299
100
AcDbEntity
  8
0
100
AcDbLine
 62
7
  6
CONTINUOUS
 10
14.435342037
 20
1.0206128084
 11
14.435342037
 21
1.1206128084
  0
LINE
  5
29A
100
AcDbEntity
  8
0
100
AcDbLine
 62
7
  6
CONTINUOUS
 10
14.4432458381
 20
4.6186128084
 11
14.4432458381
 21
4.5186128084
  0
LINE
  5
29B
100
AcDbEntity
  8
0
100
AcDbLine
 62
7
  6
CONTINUOUS
 10
14.4452292896
 20
4.2886128084
 11
14.4452292896
 21
4.5186128084
  0
LINE
  5
29C
100
AcDbEntity
  8
0
100
AcDbLine
 62
7
  6
CONTINUOUS
 10
14.4473250267
 20
4.6186128084
 11
14.4473250267
 21
4.5186128084
  0
LINE
  5
29D
100
AcDbEntity
  8
0
100
AcDbLine
 62
7
  6
CONTINUOUS
 10
14.4594699062
 20
4.6186128084
 11
14.4594699062
 21
4.5186128084
  0
LINE
  5
29E
100
AcDbEntity
  8
0
100
AcDbLine
 62
7
  6
CONTINUOUS
 10
14.4634713641
 20
1.1206128084
 11
14.4634713641
 21
1.0206128084
  0
LINE
  5
29F
100
AcDbEntity
  8
0
100
AcDbLine
 62
7
  6
CONTINUOUS
 10
14.4645315013
 20
4.6186128084
 11
14.4645315013
 21
4.5186128084
  0
LINE
  5
2A0
100
AcDbEntity
  8
0
100
AcDbLine
 62
7
  6
CONTINUOUS
 10
14.4664278755
 20
1.0206128084
 11
14.4664278755
 21
1.1206128084
  0
LINE
  5
2A1
100
AcDbEntity
  8
0
100
AcDbLine
 62
7
  6
CONTINUOUS
 10
14.4792541605
 20
4.6186128084
 11
14.4792541605
 21
4.5186128084
  0
LINE
  5
2A2
100
AcDbEntity
  8
0
100
AcDbLine
 62
7
  6
CONTINUOUS
 10
14.4835013341
 20
1.0206128084
 11
14.4835013341
 21
1.1206128084
  0
LINE
  5
2A3
100
AcDbEntity
  8
0
100
AcDbLine
 62
7
  6
CONTINUOUS
 10
14.4852735025
 20
4.6186128084
 11
14.4852735025
 21
4.5186128084
  0
LINE
  5
2A4
100
AcDbEntity
  8
0
100
AcDbLine
 62
7
  6
CONTINUOUS
 10
14.4902292896
 20
5.1889760483
 11
14.4902292896
 21
5.6569739779
  0
LINE
  5
2A5
100
AcDbEntity
  8
0
100
AcDbLine
 62
7
  6
CONTINUOUS
 10
14.5025022142
 20
4.6186128084
 11
14.5025022142
 21
4.5186128084
  0
LINE
  5
2A6
100
AcDbEntity
  8
0
100
AcDbLine
 62
7
  6
CONTINUOUS
 10
14.5094499774
 20
4.6186128084
 11
14.5094499774
 21
4.5186128084
  0
LINE
  5
2A7
100
AcDbEntity
  8
0
100
AcDbLine
 62
7
  6
CONTINUOUS
 10
14.511437379
 20
1.1206128084
 11
14.511437379
 21
1.0206128084
  0
LINE
  5
2A8
100
AcDbEntity
  8
0
100
AcDbLine
 62
7
  6
CONTINUOUS
 10
14.5158620139
 20
1.0206128084
 11
14.5158620139
 21
1.1206128084
  0
LINE
  5
2A9
100
AcDbEntity
  8
0
100
AcDbLine
 62
7
  6
CONTINUOUS
 10
14.5291008051
 20
4.6186128084
 11
14.5291008051
 21
4.5186128084
  0
LINE
  5
2AA
100
AcDbEntity
  8
0
100
AcDbLine
 62
7
  6
CONTINUOUS
 10
14.5335977233
 20
1.0206128084
 11
14.5335977233
 21
1.1206128084
  0
LINE
  5
2AB
100
AcDbEntity
  8
0
100
AcDbLine
 62
7
  6
CONTINUOUS
 10
14.5369431407
 20
4.6186128084
 11
14.5369431407
 21
4.5186128084
  0
LINE
  5
2AC
100
AcDbEntity
  8
0
100
AcDbLine
 62
7
  6
CONTINUOUS
 10
14.5589203475
 20
4.6186128084
 11
14.5589203475
 21
4.5186128084
  0
LINE
  5
2AD
100
AcDbEntity
  8
0
100
AcDbLine
 62
7
  6
CONTINUOUS
 10
14.5612639154
 20
1.1206128084
 11
14.5612639154
 21
1.0206128084
  0
LINE
  5
2AE
100
AcDbEntity
  8
0
100
AcDbLine
 62
7
  6
CONTINUOUS
 10
14.5671445461
 20
1.0206128084
 11
14.5671445461
 21
1.1206128084
  0
LINE
  5
2AF
100
AcDbEntity
  8
0
100
AcDbLine
 62
7
  6
CONTINUOUS
 10
14.5676190485
 20
4.6186128084
 11
14.5676190485
 21
4.5186128084
  0
LINE
  5
2B0
100
AcDbEntity
  8
0
100
AcDbLine
 62
7
  6
CONTINUOUS
 10
14.5854938941
 20
1.0206128084
 11
14.5854938941
 21
1.1206128084
  0
LINE
  5
2B1
100
AcDbEntity
  8
0
100
AcDbLine
 62
7
  6
CONTINUOUS
 10
14.5918155636
 20
4.6186128084
 11
14.5918155636
 21
4.5186128084
  0
LINE
  5
2B2
100
AcDbEntity
  8
0
100
AcDbLine
 62
7
  6
CONTINUOUS
 10
14.6013282508
 20
4.6186128084
 11
14.6013282508
 21
4.5186128084
  0
LINE
  5
2B3
100
AcDbEntity
  8
0
100
AcDbLine
 62
7
  6
CONTINUOUS
 10
14.6128144022
 20
1.1206128084
 11
14.6128144022
 21
1.0206128084
  0
LINE
  5
2B4
100
AcDbEntity
  8
0
100
AcDbLine
 62
7
  6
CONTINUOUS
 10
14.6201349102
 20
1.0206128084
 11
14.6201349102
 21
1.1206128084
  0
LINE
  5
2B5
100
AcDbEntity
  8
0
100
AcDbLine
 62
7
  6
CONTINUOUS
 10
14.6202292896
 20
4.6853258306
 11
14.6202292896
 21
5.2279750131
  0
LINE
  5
2B6
100
AcDbEntity
  8
0
100
AcDbLine
 62
7
  6
CONTINUOUS
 10
14.6202292896
 20
5.6179750131
 11
14.6202292896
 21
12.4773270759
  0
LINE
  5
2B7
100
AcDbEntity
  8
0
100
AcDbLine
 62
7
  6
CONTINUOUS
 10
14.6276261912
 20
4.6186128084
 11
14.6276261912
 21
4.5186128084
  0
LINE
  5
2B8
100
AcDbEntity
  8
0
100
AcDbLine
 62
7
  6
CONTINUOUS
 10
14.6379065197
 20
4.6186128084
 11
14.6379065197
 21
4.5186128084
  0
LINE
  5
2B9
100
AcDbEntity
  8
0
100
AcDbLine
 62
7
  6
CONTINUOUS
 10
14.6390476025
 20
1.0206128084
 11
14.6390476025
 21
1.1206128084
  0
LINE
  5
2BA
100
AcDbEntity
  8
0
100
AcDbLine
 62
7
  6
CONTINUOUS
 10
14.6656927541
 20
4.6186128084
 11
14.6656927541
 21
4.5186128084
  0
LINE
  5
2BB
100
AcDbEntity
  8
0
100
AcDbLine
 62
7
  6
CONTINUOUS
 10
14.665947543
 20
1.1206128084
 11
14.665947543
 21
1.0206128084
  0
LINE
  5
2BC
100
AcDbEntity
  8
0
100
AcDbLine
 62
7
  6
CONTINUOUS
 10
14.6661777646
 20
4.6186128084
 11
14.6661777646
 21
4.5186128084
  0
LINE
  5
2BD
100
AcDbEntity
  8
0
100
AcDbLine
 62
7
  6
CONTINUOUS
 10
14.6746878635
 20
1.0206128084
 11
14.6746878635
 21
1.1206128084
  0
LINE
  5
2BE
100
AcDbEntity
  8
0
100
AcDbLine
 62
7
  6
CONTINUOUS
 10
14.6771756497
 20
4.6186128084
 11
14.6771756497
 21
4.5186128084
  0
LINE
  5
2BF
100
AcDbEntity
  8
0
100
AcDbLine
 62
7
  6
CONTINUOUS
 10
14.6941120616
 20
1.0206128084
 11
14.6941120616
 21
1.1206128084
  0
LINE
  5
2C0
100
AcDbEntity
  8
0
100
AcDbLine
 62
7
  6
CONTINUOUS
 10
14.7048603655
 20
4.6186128084
 11
14.7048603655
 21
4.5186128084
  0
LINE
  5
2C1
100
AcDbEntity
  8
0
100
AcDbLine
 62
7
  6
CONTINUOUS
 10
14.7072824643
 20
4.6186128084
 11
14.7072824643
 21
4.5186128084
  0
LINE
  5
2C2
100
AcDbEntity
  8
0
100
AcDbLine
 62
7
  6
CONTINUOUS
 10
14.7189443254
 20
4.6186128084
 11
14.7189443254
 21
4.5186128084
  0
LINE
  5
2C3
100
AcDbEntity
  8
0
100
AcDbLine
 62
7
  6
CONTINUOUS
 10
14.7205177036
 20
1.1206128084
 11
14.7205177036
 21
1.0206128084
  0
LINE
  5
2C4
100
AcDbEntity
  8
0
100
AcDbLine
 62
7
  6
CONTINUOUS
 10
14.7306538799
 20
1.0206128084
 11
14.7306538799
 21
1.1206128084
  0
LINE
  5
2C5
100
AcDbEntity
  8
0
100
AcDbLine
 62
7
  6
CONTINUOUS
 10
14.7463926456
 20
4.6186128084
 11
14.7463926456
 21
4.5186128084
  0
LINE
  5
2C6
100
AcDbEntity
  8
0
100
AcDbLine
 62
7
  6
CONTINUOUS
 10
14.7505363436
 20
1.0206128084
 11
14.7505363436
 21
1.1206128084
  0
LINE
  5
2C7
100
AcDbEntity
  8
0
100
AcDbLine
 62
7
  6
CONTINUOUS
 10
14.7507400324
 20
4.6186128084
 11
14.7507400324
 21
4.5186128084
  0
LINE
  5
2C8
100
AcDbEntity
  8
0
100
AcDbLine
 62
7
  6
CONTINUOUS
 10
14.7630090541
 20
4.6186128084
 11
14.7630090541
 21
4.5186128084
  0
LINE
  5
2C9
100
AcDbEntity
  8
0
100
AcDbLine
 62
7
  6
CONTINUOUS
 10
14.7763753111
 20
1.1206128084
 11
14.7763753111
 21
1.0206128084
  0
LINE
  5
2CA
100
AcDbEntity
  8
0
100
AcDbLine
 62
7
  6
CONTINUOUS
 10
14.7878795606
 20
1.0206128084
 11
14.7878795606
 21
1.1206128084
  0
LINE
  5
2CB
100
AcDbEntity
  8
0
100
AcDbLine
 62
7
  6
CONTINUOUS
 10
14.7900872532
 20
4.6186128084
 11
14.7900872532
 21
4.5186128084
  0
LINE
  5
2CC
100
AcDbEntity
  8
0
100
AcDbLine
 62
7
  6
CONTINUOUS
 10
14.796338748
 20
4.6186128084
 11
14.796338748
 21
4.5186128084
  0
LINE
  5
2CD
100
AcDbEntity
  8
0
100
AcDbLine
 62
7
  6
CONTINUOUS
 10
14.8081657933
 20
1.0206128084
 11
14.8081657933
 21
1.1206128084
  0
LINE
  5
2CE
100
AcDbEntity
  8
0
100
AcDbLine
 62
7
  6
CONTINUOUS
 10
14.8091551568
 20
4.6186128084
 11
14.8091551568
 21
4.5186128084
  0
LINE
  5
2CF
100
AcDbEntity
  8
0
100
AcDbLine
 62
7
  6
CONTINUOUS
 10
14.8333672636
 20
1.1206128084
 11
14.8333672636
 21
1.0206128084
  0
LINE
  5
2D0
100
AcDbEntity
  8
0
100
AcDbLine
 62
7
  6
CONTINUOUS
 10
14.8357313125
 20
4.6186128084
 11
14.8357313125
 21
4.5186128084
  0
LINE
  5
2D1
100
AcDbEntity
  8
0
100
AcDbLine
 62
9
  6
CONTINUOUS
 10
14.8402292896
 20
5.6179750131
 11
14.8402292896
 21
5.2279750131
  0
LINE
  5
2D2
100
AcDbEntity
  8
0
100
AcDbLine
 62
7
  6
CONTINUOUS
 10
14.8438564588
 20
4.6186128084
 11
14.8438564588
 21
4.5186128084
  0
LINE
  5
2D3
100
AcDbEntity
  8
0
100
AcDbLine
 62
7
  6
CONTINUOUS
 10
14.846208054
 20
1.0206128084
 11
14.846208054
 21
1.1206128084
  0
LINE
  5
2D4
100
AcDbEntity
  8
0
100
AcDbLine
 62
9
  6
CONTINUOUS
 10
14.6202292896
 20
12.4773270759
 11
15.7602292896
 21
12.4773270759
  0
LINE
  5
2D5
100
AcDbEntity
  8
0
100
AcDbLine
 62
7
  6
CONTINUOUS
 10
14.8571578144
 20
4.6186128084
 11
14.8571578144
 21
4.5186128084
  0
LINE
  5
2D6
100
AcDbEntity
  8
0
100
AcDbLine
 62
7
  6
CONTINUOUS
 10
14.8668424526
 20
1.0206128084
 11
14.8668424526
 21
1.1206128084
  0
LINE
  5
2D7
100
AcDbEntity
  8
0
100
AcDbLine
 62
7
  6
CONTINUOUS
 10
14.8831024504
 20
4.6186128084
 11
14.8831024504
 21
4.5186128084
  0
LINE
  5
2D8
100
AcDbEntity
  8
0
100
AcDbLine
 62
7
  6
CONTINUOUS
 10
14.89133735
 20
1.1206128084
 11
14.89133735
 21
1.0206128084
  0
LINE
  5
2D9
100
AcDbEntity
  8
0
100
AcDbLine
 62
7
  6
CONTINUOUS
 10
14.8927292896
 20
4.8086128084
 11
14.8927292896
 21
4.8953863541
  0
LINE
  5
2DA
100
AcDbEntity
  8
0
100
AcDbLine
 62
7
  6
CONTINUOUS
 10
14.8930616631
 20
4.6186128084
 11
14.8930616631
 21
4.5186128084
  0
LINE
  5
2DB
100
AcDbEntity
  8
0
100
AcDbLine
 62
7
  6
CONTINUOUS
 10
14.9054794856
 20
1.0206128084
 11
14.9054794856
 21
1.1206128084
  0
LINE
  5
2DC
100
AcDbEntity
  8
0
100
AcDbLine
 62
7
  6
CONTINUOUS
 10
14.9067831627
 20
4.6186128084
 11
14.9067831627
 21
4.5186128084
  0
LINE
  5
2DD
100
AcDbEntity
  8
0
100
AcDbLine
 62
7
  6
CONTINUOUS
 10
14.9264054927
 20
1.0206128084
 11
14.9264054927
 21
1.1206128084
  0
LINE
  5
2DE
100
AcDbEntity
  8
0
100
AcDbLine
 62
7
  6
CONTINUOUS
 10
14.9319698794
 20
4.6186128084
 11
14.9319698794
 21
4.5186128084
  0
LINE
  5
2DF
100
AcDbEntity
  8
0
100
AcDbLine
 62
7
  6
CONTINUOUS
 10
14.9437146382
 20
4.6186128084
 11
14.9437146382
 21
4.5186128084
  0
LINE
  5
2E0
100
AcDbEntity
  8
0
100
AcDbLine
 62
7
  6
CONTINUOUS
 10
14.9501266785
 20
1.1206128084
 11
14.9501266785
 21
1.0206128084
  0
LINE
  5
2E1
100
AcDbEntity
  8
0
100
AcDbLine
 62
7
  6
CONTINUOUS
 10
14.9577894321
 20
4.6186128084
 11
14.9577894321
 21
4.5186128084
  0
LINE
  5
2E2
100
AcDbEntity
  8
0
100
AcDbLine
 62
7
  6
CONTINUOUS
 10
14.9655313967
 20
1.0206128084
 11
14.9655313967
 21
1.1206128084
  0
LINE
  5
2E3
100
AcDbEntity
  8
0
100
AcDbLine
 62
7
  6
CONTINUOUS
 10
14.9820955222
 20
4.6186128084
 11
14.9820955222
 21
4.5186128084
  0
LINE
  5
2E4
100
AcDbEntity
  8
0
100
AcDbLine
 62
7
  6
CONTINUOUS
 10
14.9866916554
 20
1.0206128084
 11
14.9866916554
 21
1.1206128084
  0
LINE
  5
2E5
100
AcDbEntity
  8
0
100
AcDbLine
 62
7
  6
CONTINUOUS
 10
14.9952292896
 20
5.0729750131
 11
14.9952292896
 21
5.0529750131
  0
LINE
  5
2E6
100
AcDbEntity
  8
0
100
AcDbLine
 62
7
  6
CONTINUOUS
 10
14.995568608
 20
4.6186128084
 11
14.995568608
 21
4.5186128084
  0
LINE
  5
2E7
100
AcDbEntity
  8
0
100
AcDbLine
 62
7
  6
CONTINUOUS
 10
15.0095741116
 20
1.1206128084
 11
15.0095741116
 21
1.0206128084
  0
LINE
  5
2E8
100
AcDbEntity
  8
0
100
AcDbLine
 62
7
  6
CONTINUOUS
 10
15.0099281251
 20
4.6186128084
 11
15.0099281251
 21
4.5186128084
  0
LINE
  5
2E9
100
AcDbEntity
  8
0
100
AcDbLine
 62
7
  6
CONTINUOUS
 10
15.0261991891
 20
1.0206128084
 11
15.0261991891
 21
1.1206128084
  0
LINE
  5
2EA
100
AcDbEntity
  8
0
100
AcDbLine
 62
7
  6
CONTINUOUS
 10
15.0332351719
 20
4.6186128084
 11
15.0332351719
 21
4.5186128084
  0
LINE
  5
2EB
100
AcDbEntity
  8
0
100
AcDbLine
 62
7
  6
CONTINUOUS
 10
15.0475357007
 20
1.0206128084
 11
15.0475357007
 21
1.1206128084
  0
LINE
  5
2EC
100
AcDbEntity
  8
0
100
AcDbLine
 62
7
  6
CONTINUOUS
 10
15.048370945
 20
4.6186128084
 11
15.048370945
 21
4.5186128084
  0
LINE
  5
2ED
100
AcDbEntity
  8
0
100
AcDbLine
 62
7
  6
CONTINUOUS
 10
15.0629452273
 20
4.6186128084
 11
15.0629452273
 21
4.5186128084
  0
LINE
  5
2EE
100
AcDbEntity
  8
0
100
AcDbLine
 62
7
  6
CONTINUOUS
 10
15.0695167079
 20
1.1206128084
 11
15.0695167079
 21
1.0206128084
  0
LINE
  5
2EF
100
AcDbEntity
  8
0
100
AcDbLine
 62
7
  6
CONTINUOUS
 10
15.0851396811
 20
4.6186128084
 11
15.0851396811
 21
4.5186128084
  0
LINE
  5
2F0
100
AcDbEntity
  8
0
100
AcDbLine
 62
7
  6
CONTINUOUS
 10
15.0873165765
 20
1.0206128084
 11
15.0873165765
 21
1.1206128084
  0
LINE
  5
2F1
100
AcDbEntity
  8
0
100
AcDbLine
 62
7
  6
CONTINUOUS
 10
15.1018644016
 20
4.6186128084
 11
15.1018644016
 21
4.5186128084
  0
LINE
  5
2F2
100
AcDbEntity
  8
0
100
AcDbLine
 62
7
  6
CONTINUOUS
 10
15.1087708592
 20
1.0206128084
 11
15.1087708592
 21
1.1206128084
  0
LINE
  5
2F3
100
AcDbEntity
  8
0
100
AcDbLine
 62
7
  6
CONTINUOUS
 10
15.1165824446
 20
4.6186128084
 11
15.1165824446
 21
4.5186128084
  0
LINE
  5
2F4
100
AcDbEntity
  8
0
100
AcDbLine
 62
7
  6
CONTINUOUS
 10
15.129790169
 20
1.1206128084
 11
15.129790169
 21
1.0206128084
  0
LINE
  5
2F5
100
AcDbEntity
  8
0
100
AcDbLine
 62
7
  6
CONTINUOUS
 10
15.1375561763
 20
4.6186128084
 11
15.1375561763
 21
4.5186128084
  0
LINE
  5
2F6
100
AcDbEntity
  8
0
100
AcDbLine
 62
7
  6
CONTINUOUS
 10
15.1487160406
 20
1.0206128084
 11
15.1487160406
 21
1.1206128084
  0
LINE
  5
2F7
100
AcDbEntity
  8
0
100
AcDbLine
 62
7
  6
CONTINUOUS
 10
15.1557883631
 20
4.6186128084
 11
15.1557883631
 21
4.5186128084
  0
LINE
  5
2F8
100
AcDbEntity
  8
0
100
AcDbLine
 62
7
  6
CONTINUOUS
 10
15.1702292896
 20
1.0206128084
 11
15.1702292896
 21
1.1206128084
  0
LINE
  5
2F9
100
AcDbEntity
  8
0
100
AcDbLine
 62
7
  6
CONTINUOUS
 10
15.1705784619
 20
4.6186128084
 11
15.1705784619
 21
4.5186128084
  0
LINE
  5
2FA
100
AcDbEntity
  8
0
100
AcDbLine
 62
7
  6
CONTINUOUS
 10
15.1902292896
 20
4.6186128084
 11
15.1902292896
 21
4.5186128084
  0
LINE
  5
2FB
100
AcDbEntity
  8
0
100
AcDbLine
 62
7
  6
CONTINUOUS
 10
15.1902292896
 20
1.1206128084
 11
15.1902292896
 21
1.0206128084
  0
LINE
  5
2FC
100
AcDbEntity
  8
0
100
AcDbLine
 62
7
  6
CONTINUOUS
 10
15.2098801173
 20
4.6186128084
 11
15.2098801173
 21
4.5186128084
  0
LINE
  5
2FD
100
AcDbEntity
  8
0
100
AcDbLine
 62
7
  6
CONTINUOUS
 10
15.2102292896
 20
1.0206128084
 11
15.2102292896
 21
1.1206128084
  0
LINE
  5
2FE
100
AcDbEntity
  8
0
100
AcDbLine
 62
7
  6
CONTINUOUS
 10
15.2246702161
 20
4.6186128084
 11
15.2246702161
 21
4.5186128084
  0
LINE
  5
2FF
100
AcDbEntity
  8
0
100
AcDbLine
 62
7
  6
CONTINUOUS
 10
15.2317425386
 20
1.0206128084
 11
15.2317425386
 21
1.1206128084
  0
LINE
  5
300
100
AcDbEntity
  8
0
100
AcDbLine
 62
7
  6
CONTINUOUS
 10
15.2429024029
 20
4.6186128084
 11
15.2429024029
 21
4.5186128084
  0
LINE
  5
301
100
AcDbEntity
  8
0
100
AcDbLine
 62
7
  6
CONTINUOUS
 10
15.2506684102
 20
1.1206128084
 11
15.2506684102
 21
1.0206128084
  0
LINE
  5
302
100
AcDbEntity
  8
0
100
AcDbLine
 62
7
  6
CONTINUOUS
 10
15.2638761346
 20
4.6186128084
 11
15.2638761346
 21
4.5186128084
  0
LINE
  5
303
100
AcDbEntity
  8
0
100
AcDbLine
 62
7
  6
CONTINUOUS
 10
15.27168772
 20
1.0206128084
 11
15.27168772
 21
1.1206128084
  0
LINE
  5
304
100
AcDbEntity
  8
0
100
AcDbLine
 62
7
  6
CONTINUOUS
 10
15.2785941776
 20
4.6186128084
 11
15.2785941776
 21
4.5186128084
  0
LINE
  5
305
100
AcDbEntity
  8
0
100
AcDbLine
 62
7
  6
CONTINUOUS
 10
15.2931420027
 20
1.0206128084
 11
15.2931420027
 21
1.1206128084
  0
LINE
  5
306
100
AcDbEntity
  8
0
100
AcDbLine
 62
7
  6
CONTINUOUS
 10
15.2953188981
 20
4.6186128084
 11
15.2953188981
 21
4.5186128084
  0
LINE
  5
307
100
AcDbEntity
  8
0
100
AcDbLine
 62
7
  6
CONTINUOUS
 10
15.3109418713
 20
1.1206128084
 11
15.3109418713
 21
1.0206128084
  0
LINE
  5
308
100
AcDbEntity
  8
0
100
AcDbLine
 62
7
  6
CONTINUOUS
 10
15.3175133519
 20
4.6186128084
 11
15.3175133519
 21
4.5186128084
  0
LINE
  5
309
100
AcDbEntity
  8
0
100
AcDbLine
 62
7
  6
CONTINUOUS
 10
15.3320876342
 20
4.6186128084
 11
15.3320876342
 21
4.5186128084
  0
LINE
  5
30A
100
AcDbEntity
  8
0
100
AcDbLine
 62
7
  6
CONTINUOUS
 10
15.3329228785
 20
1.0206128084
 11
15.3329228785
 21
1.1206128084
  0
LINE
  5
30B
100
AcDbEntity
  8
0
100
AcDbLine
 62
7
  6
CONTINUOUS
 10
15.3472234073
 20
4.6186128084
 11
15.3472234073
 21
4.5186128084
  0
LINE
  5
30C
100
AcDbEntity
  8
0
100
AcDbLine
 62
7
  6
CONTINUOUS
 10
15.3542593901
 20
1.0206128084
 11
15.3542593901
 21
1.1206128084
  0
LINE
  5
30D
100
AcDbEntity
  8
0
100
AcDbLine
 62
7
  6
CONTINUOUS
 10
15.3705304541
 20
4.6186128084
 11
15.3705304541
 21
4.5186128084
  0
LINE
  5
30E
100
AcDbEntity
  8
0
100
AcDbLine
 62
7
  6
CONTINUOUS
 10
15.3708844677
 20
1.1206128084
 11
15.3708844677
 21
1.0206128084
  0
LINE
  5
30F
100
AcDbEntity
  8
0
100
AcDbLine
 62
7
  6
CONTINUOUS
 10
15.3848899712
 20
4.6186128084
 11
15.3848899712
 21
4.5186128084
  0
LINE
  5
310
100
AcDbEntity
  8
0
100
AcDbLine
 62
7
  6
CONTINUOUS
 10
15.3852292896
 20
5.0729750131
 11
15.3852292896
 21
5.0529750131
  0
LINE
  5
311
100
AcDbEntity
  8
0
100
AcDbLine
 62
7
  6
CONTINUOUS
 10
15.3937669238
 20
1.0206128084
 11
15.3937669238
 21
1.1206128084
  0
LINE
  5
312
100
AcDbEntity
  8
0
100
AcDbLine
 62
7
  6
CONTINUOUS
 10
15.398363057
 20
4.6186128084
 11
15.398363057
 21
4.5186128084
  0
LINE
  5
313
100
AcDbEntity
  8
0
100
AcDbLine
 62
7
  6
CONTINUOUS
 10
15.4149271825
 20
1.0206128084
 11
15.4149271825
 21
1.1206128084
  0
LINE
  5
314
100
AcDbEntity
  8
0
100
AcDbLine
 62
7
  6
CONTINUOUS
 10
15.4226691471
 20
4.6186128084
 11
15.4226691471
 21
4.5186128084
  0
LINE
  5
315
100
AcDbEntity
  8
0
100
AcDbLine
 62
7
  6
CONTINUOUS
 10
15.4303319007
 20
1.1206128084
 11
15.4303319007
 21
1.0206128084
  0
LINE
  5
316
100
AcDbEntity
  8
0
100
AcDbLine
 62
7
  6
CONTINUOUS
 10
15.436743941
 20
4.6186128084
 11
15.436743941
 21
4.5186128084
  0
LINE
  5
317
100
AcDbEntity
  8
0
100
AcDbLine
 62
7
  6
CONTINUOUS
 10
15.4484886998
 20
4.6186128084
 11
15.4484886998
 21
4.5186128084
  0
LINE
  5
318
100
AcDbEntity
  8
0
100
AcDbLine
 62
7
  6
CONTINUOUS
 10
15.4540530865
 20
1.0206128084
 11
15.4540530865
 21
1.1206128084
  0
LINE
  5
319
100
AcDbEntity
  8
0
100
AcDbLine
 62
7
  6
CONTINUOUS
 10
15.4736754165
 20
4.6186128084
 11
15.4736754165
 21
4.5186128084
  0
LINE
  5
31A
100
AcDbEntity
  8
0
100
AcDbLine
 62
7
  6
CONTINUOUS
 10
15.4749790936
 20
1.0206128084
 11
15.4749790936
 21
1.1206128084
  0
LINE
  5
31B
100
AcDbEntity
  8
0
100
AcDbLine
 62
7
  6
CONTINUOUS
 10
15.4873969161
 20
4.6186128084
 11
15.4873969161
 21
4.5186128084
  0
LINE
  5
31C
100
AcDbEntity
  8
0
100
AcDbLine
 62
7
  6
CONTINUOUS
 10
15.4877292896
 20
4.8953863541
 11
15.4877292896
 21
4.7507482888
  0
LINE
  5
31D
100
AcDbEntity
  8
0
100
AcDbLine
 62
7
  6
CONTINUOUS
 10
15.4891212292
 20
1.1206128084
 11
15.4891212292
 21
1.0206128084
  0
LINE
  5
31E
100
AcDbEntity
  8
0
100
AcDbLine
 62
7
  6
CONTINUOUS
 10
15.4973561288
 20
4.6186128084
 11
15.4973561288
 21
4.5186128084
  0
LINE
  5
31F
100
AcDbEntity
  8
0
100
AcDbLine
 62
7
  6
CONTINUOUS
 10
15.5136161266
 20
1.0206128084
 11
15.5136161266
 21
1.1206128084
  0
LINE
  5
320
100
AcDbEntity
  8
0
100
AcDbLine
 62
7
  6
CONTINUOUS
 10
15.5233007648
 20
4.6186128084
 11
15.5233007648
 21
4.5186128084
  0
LINE
  5
321
100
AcDbEntity
  8
0
100
AcDbLine
 62
7
  6
CONTINUOUS
 10
15.5342505252
 20
1.0206128084
 11
15.5342505252
 21
1.1206128084
  0
LINE
  5
322
100
AcDbEntity
  8
0
100
AcDbLine
 62
7
  6
CONTINUOUS
 10
15.5366021205
 20
4.6186128084
 11
15.5366021205
 21
4.5186128084
  0
LINE
  5
323
100
AcDbEntity
  8
0
100
AcDbLine
 62
7
  6
CONTINUOUS
 10
15.5447272667
 20
4.6186128084
 11
15.5447272667
 21
4.5186128084
  0
LINE
  5
324
100
AcDbEntity
  8
0
100
AcDbLine
 62
7
  6
CONTINUOUS
 10
15.5470913157
 20
1.1206128084
 11
15.5470913157
 21
1.0206128084
  0
LINE
  5
325
100
AcDbEntity
  8
0
100
AcDbLine
 62
7
  6
CONTINUOUS
 10
15.5713034224
 20
4.6186128084
 11
15.5713034224
 21
4.5186128084
  0
LINE
  5
326
100
AcDbEntity
  8
0
100
AcDbLine
 62
7
  6
CONTINUOUS
 10
15.5722927859
 20
1.0206128084
 11
15.5722927859
 21
1.1206128084
  0
LINE
  5
327
100
AcDbEntity
  8
0
100
AcDbLine
 62
7
  6
CONTINUOUS
 10
15.5841198312
 20
4.6186128084
 11
15.5841198312
 21
4.5186128084
  0
LINE
  5
328
100
AcDbEntity
  8
0
100
AcDbLine
 62
7
  6
CONTINUOUS
 10
15.590371326
 20
4.6186128084
 11
15.590371326
 21
4.5186128084
  0
LINE
  5
329
100
AcDbEntity
  8
0
100
AcDbLine
 62
7
  6
CONTINUOUS
 10
15.5925790186
 20
1.0206128084
 11
15.5925790186
 21
1.1206128084
  0
LINE
  5
32A
100
AcDbEntity
  8
0
100
AcDbLine
 62
7
  6
CONTINUOUS
 10
15.6040832681
 20
1.1206128084
 11
15.6040832681
 21
1.0206128084
  0
LINE
  5
32B
100
AcDbEntity
  8
0
100
AcDbLine
 62
7
  6
CONTINUOUS
 10
15.6174495252
 20
4.6186128084
 11
15.6174495252
 21
4.5186128084
  0
LINE
  5
32C
100
AcDbEntity
  8
0
100
AcDbLine
 62
7
  6
CONTINUOUS
 10
15.6297185468
 20
4.6186128084
 11
15.6297185468
 21
4.5186128084
  0
LINE
  5
32D
100
AcDbEntity
  8
0
100
AcDbLine
 62
7
  6
CONTINUOUS
 10
15.6299222356
 20
1.0206128084
 11
15.6299222356
 21
1.1206128084
  0
LINE
  5
32E
100
AcDbEntity
  8
0
100
AcDbLine
 62
7
  6
CONTINUOUS
 10
15.6340659336
 20
4.6186128084
 11
15.6340659336
 21
4.5186128084
  0
LINE
  5
32F
100
AcDbEntity
  8
0
100
AcDbLine
 62
7
  6
CONTINUOUS
 10
15.6498046993
 20
1.0206128084
 11
15.6498046993
 21
1.1206128084
  0
LINE
  5
330
100
AcDbEntity
  8
0
100
AcDbLine
 62
7
  6
CONTINUOUS
 10
15.6599408756
 20
1.1206128084
 11
15.6599408756
 21
1.0206128084
  0
LINE
  5
331
100
AcDbEntity
  8
0
100
AcDbLine
 62
7
  6
CONTINUOUS
 10
15.6615142539
 20
4.6186128084
 11
15.6615142539
 21
4.5186128084
  0
LINE
  5
332
100
AcDbEntity
  8
0
100
AcDbLine
 62
7
  6
CONTINUOUS
 10
15.6731761149
 20
4.6186128084
 11
15.6731761149
 21
4.5186128084
  0
LINE
  5
333
100
AcDbEntity
  8
0
100
AcDbLine
 62
7
  6
CONTINUOUS
 10
15.6755982137
 20
4.6186128084
 11
15.6755982137
 21
4.5186128084
  0
LINE
  5
334
100
AcDbEntity
  8
0
100
AcDbLine
 62
7
  6
CONTINUOUS
 10
15.6863465176
 20
1.0206128084
 11
15.6863465176
 21
1.1206128084
  0
LINE
  5
335
100
AcDbEntity
  8
0
100
AcDbLine
 62
7
  6
CONTINUOUS
 10
15.7032829296
 20
4.6186128084
 11
15.7032829296
 21
4.5186128084
  0
LINE
  5
336
100
AcDbEntity
  8
0
100
AcDbLine
 62
7
  6
CONTINUOUS
 10
15.7057707157
 20
1.0206128084
 11
15.7057707157
 21
1.1206128084
  0
LINE
  5
337
100
AcDbEntity
  8
0
100
AcDbLine
 62
7
  6
CONTINUOUS
 10
15.7142808146
 20
4.6186128084
 11
15.7142808146
 21
4.5186128084
  0
LINE
  5
338
100
AcDbEntity
  8
0
100
AcDbLine
 62
7
  6
CONTINUOUS
 10
15.7145110362
 20
1.1206128084
 11
15.7145110362
 21
1.0206128084
  0
LINE
  5
339
100
AcDbEntity
  8
0
100
AcDbLine
 62
7
  6
CONTINUOUS
 10
15.7147658251
 20
4.6186128084
 11
15.7147658251
 21
4.5186128084
  0
LINE
  5
33A
100
AcDbEntity
  8
0
100
AcDbLine
 62
7
  6
CONTINUOUS
 10
15.7414109767
 20
1.0206128084
 11
15.7414109767
 21
1.1206128084
  0
LINE
  5
33B
100
AcDbEntity
  8
0
100
AcDbLine
 62
7
  6
CONTINUOUS
 10
15.7425520595
 20
4.6186128084
 11
15.7425520595
 21
4.5186128084
  0
LINE
  5
33C
100
AcDbEntity
  8
0
100
AcDbLine
 62
7
  6
CONTINUOUS
 10
15.752832388
 20
4.6186128084
 11
15.752832388
 21
4.5186128084
  0
LINE
  5
33D
100
AcDbEntity
  8
0
100
AcDbLine
 62
7
  6
CONTINUOUS
 10
15.7602292896
 20
4.6514904564
 11
15.7602292896
 21
12.4773270759
  0
LINE
  5
33E
100
AcDbEntity
  8
0
100
AcDbLine
 62
7
  6
CONTINUOUS
 10
15.760323669
 20
1.0206128084
 11
15.760323669
 21
1.1206128084
  0
LINE
  5
33F
100
AcDbEntity
  8
0
100
AcDbLine
 62
7
  6
CONTINUOUS
 10
15.7676441771
 20
1.1206128084
 11
15.7676441771
 21
1.0206128084
  0
LINE
  5
340
100
AcDbEntity
  8
0
100
AcDbLine
 62
7
  6
CONTINUOUS
 10
15.7791303285
 20
4.6186128084
 11
15.7791303285
 21
4.5186128084
  0
LINE
  5
341
100
AcDbEntity
  8
0
100
AcDbLine
 62
7
  6
CONTINUOUS
 10
15.7886430156
 20
4.6186128084
 11
15.7886430156
 21
4.5186128084
  0
LINE
  5
342
100
AcDbEntity
  8
0
100
AcDbLine
 62
7
  6
CONTINUOUS
 10
15.7949646851
 20
1.0206128084
 11
15.7949646851
 21
1.1206128084
  0
LINE
  5
343
100
AcDbEntity
  8
0
100
AcDbLine
 62
7
  6
CONTINUOUS
 10
15.8128395307
 20
4.6186128084
 11
15.8128395307
 21
4.5186128084
  0
LINE
  5
344
100
AcDbEntity
  8
0
100
AcDbLine
 62
7
  6
CONTINUOUS
 10
15.8133140332
 20
1.0206128084
 11
15.8133140332
 21
1.1206128084
  0
LINE
  5
345
100
AcDbEntity
  8
0
100
AcDbLine
 62
7
  6
CONTINUOUS
 10
15.8191946638
 20
1.1206128084
 11
15.8191946638
 21
1.0206128084
  0
LINE
  5
346
100
AcDbEntity
  8
0
100
AcDbLine
 62
7
  6
CONTINUOUS
 10
15.8215382317
 20
4.6186128084
 11
15.8215382317
 21
4.5186128084
  0
LINE
  5
347
100
AcDbEntity
  8
0
100
AcDbLine
 62
7
  6
CONTINUOUS
 10
15.8435154385
 20
4.6186128084
 11
15.8435154385
 21
4.5186128084
  0
LINE
  5
348
100
AcDbEntity
  8
0
100
AcDbLine
 62
7
  6
CONTINUOUS
 10
15.8468608559
 20
1.0206128084
 11
15.8468608559
 21
1.1206128084
  0
LINE
  5
349
100
AcDbEntity
  8
0
100
AcDbLine
 62
7
  6
CONTINUOUS
 10
15.8513577741
 20
4.6186128084
 11
15.8513577741
 21
4.5186128084
  0
LINE
  5
34A
100
AcDbEntity
  8
0
100
AcDbLine
 62
7
  6
CONTINUOUS
 10
15.8645965654
 20
1.0206128084
 11
15.8645965654
 21
1.1206128084
  0
LINE
  5
34B
100
AcDbEntity
  8
0
100
AcDbLine
 62
7
  6
CONTINUOUS
 10
15.8690212002
 20
1.1206128084
 11
15.8690212002
 21
1.0206128084
  0
LINE
  5
34C
100
AcDbEntity
  8
0
100
AcDbLine
 62
7
  6
CONTINUOUS
 10
15.8710086018
 20
4.6186128084
 11
15.8710086018
 21
4.5186128084
  0
LINE
  5
34D
100
AcDbEntity
  8
0
100
AcDbLine
 62
7
  6
CONTINUOUS
 10
15.877956365
 20
4.6186128084
 11
15.877956365
 21
4.5186128084
  0
LINE
  5
34E
100
AcDbEntity
  8
0
100
AcDbLine
 62
7
  6
CONTINUOUS
 10
15.8951850767
 20
4.6186128084
 11
15.8951850767
 21
4.5186128084
  0
LINE
  5
34F
100
AcDbEntity
  8
0
100
AcDbLine
 62
7
  6
CONTINUOUS
 10
15.8969572451
 20
1.0206128084
 11
15.8969572451
 21
1.1206128084
  0
LINE
  5
350
100
AcDbEntity
  8
0
100
AcDbLine
 62
7
  6
CONTINUOUS
 10
15.9012044187
 20
4.6186128084
 11
15.9012044187
 21
4.5186128084
  0
LINE
  5
351
100
AcDbEntity
  8
0
100
AcDbLine
 62
7
  6
CONTINUOUS
 10
15.9140307037
 20
1.0206128084
 11
15.9140307037
 21
1.1206128084
  0
LINE
  5
352
100
AcDbEntity
  8
0
100
AcDbLine
 62
7
  6
CONTINUOUS
 10
15.9159270779
 20
4.6186128084
 11
15.9159270779
 21
4.5186128084
  0
LINE
  5
353
100
AcDbEntity
  8
0
100
AcDbLine
 62
7
  6
CONTINUOUS
 10
15.9169872151
 20
1.1206128084
 11
15.9169872151
 21
1.0206128084
  0
LINE
  5
354
100
AcDbEntity
  8
0
100
AcDbLine
 62
7
  6
CONTINUOUS
 10
15.9209886731
 20
4.6186128084
 11
15.9209886731
 21
4.5186128084
  0
LINE
  5
355
100
AcDbEntity
  8
0
100
AcDbLine
 62
7
  6
CONTINUOUS
 10
15.9331335525
 20
4.6186128084
 11
15.9331335525
 21
4.5186128084
  0
LINE
  5
356
100
AcDbEntity
  8
0
100
AcDbLine
 62
7
  6
CONTINUOUS
 10
15.9352292896
 20
4.2886128084
 11
15.9352292896
 21
4.5186128084
  0
LINE
  5
357
100
AcDbEntity
  8
0
100
AcDbLine
 62
7
  6
CONTINUOUS
 10
15.9372127411
 20
4.6186128084
 11
15.9372127411
 21
4.5186128084
  0
LINE
  5
358
100
AcDbEntity
  8
0
100
AcDbLine
 62
7
  6
CONTINUOUS
 10
15.9451165422
 20
1.0206128084
 11
15.9451165422
 21
1.1206128084
  0
LINE
  5
359
100
AcDbEntity
  8
0
100
AcDbLine
 62
7
  6
CONTINUOUS
 10
15.9467206721
 20
4.6186128084
 11
15.9467206721
 21
4.5186128084
  0
LINE
  5
35A
100
AcDbEntity
  8
0
100
AcDbLine
 62
7
  6
CONTINUOUS
 10
15.9497975809
 20
4.6186128084
 11
15.9497975809
 21
4.5186128084
  0
LINE
  5
35B
100
AcDbEntity
  8
0
100
AcDbLine
 62
7
  6
CONTINUOUS
 10
15.9566222418
 20
4.6186128084
 11
15.9566222418
 21
4.5186128084
  0
LINE
  5
35C
100
AcDbEntity
  8
0
100
AcDbLine
 62
7
  6
CONTINUOUS
 10
15.9586818804
 20
4.6186128084
 11
15.9586818804
 21
4.5186128084
  0
LINE
  5
35D
100
AcDbEntity
  8
0
100
AcDbLine
 62
7
  6
CONTINUOUS
 10
15.9614809527
 20
1.0206128084
 11
15.9614809527
 21
1.1206128084
  0
LINE
  5
35E
100
AcDbEntity
  8
0
100
AcDbLine
 62
7
  6
CONTINUOUS
 10
15.962790022
 20
4.6186128084
 11
15.962790022
 21
4.5186128084
  0
LINE
  5
35F
100
AcDbEntity
  8
0
100
AcDbLine
 62
7
  6
CONTINUOUS
 10
15.9629612371
 20
1.1206128084
 11
15.9629612371
 21
1.0206128084
  0
LINE
  5
360
100
AcDbEntity
  8
0
100
AcDbLine
 62
7
  6
CONTINUOUS
 10
15.963822356
 20
4.6186128084
 11
15.963822356
 21
4.5186128084
  0
LINE
  5
361
100
AcDbEntity
  8
0
100
AcDbLine
 62
7
  6
CONTINUOUS
 10
15.965193964
 20
4.6186128084
 11
15.965193964
 21
4.5186128084
  0
LINE
  5
362
100
AcDbEntity
  8
0
100
AcDbLine
 62
7
  6
CONTINUOUS
 10
15.9802292896
 20
3.6886128084
 11
15.9802292896
 21
1.2206128084
  0
LINE
  5
363
100
AcDbEntity
  8
0
100
AcDbLine
 62
7
  6
CONTINUOUS
 10
15.9912067458
 20
1.0206128084
 11
15.9912067458
 21
1.1206128084
  0
LINE
  5
364
100
AcDbEntity
  8
0
100
AcDbLine
 62
7
  6
CONTINUOUS
 10
16.0068172546
 20
1.0206128084
 11
16.0068172546
 21
1.1206128084
  0
LINE
  5
365
100
AcDbEntity
  8
0
100
AcDbLine
 62
7
  6
CONTINUOUS
 10
16.0351015258
 20
1.0206128084
 11
16.0351015258
 21
1.1206128084
  0
LINE
  5
366
100
AcDbEntity
  8
0
100
AcDbLine
 62
7
  6
CONTINUOUS
 10
16.0499153455
 20
1.0206128084
 11
16.0499153455
 21
1.1206128084
  0
LINE
  5
367
100
AcDbEntity
  8
0
100
AcDbLine
 62
7
  6
CONTINUOUS
 10
16.0766805698
 20
1.0206128084
 11
16.0766805698
 21
1.1206128084
  0
LINE
  5
368
100
AcDbEntity
  8
0
100
AcDbLine
 62
7
  6
CONTINUOUS
 10
16.0906570968
 20
1.0206128084
 11
16.0906570968
 21
1.1206128084
  0
LINE
  5
369
100
AcDbEntity
  8
0
100
AcDbLine
 62
7
  6
CONTINUOUS
 10
16.1158299124
 20
1.0206128084
 11
16.1158299124
 21
1.1206128084
  0
LINE
  5
36A
100
AcDbEntity
  8
0
100
AcDbLine
 62
7
  6
CONTINUOUS
 10
16.128930838
 20
1.0206128084
 11
16.128930838
 21
1.1206128084
  0
LINE
  5
36B
100
AcDbEntity
  8
0
100
AcDbLine
 62
7
  6
CONTINUOUS
 10
16.1502292896
 20
3.8686128084
 11
16.1502292896
 21
3.9986128084
  0
LINE
  5
36C
100
AcDbEntity
  8
0
100
AcDbLine
 62
7
  6
CONTINUOUS
 10
16.152442248
 20
1.0206128084
 11
16.152442248
 21
1.1206128084
  0
LINE
  5
36D
100
AcDbEntity
  8
0
100
AcDbLine
 62
7
  6
CONTINUOUS
 10
16.1646316635
 20
1.0206128084
 11
16.1646316635
 21
1.1206128084
  0
LINE
  5
36E
100
AcDbEntity
  8
0
100
AcDbLine
 62
7
  6
CONTINUOUS
 10
16.1864172249
 20
1.0206128084
 11
16.1864172249
 21
1.1206128084
  0
LINE
  5
36F
100
AcDbEntity
  8
0
100
AcDbLine
 62
7
  6
CONTINUOUS
 10
16.1976617198
 20
1.0206128084
 11
16.1976617198
 21
1.1206128084
  0
LINE
  5
370
100
AcDbEntity
  8
0
100
AcDbLine
 62
7
  6
CONTINUOUS
 10
16.2176617198
 20
1.0206128084
 11
16.2176617198
 21
1.1206128084
  0
LINE
  5
371
100
AcDbEntity
  8
0
100
AcDbLine
 62
7
  6
CONTINUOUS
 10
16.2279304739
 20
1.0206128084
 11
16.2279304739
 21
1.1206128084
  0
LINE
  5
372
100
AcDbEntity
  8
0
100
AcDbLine
 62
7
  6
CONTINUOUS
 10
16.2402292896
 20
3.6886128084
 11
16.2402292896
 21
3.8086128084
  0
LINE
  5
373
100
AcDbEntity
  8
0
100
AcDbLine
 62
7
  6
CONTINUOUS
 10
16.2460900939
 20
1.0206128084
 11
16.2460900939
 21
1.1206128084
  0
LINE
  5
374
100
AcDbEntity
  8
0
100
AcDbLine
 62
7
  6
CONTINUOUS
 10
16.2553549611
 20
1.0206128084
 11
16.2553549611
 21
1.1206128084
  0
LINE
  5
375
100
AcDbEntity
  8
0
100
AcDbLine
 62
7
  6
CONTINUOUS
 10
16.2716244268
 20
1.0206128084
 11
16.2716244268
 21
1.1206128084
  0
LINE
  5
376
100
AcDbEntity
  8
0
100
AcDbLine
 62
7
  6
CONTINUOUS
 10
16.2798600129
 20
1.0206128084
 11
16.2798600129
 21
1.1206128084
  0
LINE
  5
377
100
AcDbEntity
  8
0
100
AcDbLine
 62
7
  6
CONTINUOUS
 10
16.2941947309
 20
1.0206128084
 11
16.2941947309
 21
1.1206128084
  0
LINE
  5
378
100
AcDbEntity
  8
0
100
AcDbLine
 62
7
  6
CONTINUOUS
 10
16.3013784627
 20
1.0206128084
 11
16.3013784627
 21
1.1206128084
  0
LINE
  5
379
100
AcDbEntity
  8
0
100
AcDbLine
 62
7
  6
CONTINUOUS
 10
16.3137391425
 20
1.0206128084
 11
16.3137391425
 21
1.1206128084
  0
LINE
  5
37A
100
AcDbEntity
  8
0
100
AcDbLine
 62
7
  6
CONTINUOUS
 10
16.3152292896
 20
0.8106128084
 11
16.3152292896
 21
1.0206128084
  0
LINE
  5
37B
100
AcDbEntity
  8
0
100
AcDbLine
 62
7
  6
CONTINUOUS
 10
16.3198513298
 20
1.0206128084
 11
16.3198513298
 21
1.1206128084
  0
LINE
  5
37C
100
AcDbEntity
  8
0
100
AcDbLine
 62
7
  6
CONTINUOUS
 10
16.3302040916
 20
1.0206128084
 11
16.3302040916
 21
1.1206128084
  0
LINE
  5
37D
100
AcDbEntity
  8
0
100
AcDbLine
 62
7
  6
CONTINUOUS
 10
16.3352279814
 20
1.0206128084
 11
16.3352279814
 21
1.1206128084
  0
LINE
  5
37E
100
AcDbEntity
  8
0
100
AcDbLine
 62
7
  6
CONTINUOUS
 10
16.343544449
 20
1.0206128084
 11
16.343544449
 21
1.1206128084
  0
LINE
  5
37F
100
AcDbEntity
  8
0
100
AcDbLine
 62
7
  6
CONTINUOUS
 10
16.3474662712
 20
1.0206128084
 11
16.3474662712
 21
1.1206128084
  0
LINE
  5
380
100
AcDbEntity
  8
0
100
AcDbLine
 62
7
  6
CONTINUOUS
 10
16.3537236498
 20
1.0206128084
 11
16.3537236498
 21
1.1206128084
  0
LINE
  5
381
100
AcDbEntity
  8
0
100
AcDbLine
 62
7
  6
CONTINUOUS
 10
16.3565326548
 20
1.0206128084
 11
16.3565326548
 21
1.1206128084
  0
LINE
  5
382
100
AcDbEntity
  8
0
100
AcDbLine
 62
7
  6
CONTINUOUS
 10
16.3607137933
 20
1.0206128084
 11
16.3607137933
 21
1.1206128084
  0
LINE
  5
383
100
AcDbEntity
  8
0
100
AcDbLine
 62
7
  6
CONTINUOUS
 10
16.362402282
 20
1.0206128084
 11
16.362402282
 21
1.1206128084
  0
LINE
  5
384
100
AcDbEntity
  8
0
100
AcDbLine
 62
7
  6
CONTINUOUS
 10
16.3644957203
 20
1.0206128084
 11
16.3644957203
 21
1.1206128084
  0
LINE
  5
385
100
AcDbEntity
  8
0
100
AcDbLine
 62
7
  6
CONTINUOUS
 10
16.3650590645
 20
1.0206128084
 11
16.3650590645
 21
1.1206128084
  0
LINE
  5
386
100
AcDbEntity
  8
0
100
AcDbLine
 62
7
  6
CONTINUOUS
 10
16.3652292896
 20
0.6106128084
 11
16.3652292896
 21
0.7606128084
  0
LINE
  5
387
100
AcDbEntity
  8
0
100
AcDbLine
 62
9
  6
CONTINUOUS
 10
15.5104121238
 20
4.7356261387
 11
15.5116110372
 21
4.73788332
  0
LINE
  5
388
100
AcDbEntity
  8
0
100
AcDbLine
 62
7
  6
CONTINUOUS
 10
14.0152292896
 20
0.7606128084
 11
14.0652292896
 21
0.8106128084
  0
ARC
  5
389
100
AcDbEntity
  8
0
100
AcDbCircle
 62
9
  6
CONTINUOUS
 10
-118.9575988952
 20
52.9014352047
 40
132.1597121034
100
AcDbArc
 50
342.1074847981
 51
342.3050031366
  0
ARC
  5
38A
100
AcDbEntity
  8
0
100
AcDbCircle
 62
9
  6
CONTINUOUS
 10
-102.2268052408
 20
48.1518554702
 40
114.8650402787
100
AcDbArc
 50
341.8085072901
 51
342.0236371627
  0
ARC
  5
38B
100
AcDbEntity
  8
0
100
AcDbCircle
 62
9
  6
CONTINUOUS
 10
-42.8883492854
 20
18.5047652012
 40
50.054344749
100
AcDbArc
 50
352.1042350905
 51
352.6341911337
  0
ARC
  5
38C
100
AcDbEntity
  8
0
100
AcDbCircle
 62
9
  6
CONTINUOUS
 10
-32.7943809363
 20
16.819594399
 40
39.9148855623
100
AcDbArc
 50
352.5156351435
 51
353.141653966
  0
ARC
  5
38D
100
AcDbEntity
  8
0
100
AcDbCircle
 62
7
  6
CONTINUOUS
 10
3.3208256087
 20
0.0900186329
 40
13.1524621472
100
AcDbArc
 50
72.8319791467
 51
73.1408054951
  0
ARC
  5
38E
100
AcDbEntity
  8
0
100
AcDbCircle
 62
7
  6
CONTINUOUS
 10
16.07188229
 20
5.1978017564
 40
0.6
100
AcDbArc
 50
251.5073948602
 51
254.8653501731
  0
ARC
  5
38F
100
AcDbEntity
  8
0
100
AcDbCircle
 62
7
  6
CONTINUOUS
 10
14.3085762892
 20
5.1978017564
 40
0.6
100
AcDbArc
 50
285.1346498269
 51
318.7014866931
  0
ARC
  5
390
100
AcDbEntity
  8
0
100
AcDbCircle
 62
7
  6
CONTINUOUS
 10
14.8402292896
 20
5.0729750131
 40
0.545
100
AcDbArc
 50
0.0
 51
90.0
  0
ARC
  5
391
100
AcDbEntity
  8
0
100
AcDbCircle
 62
7
  6
CONTINUOUS
 10
14.1421478943
 20
4.2886128084
 40
0.3030813953
100
AcDbArc
 50
286.8950544958
 51
360.0
  0
ARC
  5
392
100
AcDbEntity
  8
0
100
AcDbCircle
 62
7
  6
CONTINUOUS
 10
16.238310685
 20
4.2886128084
 40
0.3030813953
100
AcDbArc
 50
180.0
 51
253.1049455042
  0
ARC
  5
393
100
AcDbEntity
  8
0
100
AcDbCircle
 62
7
  6
CONTINUOUS
 10
14.8402292896
 20
5.0729750131
 40
0.155
100
AcDbArc
 50
0.0
 51
90.0
  0
ARC
  5
394
100
AcDbEntity
  8
0
100
AcDbCircle
 62
7
  6
CONTINUOUS
 10
14.0902292896
 20
1.2206128084
 40
0.1
100
AcDbArc
 50
270.9682083625
 51
360.0
  0
ARC
  5
395
100
AcDbEntity
  8
0
100
AcDbCircle
 62
7
  6
CONTINUOUS
 10
16.2902292896
 20
1.2206128084
 40
0.1
100
AcDbArc
 50
180.0
 51
269.0317916375
  0
ARC
  5
396
100
AcDbEntity
  8
0
100
AcDbCircle
 62
7
  6
CONTINUOUS
 10
14.4902292896
 20
5.7325886495
 40
0.0756136364
100
AcDbArc
 50
187.3044455606
 51
270.0
  0
ARC
  5
397
100
AcDbEntity
  8
0
100
AcDbCircle
 62
7
  6
CONTINUOUS
 10
14.4902292896
 20
5.1133613767
 40
0.0756136364
100
AcDbArc
 50
90.0
 51
172.6955544394
  0
ARC
  5
398
100
AcDbEntity
  8
0
100
AcDbCircle
 62
7
  6
CONTINUOUS
 10
14.3527292896
 20
5.7229750131
 40
0.0625
100
AcDbArc
 50
0.0
 51
180.0
  0
ARC
  5
399
100
AcDbEntity
  8
0
100
AcDbCircle
 62
7
  6
CONTINUOUS
 10
14.3527292896
 20
5.1229750131
 40
0.0625
100
AcDbArc
 50
180.0
 51
360.0
  0
ARC
  5
39A
100
AcDbEntity
  8
0
100
AcDbCircle
 62
7
  6
CONTINUOUS
 10
11.6502292896
 20
5.7454750131
 40
0.06
100
AcDbArc
 50
0.0
 51
180.0
  0
ARC
  5
39B
100
AcDbEntity
  8
0
100
AcDbCircle
 62
7
  6
CONTINUOUS
 10
11.6502292896
 20
5.1004750131
 40
0.06
100
AcDbArc
 50
180.0
 51
360.0
  0
ARC
  5
39C
100
AcDbEntity
  8
0
100
AcDbCircle
 62
7
  6
CONTINUOUS
 10
14.8827292896
 20
4.9729750131
 40
0.06
100
AcDbArc
 50
90.0
 51
264.1131578613
  0
ARC
  5
39D
100
AcDbEntity
  8
0
100
AcDbCircle
 62
7
  6
CONTINUOUS
 10
15.4977292896
 20
4.9729750131
 40
0.06
100
AcDbArc
 50
275.8868421387
 51
90.0
  0
ARC
  5
39E
100
AcDbEntity
  8
0
100
AcDbCircle
 62
7
  6
CONTINUOUS
 10
14.1702292896
 20
3.8686128084
 40
0.06
100
AcDbArc
 50
270.0
 51
360.0
  0
ARC
  5
39F
100
AcDbEntity
  8
0
100
AcDbCircle
 62
7
  6
CONTINUOUS
 10
16.2102292896
 20
3.8686128084
 40
0.06
100
AcDbArc
 50
180.0
 51
270.0
  0
ARC
  5
3A0
100
AcDbEntity
  8
0
100
AcDbCircle
 62
7
  6
CONTINUOUS
 10
14.7743706697
 20
4.7886128084
 40
0.02
100
AcDbArc
 50
90.0
 51
138.7014866931
  0
ARC
  5
3A1
100
AcDbEntity
  8
0
100
AcDbCircle
 62
7
  6
CONTINUOUS
 10
15.4052292896
 20
5.0529750131
 40
0.02
100
AcDbArc
 50
180.0
 51
270.0
  0
ARC
  5
3A2
100
AcDbEntity
  8
0
100
AcDbCircle
 62
7
  6
CONTINUOUS
 10
14.9752292896
 20
5.0529750131
 40
0.02
100
AcDbArc
 50
270.0
 51
360.0
  0
ARC
  5
3A3
100
AcDbEntity
  8
0
100
AcDbCircle
 62
7
  6
CONTINUOUS
 10
15.3741028582
 20
4.788614404
 40
0.0199984044
100
AcDbArc
 50
63.2902079715
 51
90.0007591063
  0
ARC
  5
3A4
100
AcDbEntity
  8
0
100
AcDbCircle
 62
7
  6
CONTINUOUS
 10
14.8747292896
 20
4.8953863541
 40
0.018
100
AcDbArc
 50
0.0
 51
84.1131578613
  0
ARC
  5
3A5
100
AcDbEntity
  8
0
100
AcDbCircle
 62
7
  6
CONTINUOUS
 10
15.5057292896
 20
4.8953863541
 40
0.018
100
AcDbArc
 50
95.8868421387
 51
180.0
  0
ARC
  5
3A6
100
AcDbEntity
  8
0
100
AcDbCircle
 62
7
  6
CONTINUOUS
 10
6.8279084144
 20
11.3618916116
 40
0.1
100
AcDbArc
 50
88.2036682386
 51
169.8608405947
  0
ARC
  5
3A7
100
AcDbEntity
  8
0
100
AcDbCircle
 62
7
  6
CONTINUOUS
 10
7.0754842488
 20
11.6619888238
 40
0.0984251969
100
AcDbArc
 50
263.6074595888
 51
353.1074595949
  0
ARC
  5
3A8
100
AcDbEntity
  8
0
100
AcDbCircle
 62
9
  6
CONTINUOUS
 10
6.7990790654
 20
11.4203932127
 40
0.0523419813
100
AcDbArc
 50
52.3620155597
 51
56.8225589843
  0
ARC
  5
3A9
100
AcDbEntity
  8
0
100
AcDbCircle
 62
9
  6
CONTINUOUS
 10
6.8326186817
 20
11.5139559011
 40
0.0499920693
100
AcDbArc
 50
264.3791420853
 51
0.0009407636
  0
ARC
  5
3AA
100
AcDbEntity
  8
0
100
AcDbCircle
 62
7
  6
CONTINUOUS
 10
5.9241759387
 20
10.7666843294
 40
0.0118110236
100
AcDbArc
 50
254.1343
 51
339.1343
  0
ARC
  5
3AB
100
AcDbEntity
  8
0
100
AcDbCircle
 62
7
  6
CONTINUOUS
 10
5.8465342391
 20
10.7887509063
 40
0.0118110236
100
AcDbArc
 50
169.1343
 51
254.1343
  0
ARC
  5
3AC
100
AcDbEntity
  8
0
100
AcDbCircle
 62
7
  6
CONTINUOUS
 10
6.0576535197
 20
10.7287486155
 40
0.0118110236
100
AcDbArc
 50
254.1343
 51
339.1343
  0
ARC
  5
3AD
100
AcDbEntity
  8
0
100
AcDbCircle
 62
7
  6
CONTINUOUS
 10
5.9800118201
 20
10.7508151924
 40
0.0118110236
100
AcDbArc
 50
169.1343
 51
254.1343
  0
ARC
  5
3AE
100
AcDbEntity
  8
0
100
AcDbCircle
 62
7
  6
CONTINUOUS
 10
6.1664654407
 20
10.6978231382
 40
0.0118110236
100
AcDbArc
 50
254.1343
 51
339.1343
  0
ARC
  5
3AF
100
AcDbEntity
  8
0
100
AcDbCircle
 62
7
  6
CONTINUOUS
 10
6.0888237411
 20
10.719889715
 40
0.0118110236
100
AcDbArc
 50
169.1343
 51
254.1343
  0
ARC
  5
3B0
100
AcDbEntity
  8
0
100
AcDbCircle
 62
7
  6
CONTINUOUS
 10
6.2374873781
 20
10.6776379664
 40
0.0118110236
100
AcDbArc
 50
254.1343
 51
339.1343
  0
ARC
  5
3B1
100
AcDbEntity
  8
0
100
AcDbCircle
 62
7
  6
CONTINUOUS
 10
5.3911789248
 20
10.9181676128
 40
0.0118110236
100
AcDbArc
 50
169.1343
 51
254.1343
  0
ARC
  5
3B2
100
AcDbEntity
  8
0
100
AcDbCircle
 62
7
  6
CONTINUOUS
 10
5.4622008622
 20
10.897982441
 40
0.0118110236
100
AcDbArc
 50
169.1343
 51
254.1343
  0
ARC
  5
3B3
100
AcDbEntity
  8
0
100
AcDbCircle
 62
7
  6
CONTINUOUS
 10
5.5398425618
 20
10.8759158641
 40
0.0118110236
100
AcDbArc
 50
254.1343
 51
339.1343
  0
ARC
  5
3B4
100
AcDbEntity
  8
0
100
AcDbCircle
 62
7
  6
CONTINUOUS
 10
5.5710127832
 20
10.8670569637
 40
0.0118110236
100
AcDbArc
 50
169.1343
 51
254.1343
  0
ARC
  5
3B5
100
AcDbEntity
  8
0
100
AcDbCircle
 62
7
  6
CONTINUOUS
 10
5.6486544828
 20
10.8449903868
 40
0.0118110236
100
AcDbArc
 50
254.1343
 51
339.1343
  0
ARC
  5
3B6
100
AcDbEntity
  8
0
100
AcDbCircle
 62
7
  6
CONTINUOUS
 10
5.7044903643
 20
10.8291212498
 40
0.0118110236
100
AcDbArc
 50
169.1343
 51
254.1343
  0
ARC
  5
3B7
100
AcDbEntity
  8
0
100
AcDbCircle
 62
7
  6
CONTINUOUS
 10
5.7821320638
 20
10.8070546729
 40
0.0118110236
100
AcDbArc
 50
254.1343
 51
339.1343
  0
ARC
  5
3B8
100
AcDbEntity
  8
0
100
AcDbCircle
 62
7
  6
CONTINUOUS
 10
7.189877286
 20
11.8209631639
 40
0.0118110236
100
AcDbArc
 50
353.1073396967
 51
38.1073368898
  0
ARC
  5
3B9
100
AcDbEntity
  8
0
100
AcDbCircle
 62
7
  6
CONTINUOUS
 10
7.1787672678
 20
11.7290545924
 40
0.0118110236
100
AcDbArc
 50
308.1075823001
 51
353.1075794932
  0
ARC
  5
3BA
100
AcDbEntity
  8
0
100
AcDbCircle
 62
7
  6
CONTINUOUS
 10
5.3665132648
 20
10.9251778494
 40
0.0118110236
100
AcDbArc
 50
169.1343000044
 51
254.1343
  0
ARC
  5
3BB
100
AcDbEntity
  8
0
100
AcDbCircle
 62
7
  6
CONTINUOUS
 10
6.2621530382
 20
10.6706277298
 40
0.0118110236
100
AcDbArc
 50
254.1343
 51
339.1342999956
  0
ARC
  5
3BC
100
AcDbEntity
  8
0
100
AcDbCircle
 62
7
  6
CONTINUOUS
 10
6.5826839955
 20
10.6154981505
 40
0.01
100
AcDbArc
 50
254.1343
 51
349.8608405951
  0
ARC
  5
3BD
100
AcDbEntity
  8
0
100
AcDbCircle
 62
7
  6
CONTINUOUS
 10
5.0648995794
 20
11.0468682349
 40
0.01
100
AcDbArc
 50
158.4077594049
 51
254.1343
  0
ARC
  5
3BE
100
AcDbEntity
  8
0
100
AcDbCircle
 62
9
  6
CONTINUOUS
 10
6.7423045229
 20
12.2022291727
 40
0.178559406
100
AcDbArc
 50
4.4315083925
 51
16.9954736602
  0
ARC
  5
3BF
100
AcDbEntity
  8
0
100
AcDbCircle
 62
9
  6
CONTINUOUS
 10
6.7459233475
 20
12.2050909958
 40
0.175792399
100
AcDbArc
 50
313.3517078012
 51
328.6335215685
  0
ARC
  5
3C0
100
AcDbEntity
  8
0
100
AcDbCircle
 62
7
  6
CONTINUOUS
 10
7.1917724448
 20
12.9010512854
 40
0.1
100
AcDbArc
 50
164.1343
 51
242.6505741105
  0
ARC
  5
3C1
100
AcDbEntity
  8
0
100
AcDbCircle
 62
7
  6
CONTINUOUS
 10
5.6765161053
 20
12.50771045
 40
0.1
100
AcDbArc
 50
114.0246148561
 51
213.1299855483
  0
ARC
  5
3C2
100
AcDbEntity
  8
0
100
AcDbCircle
 62
7
  6
CONTINUOUS
 10
7.1171994469
 20
13.1873446105
 40
0.1
100
AcDbArc
 50
294.0246148561
 51
74.1343
  0
ARC
  5
3C3
100
AcDbEntity
  8
0
100
AcDbCircle
 62
7
  6
CONTINUOUS
 10
5.9629132761
 20
13.5154047207
 40
0.1
100
AcDbArc
 50
74.1343
 51
214.2439851439
  0
ARC
  5
3C4
100
AcDbEntity
  8
0
100
AcDbCircle
 62
7
  6
CONTINUOUS
 10
7.1904079211
 20
12.6127046871
 40
0.0984251969
100
AcDbArc
 50
353.1074595949
 51
73.1081166472
  0
ARC
  5
3C5
100
AcDbEntity
  8
0
100
AcDbCircle
 62
9
  6
CONTINUOUS
 10
7.1220685542
 20
12.7661856246
 40
0.0499946231
100
AcDbArc
 50
333.9618062793
 51
66.9245075012
  0
ARC
  5
3C6
100
AcDbEntity
  8
0
100
AcDbCircle
 62
7
  6
CONTINUOUS
 10
7.225790598
 20
12.4133160194
 40
0.0472440945
100
AcDbArc
 50
319.550149833
 51
26.6647693569
  0
ARC
  5
3C7
100
AcDbEntity
  8
0
100
AcDbCircle
 62
7
  6
CONTINUOUS
 10
7.2341427809
 20
12.4824101633
 40
0.0472440945
100
AcDbArc
 50
319.550149833
 51
26.6647693569
  0
ARC
  5
3C8
100
AcDbEntity
  8
0
100
AcDbCircle
 62
7
  6
CONTINUOUS
 10
7.2424949637
 20
12.5515043073
 40
0.0472440945
100
AcDbArc
 50
319.550149833
 51
26.6647693569
  0
ARC
  5
3C9
100
AcDbEntity
  8
0
100
AcDbCircle
 62
7
  6
CONTINUOUS
 10
7.2459545512
 20
12.5801240388
 40
0.0472440945
100
AcDbArc
 50
335.3158567029
 51
26.6669021211
  0
ARC
  5
3CA
100
AcDbEntity
  8
0
100
AcDbCircle
 62
7
  6
CONTINUOUS
 10
7.2223310106
 20
12.3846962878
 40
0.0472440945
100
AcDbArc
 50
319.550149833
 51
10.899062487
  0
ARC
  5
3CB
100
AcDbEntity
  8
0
100
AcDbCircle
 62
7
  6
CONTINUOUS
 10
5.5597779728
 20
12.4315227317
 40
0.0394
100
AcDbArc
 50
338.4077594053
 51
33.1299855483
  0
ARC
  5
3CC
100
AcDbEntity
  8
0
100
AcDbCircle
 62
7
  6
CONTINUOUS
 10
5.6197623124
 20
12.6350343165
 40
0.0394
100
AcDbArc
 50
294.0246148561
 51
344.1343
  0
ARC
  5
3CD
100
AcDbEntity
  8
0
100
AcDbCircle
 62
7
  6
CONTINUOUS
 10
5.8476784295
 20
13.4369618106
 40
0.0394
100
AcDbArc
 50
344.1343
 51
34.2439851446
  0
ARC
  5
3CE
100
AcDbEntity
  8
0
100
AcDbCircle
 62
7
  6
CONTINUOUS
 10
7.1739532398
 20
13.0600207439
 40
0.0394
100
AcDbArc
 50
114.0246148554
 51
164.1343
  0
ARC
  5
3CF
100
AcDbEntity
  8
0
100
AcDbCircle
 62
9
  6
CONTINUOUS
 10
13.1278021221
 20
10.3237444385
 40
6.4891188992
100
AcDbArc
 50
157.5211973772
 51
158.646548797
  0
ARC
  5
3D0
100
AcDbEntity
  8
0
100
AcDbCircle
 62
9
  6
CONTINUOUS
 10
13.0588853909
 20
10.8847379028
 40
6.2671831873
100
AcDbArc
 50
173.3965926848
 51
174.4943139513
  0
ARC
  5
3D1
100
AcDbEntity
  8
0
100
AcDbCircle
 62
9
  6
CONTINUOUS
 10
9.6834718254
 20
11.5178222911
 40
2.8499894583
100
AcDbArc
 50
155.7897398413
 51
165.8190735733
  0
ARC
  5
3D2
100
AcDbEntity
  8
0
100
AcDbCircle
 62
9
  6
CONTINUOUS
 10
9.6817069352
 20
11.5116793457
 40
2.8499708258
100
AcDbArc
 50
167.8073706133
 51
178.1146895853
  0
ARC
  5
3D3
100
AcDbEntity
  8
0
100
AcDbCircle
 62
7
  6
CONTINUOUS
 10
9.6826089304
 20
11.5147476028
 40
2.8
100
AcDbArc
 50
153.9176390337
 51
180.0583746905
  0
ARC
  5
3D4
100
AcDbEntity
  8
0
100
AcDbCircle
 62
7
  6
CONTINUOUS
 10
10.8273292808
 20
12.4773270127
 40
4.9329000088
100
AcDbArc
 50
0.0000007333
 51
164.1342992667
  0
ARC
  5
3D5
100
AcDbEntity
  8
0
100
AcDbCircle
 62
7
  6
CONTINUOUS
 10
10.8273292808
 20
12.4773270127
 40
3.7929000088
100
AcDbArc
 50
0.0000009534
 51
164.1342990466
  0
SPLINE
  5
3D6
100
AcDbEntity
  8
0
100
AcDbSpline
 62
9
  6
CONTINUOUS
 70
0
 71
3
 72
15
 73
11
 74
0
 42
0.0000001
 43
0.0000001
 44
0.0000000001
 40
0.0
 40
0.0
 40
0.0
 40
0.0
 40
0.0940088887
 40
0.1922517234
 40
0.2981665548
 40
0.4143126574
 40
0.5421920658
 40
0.6824944178
 40
0.8353101044
 40
1.0
 40
1.0
 40
1.0
 40
1.0
 10
15.3741025932
 20
4.8086128084
 30
0.0
 10
15.374417375
 20
4.8086128084
 30
0.0
 10
15.3750635047
 20
4.8085331924
 30
0.0
 10
15.3760065697
 20
4.8081829383
 30
0.0
 10
15.3769207471
 20
4.8076100066
 30
0.0
 10
15.3777969427
 20
4.8068251066
 30
0.0
 10
15.3786285354
 20
4.8058384863
 30
0.0
 10
15.3794078258
 20
4.8046606458
 30
0.0
 10
15.3801269339
 20
4.8033046366
 30
0.0
 10
15.3805465618
 20
4.8023264889
 30
0.0
 10
15.3807462245
 20
4.801812452
 30
0.0
  0
LINE
  5
3D7
100
AcDbEntity
  8
0
100
AcDbLine
 62
9
  6
CONTINUOUS
 10
15.3807462245
 20
4.801812452
 11
15.3830902938
 21
4.8064795387
  0
SPLINE
  5
3D8
100
AcDbEntity
  8
0
100
AcDbSpline
 62
9
  6
CONTINUOUS
 70
0
 71
3
 72
9
 73
5
 74
0
 42
0.0000001
 43
0.0000001
 44
0.0000000001
 40
0.0
 40
0.0
 40
0.0
 40
0.0
 40
0.4951274257
 40
1.0
 40
1.0
 40
1.0
 40
1.0
 10
6.7487521533
 20
12.0895169664
 30
0.0
 10
6.7494848363
 20
12.0893087699
 30
0.0
 10
6.750936515
 20
12.0887806559
 30
0.0
 10
6.7522899692
 20
12.0880344703
 30
0.0
 10
6.7529392174
 20
12.0876081962
 30
0.0
  0
SPLINE
  5
3D9
100
AcDbEntity
  8
0
100
AcDbSpline
 62
9
  6
CONTINUOUS
 70
0
 71
3
 72
32
 73
28
 74
0
 42
0.0000001
 43
0.0000001
 44
0.0000000001
 40
0.0
 40
0.0
 40
0.0
 40
0.0
 40
0.0075784343
 40
0.0119519572
 40
0.0167823332
 40
0.02210397
 40
0.0279397926
 40
0.0343047206
 40
0.0412062678
 40
0.056616616
 40
0.0741458365
 40
0.0937349133
 40
0.1153064767
 40
0.1387681991
 40
0.1640223695
 40
0.1909700258
 40
0.2195132489
 40
0.2810044354
 40
0.34775543
 40
0.4190964447
 40
0.4944106864
 40
0.5731323161
 40
0.6547397521
 40
0.7387252191
 40
0.8246003402
 40
0.9118646528
 40
1.0
 40
1.0
 40
1.0
 40
1.0
 10
6.7207183408
 20
11.3819829093
 30
0.0
 10
6.7201021286
 20
11.3821582351
 30
0.0
 10
6.7191841876
 20
11.3826288115
 30
0.0
 10
6.718059104
 20
11.3834930604
 30
0.0
 10
6.7171648219
 20
11.3843381818
 30
0.0
 10
6.7162630604
 20
11.3853463928
 30
0.0
 10
6.7153532059
 20
11.3865166554
 30
0.0
 10
6.7144364606
 20
11.3878469813
 30
0.0
 10
6.7131587784
 20
11.3899081599
 30
0.0
 10
6.7115663092
 20
11.3928796675
 30
0.0
 10
6.7097061359
 20
11.3969139642
 30
0.0
 10
6.7078434513
 20
11.4015142697
 30
0.0
 10
6.7059890758
 20
11.4066541482
 30
0.0
 10
6.7041535284
 20
11.4123064527
 30
0.0
 10
6.7023476687
 20
11.4184434696
 30
0.0
 10
6.7005823893
 20
11.4250379776
 30
0.0
 10
6.6982389257
 20
11.4346464906
 30
0.0
 10
6.6955060303
 20
11.4476198635
 30
0.0
 10
6.6926298512
 20
11.4642487272
 30
0.0
 10
6.6901720442
 20
11.4821251419
 30
0.0
 10
6.6882149626
 20
11.5010809797
 30
0.0
 10
6.6868419489
 20
11.5209584469
 30
0.0
 10
6.6861349405
 20
11.5416045688
 30
0.0
 10
6.6861650023
 20
11.5628679327
 30
0.0
 10
6.6870051169
 20
11.5845939602
 30
0.0
 10
6.6887100419
 20
11.6066211343
 30
0.0
 10
6.6904390701
 20
11.6213528718
 30
0.0
 10
6.6914612507
 20
11.628733246
 30
0.0
  0
LINE
  5
3DA
100
AcDbEntity
  8
0
100
AcDbLine
 62
9
  6
CONTINUOUS
 10
15.8815729348
 20
4.6287829963
 11
15.8785202757
 21
4.6292396421
  0
LINE
  5
3DB
100
AcDbEntity
  8
0
100
AcDbLine
 62
9
  6
CONTINUOUS
 10
15.8785202757
 20
4.6292396421
 11
15.8762986521
 21
4.6295748776
  0
SPLINE
  5
3DC
100
AcDbEntity
  8
0
100
AcDbSpline
 62
9
  6
CONTINUOUS
 70
0
 71
3
 72
17
 73
13
 74
0
 42
0.0000001
 43
0.0000001
 44
0.0000000001
 40
0.0
 40
0.0
 40
0.0
 40
0.0
 40
0.1194189511
 40
0.2211920713
 40
0.3469545162
 40
0.4926090934
 40
0.5714316943
 40
0.6534052482
 40
0.7378783735
 40
0.8242067519
 40
0.9117705671
 40
1.0
 40
1.0
 40
1.0
 40
1.0
 10
15.8762986521
 20
4.6295748776
 30
0.0
 10
15.8612427065
 20
4.6318547839
 30
0.0
 10
15.8333999164
 20
4.6363797445
 30
0.0
 10
15.789898199
 20
4.6444541436
 30
0.0
 10
15.7433402905
 20
4.6543288525
 30
0.0
 10
15.6999848648
 20
4.6651026498
 30
0.0
 10
15.6623954582
 20
4.6757940235
 30
0.0
 10
15.6325452375
 20
4.685141264
 30
0.0
 10
15.6020834295
 20
4.6956936547
 30
0.0
 10
15.5713320986
 20
4.7075355056
 30
0.0
 10
15.5406193136
 20
4.7207446555
 30
0.0
 10
15.5204226381
 20
4.7304916381
 30
0.0
 10
15.5104121238
 20
4.7356261387
 30
0.0
  0
SPLINE
  5
3DD
100
AcDbEntity
  8
0
100
AcDbSpline
 62
9
  6
CONTINUOUS
 70
0
 71
3
 72
11
 73
7
 74
0
 42
0.0000001
 43
0.0000001
 44
0.0000000001
 40
0.0
 40
0.0
 40
0.0
 40
0.0
 40
0.2499985044
 40
0.4999967018
 40
0.7499966395
 40
1.0
 40
1.0
 40
1.0
 40
1.0
 10
15.5104121238
 20
4.7356261387
 30
0.0
 10
15.4996161041
 20
4.7411636015
 30
0.0
 10
15.4780766878
 20
4.7523408899
 30
0.0
 10
15.445809855
 20
4.7691875795
 30
0.0
 10
15.4134467979
 20
4.7858500406
 30
0.0
 10
15.3916860488
 20
4.7965962956
 30
0.0
 10
15.3807309145
 20
4.8018124519
 30
0.0
  0
SPLINE
  5
3DE
100
AcDbEntity
  8
0
100
AcDbSpline
 62
9
  6
CONTINUOUS
 70
0
 71
3
 72
11
 73
7
 74
0
 42
0.0000001
 43
0.0000001
 44
0.0000000001
 40
0.0
 40
0.0
 40
0.0
 40
0.0
 40
0.2482901956
 40
0.4977796472
 40
0.7483639727
 40
1.0
 40
1.0
 40
1.0
 40
1.0
 10
6.8080853321
 20
12.26587275
 30
0.0
 10
6.8104095745
 20
12.2634545079
 30
0.0
 10
6.8148792865
 20
12.2584183259
 30
0.0
 10
6.8209001414
 20
12.2502795111
 30
0.0
 10
6.8261294805
 20
12.2415554497
 30
0.0
 10
6.8289776085
 20
12.2353785956
 30
0.0
 10
6.8302152625
 20
12.2322126121
 30
0.0
  0
SPLINE
  5
3DF
100
AcDbEntity
  8
0
100
AcDbSpline
 62
9
  6
CONTINUOUS
 70
0
 71
3
 72
15
 73
11
 74
0
 42
0.0000001
 43
0.0000001
 44
0.0000000001
 40
0.0
 40
0.0
 40
0.0
 40
0.0
 40
0.1247532335
 40
0.2497463787
 40
0.3748772776
 40
0.5000939638
 40
0.6253038628
 40
0.7504063548
 40
0.8753419442
 40
1.0
 40
1.0
 40
1.0
 40
1.0
 10
6.8302152625
 20
12.2322126121
 30
0.0
 10
6.8310122308
 20
12.2301732924
 30
0.0
 10
6.8324552562
 20
12.2260289931
 30
0.0
 10
6.834121117
 20
12.2196567639
 30
0.0
 10
6.8352508263
 20
12.2131585912
 30
0.0
 10
6.8358115213
 20
12.2065825923
 30
0.0
 10
6.8357850098
 20
12.1999828942
 30
0.0
 10
6.8351572602
 20
12.1934175055
 30
0.0
 10
6.8339284349
 20
12.1869480408
 30
0.0
 10
6.8327165838
 20
12.1827308823
 30
0.0
 10
6.8320168644
 20
12.1806579463
 30
0.0
  0
SPLINE
  5
3E0
100
AcDbEntity
  8
0
100
AcDbSpline
 62
9
  6
CONTINUOUS
 70
0
 71
3
 72
15
 73
11
 74
0
 42
0.0000001
 43
0.0000001
 44
0.0000000001
 40
0.0
 40
0.0
 40
0.0
 40
0.0
 40
0.1245417974
 40
0.2493847827
 40
0.3744250557
 40
0.4996060643
 40
0.6248354949
 40
0.7500239838
 40
0.8751138003
 40
1.0
 40
1.0
 40
1.0
 40
1.0
 10
6.8320168644
 20
12.1806579463
 30
0.0
 10
6.831606967
 20
12.1785500201
 30
0.0
 10
6.8305972188
 20
12.1743632268
 30
0.0
 10
6.8285206687
 20
12.1682413571
 30
0.0
 10
6.8258933659
 20
12.1623222617
 30
0.0
 10
6.822741091
 20
12.1566579859
 30
0.0
 10
6.8190975393
 20
12.151293834
 30
0.0
 10
6.8150055093
 20
12.1462659659
 30
0.0
 10
6.810511779
 20
12.1416031634
 30
0.0
 10
6.8072779936
 20
12.1387457695
 30
0.0
 10
6.8056115236
 20
12.1373820299
 30
0.0
  0
SPLINE
  5
3E1
100
AcDbEntity
  8
0
100
AcDbSpline
 62
9
  6
CONTINUOUS
 70
0
 71
3
 72
11
 73
7
 74
0
 42
0.0000001
 43
0.0000001
 44
0.0000000001
 40
0.0
 40
0.0
 40
0.0
 40
0.0
 40
0.2516233734
 40
0.5022277052
 40
0.7517259106
 40
1.0
 40
1.0
 40
1.0
 40
1.0
 10
6.8056115236
 20
12.1373820299
 30
0.0
 10
6.8029125127
 20
12.1351732265
 30
0.0
 10
6.7972439517
 20
12.1310986584
 30
0.0
 10
6.7881309724
 20
12.126008336
 30
0.0
 10
6.7785899986
 20
12.1218966747
 30
0.0
 10
6.7720162399
 20
12.1197680909
 30
0.0
 10
6.7687010781
 20
12.1188453121
 30
0.0
  0
SPLINE
  5
3E2
100
AcDbEntity
  8
0
100
AcDbSpline
 62
9
  6
CONTINUOUS
 70
0
 71
3
 72
35
 73
31
 74
0
 42
0.0000001
 43
0.0000001
 44
0.0000000001
 40
0.0
 40
0.0
 40
0.0
 40
0.0
 40
0.0884430664
 40
0.1759722341
 40
0.2620506722
 40
0.3461691419
 40
0.4278187265
 40
0.5064812912
 40
0.5816374296
 40
0.6527228898
 40
0.6865547063
 40
0.7191442005
 40
0.7802461775
 40
0.8085858705
 40
0.8353327301
 40
0.8603941688
 40
0.8836779498
 40
0.9050970216
 40
0.9245724427
 40
0.9420398526
 40
0.9500073219
 40
0.9574598287
 40
0.9643981615
 40
0.9708270512
 40
0.9767585162
 40
0.9822119944
 40
0.9872153403
 40
0.9918080035
 40
0.9960449384
 40
1.0
 40
1.0
 40
1.0
 40
1.0
 10
6.9493763659
 20
12.7315075988
 30
0.0
 10
6.9516032255
 20
12.7384874153
 30
0.0
 10
6.956350944
 20
12.7522758456
 30
0.0
 10
6.9643147423
 20
12.7724771278
 30
0.0
 10
6.9730139223
 20
12.791981411
 30
0.0
 10
6.9823175737
 20
12.8106612801
 30
0.0
 10
6.9920909004
 20
12.8284010666
 30
0.0
 10
7.002193078
 20
12.8450931279
 30
0.0
 10
7.0124673625
 20
12.860640297
 30
0.0
 10
7.0211817882
 20
12.8727524421
 30
0.0
 10
7.0281187759
 20
12.881788236
 30
0.0
 10
7.0347243214
 20
12.8900326406
 30
0.0
 10
7.0412922206
 20
12.8977225919
 30
0.0
 10
7.0478083233
 20
12.9048073465
 30
0.0
 10
7.0524281249
 20
12.9095769058
 30
0.0
 10
7.0568819776
 20
12.9139207676
 30
0.0
 10
7.0611474287
 20
12.9178216892
 30
0.0
 10
7.0652017999
 20
12.9212628757
 30
0.0
 10
7.0690227419
 20
12.92422766
 30
0.0
 10
7.0720818542
 20
12.9263494219
 30
0.0
 10
7.074399715
 20
12.9277821139
 30
0.0
 10
7.0760128567
 20
12.9286932496
 30
0.0
 10
7.0775521743
 20
12.929472571
 30
0.0
 10
7.0790156591
 20
12.9301181346
 30
0.0
 10
7.0804013975
 20
12.930628644
 30
0.0
 10
7.0817078423
 20
12.9310030485
 30
0.0
 10
7.0829336734
 20
12.9312401949
 30
0.0
 10
7.0840779474
 20
12.9313384445
 30
0.0
 10
7.085139211
 20
12.9312955531
 30
0.0
 10
7.0858090676
 20
12.9311670858
 30
0.0
 10
7.0861242398
 20
12.9310776018
 30
0.0
  0
SPLINE
  5
3E3
100
AcDbEntity
  8
0
100
AcDbSpline
 62
9
  6
CONTINUOUS
 70
0
 71
3
 72
9
 73
5
 74
0
 42
0.0000001
 43
0.0000001
 44
0.0000000001
 40
0.0
 40
0.0
 40
0.0
 40
0.0
 40
0.5034242438
 40
1.0
 40
1.0
 40
1.0
 40
1.0
 10
6.810148877
 20
12.2977023274
 30
0.0
 10
6.8092814099
 20
12.2976147593
 30
0.0
 10
6.8075365351
 20
12.2976106616
 30
0.0
 10
6.8058258796
 20
12.2979426529
 30
0.0
 10
6.8049986295
 20
12.2981777761
 30
0.0
  0
SPLINE
  5
3E4
100
AcDbEntity
  8
0
100
AcDbSpline
 62
9
  6
CONTINUOUS
 70
0
 71
3
 72
20
 73
16
 74
0
 42
0.0000001
 43
0.0000001
 44
0.0000000001
 40
0.0
 40
0.0
 40
0.0
 40
0.0
 40
0.1517425933
 40
0.2260884249
 40
0.2989721365
 40
0.4394593502
 40
0.5068159429
 40
0.5720568128
 40
0.6956660499
 40
0.7537871823
 40
0.8092237043
 40
0.8617830132
 40
0.9112544773
 40
0.9574122375
 40
1.0
 40
1.0
 40
1.0
 40
1.0
 10
7.0309739485
 20
12.7016768407
 30
0.0
 10
7.0334679778
 20
12.7087483964
 30
0.0
 10
7.0379963964
 20
12.7190201717
 30
0.0
 10
7.0453610736
 20
12.7318362922
 30
0.0
 10
7.0532595519
 20
12.7436692641
 30
0.0
 10
7.0620094519
 20
12.7544813408
 30
0.0
 10
7.0713339332
 20
12.7642424101
 30
0.0
 10
7.0805288837
 20
12.7729517475
 30
0.0
 10
7.0899649397
 20
12.7807227347
 30
0.0
 10
7.0994883014
 20
12.7875579929
 30
0.0
 10
7.106358523
 20
12.7920556338
 30
0.0
 10
7.1130494615
 20
12.7960329459
 30
0.0
 10
7.1195091435
 20
12.7994879166
 30
0.0
 10
7.1256841782
 20
12.8024130281
 30
0.0
 10
7.1297464503
 20
12.8040733821
 30
0.0
 10
7.1317198838
 20
12.80480448
 30
0.0
  0
SPLINE
  5
3E5
100
AcDbEntity
  8
0
100
AcDbSpline
 62
9
  6
CONTINUOUS
 70
0
 71
3
 72
9
 73
5
 74
0
 42
0.0000001
 43
0.0000001
 44
0.0000000001
 40
0.0
 40
0.0
 40
0.0
 40
0.0
 40
0.5000624998
 40
1.0
 40
1.0
 40
1.0
 40
1.0
 10
6.8970984487
 20
12.291694821
 30
0.0
 10
6.900404089
 20
12.2857881805
 30
0.0
 10
6.9064072901
 20
12.2736260539
 30
0.0
 10
6.9110907122
 20
12.2608937701
 30
0.0
 10
6.9130658557
 20
12.2544214007
 30
0.0
  0
SPLINE
  5
3E6
100
AcDbEntity
  8
0
100
AcDbSpline
 62
9
  6
CONTINUOUS
 70
0
 71
3
 72
9
 73
5
 74
0
 42
0.0000001
 43
0.0000001
 44
0.0000000001
 40
0.0
 40
0.0
 40
0.0
 40
0.0
 40
0.499939556
 40
1.0
 40
1.0
 40
1.0
 40
1.0
 10
6.8666021595
 20
12.0772610806
 30
0.0
 10
6.8617740235
 20
12.072691802
 30
0.0
 10
6.8515990397
 20
12.0640861562
 30
0.0
 10
6.8405768321
 20
12.0566014624
 30
0.0
 10
6.8348904259
 20
12.0531553978
 30
0.0
  0
SPLINE
  5
3E7
100
AcDbEntity
  8
0
100
AcDbSpline
 62
9
  6
CONTINUOUS
 70
0
 71
3
 72
19
 73
15
 74
0
 42
0.0000001
 43
0.0000001
 44
0.0000000001
 40
0.0
 40
0.0
 40
0.0
 40
0.0
 40
0.0478351153
 40
0.0983827574
 40
0.1514169767
 40
0.2067534529
 40
0.3236593423
 40
0.3849538201
 40
0.4479728637
 40
0.51260268
 40
0.5787365382
 40
0.7150499174
 40
0.8559356625
 40
1.0
 40
1.0
 40
1.0
 40
1.0
 10
6.8206150051
 20
11.4860398542
 30
0.0
 10
6.8193619677
 20
11.4879316232
 30
0.0
 10
6.816857756
 20
11.4918711075
 30
0.0
 10
6.8132081773
 20
11.4980587909
 30
0.0
 10
6.8095838795
 20
11.5046703558
 30
0.0
 10
6.8047350369
 20
11.5141945994
 30
0.0
 10
6.8001655803
 20
11.5242956161
 30
0.0
 10
6.7959360131
 20
11.5349293142
 30
0.0
 10
6.7928953888
 20
11.543362378
 30
0.0
 10
6.7900752486
 20
11.5521135519
 30
0.0
 10
6.7866296605
 20
11.5643073636
 30
0.0
 10
6.7831193066
 20
11.5802320729
 30
0.0
 10
6.7805732008
 20
11.6000800509
 30
0.0
 10
6.7802232802
 20
11.6136253573
 30
0.0
 10
6.7804474859
 20
11.6204555464
 30
0.0
  0
SPLINE
  5
3E8
100
AcDbEntity
  8
0
100
AcDbSpline
 62
9
  6
CONTINUOUS
 70
0
 71
3
 72
19
 73
15
 74
0
 42
0.0000001
 43
0.0000001
 44
0.0000000001
 40
0.0
 40
0.0
 40
0.0
 40
0.0
 40
0.0211834076
 40
0.046913588
 40
0.077976553
 40
0.114746701
 40
0.1573877708
 40
0.205954722
 40
0.2604366203
 40
0.32076064
 40
0.4584955093
 40
0.6182644348
 40
0.7991300746
 40
1.0
 40
1.0
 40
1.0
 40
1.0
 10
6.8277220558
 20
11.4642024887
 30
0.0
 10
6.827570693
 20
11.4642668542
 30
0.0
 10
6.8272609894
 20
11.4644689212
 30
0.0
 10
6.8268362212
 20
11.4649037297
 30
0.0
 10
6.8264066058
 20
11.4654918323
 30
0.0
 10
6.8259716805
 20
11.4662322618
 30
0.0
 10
6.8255313166
 20
11.4671237845
 30
0.0
 10
6.8250865289
 20
11.4681643544
 30
0.0
 10
6.8246382959
 20
11.4693513741
 30
0.0
 10
6.8240092132
 20
11.4712089121
 30
0.0
 10
6.8232330629
 20
11.473877951
 30
0.0
 10
6.8223372321
 20
11.4774832668
 30
0.0
 10
6.8214476494
 20
11.48159317
 30
0.0
 10
6.8208921355
 20
11.4845049478
 30
0.0
 10
6.8206152224
 20
11.4860398354
 30
0.0
  0
SPLINE
  5
3E9
100
AcDbEntity
  8
0
100
AcDbSpline
 62
9
  6
CONTINUOUS
 70
0
 71
3
 72
23
 73
19
 74
0
 42
0.0000001
 43
0.0000001
 44
0.0000000001
 40
0.0
 40
0.0
 40
0.0
 40
0.0
 40
0.0620675525
 40
0.124180233
 40
0.1863366904
 40
0.2485544919
 40
0.3108376804
 40
0.373191979
 40
0.435619667
 40
0.4981206033
 40
0.5606921854
 40
0.6233293843
 40
0.6860248581
 40
0.7487691474
 40
0.8115521111
 40
0.8743582799
 40
0.937182933
 40
1.0
 40
1.0
 40
1.0
 40
1.0
 10
6.8277224022
 20
11.4642024562
 30
0.0
 10
6.8246709615
 20
11.4644883726
 30
0.0
 10
6.8185349845
 20
11.4647727121
 30
0.0
 10
6.8093315522
 20
11.4643324754
 30
0.0
 10
6.8002019376
 20
11.4630291631
 30
0.0
 10
6.7912265746
 20
11.4608746731
 30
0.0
 10
6.7824826993
 20
11.4578872887
 30
0.0
 10
6.7740462157
 20
11.4540930844
 30
0.0
 10
6.7659901351
 20
11.4495249285
 30
0.0
 10
6.7583841923
 20
11.4442224733
 30
0.0
 10
6.7512942028
 20
11.438231685
 30
0.0
 10
6.7447815268
 20
11.431604451
 30
0.0
 10
6.7389025573
 20
11.4243981576
 30
0.0
 10
6.7337081063
 20
11.416675184
 30
0.0
 10
6.7292433018
 20
11.4085025282
 30
0.0
 10
6.7255462266
 20
11.3999505642
 30
0.0
 10
6.7226497596
 20
11.3910944243
 30
0.0
 10
6.7212682064
 20
11.3850355987
 30
0.0
 10
6.7207183408
 20
11.3819829093
 30
0.0
  0
SPLINE
  5
3EA
100
AcDbEntity
  8
0
100
AcDbSpline
 62
9
  6
CONTINUOUS
 70
0
 71
3
 72
16
 73
12
 74
0
 42
0.0000001
 43
0.0000001
 44
0.0000000001
 40
0.0
 40
0.0
 40
0.0
 40
0.0
 40
0.0421520498
 40
0.0881720424
 40
0.1908368232
 40
0.3060740917
 40
0.4318903571
 40
0.5662591002
 40
0.7071285749
 40
0.8524122049
 40
1.0
 40
1.0
 40
1.0
 40
1.0
 10
6.7529392354
 20
12.0876081842
 30
0.0
 10
6.7541066583
 20
12.087163792
 30
0.0
 10
6.7565427786
 20
12.0862188465
 30
0.0
 10
6.7617977024
 20
12.0841287045
 30
0.0
 10
6.7690374469
 20
12.0811692216
 30
0.0
 10
6.7784374479
 20
12.0772459741
 30
0.0
 10
6.7886857004
 20
12.0729161538
 30
0.0
 10
6.7996225982
 20
12.0682646721
 30
0.0
 10
6.8110829073
 20
12.0633698686
 30
0.0
 10
6.8228982189
 20
12.0583089723
 30
0.0
 10
6.8308766468
 20
12.0548927338
 30
0.0
 10
6.8348903989
 20
12.0531553137
 30
0.0
  0
SPLINE
  5
3EB
100
AcDbEntity
  8
0
100
AcDbSpline
 62
9
  6
CONTINUOUS
 70
0
 71
3
 72
15
 73
11
 74
0
 42
0.0000001
 43
0.0000001
 44
0.0000000001
 40
0.0
 40
0.0
 40
0.0
 40
0.0
 40
0.3022523264
 40
0.4466454057
 40
0.5829420411
 40
0.7086182008
 40
0.8213523316
 40
0.9190696399
 40
0.9617358062
 40
1.0
 40
1.0
 40
1.0
 40
1.0
 10
6.7804474859
 20
11.6204555465
 30
0.0
 10
6.7715167314
 20
11.6216319124
 30
0.0
 10
6.7583045818
 20
11.623260157
 30
0.0
 10
6.7410339733
 20
11.6251469651
 30
0.0
 10
6.7289819747
 20
11.6263408274
 30
0.0
 10
6.7178569199
 20
11.6273139903
 30
0.0
 10
6.7078661086
 20
11.6280488225
 30
0.0
 10
6.7003337293
 20
11.6284711345
 30
0.0
 10
6.695013053
 20
11.6286675632
 30
0.0
 10
6.6926015454
 20
11.6287200065
 30
0.0
 10
6.6914612508
 20
11.6287332464
 30
0.0
  0
SPLINE
  5
3EC
100
AcDbEntity
  8
0
100
AcDbSpline
 62
9
  6
CONTINUOUS
 70
0
 71
3
 72
10
 73
6
 74
0
 42
0.0000001
 43
0.0000001
 44
0.0000000001
 40
0.0
 40
0.0
 40
0.0
 40
0.0
 40
0.4999882713
 40
0.749977397
 40
1.0
 40
1.0
 40
1.0
 40
1.0
 10
6.8960225716
 20
12.1135904726
 30
0.0
 10
6.8985471202
 20
12.1212224508
 30
0.0
 10
6.9021568587
 20
12.1327310621
 30
0.0
 10
6.9064996931
 20
12.1482121441
 30
0.0
 10
6.9085011209
 20
12.1559989269
 30
0.0
 10
6.9094582549
 20
12.1599031148
 30
0.0
  0
LINE
  5
3ED
100
AcDbEntity
  8
0
100
AcDbLine
 62
7
  6
CONTINUOUS
 10
6.9094582549
 20
12.1599031148
 11
6.8320168366
 21
12.1806579537
  0
SPLINE
  5
3EE
100
AcDbEntity
  8
0
100
AcDbSpline
 62
9
  6
CONTINUOUS
 70
0
 71
3
 72
15
 73
11
 74
0
 42
0.0000001
 43
0.0000001
 44
0.0000000001
 40
0.0
 40
0.0
 40
0.0
 40
0.0
 40
0.0852470385
 40
0.185904748
 40
0.3000980403
 40
0.4257799585
 40
0.5608101509
 40
0.7029994816
 40
0.8501314486
 40
1.0
 40
1.0
 40
1.0
 40
1.0
 10
6.7735129475
 20
12.1145749067
 30
0.0
 10
6.7751900745
 20
12.1127638839
 30
0.0
 10
6.7788374381
 20
12.1088051409
 30
0.0
 10
6.7847449708
 20
12.1024328907
 30
0.0
 10
6.7915174612
 20
12.0952664106
 30
0.0
 10
6.799071796
 20
12.0874704424
 30
0.0
 10
6.8073095182
 20
12.0792094752
 30
0.0
 10
6.8161143555
 20
12.070638722
 30
0.0
 10
6.8253587861
 20
12.0619059147
 30
0.0
 10
6.8316774897
 20
12.0560721941
 30
0.0
 10
6.8348903346
 20
12.0531553224
 30
0.0
  0
SPLINE
  5
3EF
100
AcDbEntity
  8
0
100
AcDbSpline
 62
9
  6
CONTINUOUS
 70
0
 71
3
 72
9
 73
5
 74
0
 42
0.0000001
 43
0.0000001
 44
0.0000000001
 40
0.0
 40
0.0
 40
0.0
 40
0.0
 40
0.4767461308
 40
1.0
 40
1.0
 40
1.0
 40
1.0
 10
6.7687004785
 20
12.1188452788
 30
0.0
 10
6.7695394527
 20
12.1182583595
 30
0.0
 10
6.7712201582
 20
12.1169125014
 30
0.0
 10
6.772749117
 20
12.1153991822
 30
0.0
 10
6.7735129475
 20
12.1145749067
 30
0.0
  0
SPLINE
  5
3F0
100
AcDbEntity
  8
0
100
AcDbSpline
 62
9
  6
CONTINUOUS
 70
0
 71
3
 72
9
 73
5
 74
0
 42
0.0000001
 43
0.0000001
 44
0.0000000001
 40
0.0
 40
0.0
 40
0.0
 40
0.0
 40
0.5254430208
 40
1.0
 40
1.0
 40
1.0
 40
1.0
 10
6.8152329723
 20
12.267322312
 30
0.0
 10
6.8140177301
 20
12.2669199616
 30
0.0
 10
6.8116620913
 20
12.2662747772
 30
0.0
 10
6.8092394572
 20
12.2659392298
 30
0.0
 10
6.8080852274
 20
12.2658727062
 30
0.0
  0
SPLINE
  5
3F1
100
AcDbEntity
  8
0
100
AcDbSpline
 62
9
  6
CONTINUOUS
 70
0
 71
3
 72
15
 73
11
 74
0
 42
0.0000001
 43
0.0000001
 44
0.0000000001
 40
0.0
 40
0.0
 40
0.0
 40
0.0
 40
0.1497268988
 40
0.296671601
 40
0.4386526422
 40
0.5734918323
 40
0.6990553106
 40
0.8132708888
 40
0.9141821017
 40
1.0
 40
1.0
 40
1.0
 40
1.0
 10
6.8970979063
 20
12.2916948833
 30
0.0
 10
6.8929649388
 20
12.2906451698
 30
0.0
 10
6.8847895284
 20
12.2885111316
 30
0.0
 10
6.8727328022
 20
12.2852385857
 30
0.0
 10
6.8611263491
 20
12.2819290026
 30
0.0
 10
6.8501466194
 20
12.2786458337
 30
0.0
 10
6.8399614727
 20
12.2754683443
 30
0.0
 10
6.8307305575
 20
12.2724788436
 30
0.0
 10
6.8225965027
 20
12.2697775681
 30
0.0
 10
6.8175529003
 20
12.2680913629
 30
0.0
 10
6.8152329723
 20
12.267322312
 30
0.0
  0
SPLINE
  5
3F2
100
AcDbEntity
  8
0
100
AcDbSpline
 62
9
  6
CONTINUOUS
 70
0
 71
3
 72
10
 73
6
 74
0
 42
0.0000001
 43
0.0000001
 44
0.0000000001
 40
0.0
 40
0.0
 40
0.0
 40
0.0
 40
0.2500408755
 40
0.5000377081
 40
1.0
 40
1.0
 40
1.0
 40
1.0
 10
6.9095924179
 20
12.1598656027
 30
0.0
 10
6.9107241135
 20
12.164496558
 30
0.0
 10
6.9128652084
 20
12.173788045
 30
0.0
 10
6.9166539489
 20
12.1924754234
 30
0.0
 10
6.9189607519
 20
12.2065928835
 30
0.0
 10
6.9203300538
 20
12.216026203
 30
0.0
  0
SPLINE
  5
3F3
100
AcDbEntity
  8
0
100
AcDbSpline
 62
9
  6
CONTINUOUS
 70
0
 71
3
 72
15
 73
11
 74
0
 42
0.0000001
 43
0.0000001
 44
0.0000000001
 40
0.0
 40
0.0
 40
0.0
 40
0.0
 40
0.147734526
 40
0.293075092
 40
0.4339217678
 40
0.5682032947
 40
0.693896079
 40
0.8090214805
 40
0.911663241
 40
1.0
 40
1.0
 40
1.0
 40
1.0
 10
6.8970985059
 20
12.2916950081
 30
0.0
 10
6.8928129957
 20
12.2919359347
 30
0.0
 10
6.8843131563
 20
12.2924443267
 30
0.0
 10
6.8717290773
 20
12.2932066832
 30
0.0
 10
6.8595365524
 20
12.2939686003
 30
0.0
 10
6.8479155929
 20
12.2947236286
 30
0.0
 10
6.8370425711
 20
12.2954635174
 30
0.0
 10
6.8270904195
 20
12.2961946192
 30
0.0
 10
6.8182260151
 20
12.2969146697
 30
0.0
 10
6.812701102
 20
12.2974316697
 30
0.0
 10
6.810148878
 20
12.2977023271
 30
0.0
  0
SPLINE
  5
3F4
100
AcDbEntity
  8
0
100
AcDbSpline
 62
9
  6
CONTINUOUS
 70
0
 71
3
 72
17
 73
13
 74
0
 42
0.0000001
 43
0.0000001
 44
0.0000000001
 40
0.0
 40
0.0
 40
0.0
 40
0.0
 40
0.1951692616
 40
0.3704854779
 40
0.5254701332
 40
0.6597895683
 40
0.7733575906
 40
0.8225007197
 40
0.8666989893
 40
0.9061605963
 40
0.9412011392
 40
1.0
 40
1.0
 40
1.0
 40
1.0
 10
7.1317202608
 20
12.8048046081
 30
0.0
 10
7.1322787159
 20
12.8054094134
 30
0.0
 10
7.1333541983
 20
12.8065435073
 30
0.0
 10
7.134933271
 20
12.8080994572
 30
0.0
 10
7.1363867552
 20
12.8094151482
 30
0.0
 10
7.137708166
 20
12.8104849851
 30
0.0
 10
7.1387393712
 20
12.8112000678
 30
0.0
 10
7.1394970368
 20
12.8116343619
 30
0.0
 10
7.1400013336
 20
12.8118791175
 30
0.0
 10
7.1404699996
 20
12.8120586527
 30
0.0
 10
7.1410133341
 20
12.8122017034
 30
0.0
 10
7.1414196881
 20
12.8122255747
 30
0.0
 10
7.1416636796
 20
12.8121811268
 30
0.0
  0
SPLINE
  5
3F5
100
AcDbEntity
  8
0
100
AcDbSpline
 62
9
  6
CONTINUOUS
 70
0
 71
3
 72
14
 73
10
 74
0
 42
0.0000001
 43
0.0000001
 44
0.0000000001
 40
0.0
 40
0.0
 40
0.0
 40
0.0
 40
0.2984561894
 40
0.4413649841
 40
0.5767721944
 40
0.7023683399
 40
0.816015095
 40
0.9157829539
 40
1.0
 40
1.0
 40
1.0
 40
1.0
 10
7.0309739484
 20
12.7016768407
 30
0.0
 10
7.0227492561
 20
12.7043442855
 30
0.0
 10
7.0106179466
 20
12.7083876978
 30
0.0
 10
6.9948377591
 20
12.7138827297
 30
0.0
 10
6.9838247002
 20
12.7178379731
 30
0.0
 10
6.9736503344
 20
12.7216185422
 30
0.0
 10
6.9644888846
 20
12.7251588175
 30
0.0
 10
6.9564971249
 20
12.7283970982
 30
0.0
 10
6.9516003394
 20
12.7305042905
 30
0.0
 10
6.9493763657
 20
12.7315075982
 30
0.0
  0
LINE
  5
3F6
100
AcDbEntity
  8
0
100
AcDbLine
 62
9
  6
CONTINUOUS
 10
7.1416639512
 20
12.8121810098
 11
7.1458308486
 21
12.8122291602
  0
SPLINE
  5
3F7
100
AcDbEntity
  8
0
100
AcDbSpline
 62
9
  6
CONTINUOUS
 70
0
 71
3
 72
23
 73
19
 74
0
 42
0.0000001
 43
0.0000001
 44
0.0000000001
 40
0.0
 40
0.0
 40
0.0
 40
0.0
 40
0.0620054882
 40
0.1240578509
 40
0.1861512427
 40
0.2483094258
 40
0.3105385393
 40
0.3728461819
 40
0.4352375352
 40
0.4977145278
 40
0.5602764766
 40
0.6229199377
 40
0.6856386722
 40
0.7484245765
 40
0.8112672425
 40
0.874150576
 40
0.9370729398
 40
1.0
 40
1.0
 40
1.0
 40
1.0
 10
7.1416639512
 20
12.8121810098
 30
0.0
 10
7.1389446977
 20
12.8133522882
 30
0.0
 10
7.1336083081
 20
12.8159465674
 30
0.0
 10
7.1259922055
 20
12.8205525435
 30
0.0
 10
7.1188215736
 20
12.825838841
 30
0.0
 10
7.1121555834
 20
12.8317611345
 30
0.0
 10
7.1060481743
 20
12.8382720064
 30
0.0
 10
7.1005489997
 20
12.8453181851
 30
0.0
 10
7.0957026269
 20
12.8528423567
 30
0.0
 10
7.091548462
 20
12.8607833926
 30
0.0
 10
7.0881203124
 20
12.8690767604
 30
0.0
 10
7.0854459042
 20
12.8776549948
 30
0.0
 10
7.0835468392
 20
12.8864483748
 30
0.0
 10
7.0824385656
 20
12.8953855245
 30
0.0
 10
7.082130259
 20
12.9043936217
 30
0.0
 10
7.0826239505
 20
12.9134001615
 30
0.0
 10
7.0839160641
 20
12.9223305147
 30
0.0
 10
7.0853027806
 20
12.9281872809
 30
0.0
 10
7.0861242398
 20
12.9310776018
 30
0.0
  0
SPLINE
  5
3F8
100
AcDbEntity
  8
0
100
AcDbSpline
 62
9
  6
CONTINUOUS
 70
0
 71
3
 72
27
 73
23
 74
0
 42
0.0000001
 43
0.0000001
 44
0.0000000001
 40
0.0
 40
0.0
 40
0.0
 40
0.0
 40
0.1937670926
 40
0.3800543384
 40
0.551773096
 40
0.6300945591
 40
0.7023793172
 40
0.7679436365
 40
0.8261692659
 40
0.8765143284
 40
0.8985878647
 40
0.918527177
 40
0.9362928004
 40
0.9518531422
 40
0.9651830875
 40
0.9762765939
 40
0.9851500289
 40
0.9918638883
 40
0.9944657805
 40
0.9966208343
 40
0.9984160283
 40
1.0
 40
1.0
 40
1.0
 40
1.0
 10
6.920330082
 20
12.2160258813
 30
0.0
 10
6.9234782529
 20
12.2152299716
 30
0.0
 10
6.9296435367
 20
12.2136308392
 30
0.0
 10
6.9385639345
 20
12.2111947161
 30
0.0
 10
6.945589882
 20
12.2091677222
 30
0.0
 10
6.9507589462
 20
12.2075994844
 30
0.0
 10
6.9542145568
 20
12.2065118177
 30
0.0
 10
6.9573366077
 20
12.2054868311
 30
0.0
 10
6.960095185
 20
12.2045344838
 30
0.0
 10
6.9621506368
 20
12.2037798063
 30
0.0
 10
6.9635919927
 20
12.2032156664
 30
0.0
 10
6.9645186997
 20
12.2028349894
 30
0.0
 10
6.9653373064
 20
12.2024788737
 30
0.0
 10
6.9660459975
 20
12.2021482787
 30
0.0
 10
6.9666431687
 20
12.2018440601
 30
0.0
 10
6.9671280881
 20
12.2015671306
 30
0.0
 10
6.9674998049
 20
12.2013182372
 30
0.0
 10
6.9677341688
 20
12.2011207321
 30
0.0
 10
6.9678580566
 20
12.2009730298
 30
0.0
 10
6.9679145382
 20
12.2008780908
 30
0.0
 10
6.9679424552
 20
12.2007883782
 30
0.0
 10
6.9679399222
 20
12.2007302385
 30
0.0
 10
6.9679334191
 20
12.2007045026
 30
0.0
  0
LINE
  5
3F9
100
AcDbEntity
  8
0
100
AcDbLine
 62
7
  6
CONTINUOUS
 10
6.9095922641
 20
12.1598655
 11
6.9554646677
 21
12.1493219854
  0
SPLINE
  5
3FA
100
AcDbEntity
  8
0
100
AcDbSpline
 62
9
  6
CONTINUOUS
 70
0
 71
3
 72
27
 73
23
 74
0
 42
0.0000001
 43
0.0000001
 44
0.0000000001
 40
0.0
 40
0.0
 40
0.0
 40
0.0
 40
0.1932155568
 40
0.3792909448
 40
0.5510438338
 40
0.6294444757
 40
0.7018341575
 40
0.7675180045
 40
0.8258672756
 40
0.8763304009
 40
0.8984580883
 40
0.9184468757
 40
0.9362563162
 40
0.9518538344
 40
0.9652132202
 40
0.9763272697
 40
0.9852108105
 40
0.991921927
 40
0.994516408
 40
0.9966592596
 40
0.9984371584
 40
1.0
 40
1.0
 40
1.0
 40
1.0
 10
7.0841482596
 20
12.6865641495
 30
0.0
 10
7.0871345838
 20
12.6852235036
 30
0.0
 10
7.0929807789
 20
12.6825557031
 30
0.0
 10
7.101424243
 20
12.6785721426
 30
0.0
 10
7.1080633285
 20
12.6753243315
 30
0.0
 10
7.1129391232
 20
12.6728568752
 30
0.0
 10
7.1161943975
 20
12.671167424
 30
0.0
 10
7.1191293974
 20
12.6695987853
 30
0.0
 10
7.1217156213
 20
12.6681663414
 30
0.0
 10
7.1236354607
 20
12.6670543905
 30
0.0
 10
7.1249760766
 20
12.6662401137
 30
0.0
 10
7.1258350806
 20
12.6656988325
 30
0.0
 10
7.1265905761
 20
12.6652011304
 30
0.0
 10
7.127240889
 20
12.6647482986
 30
0.0
 10
7.1277845389
 20
12.6643414844
 30
0.0
 10
7.1282209289
 20
12.6639817483
 30
0.0
 10
7.1285492078
 20
12.6636700116
 30
0.0
 10
7.1287493831
 20
12.6634335523
 30
0.0
 10
7.1288479227
 20
12.6632658549
 30
0.0
 10
7.1288881408
 20
12.6631623474
 30
0.0
 10
7.1289008211
 20
12.6630690706
 30
0.0
 10
7.1288884227
 20
12.663012193
 30
0.0
 10
7.1288775646
 20
12.6629880442
 30
0.0
  0
SPLINE
  5
3FB
100
AcDbEntity
  8
0
100
AcDbSpline
 62
9
  6
CONTINUOUS
 70
0
 71
3
 72
23
 73
19
 74
0
 42
0.0000001
 43
0.0000001
 44
0.0000000001
 40
0.0
 40
0.0
 40
0.0
 40
0.0
 40
0.0642950692
 40
0.1286471874
 40
0.1929459003
 40
0.2571116111
 40
0.3210545287
 40
0.3846999424
 40
0.4479847904
 40
0.5108621837
 40
0.5733036943
 40
0.6353009134
 40
0.6968661852
 40
0.7580324067
 40
0.8188532582
 40
0.8793945496
 40
0.939750952
 40
1.0
 40
1.0
 40
1.0
 40
1.0
 10
7.1317201241
 20
12.8048044693
 30
0.0
 10
7.1334453988
 20
12.8042741758
 30
0.0
 10
7.136845867
 20
12.8030361462
 30
0.0
 10
7.1417296156
 20
12.8006732131
 30
0.0
 10
7.1463461492
 20
12.7978290791
 30
0.0
 10
7.1506407464
 20
12.7945378119
 30
0.0
 10
7.1545632796
 20
12.7908373811
 30
0.0
 10
7.1580676615
 20
12.786771181
 30
0.0
 10
7.1611127229
 20
12.7823866776
 30
0.0
 10
7.1636626255
 20
12.7777351596
 30
0.0
 10
7.1656872648
 20
12.7728710535
 30
0.0
 10
7.1671626117
 20
12.7678513282
 30
0.0
 10
7.1680710117
 20
12.7627348789
 30
0.0
 10
7.1684015185
 20
12.7575817953
 30
0.0
 10
7.1681498811
 20
12.7524529046
 30
0.0
 10
7.1673190611
 20
12.7474081922
 30
0.0
 10
7.1659185515
 20
12.7425083775
 30
0.0
 10
7.1646150502
 20
12.7393739457
 30
0.0
 10
7.163876229
 20
12.7378524956
 30
0.0
  0
SPLINE
  5
3FC
100
AcDbEntity
  8
0
100
AcDbSpline
 62
9
  6
CONTINUOUS
 70
0
 71
3
 72
22
 73
18
 74
0
 42
0.0000001
 43
0.0000001
 44
0.0000000001
 40
0.0
 40
0.0
 40
0.0
 40
0.0
 40
0.1318117585
 40
0.1979281519
 40
0.2638697768
 40
0.3294382017
 40
0.3944569732
 40
0.458772036
 40
0.5222609949
 40
0.5848396963
 40
0.6464676477
 40
0.7071519104
 40
0.7669489297
 40
0.8259651945
 40
0.8843467049
 40
0.9422923033
 40
1.0
 40
1.0
 40
1.0
 40
1.0
 10
6.8206150255
 20
11.4860398066
 30
0.0
 10
6.82428425
 20
11.485242578
 30
0.0
 10
6.829934427
 20
11.4845964659
 30
0.0
 10
6.8374548781
 20
11.4848498057
 30
0.0
 10
6.8430453239
 20
11.4855934337
 30
0.0
 10
6.8485027719
 20
11.4868822498
 30
0.0
 10
6.853759146
 20
11.488699769
 30
0.0
 10
6.8587472829
 20
11.4910232947
 30
0.0
 10
6.8634037604
 20
11.4938236239
 30
0.0
 10
6.8676691129
 20
11.4970655899
 30
0.0
 10
6.8714886769
 20
11.5007084332
 30
0.0
 10
6.8748132017
 20
11.504706226
 30
0.0
 10
6.8775996241
 20
11.5090083642
 30
0.0
 10
6.8798113596
 20
11.5135599705
 30
0.0
 10
6.8814197615
 20
11.5183031344
 30
0.0
 10
6.8824027416
 20
11.5231756275
 30
0.0
 10
6.8826329991
 20
11.5264730557
 30
0.0
 10
6.8826408482
 20
11.528116918
 30
0.0
  0
SPLINE
  5
3FD
100
AcDbEntity
  8
0
100
AcDbSpline
 62
9
  6
CONTINUOUS
 70
0
 71
3
 72
27
 73
23
 74
0
 42
0.0000001
 43
0.0000001
 44
0.0000000001
 40
0.0
 40
0.0
 40
0.0
 40
0.0
 40
0.1929379156
 40
0.3789267323
 40
0.55072255
 40
0.6291780271
 40
0.7016356085
 40
0.7673919143
 40
0.8258136477
 40
0.8763446719
 40
0.8985007075
 40
0.9185162991
 40
0.9363468091
 40
0.9519598867
 40
0.9653302751
 40
0.976446729
 40
0.9853236034
 40
0.9920166001
 40
0.994595535
 40
0.9967174745
 40
0.9984685491
 40
1.0
 40
1.0
 40
1.0
 40
1.0
 10
6.8332787273
 20
11.6054403592
 30
0.0
 10
6.8365646292
 20
11.6053290484
 30
0.0
 10
6.843019486
 20
11.6051495037
 30
0.0
 10
6.8524032869
 20
11.6050058336
 30
0.0
 10
6.8598374346
 20
11.6049951622
 30
0.0
 10
6.8653362926
 20
11.6050600895
 30
0.0
 10
6.8690276699
 20
11.605140687
 30
0.0
 10
6.8723766677
 20
11.6052535548
 30
0.0
 10
6.8753504575
 20
11.6053974503
 30
0.0
 10
6.8775798294
 20
11.6055472298
 30
0.0
 10
6.8791535492
 20
11.6056853065
 30
0.0
 10
6.880170601
 20
11.605791015
 30
0.0
 10
6.8810747219
 20
11.6059031466
 30
0.0
 10
6.8818637931
 20
11.6060212756
 30
0.0
 10
6.8825359566
 20
11.6061449755
 30
0.0
 10
6.8830901728
 20
11.6062736033
 30
0.0
 10
6.8835252179
 20
11.6064066973
 30
0.0
 10
6.8838111328
 20
11.6065287633
 30
0.0
 10
6.8839747387
 20
11.6066343117
 30
0.0
 10
6.8840569507
 20
11.606708298
 30
0.0
 10
6.8841098055
 20
11.606785233
 30
0.0
 10
6.8841238422
 20
11.6068410958
 30
0.0
 10
6.8841247008
 20
11.6068671786
 30
0.0
  0
SPLINE
  5
3FE
100
AcDbEntity
  8
0
100
AcDbSpline
 62
9
  6
CONTINUOUS
 70
0
 71
3
 72
27
 73
23
 74
0
 42
0.0000001
 43
0.0000001
 44
0.0000000001
 40
0.0
 40
0.0
 40
0.0
 40
0.0
 40
0.1934637824
 40
0.3796297552
 40
0.5513597444
 40
0.6297205982
 40
0.7020589984
 40
0.7676853505
 40
0.8259759082
 40
0.8763837565
 40
0.8984864563
 40
0.9184527285
 40
0.9362426304
 40
0.9518241094
 40
0.9651715622
 40
0.9762784767
 40
0.9851606535
 40
0.991877771
 40
0.9944788596
 40
0.9966312707
 40
0.9984219378
 40
1.0
 40
1.0
 40
1.0
 40
1.0
 10
6.8960226513
 20
12.1135904668
 30
0.0
 10
6.899210228
 20
12.1129008837
 30
0.0
 10
6.9054735725
 20
12.111586319
 30
0.0
 10
6.9145938708
 20
12.1097937828
 30
0.0
 10
6.9218298473
 20
12.1084784453
 30
0.0
 10
6.9271904056
 20
12.1075794077
 30
0.0
 10
6.9307930001
 20
12.1070134299
 30
0.0
 10
6.9340674275
 20
12.1065399795
 30
0.0
 10
6.9369820119
 20
12.1061635031
 30
0.0
 10
6.9391741125
 20
12.1059234157
 30
0.0
 10
6.9407270623
 20
12.1057863964
 30
0.0
 10
6.9417336211
 20
12.1057144227
 30
0.0
 10
6.9426316671
 20
12.1056686536
 30
0.0
 10
6.9434191153
 20
12.1056490385
 30
0.0
 10
6.9440941196
 20
12.1056555264
 30
0.0
 10
6.9446555951
 20
12.1056876209
 30
0.0
 10
6.945102335
 20
12.1057450774
 30
0.0
 10
6.945402143
 20
12.1058177054
 30
0.0
 10
6.9455799995
 20
12.1058949718
 30
0.0
 10
6.9456733854
 20
12.1059549475
 30
0.0
 10
6.9457386698
 20
12.106022987
 30
0.0
 10
6.9457623684
 20
12.1060763344
 30
0.0
 10
6.9457679867
 20
12.1061023365
 30
0.0
  0
SPLINE
  5
3FF
100
AcDbEntity
  8
0
100
AcDbSpline
 62
9
  6
CONTINUOUS
 70
0
 71
3
 72
11
 73
7
 74
0
 42
0.0000001
 43
0.0000001
 44
0.0000000001
 40
0.0
 40
0.0
 40
0.0
 40
0.0
 40
0.2582638146
 40
0.5128859079
 40
0.7607979428
 40
1.0
 40
1.0
 40
1.0
 40
1.0
 10
6.8049986499
 20
12.2981778477
 30
0.0
 10
6.8042165752
 20
12.2954261049
 30
0.0
 10
6.8031574553
 20
12.2898066894
 30
0.0
 10
6.8031411812
 20
12.2813314514
 30
0.0
 10
6.8047008214
 20
12.2732127381
 30
0.0
 10
6.8067964814
 20
12.2681877241
 30
0.0
 10
6.8080853401
 20
12.2658727477
 30
0.0
  0
SPLINE
  5
400
100
AcDbEntity
  8
0
100
AcDbSpline
 62
9
  6
CONTINUOUS
 70
0
 71
3
 72
12
 73
8
 74
0
 42
0.0000001
 43
0.0000001
 44
0.0000000001
 40
0.0
 40
0.0
 40
0.0
 40
0.0
 40
0.2507500689
 40
0.5030590458
 40
0.6289113665
 40
0.7539545263
 40
1.0
 40
1.0
 40
1.0
 40
1.0
 10
6.810148877
 20
12.2977023274
 30
0.0
 10
6.8097078647
 20
12.2951186456
 30
0.0
 10
6.8092677027
 20
12.2898498707
 30
0.0
 10
6.8098132921
 20
12.2832675029
 30
0.0
 10
6.8108977261
 20
12.2781146283
 30
0.0
 10
6.8123911427
 20
12.2731352473
 30
0.0
 10
6.8139788874
 20
12.2695677123
 30
0.0
 10
6.8152329704
 20
12.2673223147
 30
0.0
  0
SPLINE
  5
401
100
AcDbEntity
  8
0
100
AcDbSpline
 62
9
  6
CONTINUOUS
 70
0
 71
3
 72
13
 73
9
 74
0
 42
0.0000001
 43
0.0000001
 44
0.0000000001
 40
0.0
 40
0.0
 40
0.0
 40
0.0
 40
0.2571748728
 40
0.3852404993
 40
0.512162011
 40
0.7604209454
 40
0.8814468321
 40
1.0
 40
1.0
 40
1.0
 40
1.0
 10
6.7487521533
 20
12.0895169664
 30
0.0
 10
6.7493528607
 20
12.0925869962
 30
0.0
 10
6.7507180937
 20
12.0971125979
 30
0.0
 10
6.7533945549
 20
12.1027471526
 30
0.0
 10
6.7565713816
 20
12.107989236
 30
0.0
 10
6.7604933274
 20
12.1126500422
 30
0.0
 10
6.7650244279
 20
12.1164965753
 30
0.0
 10
6.7674552619
 20
12.11811914
 30
0.0
 10
6.7687011628
 20
12.118845288
 30
0.0
  0
SPLINE
  5
402
100
AcDbEntity
  8
0
100
AcDbSpline
 62
9
  6
CONTINUOUS
 70
0
 71
3
 72
13
 73
9
 74
0
 42
0.0000001
 43
0.0000001
 44
0.0000000001
 40
0.0
 40
0.0
 40
0.0
 40
0.0
 40
0.2506206346
 40
0.5033345445
 40
0.6293714233
 40
0.7544413926
 40
0.8781340825
 40
1.0
 40
1.0
 40
1.0
 40
1.0
 10
6.7529392933
 20
12.0876084192
 30
0.0
 10
6.7537424886
 20
12.0903920528
 30
0.0
 10
6.755896121
 20
12.0958394252
 30
0.0
 10
6.7597833865
 20
12.1020393916
 30
0.0
 10
6.7635295594
 20
12.1065081769
 30
0.0
 10
6.7666140559
 20
12.1095604488
 30
0.0
 10
6.7699361233
 20
12.1122759021
 30
0.0
 10
6.7723026648
 20
12.1138535285
 30
0.0
 10
6.7735129767
 20
12.1145745044
 30
0.0
  0
SPLINE
  5
403
100
AcDbEntity
  8
0
100
AcDbSpline
 62
9
  6
CONTINUOUS
 70
0
 71
3
 72
15
 73
11
 74
0
 42
0.0000001
 43
0.0000001
 44
0.0000000001
 40
0.0
 40
0.0
 40
0.0
 40
0.0
 40
0.1252924907
 40
0.2505200084
 40
0.3756631102
 40
0.5007010942
 40
0.6256352826
 40
0.7504801596
 40
0.8752555567
 40
1.0
 40
1.0
 40
1.0
 40
1.0
 10
7.2031013169
 20
12.6564500157
 30
0.0
 10
7.2053095521
 20
12.6557777674
 30
0.0
 10
7.209611449
 20
12.6540264461
 30
0.0
 10
7.2154910611
 20
12.6503114621
 30
0.0
 10
7.2206271609
 20
12.6456254591
 30
0.0
 10
7.2248614909
 20
12.6401193489
 30
0.0
 10
7.2280765559
 20
12.6339689607
 30
0.0
 10
7.2301819167
 20
12.627361073
 30
0.0
 10
7.2311280117
 20
12.620496852
 30
0.0
 10
7.230968468
 20
12.6158757638
 30
0.0
 10
7.2306912412
 20
12.6135943487
 30
0.0
  0
SPLINE
  5
404
100
AcDbEntity
  8
0
100
AcDbSpline
 62
9
  6
CONTINUOUS
 70
0
 71
3
 72
15
 73
11
 74
0
 42
0.0000001
 43
0.0000001
 44
0.0000000001
 40
0.0
 40
0.0
 40
0.0
 40
0.0
 40
0.1247127858
 40
0.249465895
 40
0.3743028383
 40
0.4992465668
 40
0.6243078769
 40
0.7494774225
 40
0.8747215535
 40
1.0
 40
1.0
 40
1.0
 40
1.0
 10
7.1143941741
 20
11.6515169602
 30
0.0
 10
7.1140885905
 20
11.6489673741
 30
0.0
 10
7.1129778637
 20
11.6439138161
 30
0.0
 10
7.1099027733
 20
11.6367982677
 30
0.0
 10
7.1055235215
 20
11.6303916285
 30
0.0
 10
7.0999847978
 20
11.6249470293
 30
0.0
 10
7.0934912675
 20
11.6206721999
 30
0.0
 10
7.0862778918
 20
11.6177514002
 30
0.0
 10
7.0786309697
 20
11.6163014323
 30
0.0
 10
7.0734317147
 20
11.6163581354
 30
0.0
 10
7.0708687679
 20
11.6166497262
 30
0.0
  0
LINE
  5
405
100
AcDbEntity
  8
0
100
AcDbLine
 62
7
  6
CONTINUOUS
 10
7.0708664538
 20
11.6166292225
 11
6.8858156411
 21
11.6373637916
  0
LINE
  5
406
100
AcDbEntity
  8
0
100
AcDbLine
 62
7
  6
CONTINUOUS
 10
6.8858156411
 20
11.6373637916
 11
6.8852975286
 21
11.6374218154
  0
SPLINE
  5
407
100
AcDbEntity
  8
0
100
AcDbSpline
 62
9
  6
CONTINUOUS
 70
0
 71
3
 72
33
 73
29
 74
0
 42
0.0000001
 43
0.0000001
 44
0.0000000001
 40
0.0
 40
0.0
 40
0.0
 40
0.0
 40
0.0001140415
 40
0.0003313533
 40
0.0011413976
 40
0.0024760797
 40
0.0043470457
 40
0.0067627052
 40
0.0097305603
 40
0.013257761
 40
0.017351292
 40
0.027264856
 40
0.0395259623
 40
0.0541889123
 40
0.0713078414
 40
0.0909155791
 40
0.1129594929
 40
0.1373654234
 40
0.1640591856
 40
0.2240133783
 40
0.2922283637
 40
0.3679819151
 40
0.4500347899
 40
0.5370176256
 40
0.6275610271
 40
0.7203273546
 40
0.8141072724
 40
1.0
 40
1.0
 40
1.0
 40
1.0
 10
7.064525661
 20
11.5641758317
 30
0.0
 10
7.0645276573
 20
11.5641756079
 30
0.0
 10
7.064532924
 20
11.564179984
 30
0.0
 10
7.0645417028
 20
11.5641973995
 30
0.0
 10
7.064554991
 20
11.5642376366
 30
0.0
 10
7.0645719195
 20
11.5643059275
 30
0.0
 10
7.0645926936
 20
11.5644029293
 30
0.0
 10
7.0646167056
 20
11.5645283732
 30
0.0
 10
7.0646441412
 20
11.5646829422
 30
0.0
 10
7.0646749276
 20
11.5648668893
 30
0.0
 10
7.0647236909
 20
11.5651718777
 30
0.0
 10
7.06479274
 20
11.5656294011
 30
0.0
 10
7.0648850697
 20
11.5662716757
 30
0.0
 10
7.0649915394
 20
11.5670401292
 30
0.0
 10
7.0651123433
 20
11.567937232
 30
0.0
 10
7.0652474265
 20
11.5689635917
 30
0.0
 10
7.0653965779
 20
11.5701175596
 30
0.0
 10
7.065559323
 20
11.5713956224
 30
0.0
 10
7.0658033643
 20
11.5733364905
 30
0.0
 10
7.0661380952
 20
11.5760436991
 30
0.0
 10
7.066571604
 20
11.5796094262
 30
0.0
 10
7.0670454061
 20
11.5835623703
 30
0.0
 10
7.0675528626
 20
11.5878442272
 30
0.0
 10
7.0680859059
 20
11.5923853864
 30
0.0
 10
7.0686362971
 20
11.5971145137
 30
0.0
 10
7.0691961249
 20
11.6019630755
 30
0.0
 10
7.0699433553
 20
11.6084806785
 30
0.0
 10
7.0704991764
 20
11.6133754959
 30
0.0
 10
7.0708664534
 20
11.6166292254
 30
0.0
  0
SPLINE
  5
408
100
AcDbEntity
  8
0
100
AcDbSpline
 62
9
  6
CONTINUOUS
 70
0
 71
3
 72
26
 73
22
 74
0
 42
0.0000001
 43
0.0000001
 44
0.0000000001
 40
0.0
 40
0.0
 40
0.0
 40
0.0
 40
0.1800039168
 40
0.3634931924
 40
0.4533540513
 40
0.5400505075
 40
0.6220670921
 40
0.6978928757
 40
0.7661810829
 40
0.8262176831
 40
0.8774551018
 40
0.8996102234
 40
0.9193724772
 40
0.9367086766
 40
0.951685255
 40
0.9644011757
 40
0.9749714181
 40
0.9835405944
 40
0.9903121817
 40
0.995612093
 40
1.0
 40
1.0
 40
1.0
 40
1.0
 10
7.2306912411
 20
12.613594348
 30
0.0
 10
7.2342307599
 20
12.6131634518
 30
0.0
 10
7.2413707568
 20
12.6122301172
 30
0.0
 10
7.2502534584
 20
12.610904669
 30
0.0
 10
7.2572886583
 20
12.6097322555
 30
0.0
 10
7.2623305453
 20
12.608828963
 30
0.0
 10
7.267086752
 20
12.6079099704
 30
0.0
 10
7.2714707785
 20
12.6069895697
 30
0.0
 10
7.2754110483
 20
12.606078077
 30
0.0
 10
7.2788561466
 20
12.6051918247
 30
0.0
 10
7.2813952433
 20
12.6044553252
 30
0.0
 10
7.2831493775
 20
12.6038820111
 30
0.0
 10
7.2842550712
 20
12.6034876559
 30
0.0
 10
7.2852146163
 20
12.6031083743
 30
0.0
 10
7.2860297351
 20
12.6027453662
 30
0.0
 10
7.2867046049
 20
12.6023992729
 30
0.0
 10
7.2872440072
 20
12.6020703943
 30
0.0
 10
7.2876534651
 20
12.6017586959
 30
0.0
 10
7.2879385428
 20
12.6014625086
 30
0.0
 10
7.2881055011
 20
12.6011767491
 30
0.0
 10
7.288132132
 20
12.6009792201
 30
0.0
 10
7.2881217011
 20
12.6008929294
 30
0.0
  0
SPLINE
  5
409
100
AcDbEntity
  8
0
100
AcDbSpline
 62
9
  6
CONTINUOUS
 70
0
 71
3
 72
26
 73
22
 74
0
 42
0.0000001
 43
0.0000001
 44
0.0000000001
 40
0.0
 40
0.0
 40
0.0
 40
0.0
 40
0.004394355
 40
0.0096997472
 40
0.016475684
 40
0.0250482706
 40
0.035621167
 40
0.0483391036
 40
0.063317126
 40
0.0806542301
 40
0.1004170447
 40
0.1225725728
 40
0.1738102994
 40
0.2338464044
 40
0.3021330852
 40
0.3779565212
 40
0.4599703808
 40
0.5466638072
 40
0.6365213887
 40
0.8200034527
 40
1.0
 40
1.0
 40
1.0
 40
1.0
 10
7.1731980002
 20
11.6501770675
 30
0.0
 10
7.173187557
 20
11.650090646
 30
0.0
 10
7.1731146287
 20
11.6499048993
 30
0.0
 10
7.1728843571
 20
11.6496667146
 30
0.0
 10
7.1725368508
 20
11.6494465574
 30
0.0
 10
7.17206485
 20
11.6492409782
 30
0.0
 10
7.171462556
 20
11.6490496798
 30
0.0
 10
7.1707246006
 20
11.6488739423
 30
0.0
 10
7.1698464129
 20
11.648715197
 30
0.0
 10
7.1688240873
 20
11.6485750618
 30
0.0
 10
7.1676562313
 20
11.6484551171
 30
0.0
 10
7.1658159554
 20
11.6483157229
 30
0.0
 10
7.1631744155
 20
11.6482047781
 30
0.0
 10
7.1596172695
 20
11.648164213
 30
0.0
 10
7.1555732159
 20
11.6482171743
 30
0.0
 10
7.1510960799
 20
11.6483672935
 30
0.0
 10
7.1462578287
 20
11.6486075402
 30
0.0
 10
7.1411458716
 20
11.6489311869
 30
0.0
 10
7.1340338886
 20
11.649468386
 30
0.0
 10
7.1250911647
 20
11.6502972919
 30
0.0
 10
7.1179344148
 20
11.6510920531
 30
0.0
 10
7.1143941743
 20
11.6515169617
 30
0.0
  0
SPLINE
  5
40A
100
AcDbEntity
  8
0
100
AcDbSpline
 62
9
  6
CONTINUOUS
 70
0
 71
3
 72
32
 73
28
 74
0
 42
0.0000001
 43
0.0000001
 44
0.0000000001
 40
0.0
 40
0.0
 40
0.0
 40
0.0
 40
0.0003430567
 40
0.0011579255
 40
0.0024931348
 40
0.0043627938
 40
0.0067761786
 40
0.0097412007
 40
0.0132652401
 40
0.0173554279
 40
0.0272621268
 40
0.0395165837
 40
0.0541734687
 40
0.0712872014
 40
0.0908908431
 40
0.1129318421
 40
0.1373360459
 40
0.1640292628
 40
0.2239858401
 40
0.2922077012
 40
0.3679716206
 40
0.4500362217
 40
0.5370302127
 40
0.6275822528
 40
0.720353083
 40
0.8141320113
 40
1.0
 40
1.0
 40
1.0
 40
1.0
 10
7.2190081741
 20
12.7068827548
 30
0.0
 10
7.2190024393
 20
12.7068846772
 30
0.0
 10
7.2189845809
 20
12.7068650861
 30
0.0
 10
7.2189648771
 20
12.7068312068
 30
0.0
 10
7.2189317934
 20
12.706765539
 30
0.0
 10
7.2188924986
 20
12.7066758413
 30
0.0
 10
7.2188435797
 20
12.706557293
 30
0.0
 10
7.2187864231
 20
12.7064112786
 30
0.0
 10
7.2187204244
 20
12.7062367599
 30
0.0
 10
7.2186137967
 20
12.7059468567
 30
0.0
 10
7.2184586786
 20
12.7055107592
 30
0.0
 10
7.2182464209
 20
12.7048973056
 30
0.0
 10
7.2179972072
 20
12.7041621878
 30
0.0
 10
7.2177104198
 20
12.7033030065
 30
0.0
 10
7.2173860234
 20
12.7023191353
 30
0.0
 10
7.2170245327
 20
12.7012121556
 30
0.0
 10
7.2166270729
 20
12.6999854335
 30
0.0
 10
7.2160271648
 20
12.6981216067
 30
0.0
 10
7.2151971328
 20
12.6955202744
 30
0.0
 10
7.2141126727
 20
12.6920919981
 30
0.0
 10
7.2129185403
 20
12.6882896004
 30
0.0
 10
7.211631955
 20
12.6841693353
 30
0.0
 10
7.2102736443
 20
12.6797983269
 30
0.0
 10
7.208864811
 20
12.6752453567
 30
0.0
 10
7.2074258185
 20
12.6705765007
 30
0.0
 10
7.2054980383
 20
12.6642997739
 30
0.0
 10
7.2040567269
 20
12.6595846882
 30
0.0
 10
7.2031013172
 20
12.6564500157
 30
0.0
  0
SPLINE
  5
40B
100
AcDbEntity
  8
0
100
AcDbSpline
 62
9
  6
CONTINUOUS
 70
0
 71
3
 72
11
 73
7
 74
0
 42
0.0000001
 43
0.0000001
 44
0.0000000001
 40
0.0
 40
0.0
 40
0.0
 40
0.0
 40
0.2650558212
 40
0.5178177017
 40
0.7613782092
 40
1.0
 40
1.0
 40
1.0
 40
1.0
 10
7.2626600636
 20
12.3902585632
 30
0.0
 10
7.2640512131
 20
12.391423284
 30
0.0
 10
7.2665994818
 20
12.3939145037
 30
0.0
 10
7.2696487518
 20
12.3981765988
 30
0.0
 10
7.2717558362
 20
12.4027799329
 30
0.0
 10
7.2724972371
 20
12.4060247681
 30
0.0
 10
7.2726932582
 20
12.4076463696
 30
0.0
  0
SPLINE
  5
40C
100
AcDbEntity
  8
0
100
AcDbSpline
 62
9
  6
CONTINUOUS
 70
0
 71
3
 72
11
 73
7
 74
0
 42
0.0000001
 43
0.0000001
 44
0.0000000001
 40
0.0
 40
0.0
 40
0.0
 40
0.0
 40
0.2650558212
 40
0.5178177017
 40
0.7613782092
 40
1.0
 40
1.0
 40
1.0
 40
1.0
 10
7.2837965985
 20
12.5651123472
 30
0.0
 10
7.2848701474
 20
12.5636496906
 30
0.0
 10
7.2867514074
 20
12.5606230242
 30
0.0
 10
7.2886972729
 20
12.5557571112
 30
0.0
 10
7.2896467805
 20
12.5507842926
 30
0.0
 10
7.2895936451
 20
12.547456259
 30
0.0
 10
7.289397624
 20
12.5458346575
 30
0.0
  0
ENDSEC
  0
SECTION
  2
OBJECTS
  0
DICTIONARY
  5
C
100
AcDbDictionary
280
0
281
1
  3
ACAD_GROUP
350
D
  3
ACAD_MLINESTYLE
350
17
  3
ACAD_LAYOUT
350
1A
  3
ACAD_PLOTSETTINGS
350
19
  3
ACAD_PLOTSTYLENAME
350
E
  0
DICTIONARY
  5
D
102
{ACAD_REACTORS
330
C
102
}
100
AcDbDictionary
280
0
281
1
  0
ACDBDICTIONARYWDFLT
  5
E
102
{ACAD_REACTORS
330
C
102
}
100
AcDbDictionary
281
1
  3
Normal
350
F
100
AcDbDictionaryWithDefault
340
F
  0
DICTIONARY
  5
17
102
{ACAD_REACTORS
330
C
102
}
100
AcDbDictionary
280
0
281
1
  3
Standard
350
18
  0
DICTIONARY
  5
19
102
{ACAD_REACTORS
330
C
102
}
100
AcDbDictionary
281
1
  0
DICTIONARY
  5
1A
102
{ACAD_REACTORS
330
C
102
}
100
AcDbDictionary
281
1
  3
Model
350
40D
  3
Layout1
350
40E
  0
ACDBPLACEHOLDER
  5
F
102
{ACAD_REACTORS
330
E
102
}
  0
MLINESTYLE
  5
18
102
{ACAD_REACTORS
330
17
102
}
100
AcDbMlineStyle
  2
STANDARD
 70
0
  3

 62
256
 51
90.0
 52
90.0
 71
2
 49
0.5
 62
256
  6
BYLAYER
 49
-0.5
 62
256
  6
BYLAYER
  0
LAYOUT
  5
40D
102
{ACAD_REACTORS
330
1A
102
}
100
AcDbPlotSettings
  1

  2
none_device
  4
ANSI_C_(22.00_x_17.00_Inches)
  6

 40
0.0
 41
0.0
 42
0.0
 43
0.0
 44
558.8
 45
431.8
 46
0.0
 47
0.0
 48
0.0
 49
0.0
140
0.0
141
0.0
142
1.0
143
1.0
 70
1024
 72
0
 73
0
 74
0
  7

 75
0
147
1.0
148
0.0
149
0.0
100
AcDbLayout
  1
Model
 70
0
 71
0
 10
0.0
 20
0.0
 11
22.0
 21
17.0
 12
0.0
 22
0.0
 32
0.0
 14
0.0
 24
0.0
 34
0.0
 15
0.0
 25
0.0
 35
0.0
146
0.0
 13
0.0
 23
0.0
 33
0.0
 16
1.0
 26
0.0
 36
0.0
 17
0.0
 27
1.0
 37
0.0
 76
0
330
205
345
0
346
0
  0
LAYOUT
  5
40E
102
{ACAD_REACTORS
330
1A
102
}
100
AcDbPlotSettings
  1

  2
none_device
  4
ANSI_C_(22.00_x_17.00_Inches)
  6

 40
0.0
 41
0.0
 42
0.0
 43
0.0
 44
558.8
 45
431.8
 46
0.0
 47
0.0
 48
0.0
 49
0.0
140
0.0
141
0.0
142
1.0
143
1.0
 70
0
 72
0
 73
0
 74
0
  7

 75
0
147
1.0
148
0.0
149
0.0
100
AcDbLayout
  1
Layout1
 70
0
 71
1
 10
0.0
 20
0.0
 11
22.0
 21
17.0
 12
0.0
 22
0.0
 32
0.0
 14
0.0
 24
0.0
 34
0.0
 15
0.0
 25
0.0
 35
0.0
146
0.0
 13
0.0
 23
0.0
 33
0.0
 16
1.0
 26
0.0
 36
0.0
 17
0.0
 27
1.0
 37
0.0
 76
0
330
206
345
0
346
0
  0
ENDSEC
  0
EOF
