999
DXF file: 2940-5413_right.dxf
999
Pro/ENGINEER 2023134 by Parametric Technology Corporation
  0
SECTION
  2
HEADER
  9
$ACADVER
  1
AC1032
  9
$DWGCODEPAGE
  3
ANSI_1252
  9
$EXTMAX
 10
11.0
 20
8.5
 30
0.0
  9
$EXTMIN
 10
0.0
 20
0.0
 30
0.0
  9
$LIMMIN
 10
0.0
 20
0.0
  9
$LIMMAX
 10
11.0
 20
8.5
  9
$VIEWCTR
 10
5.5
 20
4.25
  9
$VIEWSIZE
 40
8.5
  9
$CLAYER
  8
0
  9
$LTSCALE
 40
0.605
  9
$CELTYPE
  6
BYLAYER
  9
$DIMSCALE
 40
1.0
  9
$DIMASZ
 40
0.1
  9
$DIMEXO
 40
0.03125
  9
$DIMDLI
 40
0.418
  9
$DIMEXE
 40
0.0625
  9
$DIMCEN
 40
0.099
  9
$DIMLFAC
 40
1.0
  9
$DIMBLK
  1
_FILLED
  9
$DIMALT
 70
1
  9
$DIMALTD
 70
2
  9
$DIMALTTD
 70
2
  9
$DIMALTF
 40
25.4
  9
$DIMTXT
 40
0.08
  9
$DIMTOL
 70
1
  9
$DIMLIM
 70
0
  9
$DIMTFAC
 40
1.0
  9
$DIMTP
 40
0.001
  9
$DIMTM
 40
0.001
  9
$DIMGAP
 40
0.09
  9
$DIMDSEP
 70
46
  9
$AUNITS
 70
0
  9
$PDMODE
 70
3
  9
$PDSIZE
 40
0.06
  9
$HANDSEED
  5
4E2
  9
$TILEMODE
 70
1
  9
$MEASUREMENT
 70
0
  9
$INSUNITS
 70
1
  0
ENDSEC
  0
SECTION
  2
CLASSES
  0
CLASS
  1
ACDBDICTIONARYWDFLT
  2
AcDbDictionaryWithDefault
  3
AutoCAD 2000
 90
0
 91
1
280
0
281
0
  0
CLASS
  1
ACDBPLACEHOLDER
  2
AcDbPlaceHolder
  3
AutoCAD 2000
 90
0
 91
1
280
0
281
0
  0
CLASS
  1
LAYOUT
  2
AcDbLayout
  3
AutoCAD 2000
 90
0
 91
0
280
0
281
0
  0
ENDSEC
  0
SECTION
  2
TABLES
  0
TABLE
  2
VPORT
  5
8
100
AcDbSymbolTable
 70
2
  0
VPORT
  5
1F4
100
AcDbSymbolTableRecord
100
AcDbViewportTableRecord
  2
*ACTIVE
 70
0
 10
0.0
 20
0.0
 11
1.0
 21
1.0
 12
5.5
 22
4.25
 13
0.0
 23
0.0
 14
1.0
 24
1.0
 15
0.0
 25
0.0
 16
0.0
 26
0.0
 36
1.0
 17
0.0
 27
0.0
 37
0.0
 40
8.5
 41
1.2941176471
 42
50.0
 43
0.0
 44
0.0
 50
0.0
 51
0.0
 71
0
 72
100
 73
1
 74
1
 75
0
 76
0
 77
0
 78
0
  0
ENDTAB
  0
TABLE
  2
LTYPE
  5
5
100
AcDbSymbolTable
 70
6
  0
LTYPE
  5
14
100
AcDbSymbolTableRecord
100
AcDbLinetypeTableRecord
  2
BYBLOCK
 70
0
  3

 72
65
 73
0
 40
0.0
  0
LTYPE
  5
15
100
AcDbSymbolTableRecord
100
AcDbLinetypeTableRecord
  2
BYLAYER
 70
0
  3

 72
65
 73
0
 40
0.0
  0
LTYPE
  5
16
100
AcDbSymbolTableRecord
100
AcDbLinetypeTableRecord
  2
CONTINUOUS
 70
64
  3
Solid line
 72
65
 73
0
 40
0.0
  0
LTYPE
  5
1F5
100
AcDbSymbolTableRecord
100
AcDbLinetypeTableRecord
  2
CENTER
 70
64
  3
____ _ ____ _ ____ _ ____ _ ____ _ ____ _ ____
 72
65
 73
4
 40
0.6
 49
0.375
 74
0
 49
-0.075
 74
0
 49
0.075
 74
0
 49
-0.075
 74
0
  0
LTYPE
  5
1F6
100
AcDbSymbolTableRecord
100
AcDbLinetypeTableRecord
  2
HIDDEN
 70
64
  3
- - - - - - - - - - - - - - - - - - - -
 72
65
 73
2
 40
0.2
 49
0.1
 74
0
 49
-0.1
 74
0
  0
LTYPE
  5
1F7
100
AcDbSymbolTableRecord
100
AcDbLinetypeTableRecord
  2
PHANTOM
 70
64
  3
_____ _ _ _____ _ _ _____ _ _ _____
 72
65
 73
6
 40
0.8
 49
0.45
 74
0
 49
-0.05
 74
0
 49
0.1
 74
0
 49
-0.05
 74
0
 49
0.1
 74
0
 49
-0.05
 74
0
  0
LTYPE
  5
1F8
100
AcDbSymbolTableRecord
100
AcDbLinetypeTableRecord
  2
DOT
 70
64
  3
. . . . . . . . . . . . . . . . . . . .
 72
65
 73
2
 40
0.2
 49
0.1
 74
0
 49
-0.1
 74
0
  0
LTYPE
  5
1F9
100
AcDbSymbolTableRecord
100
AcDbLinetypeTableRecord
  2
DASHED
 70
64
  3
- - - - - - - - - - - - - - - - - - - -
 72
65
 73
2
 40
0.2
 49
0.1
 74
0
 49
-0.1
 74
0
  0
ENDTAB
  0
TABLE
  2
LAYER
  5
2
100
AcDbSymbolTable
 70
36
  0
LAYER
  5
10
100
AcDbSymbolTableRecord
100
AcDbLayerTableRecord
  2
0
 70
0
 62
7
  6
CONTINUOUS
370
-3
390
F
  0
LAYER
  5
1FA
100
AcDbSymbolTableRecord
100
AcDbLayerTableRecord
  2
DEFAULT_1
 70
0
 62
7
  6
CENTER
370
-3
390
F
  0
LAYER
  5
1FB
100
AcDbSymbolTableRecord
100
AcDbLayerTableRecord
  2
DEFAULT_2
 70
0
 62
8
  6
HIDDEN
370
-3
390
F
  0
LAYER
  5
1FC
100
AcDbSymbolTableRecord
100
AcDbLayerTableRecord
  2
DEFAULT_3
 70
0
 62
7
  6
PHANTOM
370
-3
390
F
  0
LAYER
  5
1FD
100
AcDbSymbolTableRecord
100
AcDbLayerTableRecord
  2
DEFAULT_COORDINATE_SYSTEM
 70
0
 62
7
  6
CONTINUOUS
370
-3
390
F
  0
LAYER
  5
1FE
100
AcDbSymbolTableRecord
100
AcDbLayerTableRecord
  2
DEFAULT_DATUM_AXES
 70
0
 62
7
  6
CONTINUOUS
370
-3
390
F
  0
LAYER
  5
1FF
100
AcDbSymbolTableRecord
100
AcDbLayerTableRecord
  2
DEFAULT_DATUM_CURVES
 70
0
 62
7
  6
CONTINUOUS
370
-3
390
F
  0
LAYER
  5
200
100
AcDbSymbolTableRecord
100
AcDbLayerTableRecord
  2
DEFAULT_DATUM_PLANES
 70
0
 62
7
  6
CONTINUOUS
370
-3
390
F
  0
ENDTAB
  0
TABLE
  2
STYLE
  5
3
100
AcDbSymbolTable
 70
1
  0
STYLE
  5
11
100
AcDbSymbolTableRecord
100
AcDbTextStyleTableRecord
  2
STANDARD
 70
0
 40
0.0
 41
0.8
 50
0.0
 71
0
 42
0.2
  3
txt
  4

  0
STYLE
  5
201
100
AcDbSymbolTableRecord
100
AcDbTextStyleTableRecord
  2
TEXTSTYLE_1
 70
0
 40
0.0
 41
0.8
 50
0.0
 71
0
 42
0.2
  3
gdt
  4

  0
ENDTAB
  0
TABLE
  2
VIEW
  5
6
100
AcDbSymbolTable
 70
0
  0
ENDTAB
  0
TABLE
  2
UCS
  5
7
100
AcDbSymbolTable
 70
0
  0
ENDTAB
  0
TABLE
  2
APPID
  5
9
100
AcDbSymbolTable
 70
1
  0
APPID
  5
202
100
AcDbSymbolTableRecord
100
AcDbRegAppTableRecord
  2
ACAD
 70
0
  0
ENDTAB
  0
TABLE
  2
BLOCK_RECORD
  5
1
100
AcDbSymbolTable
 70
0
  0
BLOCK_RECORD
  5
203
100
AcDbSymbolTableRecord
100
AcDbBlockTableRecord
  2
*Model_Space
  0
BLOCK_RECORD
  5
204
100
AcDbSymbolTableRecord
100
AcDbBlockTableRecord
  2
*Paper_Space
  0
BLOCK_RECORD
  5
205
100
AcDbSymbolTableRecord
100
AcDbBlockTableRecord
  2
_FILLED
  0
ENDTAB
  0
TABLE
  2
DIMSTYLE
  5
A
100
AcDbSymbolTable
 70
1
100
AcDbDimStyleTable
 71
0
  0
DIMSTYLE
105
206
100
AcDbSymbolTableRecord
100
AcDbDimStyleTableRecord
  2
STANDARD
 70
0
  3

  4

 40
1.0
 41
0.1
 42
0.03125
 43
0.38
 44
0.0625
 45
0.0
 46
0.0
 47
0.001
 48
0.001
140
0.08
141
0.09
142
0.0
143
25.4
144
1.0
145
0.0
146
1.0
147
0.09
 71
1
 72
0
 73
1
 74
1
 75
0
 76
0
 77
0
 78
4
 79
1
170
1
171
2
172
0
173
0
174
0
175
0
176
0
177
0
178
0
270
2
179
3
271
3
272
3
273
2
274
2
275
0
280
0
281
0
282
0
283
1
284
4
285
0
286
0
287
3
288
0
340
11
278
46
341
205
342
205
343
205
344
205
  0
ENDTAB
  0
ENDSEC
  0
SECTION
  2
BLOCKS
  0
BLOCK
  5
20
100
AcDbEntity
  8
0
100
AcDbBlockBegin
  2
*Model_Space
 70
0
 10
0.0
 20
0.0
 30
0.0
  3
*Model_Space
  1

  0
ENDBLK
  5
21
100
AcDbEntity
  8
0
100
AcDbBlockEnd
  0
BLOCK
  5
1C
100
AcDbEntity
  8
0
100
AcDbBlockBegin
  2
*Paper_Space
 70
0
 10
0.0
 20
0.0
 30
0.0
  3
*Paper_Space
  1

  0
ENDBLK
  5
1D
100
AcDbEntity
  8
0
100
AcDbBlockEnd
  0
BLOCK
  5
207
100
AcDbEntity
  8
0
100
AcDbBlockBegin
  2
_FILLED
 70
64
 10
0.0
 20
0.0
  3
_FILLED
  1

  0
SOLID
  5
208
100
AcDbEntity
  8
0
  6
BYBLOCK
 62
0
100
AcDbTrace
 10
0.0
 20
0.0
 11
-1.0
 21
0.2
 12
-1.0
 22
-0.2
 13
-1.0
 23
-0.2
  0
ENDBLK
  5
209
100
AcDbEntity
  8
0
  6
BYBLOCK
 62
0
100
AcDbBlockEnd
  0
ENDSEC
  0
SECTION
  2
ENTITIES
  0
MTEXT
  5
20A
100
AcDbEntity
  8
0
100
AcDbMText
 62
2
  6
CONTINUOUS
  7
STANDARD
 71
3
 72
1
 10
5.4656673859
 20
0.5466025586
 30
0.0
 11
1.0
 21
0.0
 31
0.0
 73
2
 44
0.9
  1
SCALE .500
 40
0.08
 41
0.64
  0
LINE
  5
20B
100
AcDbEntity
  8
0
100
AcDbLine
 62
7
  6
CONTINUOUS
 10
0.0
 20
0.0
 11
0.0
 21
8.5
  0
LINE
  5
20C
100
AcDbEntity
  8
0
100
AcDbLine
 62
7
  6
CONTINUOUS
 10
0.0
 20
0.0
 11
11.0
 21
0.0
  0
LINE
  5
20D
100
AcDbEntity
  8
0
100
AcDbLine
 62
7
  6
CONTINUOUS
 10
0.0
 20
8.5
 11
11.0
 21
8.5
  0
LINE
  5
20E
100
AcDbEntity
  8
0
100
AcDbLine
 62
7
  6
CONTINUOUS
 10
11.0
 20
0.0
 11
11.0
 21
8.5
  0
LINE
  5
20F
100
AcDbEntity
  8
0
100
AcDbLine
 62
7
  6
CONTINUOUS
 10
7.0900757583
 20
0.6416025586
 11
8.0275757583
 21
0.6416025586
  0
LINE
  5
210
100
AcDbEntity
  8
0
100
AcDbLine
 62
7
  6
CONTINUOUS
 10
7.0900757583
 20
0.6816025586
 11
8.0275757583
 21
0.6816025586
  0
LINE
  5
211
100
AcDbEntity
  8
0
100
AcDbLine
 62
7
  6
CONTINUOUS
 10
7.1150757583
 20
0.7066025586
 11
8.0025757583
 21
0.7066025586
  0
LINE
  5
212
100
AcDbEntity
  8
0
100
AcDbLine
 62
7
  6
CONTINUOUS
 10
8.0274893503
 20
0.7566025586
 11
7.0901621662
 21
0.7566025586
  0
LINE
  5
213
100
AcDbEntity
  8
0
100
AcDbLine
 62
7
  6
CONTINUOUS
 10
7.0901621662
 20
0.7966025586
 11
8.0274893503
 21
0.7966025586
  0
LINE
  5
214
100
AcDbEntity
  8
0
100
AcDbLine
 62
7
  6
CONTINUOUS
 10
7.9354378862
 20
0.8211025586
 11
7.1822136303
 21
0.8211025586
  0
LINE
  5
215
100
AcDbEntity
  8
0
100
AcDbLine
 62
7
  6
CONTINUOUS
 10
7.9211287982
 20
0.8316025586
 11
7.1965227183
 21
0.8316025586
  0
LINE
  5
216
100
AcDbEntity
  8
0
100
AcDbLine
 62
7
  6
CONTINUOUS
 10
7.8713257583
 20
1.1616025586
 11
7.2463257583
 21
1.1616025586
  0
LINE
  5
217
100
AcDbEntity
  8
0
100
AcDbLine
 62
7
  6
CONTINUOUS
 10
7.3002348167
 20
1.1721025586
 11
7.8174166998
 21
1.1721025586
  0
LINE
  5
218
100
AcDbEntity
  8
0
100
AcDbLine
 62
7
  6
CONTINUOUS
 10
2.7088257583
 20
5.1379713211
 11
2.7088257583
 21
4.8710337961
  0
LINE
  5
219
100
AcDbEntity
  8
0
100
AcDbLine
 62
7
  6
CONTINUOUS
 10
2.7088257583
 20
5.2070025586
 11
2.7088257583
 21
5.5945025586
  0
LINE
  5
21A
100
AcDbEntity
  8
0
100
AcDbLine
 62
7
  6
CONTINUOUS
 10
3.2088257583
 20
5.1379713211
 11
3.2088257583
 21
4.8710337961
  0
LINE
  5
21B
100
AcDbEntity
  8
0
100
AcDbLine
 62
7
  6
CONTINUOUS
 10
3.2088257583
 20
5.2070025586
 11
3.2088257583
 21
5.5945025586
  0
LINE
  5
21C
100
AcDbEntity
  8
0
100
AcDbLine
 62
7
  6
CONTINUOUS
 10
8.2334428433
 20
1.9364046395
 11
8.206842451
 21
1.936868951
  0
LINE
  5
21D
100
AcDbEntity
  8
0
100
AcDbLine
 62
7
  6
CONTINUOUS
 10
8.2130029843
 20
2.0167769636
 11
8.1864025923
 21
2.0172412742
  0
LINE
  5
21E
100
AcDbEntity
  8
0
100
AcDbLine
 62
7
  6
CONTINUOUS
 10
7.8848257583
 20
2.8142037988
 11
7.9068756716
 21
2.8184898678
  0
LINE
  5
21F
100
AcDbEntity
  8
0
100
AcDbLine
 62
7
  6
CONTINUOUS
 10
7.8848257583
 20
2.8498588831
 11
7.90441586
 21
2.8536668131
  0
LINE
  5
220
100
AcDbEntity
  8
0
100
AcDbLine
 62
7
  6
CONTINUOUS
 10
7.8848257583
 20
2.9122552807
 11
7.9001111896
 21
2.9152264675
  0
LINE
  5
221
100
AcDbEntity
  8
0
100
AcDbLine
 62
7
  6
CONTINUOUS
 10
7.2463257583
 20
2.2676025586
 11
7.3088257583
 21
2.2676025586
  0
LINE
  5
222
100
AcDbEntity
  8
0
100
AcDbLine
 62
7
  6
CONTINUOUS
 10
7.8088257583
 20
2.2676025586
 11
7.8713257583
 21
2.2676025586
  0
LINE
  5
223
100
AcDbEntity
  8
0
100
AcDbLine
 62
7
  6
CONTINUOUS
 10
7.2612315607
 20
2.2826025586
 11
7.3088257583
 21
2.2826025586
  0
LINE
  5
224
100
AcDbEntity
  8
0
100
AcDbLine
 62
7
  6
CONTINUOUS
 10
7.8088257583
 20
2.2826025586
 11
7.8564199558
 21
2.2826025586
  0
LINE
  5
225
100
AcDbEntity
  8
0
100
AcDbLine
 62
7
  6
CONTINUOUS
 10
7.2462315607
 20
2.2976025586
 11
7.3088257583
 21
2.2976025586
  0
LINE
  5
226
100
AcDbEntity
  8
0
100
AcDbLine
 62
7
  6
CONTINUOUS
 10
7.8088257583
 20
2.2976025586
 11
7.8714199558
 21
2.2976025586
  0
LINE
  5
227
100
AcDbEntity
  8
0
100
AcDbLine
 62
7
  6
CONTINUOUS
 10
7.8848257583
 20
3.0816169312
 11
7.8884270843
 21
3.0823169581
  0
LINE
  5
228
100
AcDbEntity
  8
0
100
AcDbLine
 62
7
  6
CONTINUOUS
 10
7.9278471643
 20
2.8052952906
 11
7.9078958833
 21
2.8039001611
  0
LINE
  5
229
100
AcDbEntity
  8
0
100
AcDbLine
 62
7
  6
CONTINUOUS
 10
7.9461384374
 20
2.8985617438
 11
7.9660897184
 21
2.8999568732
  0
LINE
  5
22A
100
AcDbEntity
  8
0
100
AcDbLine
 62
7
  6
CONTINUOUS
 10
7.9436593742
 20
2.9340139991
 11
7.9636106552
 21
2.9354091286
  0
LINE
  5
22B
100
AcDbEntity
  8
0
100
AcDbLine
 62
7
  6
CONTINUOUS
 10
7.918815952
 20
2.9344476426
 11
7.898864671
 21
2.9330525132
  0
LINE
  5
22C
100
AcDbEntity
  8
0
100
AcDbLine
 62
7
  6
CONTINUOUS
 10
7.0219163095
 20
2.6159190555
 11
7.1694163095
 21
2.6159190555
  0
LINE
  5
22D
100
AcDbEntity
  8
0
100
AcDbLine
 62
7
  6
CONTINUOUS
 10
7.0219163095
 20
2.6159941723
 11
7.1694163095
 21
2.6159941723
  0
LINE
  5
22E
100
AcDbEntity
  8
0
100
AcDbLine
 62
7
  6
CONTINUOUS
 10
7.0219163095
 20
2.6166492695
 11
7.1694163095
 21
2.6166492695
  0
LINE
  5
22F
100
AcDbEntity
  8
0
100
AcDbLine
 62
7
  6
CONTINUOUS
 10
7.0219163095
 20
2.6168738666
 11
7.1694163095
 21
2.6168738666
  0
LINE
  5
230
100
AcDbEntity
  8
0
100
AcDbLine
 62
7
  6
CONTINUOUS
 10
7.0219163095
 20
2.6181822655
 11
7.1694163095
 21
2.6181822655
  0
LINE
  5
231
100
AcDbEntity
  8
0
100
AcDbLine
 62
7
  6
CONTINUOUS
 10
7.0219163095
 20
2.61855591
 11
7.1694163095
 21
2.61855591
  0
LINE
  5
232
100
AcDbEntity
  8
0
100
AcDbLine
 62
7
  6
CONTINUOUS
 10
7.0219163095
 20
2.6205140243
 11
7.1694163095
 21
2.6205140243
  0
LINE
  5
233
100
AcDbEntity
  8
0
100
AcDbLine
 62
7
  6
CONTINUOUS
 10
7.0219163095
 20
2.6210356919
 11
7.1694163095
 21
2.6210356919
  0
LINE
  5
234
100
AcDbEntity
  8
0
100
AcDbLine
 62
7
  6
CONTINUOUS
 10
7.0219163095
 20
2.6236381547
 11
7.1694163095
 21
2.6236381547
  0
LINE
  5
235
100
AcDbEntity
  8
0
100
AcDbLine
 62
7
  6
CONTINUOUS
 10
7.0219163095
 20
2.6243064156
 11
7.1694163095
 21
2.6243064156
  0
LINE
  5
236
100
AcDbEntity
  8
0
100
AcDbLine
 62
7
  6
CONTINUOUS
 10
7.0219163095
 20
2.6275460936
 11
7.1694163095
 21
2.6275460936
  0
LINE
  5
237
100
AcDbEntity
  8
0
100
AcDbLine
 62
7
  6
CONTINUOUS
 10
7.0219163095
 20
2.628361593
 11
7.1694163095
 21
2.628361593
  0
LINE
  5
238
100
AcDbEntity
  8
0
100
AcDbLine
 62
7
  6
CONTINUOUS
 10
7.0219163095
 20
2.6322243054
 11
7.1694163095
 21
2.6322243054
  0
LINE
  5
239
100
AcDbEntity
  8
0
100
AcDbLine
 62
7
  6
CONTINUOUS
 10
7.0219163095
 20
2.6331826855
 11
7.1694163095
 21
2.6331826855
  0
LINE
  5
23A
100
AcDbEntity
  8
0
100
AcDbLine
 62
7
  6
CONTINUOUS
 10
6.9694163095
 20
2.6346025586
 11
7.0219163095
 21
2.6346025586
  0
LINE
  5
23B
100
AcDbEntity
  8
0
100
AcDbLine
 62
7
  6
CONTINUOUS
 10
7.0219163095
 20
2.6376684325
 11
7.1694163095
 21
2.6376684325
  0
LINE
  5
23C
100
AcDbEntity
  8
0
100
AcDbLine
 62
7
  6
CONTINUOUS
 10
7.0219163095
 20
2.6387639025
 11
7.1694163095
 21
2.6387639025
  0
LINE
  5
23D
100
AcDbEntity
  8
0
100
AcDbLine
 62
7
  6
CONTINUOUS
 10
7.0219163095
 20
2.6438550879
 11
7.1694163095
 21
2.6438550879
  0
LINE
  5
23E
100
AcDbEntity
  8
0
100
AcDbLine
 62
7
  6
CONTINUOUS
 10
7.0219163095
 20
2.6450874694
 11
7.1694163095
 21
2.6450874694
  0
LINE
  5
23F
100
AcDbEntity
  8
0
100
AcDbLine
 62
7
  6
CONTINUOUS
 10
7.0219163095
 20
2.6507701386
 11
7.1694163095
 21
2.6507701386
  0
LINE
  5
240
100
AcDbEntity
  8
0
100
AcDbLine
 62
7
  6
CONTINUOUS
 10
7.0219163095
 20
2.6521360538
 11
7.1694163095
 21
2.6521360538
  0
LINE
  5
241
100
AcDbEntity
  8
0
100
AcDbLine
 62
7
  6
CONTINUOUS
 10
7.2463257583
 20
2.6538525586
 11
7.1794163095
 21
2.6538525586
  0
LINE
  5
242
100
AcDbEntity
  8
0
100
AcDbLine
 62
7
  6
CONTINUOUS
 10
7.0219163095
 20
2.658394631
 11
7.1694163095
 21
2.658394631
  0
LINE
  5
243
100
AcDbEntity
  8
0
100
AcDbLine
 62
7
  6
CONTINUOUS
 10
7.0219163095
 20
2.659890336
 11
7.1694163095
 21
2.659890336
  0
LINE
  5
244
100
AcDbEntity
  8
0
100
AcDbLine
 62
7
  6
CONTINUOUS
 10
7.0219163095
 20
2.6667076668
 11
7.1694163095
 21
2.6667076668
  0
LINE
  5
245
100
AcDbEntity
  8
0
100
AcDbLine
 62
7
  6
CONTINUOUS
 10
7.0219163095
 20
2.6683339558
 11
7.1694163095
 21
2.6683339558
  0
LINE
  5
246
100
AcDbEntity
  8
0
100
AcDbLine
 62
7
  6
CONTINUOUS
 10
7.0219163095
 20
2.6756812714
 11
7.1694163095
 21
2.6756812714
  0
LINE
  5
247
100
AcDbEntity
  8
0
100
AcDbLine
 62
7
  6
CONTINUOUS
 10
7.0219163095
 20
2.6774291019
 11
7.1694163095
 21
2.6774291019
  0
LINE
  5
248
100
AcDbEntity
  8
0
100
AcDbLine
 62
7
  6
CONTINUOUS
 10
7.8698257583
 20
2.6788525586
 11
7.8498257583
 21
2.6788525586
  0
LINE
  5
249
100
AcDbEntity
  8
0
100
AcDbLine
 62
7
  6
CONTINUOUS
 10
6.9344163095
 20
2.6846025586
 11
6.9544163095
 21
2.6846025586
  0
LINE
  5
24A
100
AcDbEntity
  8
0
100
AcDbLine
 62
7
  6
CONTINUOUS
 10
7.0219163095
 20
2.6853064024
 11
7.1694163095
 21
2.6853064024
  0
LINE
  5
24B
100
AcDbEntity
  8
0
100
AcDbLine
 62
7
  6
CONTINUOUS
 10
7.0219163095
 20
2.6871655131
 11
7.1694163095
 21
2.6871655131
  0
LINE
  5
24C
100
AcDbEntity
  8
0
100
AcDbLine
 62
7
  6
CONTINUOUS
 10
7.0219163095
 20
2.6955411242
 11
7.1694163095
 21
2.6955411242
  0
LINE
  5
24D
100
AcDbEntity
  8
0
100
AcDbLine
 62
7
  6
CONTINUOUS
 10
7.0219163095
 20
2.6975116088
 11
7.1694163095
 21
2.6975116088
  0
LINE
  5
24E
100
AcDbEntity
  8
0
100
AcDbLine
 62
7
  6
CONTINUOUS
 10
7.0219163095
 20
2.7063625735
 11
7.1694163095
 21
2.7063625735
  0
LINE
  5
24F
100
AcDbEntity
  8
0
100
AcDbLine
 62
7
  6
CONTINUOUS
 10
7.0219163095
 20
2.708439031
 11
7.1694163095
 21
2.708439031
  0
LINE
  5
250
100
AcDbEntity
  8
0
100
AcDbLine
 62
7
  6
CONTINUOUS
 10
7.0219163095
 20
2.7177410895
 11
7.1694163095
 21
2.7177410895
  0
LINE
  5
251
100
AcDbEntity
  8
0
100
AcDbLine
 62
7
  6
CONTINUOUS
 10
7.0219163095
 20
2.7199178285
 11
7.1694163095
 21
2.7199178285
  0
LINE
  5
252
100
AcDbEntity
  8
0
100
AcDbLine
 62
7
  6
CONTINUOUS
 10
7.1791052807
 20
2.7294755571
 11
7.0219163095
 21
2.7294755571
  0
LINE
  5
253
100
AcDbEntity
  8
0
100
AcDbLine
 62
7
  6
CONTINUOUS
 10
7.0219163095
 20
2.7296454845
 11
7.1694163095
 21
2.7296454845
  0
LINE
  5
254
100
AcDbEntity
  8
0
100
AcDbLine
 62
7
  6
CONTINUOUS
 10
7.0219163095
 20
2.7319233704
 11
7.1694163095
 21
2.7319233704
  0
LINE
  5
255
100
AcDbEntity
  8
0
100
AcDbLine
 62
7
  6
CONTINUOUS
 10
7.1791026173
 20
2.7413578215
 11
7.0219163095
 21
2.7413578215
  0
LINE
  5
256
100
AcDbEntity
  8
0
100
AcDbLine
 62
7
  6
CONTINUOUS
 10
7.0219163095
 20
2.7420360828
 11
7.1694163095
 21
2.7420360828
  0
LINE
  5
257
100
AcDbEntity
  8
0
100
AcDbLine
 62
7
  6
CONTINUOUS
 10
7.0219163095
 20
2.7444022739
 11
7.1694163095
 21
2.7444022739
  0
LINE
  5
258
100
AcDbEntity
  8
0
100
AcDbLine
 62
7
  6
CONTINUOUS
 10
7.1791052807
 20
2.7537134476
 11
7.0219163095
 21
2.7537134476
  0
LINE
  5
259
100
AcDbEntity
  8
0
100
AcDbLine
 62
7
  6
CONTINUOUS
 10
7.0219163095
 20
2.7549000428
 11
7.1694163095
 21
2.7549000428
  0
LINE
  5
25A
100
AcDbEntity
  8
0
100
AcDbLine
 62
7
  6
CONTINUOUS
 10
7.0219163095
 20
2.7573408115
 11
7.1694163095
 21
2.7573408115
  0
LINE
  5
25B
100
AcDbEntity
  8
0
100
AcDbLine
 62
7
  6
CONTINUOUS
 10
7.1791052807
 20
2.7664902393
 11
7.0219163095
 21
2.7664902393
  0
LINE
  5
25C
100
AcDbEntity
  8
0
100
AcDbLine
 62
7
  6
CONTINUOUS
 10
7.0219163095
 20
2.7681809852
 11
7.1694163095
 21
2.7681809852
  0
LINE
  5
25D
100
AcDbEntity
  8
0
100
AcDbLine
 62
7
  6
CONTINUOUS
 10
7.0219163095
 20
2.7706966881
 11
7.1694163095
 21
2.7706966881
  0
LINE
  5
25E
100
AcDbEntity
  8
0
100
AcDbLine
 62
7
  6
CONTINUOUS
 10
7.1791052807
 20
2.7796592918
 11
7.0219163095
 21
2.7796592918
  0
LINE
  5
25F
100
AcDbEntity
  8
0
100
AcDbLine
 62
7
  6
CONTINUOUS
 10
7.0219163095
 20
2.7818495542
 11
7.1694163095
 21
2.7818495542
  0
LINE
  5
260
100
AcDbEntity
  8
0
100
AcDbLine
 62
7
  6
CONTINUOUS
 10
7.0219163095
 20
2.7844332959
 11
7.1694163095
 21
2.7844332959
  0
LINE
  5
261
100
AcDbEntity
  8
0
100
AcDbLine
 62
7
  6
CONTINUOUS
 10
7.1791052807
 20
2.7931845099
 11
7.0219163095
 21
2.7931845099
  0
LINE
  5
262
100
AcDbEntity
  8
0
100
AcDbLine
 62
7
  6
CONTINUOUS
 10
7.0219163095
 20
2.7958682854
 11
7.1694163095
 21
2.7958682854
  0
LINE
  5
263
100
AcDbEntity
  8
0
100
AcDbLine
 62
7
  6
CONTINUOUS
 10
7.0219163095
 20
2.7985129841
 11
7.1694163095
 21
2.7985129841
  0
LINE
  5
264
100
AcDbEntity
  8
0
100
AcDbLine
 62
7
  6
CONTINUOUS
 10
7.1791052807
 20
2.8070288217
 11
7.0219163095
 21
2.8070288217
  0
LINE
  5
265
100
AcDbEntity
  8
0
100
AcDbLine
 62
7
  6
CONTINUOUS
 10
7.0219163095
 20
2.8101987543
 11
7.1694163095
 21
2.8101987543
  0
LINE
  5
266
100
AcDbEntity
  8
0
100
AcDbLine
 62
7
  6
CONTINUOUS
 10
7.0219163095
 20
2.8129052619
 11
7.1694163095
 21
2.8129052619
  0
LINE
  5
267
100
AcDbEntity
  8
0
100
AcDbLine
 62
7
  6
CONTINUOUS
 10
7.1791026173
 20
2.8211510658
 11
7.0219163095
 21
2.8211510658
  0
LINE
  5
268
100
AcDbEntity
  8
0
100
AcDbLine
 62
7
  6
CONTINUOUS
 10
7.0219163095
 20
2.8247934684
 11
7.1694163095
 21
2.8247934684
  0
LINE
  5
269
100
AcDbEntity
  8
0
100
AcDbLine
 62
7
  6
CONTINUOUS
 10
7.0219163095
 20
2.8275464007
 11
7.1694163095
 21
2.8275464007
  0
LINE
  5
26A
100
AcDbEntity
  8
0
100
AcDbLine
 62
7
  6
CONTINUOUS
 10
7.1791052807
 20
2.8355221709
 11
7.0219163095
 21
2.8355221709
  0
LINE
  5
26B
100
AcDbEntity
  8
0
100
AcDbLine
 62
7
  6
CONTINUOUS
 10
7.0219163095
 20
2.8396370433
 11
7.1694163095
 21
2.8396370433
  0
LINE
  5
26C
100
AcDbEntity
  8
0
100
AcDbLine
 62
7
  6
CONTINUOUS
 10
7.0219163095
 20
2.8424205506
 11
7.1694163095
 21
2.8424205506
  0
LINE
  5
26D
100
AcDbEntity
  8
0
100
AcDbLine
 62
7
  6
CONTINUOUS
 10
7.1791052807
 20
2.85009311
 11
7.0219163095
 21
2.85009311
  0
LINE
  5
26E
100
AcDbEntity
  8
0
100
AcDbLine
 62
7
  6
CONTINUOUS
 10
7.0219163095
 20
2.8546641751
 11
7.1694163095
 21
2.8546641751
  0
LINE
  5
26F
100
AcDbEntity
  8
0
100
AcDbLine
 62
7
  6
CONTINUOUS
 10
7.0219163095
 20
2.8574788418
 11
7.1694163095
 21
2.8574788418
  0
LINE
  5
270
100
AcDbEntity
  8
0
100
AcDbLine
 62
7
  6
CONTINUOUS
 10
7.1791052807
 20
2.8648271603
 11
7.0219163095
 21
2.8648271603
  0
LINE
  5
271
100
AcDbEntity
  8
0
100
AcDbLine
 62
7
  6
CONTINUOUS
 10
7.0219163095
 20
2.8698418891
 11
7.1694163095
 21
2.8698418891
  0
LINE
  5
272
100
AcDbEntity
  8
0
100
AcDbLine
 62
7
  6
CONTINUOUS
 10
7.0219163095
 20
2.8726800004
 11
7.1694163095
 21
2.8726800004
  0
LINE
  5
273
100
AcDbEntity
  8
0
100
AcDbLine
 62
7
  6
CONTINUOUS
 10
7.1791052807
 20
2.8796839369
 11
7.0219163095
 21
2.8796839369
  0
LINE
  5
274
100
AcDbEntity
  8
0
100
AcDbLine
 62
7
  6
CONTINUOUS
 10
7.0219163095
 20
2.8851285844
 11
7.1694163095
 21
2.8851285844
  0
LINE
  5
275
100
AcDbEntity
  8
0
100
AcDbLine
 62
7
  6
CONTINUOUS
 10
7.0219163095
 20
2.8879823612
 11
7.1694163095
 21
2.8879823612
  0
LINE
  5
276
100
AcDbEntity
  8
0
100
AcDbLine
 62
7
  6
CONTINUOUS
 10
7.1791052807
 20
2.8946227184
 11
7.0219163095
 21
2.8946227184
  0
LINE
  5
277
100
AcDbEntity
  8
0
100
AcDbLine
 62
7
  6
CONTINUOUS
 10
7.0219163095
 20
2.9004823612
 11
7.1694163095
 21
2.9004823612
  0
LINE
  5
278
100
AcDbEntity
  8
0
100
AcDbLine
 62
7
  6
CONTINUOUS
 10
7.0219163095
 20
2.9033525586
 11
7.1694163095
 21
2.9033525586
  0
LINE
  5
279
100
AcDbEntity
  8
0
100
AcDbLine
 62
7
  6
CONTINUOUS
 10
7.1791026173
 20
2.9096025586
 11
7.0219163095
 21
2.9096025586
  0
LINE
  5
27A
100
AcDbEntity
  8
0
100
AcDbLine
 62
7
  6
CONTINUOUS
 10
7.0219163095
 20
2.9158525586
 11
7.1694163095
 21
2.9158525586
  0
LINE
  5
27B
100
AcDbEntity
  8
0
100
AcDbLine
 62
7
  6
CONTINUOUS
 10
7.0219163095
 20
2.918722756
 11
7.1694163095
 21
2.918722756
  0
LINE
  5
27C
100
AcDbEntity
  8
0
100
AcDbLine
 62
7
  6
CONTINUOUS
 10
7.1791052807
 20
2.9245823987
 11
7.0219163095
 21
2.9245823987
  0
LINE
  5
27D
100
AcDbEntity
  8
0
100
AcDbLine
 62
7
  6
CONTINUOUS
 10
7.0219163095
 20
2.931222756
 11
7.1694163095
 21
2.931222756
  0
LINE
  5
27E
100
AcDbEntity
  8
0
100
AcDbLine
 62
7
  6
CONTINUOUS
 10
7.0219163095
 20
2.9340765327
 11
7.1694163095
 21
2.9340765327
  0
LINE
  5
27F
100
AcDbEntity
  8
0
100
AcDbLine
 62
7
  6
CONTINUOUS
 10
7.1791052807
 20
2.9395211802
 11
7.0219163095
 21
2.9395211802
  0
LINE
  5
280
100
AcDbEntity
  8
0
100
AcDbLine
 62
7
  6
CONTINUOUS
 10
7.0219163095
 20
2.9465251168
 11
7.1694163095
 21
2.9465251168
  0
LINE
  5
281
100
AcDbEntity
  8
0
100
AcDbLine
 62
7
  6
CONTINUOUS
 10
7.0219163095
 20
2.949363228
 11
7.1694163095
 21
2.949363228
  0
LINE
  5
282
100
AcDbEntity
  8
0
100
AcDbLine
 62
7
  6
CONTINUOUS
 10
7.1791052807
 20
2.9543779568
 11
7.0219163095
 21
2.9543779568
  0
LINE
  5
283
100
AcDbEntity
  8
0
100
AcDbLine
 62
7
  6
CONTINUOUS
 10
7.0219163095
 20
2.9617262754
 11
7.1694163095
 21
2.9617262754
  0
LINE
  5
284
100
AcDbEntity
  8
0
100
AcDbLine
 62
7
  6
CONTINUOUS
 10
7.0219163095
 20
2.9645409421
 11
7.1694163095
 21
2.9645409421
  0
LINE
  5
285
100
AcDbEntity
  8
0
100
AcDbLine
 62
7
  6
CONTINUOUS
 10
7.1791052807
 20
2.9691120071
 11
7.0219163095
 21
2.9691120071
  0
LINE
  5
286
100
AcDbEntity
  8
0
100
AcDbLine
 62
7
  6
CONTINUOUS
 10
7.0219163095
 20
2.9767845665
 11
7.1694163095
 21
2.9767845665
  0
LINE
  5
287
100
AcDbEntity
  8
0
100
AcDbLine
 62
7
  6
CONTINUOUS
 10
7.0219163095
 20
2.9795680738
 11
7.1694163095
 21
2.9795680738
  0
LINE
  5
288
100
AcDbEntity
  8
0
100
AcDbLine
 62
7
  6
CONTINUOUS
 10
7.1791052807
 20
2.9836829462
 11
7.0219163095
 21
2.9836829462
  0
LINE
  5
289
100
AcDbEntity
  8
0
100
AcDbLine
 62
7
  6
CONTINUOUS
 10
7.0219163095
 20
2.9916587164
 11
7.1694163095
 21
2.9916587164
  0
LINE
  5
28A
100
AcDbEntity
  8
0
100
AcDbLine
 62
7
  6
CONTINUOUS
 10
7.0219163095
 20
2.9944116488
 11
7.1694163095
 21
2.9944116488
  0
LINE
  5
28B
100
AcDbEntity
  8
0
100
AcDbLine
 62
7
  6
CONTINUOUS
 10
7.1791026173
 20
2.9980540513
 11
7.0219163095
 21
2.9980540513
  0
LINE
  5
28C
100
AcDbEntity
  8
0
100
AcDbLine
 62
7
  6
CONTINUOUS
 10
7.0219163095
 20
3.0062998552
 11
7.1694163095
 21
3.0062998552
  0
LINE
  5
28D
100
AcDbEntity
  8
0
100
AcDbLine
 62
7
  6
CONTINUOUS
 10
7.0219163095
 20
3.0090063628
 11
7.1694163095
 21
3.0090063628
  0
LINE
  5
28E
100
AcDbEntity
  8
0
100
AcDbLine
 62
7
  6
CONTINUOUS
 10
7.1791052807
 20
3.0121762954
 11
7.0219163095
 21
3.0121762954
  0
LINE
  5
28F
100
AcDbEntity
  8
0
100
AcDbLine
 62
7
  6
CONTINUOUS
 10
7.0219163095
 20
3.0206921331
 11
7.1694163095
 21
3.0206921331
  0
LINE
  5
290
100
AcDbEntity
  8
0
100
AcDbLine
 62
7
  6
CONTINUOUS
 10
7.0219163095
 20
3.0233368317
 11
7.1694163095
 21
3.0233368317
  0
LINE
  5
291
100
AcDbEntity
  8
0
100
AcDbLine
 62
7
  6
CONTINUOUS
 10
7.1791052807
 20
3.0260206073
 11
7.0219163095
 21
3.0260206073
  0
LINE
  5
292
100
AcDbEntity
  8
0
100
AcDbLine
 62
7
  6
CONTINUOUS
 10
7.0219163095
 20
3.0347718212
 11
7.1694163095
 21
3.0347718212
  0
LINE
  5
293
100
AcDbEntity
  8
0
100
AcDbLine
 62
7
  6
CONTINUOUS
 10
7.0219163095
 20
3.0373555629
 11
7.1694163095
 21
3.0373555629
  0
LINE
  5
294
100
AcDbEntity
  8
0
100
AcDbLine
 62
7
  6
CONTINUOUS
 10
7.1791052807
 20
3.0395458253
 11
7.0219163095
 21
3.0395458253
  0
LINE
  5
295
100
AcDbEntity
  8
0
100
AcDbLine
 62
7
  6
CONTINUOUS
 10
7.0219163095
 20
3.0485084291
 11
7.1694163095
 21
3.0485084291
  0
LINE
  5
296
100
AcDbEntity
  8
0
100
AcDbLine
 62
7
  6
CONTINUOUS
 10
7.0219163095
 20
3.051024132
 11
7.1694163095
 21
3.051024132
  0
LINE
  5
297
100
AcDbEntity
  8
0
100
AcDbLine
 62
7
  6
CONTINUOUS
 10
7.1791052807
 20
3.0527148779
 11
7.0219163095
 21
3.0527148779
  0
LINE
  5
298
100
AcDbEntity
  8
0
100
AcDbLine
 62
7
  6
CONTINUOUS
 10
7.0219163095
 20
3.0618643056
 11
7.1694163095
 21
3.0618643056
  0
LINE
  5
299
100
AcDbEntity
  8
0
100
AcDbLine
 62
7
  6
CONTINUOUS
 10
7.0219163095
 20
3.0643050744
 11
7.1694163095
 21
3.0643050744
  0
LINE
  5
29A
100
AcDbEntity
  8
0
100
AcDbLine
 62
7
  6
CONTINUOUS
 10
7.1791052807
 20
3.0654916696
 11
7.0219163095
 21
3.0654916696
  0
LINE
  5
29B
100
AcDbEntity
  8
0
100
AcDbLine
 62
7
  6
CONTINUOUS
 10
7.0219163095
 20
3.0748028433
 11
7.1694163095
 21
3.0748028433
  0
LINE
  5
29C
100
AcDbEntity
  8
0
100
AcDbLine
 62
7
  6
CONTINUOUS
 10
7.0219163095
 20
3.0771690343
 11
7.1694163095
 21
3.0771690343
  0
LINE
  5
29D
100
AcDbEntity
  8
0
100
AcDbLine
 62
7
  6
CONTINUOUS
 10
7.1791026173
 20
3.0778472956
 11
7.0219163095
 21
3.0778472956
  0
LINE
  5
29E
100
AcDbEntity
  8
0
100
AcDbLine
 62
7
  6
CONTINUOUS
 10
7.0219163095
 20
3.0872817468
 11
7.1694163095
 21
3.0872817468
  0
LINE
  5
29F
100
AcDbEntity
  8
0
100
AcDbLine
 62
7
  6
CONTINUOUS
 10
7.0219163095
 20
3.0895596327
 11
7.1694163095
 21
3.0895596327
  0
LINE
  5
2A0
100
AcDbEntity
  8
0
100
AcDbLine
 62
7
  6
CONTINUOUS
 10
7.1791052807
 20
3.0897295601
 11
7.0219163095
 21
3.0897295601
  0
LINE
  5
2A1
100
AcDbEntity
  8
0
100
AcDbLine
 62
7
  6
CONTINUOUS
 10
7.0219163095
 20
3.0992872886
 11
7.1694163095
 21
3.0992872886
  0
LINE
  5
2A2
100
AcDbEntity
  8
0
100
AcDbLine
 62
7
  6
CONTINUOUS
 10
7.0219163095
 20
3.1014640276
 11
7.1694163095
 21
3.1014640276
  0
LINE
  5
2A3
100
AcDbEntity
  8
0
100
AcDbLine
 62
7
  6
CONTINUOUS
 10
7.0219163095
 20
3.1107660861
 11
7.1694163095
 21
3.1107660861
  0
LINE
  5
2A4
100
AcDbEntity
  8
0
100
AcDbLine
 62
7
  6
CONTINUOUS
 10
7.0219163095
 20
3.1128425436
 11
7.1694163095
 21
3.1128425436
  0
LINE
  5
2A5
100
AcDbEntity
  8
0
100
AcDbLine
 62
7
  6
CONTINUOUS
 10
7.0219163095
 20
3.1216935083
 11
7.1694163095
 21
3.1216935083
  0
LINE
  5
2A6
100
AcDbEntity
  8
0
100
AcDbLine
 62
7
  6
CONTINUOUS
 10
7.0219163095
 20
3.123663993
 11
7.1694163095
 21
3.123663993
  0
LINE
  5
2A7
100
AcDbEntity
  8
0
100
AcDbLine
 62
7
  6
CONTINUOUS
 10
7.0219163095
 20
3.132039604
 11
7.1694163095
 21
3.132039604
  0
LINE
  5
2A8
100
AcDbEntity
  8
0
100
AcDbLine
 62
7
  6
CONTINUOUS
 10
7.0219163095
 20
3.1338987148
 11
7.1694163095
 21
3.1338987148
  0
LINE
  5
2A9
100
AcDbEntity
  8
0
100
AcDbLine
 62
7
  6
CONTINUOUS
 10
6.9344163095
 20
3.1346025586
 11
6.9544163095
 21
3.1346025586
  0
LINE
  5
2AA
100
AcDbEntity
  8
0
100
AcDbLine
 62
7
  6
CONTINUOUS
 10
7.8698257583
 20
3.1403525586
 11
7.8498257583
 21
3.1403525586
  0
LINE
  5
2AB
100
AcDbEntity
  8
0
100
AcDbLine
 62
7
  6
CONTINUOUS
 10
7.0219163095
 20
3.1417760152
 11
7.1694163095
 21
3.1417760152
  0
LINE
  5
2AC
100
AcDbEntity
  8
0
100
AcDbLine
 62
7
  6
CONTINUOUS
 10
7.0219163095
 20
3.1435238457
 11
7.1694163095
 21
3.1435238457
  0
LINE
  5
2AD
100
AcDbEntity
  8
0
100
AcDbLine
 62
7
  6
CONTINUOUS
 10
7.0219163095
 20
3.1508711614
 11
7.1694163095
 21
3.1508711614
  0
LINE
  5
2AE
100
AcDbEntity
  8
0
100
AcDbLine
 62
7
  6
CONTINUOUS
 10
7.0219163095
 20
3.1524974503
 11
7.1694163095
 21
3.1524974503
  0
LINE
  5
2AF
100
AcDbEntity
  8
0
100
AcDbLine
 62
7
  6
CONTINUOUS
 10
7.0219163095
 20
3.1593147812
 11
7.1694163095
 21
3.1593147812
  0
LINE
  5
2B0
100
AcDbEntity
  8
0
100
AcDbLine
 62
7
  6
CONTINUOUS
 10
7.0219163095
 20
3.1608104862
 11
7.1694163095
 21
3.1608104862
  0
LINE
  5
2B1
100
AcDbEntity
  8
0
100
AcDbLine
 62
7
  6
CONTINUOUS
 10
7.8348257583
 20
3.1653525586
 11
7.1794163095
 21
3.1653525586
  0
LINE
  5
2B2
100
AcDbEntity
  8
0
100
AcDbLine
 62
7
  6
CONTINUOUS
 10
7.0219163095
 20
3.1670690633
 11
7.1694163095
 21
3.1670690633
  0
LINE
  5
2B3
100
AcDbEntity
  8
0
100
AcDbLine
 62
7
  6
CONTINUOUS
 10
7.0219163095
 20
3.1684349786
 11
7.1694163095
 21
3.1684349786
  0
LINE
  5
2B4
100
AcDbEntity
  8
0
100
AcDbLine
 62
7
  6
CONTINUOUS
 10
7.0219163095
 20
3.1741176477
 11
7.1694163095
 21
3.1741176477
  0
LINE
  5
2B5
100
AcDbEntity
  8
0
100
AcDbLine
 62
7
  6
CONTINUOUS
 10
7.0219163095
 20
3.1753500293
 11
7.1694163095
 21
3.1753500293
  0
LINE
  5
2B6
100
AcDbEntity
  8
0
100
AcDbLine
 62
7
  6
CONTINUOUS
 10
7.3738257583
 20
3.1776025586
 11
7.7438257583
 21
3.1776025586
  0
LINE
  5
2B7
100
AcDbEntity
  8
0
100
AcDbLine
 62
7
  6
CONTINUOUS
 10
7.0219163095
 20
3.1804412146
 11
7.1694163095
 21
3.1804412146
  0
LINE
  5
2B8
100
AcDbEntity
  8
0
100
AcDbLine
 62
7
  6
CONTINUOUS
 10
7.0219163095
 20
3.1815366847
 11
7.1694163095
 21
3.1815366847
  0
LINE
  5
2B9
100
AcDbEntity
  8
0
100
AcDbLine
 62
7
  6
CONTINUOUS
 10
7.0219163095
 20
3.1846025586
 11
6.9694163095
 21
3.1846025586
  0
LINE
  5
2BA
100
AcDbEntity
  8
0
100
AcDbLine
 62
7
  6
CONTINUOUS
 10
7.0219163095
 20
3.1860224316
 11
7.1694163095
 21
3.1860224316
  0
LINE
  5
2BB
100
AcDbEntity
  8
0
100
AcDbLine
 62
7
  6
CONTINUOUS
 10
7.0219163095
 20
3.1869808117
 11
7.1694163095
 21
3.1869808117
  0
LINE
  5
2BC
100
AcDbEntity
  8
0
100
AcDbLine
 62
7
  6
CONTINUOUS
 10
7.9188160783
 20
2.9344458366
 11
7.9436595015
 21
2.934012179
  0
LINE
  5
2BD
100
AcDbEntity
  8
0
100
AcDbLine
 62
7
  6
CONTINUOUS
 10
7.9070860483
 20
3.127181712
 11
7.9319294705
 21
3.1267480685
  0
LINE
  5
2BE
100
AcDbEntity
  8
0
100
AcDbLine
 62
7
  6
CONTINUOUS
 10
7.0219163095
 20
3.1908435241
 11
7.1694163095
 21
3.1908435241
  0
LINE
  5
2BF
100
AcDbEntity
  8
0
100
AcDbLine
 62
7
  6
CONTINUOUS
 10
7.0219163095
 20
3.1916590236
 11
7.1694163095
 21
3.1916590236
  0
LINE
  5
2C0
100
AcDbEntity
  8
0
100
AcDbLine
 62
7
  6
CONTINUOUS
 10
7.0219163095
 20
3.1948987015
 11
7.1694163095
 21
3.1948987015
  0
LINE
  5
2C1
100
AcDbEntity
  8
0
100
AcDbLine
 62
7
  6
CONTINUOUS
 10
7.0219163095
 20
3.1955669625
 11
7.1694163095
 21
3.1955669625
  0
LINE
  5
2C2
100
AcDbEntity
  8
0
100
AcDbLine
 62
7
  6
CONTINUOUS
 10
7.0219163095
 20
3.1981694252
 11
7.1694163095
 21
3.1981694252
  0
LINE
  5
2C3
100
AcDbEntity
  8
0
100
AcDbLine
 62
7
  6
CONTINUOUS
 10
7.0219163095
 20
3.1986910928
 11
7.1694163095
 21
3.1986910928
  0
LINE
  5
2C4
100
AcDbEntity
  8
0
100
AcDbLine
 62
7
  6
CONTINUOUS
 10
7.0219163095
 20
3.2006492072
 11
7.1694163095
 21
3.2006492072
  0
LINE
  5
2C5
100
AcDbEntity
  8
0
100
AcDbLine
 62
7
  6
CONTINUOUS
 10
7.0219163095
 20
3.2010228516
 11
7.1694163095
 21
3.2010228516
  0
LINE
  5
2C6
100
AcDbEntity
  8
0
100
AcDbLine
 62
7
  6
CONTINUOUS
 10
7.0219163095
 20
3.2023312505
 11
7.1694163095
 21
3.2023312505
  0
LINE
  5
2C7
100
AcDbEntity
  8
0
100
AcDbLine
 62
7
  6
CONTINUOUS
 10
7.0219163095
 20
3.2025558476
 11
7.1694163095
 21
3.2025558476
  0
LINE
  5
2C8
100
AcDbEntity
  8
0
100
AcDbLine
 62
7
  6
CONTINUOUS
 10
7.0219163095
 20
3.2032109449
 11
7.1694163095
 21
3.2032109449
  0
LINE
  5
2C9
100
AcDbEntity
  8
0
100
AcDbLine
 62
7
  6
CONTINUOUS
 10
7.0219163095
 20
3.2032860617
 11
7.1694163294
 21
3.2032860617
  0
LINE
  5
2CA
100
AcDbEntity
  8
0
100
AcDbLine
 62
7
  6
CONTINUOUS
 10
7.7075757583
 20
3.2834162889
 11
7.4100757583
 21
3.2834162889
  0
LINE
  5
2CB
100
AcDbEntity
  8
0
100
AcDbLine
 62
7
  6
CONTINUOUS
 10
7.7163257583
 20
3.2933378563
 11
7.4013257583
 21
3.2933378563
  0
LINE
  5
2CC
100
AcDbEntity
  8
0
100
AcDbLine
 62
7
  6
CONTINUOUS
 10
7.7125757583
 20
3.3531025586
 11
7.4050757583
 21
3.3531025586
  0
LINE
  5
2CD
100
AcDbEntity
  8
0
100
AcDbLine
 62
7
  6
CONTINUOUS
 10
7.4613257583
 20
3.3631025586
 11
7.5211659998
 21
3.3631025586
  0
LINE
  5
2CE
100
AcDbEntity
  8
0
100
AcDbLine
 62
7
  6
CONTINUOUS
 10
7.5964855167
 20
3.3631025586
 11
7.6563257583
 21
3.3631025586
  0
LINE
  5
2CF
100
AcDbEntity
  8
0
100
AcDbLine
 62
7
  6
CONTINUOUS
 10
7.4613257583
 20
3.3756025586
 11
7.4816986689
 21
3.3756025586
  0
LINE
  5
2D0
100
AcDbEntity
  8
0
100
AcDbLine
 62
7
  6
CONTINUOUS
 10
7.6359528476
 20
3.3756025586
 11
7.6563257583
 21
3.3756025586
  0
LINE
  5
2D1
100
AcDbEntity
  8
0
100
AcDbLine
 62
7
  6
CONTINUOUS
 10
8.0275757583
 20
0.6816025586
 11
8.0025757583
 21
0.7066025586
  0
LINE
  5
2D2
100
AcDbEntity
  8
0
100
AcDbLine
 62
7
  6
CONTINUOUS
 10
7.2612315607
 20
2.2826025586
 11
7.2462315607
 21
2.2976025586
  0
LINE
  5
2D3
100
AcDbEntity
  8
0
100
AcDbLine
 62
7
  6
CONTINUOUS
 10
7.856372857
 20
2.2825554598
 11
7.8713257583
 21
2.2676025586
  0
LINE
  5
2D4
100
AcDbEntity
  8
0
100
AcDbLine
 62
7
  6
CONTINUOUS
 10
3.2100757583
 20
4.8020025586
 11
2.7075757583
 21
4.8020025586
  0
LINE
  5
2D5
100
AcDbEntity
  8
0
100
AcDbLine
 62
7
  6
CONTINUOUS
 10
3.2166382583
 20
4.8612759867
 11
2.7010132583
 21
4.8612759867
  0
LINE
  5
2D6
100
AcDbEntity
  8
0
100
AcDbLine
 62
7
  6
CONTINUOUS
 10
3.2088257583
 20
4.8710337961
 11
2.7088257583
 21
4.8710337961
  0
LINE
  5
2D7
100
AcDbEntity
  8
0
100
AcDbLine
 62
7
  6
CONTINUOUS
 10
3.2088257583
 20
5.1379713211
 11
2.7088257583
 21
5.1379713211
  0
LINE
  5
2D8
100
AcDbEntity
  8
0
100
AcDbLine
 62
7
  6
CONTINUOUS
 10
3.2166382583
 20
5.1477291305
 11
2.7010132583
 21
5.1477291305
  0
LINE
  5
2D9
100
AcDbEntity
  8
0
100
AcDbLine
 62
7
  6
CONTINUOUS
 10
3.2100757583
 20
5.2070025586
 11
2.7075757583
 21
5.2070025586
  0
LINE
  5
2DA
100
AcDbEntity
  8
0
100
AcDbLine
 62
7
  6
CONTINUOUS
 10
7.8088257583
 20
5.5945025586
 11
7.3088257583
 21
5.5945025586
  0
LINE
  5
2DB
100
AcDbEntity
  8
0
100
AcDbLine
 62
7
  6
CONTINUOUS
 10
2.7088257583
 20
5.5945025586
 11
3.2088257583
 21
5.5945025586
  0
LINE
  5
2DC
100
AcDbEntity
  8
0
100
AcDbLine
 62
7
  6
CONTINUOUS
 10
6.9064067568
 20
2.7408336478
 11
6.9063943061
 21
2.7408842494
  0
LINE
  5
2DD
100
AcDbEntity
  8
0
100
AcDbLine
 62
7
  6
CONTINUOUS
 10
6.9060195966
 20
2.7424075798
 11
6.9061549029
 21
2.7418574108
  0
LINE
  5
2DE
100
AcDbEntity
  8
0
100
AcDbLine
 62
7
  6
CONTINUOUS
 10
6.9058578669
 20
2.7430653416
 11
6.9060195966
 21
2.7424075798
  0
LWPOLYLINE
  5
2DF
100
AcDbEntity
  8
0
100
AcDbPolyline
 62
7
  6
CONTINUOUS
 90
3
 70
0
 10
6.9038791531
 20
2.7511263803
 10
6.9040228224
 20
2.7505402474
 10
6.9043068765
 20
2.7493817782
  0
LINE
  5
2E0
100
AcDbEntity
  8
0
100
AcDbLine
 62
7
  6
CONTINUOUS
 10
6.9013971009
 20
2.7612731168
 11
6.9064066235
 21
2.7408341896
  0
LINE
  5
2E1
100
AcDbEntity
  8
0
100
AcDbLine
 62
7
  6
CONTINUOUS
 10
6.9013250251
 20
2.761568349
 11
6.9013971009
 21
2.7612731168
  0
LINE
  5
2E2
100
AcDbEntity
  8
0
100
AcDbLine
 62
7
  6
CONTINUOUS
 10
6.8933728239
 20
2.8022191571
 11
6.8933645384
 21
2.8022749215
  0
LINE
  5
2E3
100
AcDbEntity
  8
0
100
AcDbLine
 62
7
  6
CONTINUOUS
 10
6.8904687389
 20
2.8218079256
 11
6.8933728239
 21
2.8022191569
  0
LINE
  5
2E4
100
AcDbEntity
  8
0
100
AcDbLine
 62
7
  6
CONTINUOUS
 10
6.9165973461
 20
2.7058870439
 11
6.9165973461
 21
3.1133180732
  0
LINE
  5
2E5
100
AcDbEntity
  8
0
100
AcDbLine
 62
7
  6
CONTINUOUS
 10
6.9194163095
 20
2.6996025586
 11
6.9194163095
 21
3.1196025586
  0
LINE
  5
2E6
100
AcDbEntity
  8
0
100
AcDbLine
 62
7
  6
CONTINUOUS
 10
6.9344163095
 20
2.6846025586
 11
6.9344163095
 21
3.1346025586
  0
LINE
  5
2E7
100
AcDbEntity
  8
0
100
AcDbLine
 62
7
  6
CONTINUOUS
 10
6.9544163095
 20
3.1696025586
 11
6.9544163095
 21
2.6496025586
  0
LINE
  5
2E8
100
AcDbEntity
  8
0
100
AcDbLine
 62
7
  6
CONTINUOUS
 10
6.9694163095
 20
3.1846025586
 11
6.9694163095
 21
2.6346025586
  0
LINE
  5
2E9
100
AcDbEntity
  8
0
100
AcDbLine
 62
7
  6
CONTINUOUS
 10
7.0219163095
 20
2.6159190555
 11
7.0219163095
 21
3.2032860617
  0
LINE
  5
2EA
100
AcDbEntity
  8
0
100
AcDbLine
 62
7
  6
CONTINUOUS
 10
7.3002348167
 20
1.1721025586
 11
7.3004180949
 21
1.1616025586
  0
LINE
  5
2EB
100
AcDbEntity
  8
0
100
AcDbLine
 62
7
  6
CONTINUOUS
 10
7.0900757583
 20
0.6416025586
 11
7.0900757583
 21
0.6816025586
  0
LINE
  5
2EC
100
AcDbEntity
  8
0
100
AcDbLine
 62
7
  6
CONTINUOUS
 10
7.0901621662
 20
0.7566025586
 11
7.0901621662
 21
0.7966025586
  0
LINE
  5
2ED
100
AcDbEntity
  8
0
100
AcDbLine
 62
7
  6
CONTINUOUS
 10
7.0903334298
 20
0.7566025586
 11
7.0903334298
 21
0.7966025586
  0
LINE
  5
2EE
100
AcDbEntity
  8
0
100
AcDbLine
 62
7
  6
CONTINUOUS
 10
7.091275477
 20
0.7566025586
 11
7.091275477
 21
0.7966025586
  0
LINE
  5
2EF
100
AcDbEntity
  8
0
100
AcDbLine
 62
7
  6
CONTINUOUS
 10
7.0917887983
 20
0.7566025586
 11
7.0917887983
 21
0.7966025586
  0
LINE
  5
2F0
100
AcDbEntity
  8
0
100
AcDbLine
 62
7
  6
CONTINUOUS
 10
7.0936703106
 20
0.7566025586
 11
7.0936703106
 21
0.7966025586
  0
LINE
  5
2F1
100
AcDbEntity
  8
0
100
AcDbLine
 62
7
  6
CONTINUOUS
 10
7.0945242826
 20
0.7566025586
 11
7.0945242826
 21
0.7966025586
  0
LINE
  5
2F2
100
AcDbEntity
  8
0
100
AcDbLine
 62
7
  6
CONTINUOUS
 10
7.0973401029
 20
0.7566025586
 11
7.0973401029
 21
0.7966025586
  0
LINE
  5
2F3
100
AcDbEntity
  8
0
100
AcDbLine
 62
7
  6
CONTINUOUS
 10
7.098532385
 20
0.7566025586
 11
7.098532385
 21
0.7966025586
  0
LINE
  5
2F4
100
AcDbEntity
  8
0
100
AcDbLine
 62
7
  6
CONTINUOUS
 10
7.1022747954
 20
0.7566025586
 11
7.1022747954
 21
0.7966025586
  0
LINE
  5
2F5
100
AcDbEntity
  8
0
100
AcDbLine
 62
7
  6
CONTINUOUS
 10
7.1038021195
 20
0.7566025586
 11
7.1038021195
 21
0.7966025586
  0
LINE
  5
2F6
100
AcDbEntity
  8
0
100
AcDbLine
 62
7
  6
CONTINUOUS
 10
7.1084608623
 20
0.7566025586
 11
7.1084608623
 21
0.7966025586
  0
LINE
  5
2F7
100
AcDbEntity
  8
0
100
AcDbLine
 62
7
  6
CONTINUOUS
 10
7.1103190422
 20
0.7566025586
 11
7.1103190422
 21
0.7966025586
  0
LINE
  5
2F8
100
AcDbEntity
  8
0
100
AcDbLine
 62
7
  6
CONTINUOUS
 10
7.1150757583
 20
0.7066025586
 11
7.1150757583
 21
0.7566025586
  0
LINE
  5
2F9
100
AcDbEntity
  8
0
100
AcDbLine
 62
7
  6
CONTINUOUS
 10
7.1158813481
 20
0.7566025586
 11
7.1158813481
 21
0.7966025586
  0
LINE
  5
2FA
100
AcDbEntity
  8
0
100
AcDbLine
 62
7
  6
CONTINUOUS
 10
7.1180652906
 20
0.7566025586
 11
7.1180652906
 21
0.7966025586
  0
LINE
  5
2FB
100
AcDbEntity
  8
0
100
AcDbLine
 62
7
  6
CONTINUOUS
 10
7.1245159137
 20
0.7566025586
 11
7.1245159137
 21
0.7966025586
  0
LINE
  5
2FC
100
AcDbEntity
  8
0
100
AcDbLine
 62
7
  6
CONTINUOUS
 10
7.1270196328
 20
0.7566025586
 11
7.1270196328
 21
0.7966025586
  0
LINE
  5
2FD
100
AcDbEntity
  8
0
100
AcDbLine
 62
7
  6
CONTINUOUS
 10
7.1343408924
 20
0.7566025586
 11
7.1343408924
 21
0.7966025586
  0
LINE
  5
2FE
100
AcDbEntity
  8
0
100
AcDbLine
 62
7
  6
CONTINUOUS
 10
7.1371575256
 20
0.7566025586
 11
7.1371575256
 21
0.7966025586
  0
LINE
  5
2FF
100
AcDbEntity
  8
0
100
AcDbLine
 62
7
  6
CONTINUOUS
 10
7.1453293546
 20
0.7566025586
 11
7.1453293546
 21
0.7966025586
  0
LINE
  5
300
100
AcDbEntity
  8
0
100
AcDbLine
 62
7
  6
CONTINUOUS
 10
7.1484511817
 20
0.7566025586
 11
7.1484511817
 21
0.7966025586
  0
LINE
  5
301
100
AcDbEntity
  8
0
100
AcDbLine
 62
7
  6
CONTINUOUS
 10
7.1574511817
 20
0.7566025586
 11
7.1574511817
 21
0.7966025586
  0
LINE
  5
302
100
AcDbEntity
  8
0
100
AcDbLine
 62
7
  6
CONTINUOUS
 10
7.160869646
 20
0.7566025586
 11
7.160869646
 21
0.7966025586
  0
LINE
  5
303
100
AcDbEntity
  8
0
100
AcDbLine
 62
7
  6
CONTINUOUS
 10
7.1694163095
 20
2.6159190555
 11
7.1694163095
 21
2.6159941723
  0
LINE
  5
304
100
AcDbEntity
  8
0
100
AcDbLine
 62
7
  6
CONTINUOUS
 10
7.1694163095
 20
2.6166492695
 11
7.1694163095
 21
2.6168738666
  0
LINE
  5
305
100
AcDbEntity
  8
0
100
AcDbLine
 62
7
  6
CONTINUOUS
 10
7.1694163095
 20
2.6181822655
 11
7.1694163095
 21
2.61855591
  0
LINE
  5
306
100
AcDbEntity
  8
0
100
AcDbLine
 62
7
  6
CONTINUOUS
 10
7.1694163095
 20
2.6205140243
 11
7.1694163095
 21
2.6210356919
  0
LINE
  5
307
100
AcDbEntity
  8
0
100
AcDbLine
 62
7
  6
CONTINUOUS
 10
7.1694163095
 20
2.6236381547
 11
7.1694163095
 21
2.6243064156
  0
LINE
  5
308
100
AcDbEntity
  8
0
100
AcDbLine
 62
7
  6
CONTINUOUS
 10
7.1694163095
 20
2.6275460936
 11
7.1694163095
 21
2.628361593
  0
LINE
  5
309
100
AcDbEntity
  8
0
100
AcDbLine
 62
7
  6
CONTINUOUS
 10
7.1694163095
 20
2.6322243054
 11
7.1694163095
 21
2.6331826855
  0
LINE
  5
30A
100
AcDbEntity
  8
0
100
AcDbLine
 62
7
  6
CONTINUOUS
 10
7.1694163095
 20
2.6376684325
 11
7.1694163095
 21
2.6387639025
  0
LINE
  5
30B
100
AcDbEntity
  8
0
100
AcDbLine
 62
7
  6
CONTINUOUS
 10
7.1694163095
 20
2.6438550879
 11
7.1694163095
 21
2.6450874694
  0
LINE
  5
30C
100
AcDbEntity
  8
0
100
AcDbLine
 62
7
  6
CONTINUOUS
 10
7.1694163095
 20
2.6507701386
 11
7.1694163095
 21
2.6521360538
  0
LINE
  5
30D
100
AcDbEntity
  8
0
100
AcDbLine
 62
7
  6
CONTINUOUS
 10
7.1694163095
 20
2.658394631
 11
7.1694163095
 21
2.659890336
  0
LINE
  5
30E
100
AcDbEntity
  8
0
100
AcDbLine
 62
7
  6
CONTINUOUS
 10
7.1694163095
 20
2.6667076668
 11
7.1694163095
 21
2.6683339558
  0
LINE
  5
30F
100
AcDbEntity
  8
0
100
AcDbLine
 62
7
  6
CONTINUOUS
 10
7.1694163095
 20
2.6756812714
 11
7.1694163095
 21
2.6774291019
  0
LINE
  5
310
100
AcDbEntity
  8
0
100
AcDbLine
 62
7
  6
CONTINUOUS
 10
7.1694163095
 20
2.6853064024
 11
7.1694163095
 21
2.6871655131
  0
LINE
  5
311
100
AcDbEntity
  8
0
100
AcDbLine
 62
7
  6
CONTINUOUS
 10
7.1694163095
 20
2.6955411242
 11
7.1694163095
 21
2.6975116088
  0
LINE
  5
312
100
AcDbEntity
  8
0
100
AcDbLine
 62
7
  6
CONTINUOUS
 10
7.1694163095
 20
2.7063625735
 11
7.1694163095
 21
2.708439031
  0
LINE
  5
313
100
AcDbEntity
  8
0
100
AcDbLine
 62
7
  6
CONTINUOUS
 10
7.1694163095
 20
2.7177410895
 11
7.1694163095
 21
2.7199178285
  0
LINE
  5
314
100
AcDbEntity
  8
0
100
AcDbLine
 62
7
  6
CONTINUOUS
 10
7.1694163095
 20
2.7296454845
 11
7.1694163095
 21
2.7319233704
  0
LINE
  5
315
100
AcDbEntity
  8
0
100
AcDbLine
 62
7
  6
CONTINUOUS
 10
7.1694163095
 20
2.7420360828
 11
7.1694163095
 21
2.7444022739
  0
LINE
  5
316
100
AcDbEntity
  8
0
100
AcDbLine
 62
7
  6
CONTINUOUS
 10
7.1694163095
 20
2.7549000428
 11
7.1694163095
 21
2.7573408115
  0
LINE
  5
317
100
AcDbEntity
  8
0
100
AcDbLine
 62
7
  6
CONTINUOUS
 10
7.1694163095
 20
2.7681809852
 11
7.1694163095
 21
2.7706966881
  0
LINE
  5
318
100
AcDbEntity
  8
0
100
AcDbLine
 62
7
  6
CONTINUOUS
 10
7.1694163095
 20
2.7818495542
 11
7.1694163095
 21
2.7844332959
  0
LINE
  5
319
100
AcDbEntity
  8
0
100
AcDbLine
 62
7
  6
CONTINUOUS
 10
7.1694163095
 20
2.7958682854
 11
7.1694163095
 21
2.7985129841
  0
LINE
  5
31A
100
AcDbEntity
  8
0
100
AcDbLine
 62
7
  6
CONTINUOUS
 10
7.1694163095
 20
2.8101987543
 11
7.1694163095
 21
2.8129052619
  0
LINE
  5
31B
100
AcDbEntity
  8
0
100
AcDbLine
 62
7
  6
CONTINUOUS
 10
7.1694163095
 20
2.8247934684
 11
7.1694163095
 21
2.8275464007
  0
LINE
  5
31C
100
AcDbEntity
  8
0
100
AcDbLine
 62
7
  6
CONTINUOUS
 10
7.1694163095
 20
2.8396370433
 11
7.1694163095
 21
2.8424205506
  0
LINE
  5
31D
100
AcDbEntity
  8
0
100
AcDbLine
 62
7
  6
CONTINUOUS
 10
7.1694163095
 20
2.8546641751
 11
7.1694163095
 21
2.8574788418
  0
LINE
  5
31E
100
AcDbEntity
  8
0
100
AcDbLine
 62
7
  6
CONTINUOUS
 10
7.1694163095
 20
2.8698418891
 11
7.1694163095
 21
2.8726800004
  0
LINE
  5
31F
100
AcDbEntity
  8
0
100
AcDbLine
 62
7
  6
CONTINUOUS
 10
7.1694163095
 20
2.8851285844
 11
7.1694163095
 21
2.8879823612
  0
LINE
  5
320
100
AcDbEntity
  8
0
100
AcDbLine
 62
7
  6
CONTINUOUS
 10
7.1694163095
 20
2.9004823612
 11
7.1694163095
 21
2.9033525586
  0
LINE
  5
321
100
AcDbEntity
  8
0
100
AcDbLine
 62
7
  6
CONTINUOUS
 10
7.1694163095
 20
2.9158525586
 11
7.1694163095
 21
2.918722756
  0
LINE
  5
322
100
AcDbEntity
  8
0
100
AcDbLine
 62
7
  6
CONTINUOUS
 10
7.1694163095
 20
2.931222756
 11
7.1694163095
 21
2.9340765327
  0
LINE
  5
323
100
AcDbEntity
  8
0
100
AcDbLine
 62
7
  6
CONTINUOUS
 10
7.1694163095
 20
2.9465251168
 11
7.1694163095
 21
2.949363228
  0
LINE
  5
324
100
AcDbEntity
  8
0
100
AcDbLine
 62
7
  6
CONTINUOUS
 10
7.1694163095
 20
2.9617262754
 11
7.1694163095
 21
2.9645409421
  0
LINE
  5
325
100
AcDbEntity
  8
0
100
AcDbLine
 62
7
  6
CONTINUOUS
 10
7.1694163095
 20
2.9767845665
 11
7.1694163095
 21
2.9795680738
  0
LINE
  5
326
100
AcDbEntity
  8
0
100
AcDbLine
 62
7
  6
CONTINUOUS
 10
7.1694163095
 20
2.9916587164
 11
7.1694163095
 21
2.9944116488
  0
LINE
  5
327
100
AcDbEntity
  8
0
100
AcDbLine
 62
7
  6
CONTINUOUS
 10
7.1694163095
 20
3.0062998552
 11
7.1694163095
 21
3.0090063628
  0
LINE
  5
328
100
AcDbEntity
  8
0
100
AcDbLine
 62
7
  6
CONTINUOUS
 10
7.1694163095
 20
3.0206921331
 11
7.1694163095
 21
3.0233368317
  0
LINE
  5
329
100
AcDbEntity
  8
0
100
AcDbLine
 62
7
  6
CONTINUOUS
 10
7.1694163095
 20
3.0347718212
 11
7.1694163095
 21
3.0373555629
  0
LINE
  5
32A
100
AcDbEntity
  8
0
100
AcDbLine
 62
7
  6
CONTINUOUS
 10
7.1694163095
 20
3.0485084291
 11
7.1694163095
 21
3.051024132
  0
LINE
  5
32B
100
AcDbEntity
  8
0
100
AcDbLine
 62
7
  6
CONTINUOUS
 10
7.1694163095
 20
3.0618643056
 11
7.1694163095
 21
3.0643050744
  0
LINE
  5
32C
100
AcDbEntity
  8
0
100
AcDbLine
 62
7
  6
CONTINUOUS
 10
7.1694163095
 20
3.0748028433
 11
7.1694163095
 21
3.0771690343
  0
LINE
  5
32D
100
AcDbEntity
  8
0
100
AcDbLine
 62
7
  6
CONTINUOUS
 10
7.1694163095
 20
3.0872817468
 11
7.1694163095
 21
3.0895596327
  0
LINE
  5
32E
100
AcDbEntity
  8
0
100
AcDbLine
 62
7
  6
CONTINUOUS
 10
7.1694163095
 20
3.0992872886
 11
7.1694163095
 21
3.1014640276
  0
LINE
  5
32F
100
AcDbEntity
  8
0
100
AcDbLine
 62
7
  6
CONTINUOUS
 10
7.1694163095
 20
3.1107660861
 11
7.1694163095
 21
3.1128425436
  0
LINE
  5
330
100
AcDbEntity
  8
0
100
AcDbLine
 62
7
  6
CONTINUOUS
 10
7.1694163095
 20
3.1216935083
 11
7.1694163095
 21
3.123663993
  0
LINE
  5
331
100
AcDbEntity
  8
0
100
AcDbLine
 62
7
  6
CONTINUOUS
 10
7.1694163095
 20
3.132039604
 11
7.1694163095
 21
3.1338987148
  0
LINE
  5
332
100
AcDbEntity
  8
0
100
AcDbLine
 62
7
  6
CONTINUOUS
 10
7.1694163095
 20
3.1417760152
 11
7.1694163095
 21
3.1435238457
  0
LINE
  5
333
100
AcDbEntity
  8
0
100
AcDbLine
 62
7
  6
CONTINUOUS
 10
7.1694163095
 20
3.1508711614
 11
7.1694163095
 21
3.1524974503
  0
LINE
  5
334
100
AcDbEntity
  8
0
100
AcDbLine
 62
7
  6
CONTINUOUS
 10
7.1694163095
 20
3.1593147812
 11
7.1694163095
 21
3.1608104862
  0
LINE
  5
335
100
AcDbEntity
  8
0
100
AcDbLine
 62
7
  6
CONTINUOUS
 10
7.1694163095
 20
3.1670690633
 11
7.1694163095
 21
3.1684349786
  0
LINE
  5
336
100
AcDbEntity
  8
0
100
AcDbLine
 62
7
  6
CONTINUOUS
 10
7.1694163095
 20
3.1741176477
 11
7.1694163095
 21
3.1753500293
  0
LINE
  5
337
100
AcDbEntity
  8
0
100
AcDbLine
 62
7
  6
CONTINUOUS
 10
7.1694163095
 20
3.1804412146
 11
7.1694163095
 21
3.1815366847
  0
LINE
  5
338
100
AcDbEntity
  8
0
100
AcDbLine
 62
7
  6
CONTINUOUS
 10
7.1694163095
 20
3.1860224316
 11
7.1694163095
 21
3.1869808117
  0
LINE
  5
339
100
AcDbEntity
  8
0
100
AcDbLine
 62
7
  6
CONTINUOUS
 10
7.1694163095
 20
3.1908435241
 11
7.1694163095
 21
3.1916590236
  0
LINE
  5
33A
100
AcDbEntity
  8
0
100
AcDbLine
 62
7
  6
CONTINUOUS
 10
7.1694163095
 20
3.1948987015
 11
7.1694163095
 21
3.1955669625
  0
LINE
  5
33B
100
AcDbEntity
  8
0
100
AcDbLine
 62
7
  6
CONTINUOUS
 10
7.1694163095
 20
3.1981694252
 11
7.1694163095
 21
3.1986910928
  0
LINE
  5
33C
100
AcDbEntity
  8
0
100
AcDbLine
 62
7
  6
CONTINUOUS
 10
7.1694163095
 20
3.2006492072
 11
7.1694163095
 21
3.2010228516
  0
LINE
  5
33D
100
AcDbEntity
  8
0
100
AcDbLine
 62
7
  6
CONTINUOUS
 10
7.1694163095
 20
3.2023312505
 11
7.1694163095
 21
3.2025558476
  0
LINE
  5
33E
100
AcDbEntity
  8
0
100
AcDbLine
 62
7
  6
CONTINUOUS
 10
7.1694163095
 20
3.2032109449
 11
7.1694163095
 21
3.2032860617
  0
LINE
  5
33F
100
AcDbEntity
  8
0
100
AcDbLine
 62
7
  6
CONTINUOUS
 10
7.1706731487
 20
0.7566025586
 11
7.1706731487
 21
0.7966025586
  0
LINE
  5
340
100
AcDbEntity
  8
0
100
AcDbLine
 62
7
  6
CONTINUOUS
 10
7.1743788804
 20
0.7566025586
 11
7.1743788804
 21
0.7966025586
  0
LINE
  5
341
100
AcDbEntity
  8
0
100
AcDbLine
 62
7
  6
CONTINUOUS
 10
7.1794163095
 20
2.6258525586
 11
7.1794163095
 21
3.1933525586
  0
LINE
  5
342
100
AcDbEntity
  8
0
100
AcDbLine
 62
7
  6
CONTINUOUS
 10
7.1849590149
 20
0.7566025586
 11
7.1849590149
 21
0.7966025586
  0
LINE
  5
343
100
AcDbEntity
  8
0
100
AcDbLine
 62
7
  6
CONTINUOUS
 10
7.1889418569
 20
0.7566025586
 11
7.1889418569
 21
0.7966025586
  0
LINE
  5
344
100
AcDbEntity
  8
0
100
AcDbLine
 62
7
  6
CONTINUOUS
 10
7.1999786106
 20
0.7966025586
 11
7.1999786106
 21
0.7566025586
  0
LINE
  5
345
100
AcDbEntity
  8
0
100
AcDbLine
 62
7
  6
CONTINUOUS
 10
7.200269624
 20
0.7566025586
 11
7.200269624
 21
0.7966025586
  0
LINE
  5
346
100
AcDbEntity
  8
0
100
AcDbLine
 62
7
  6
CONTINUOUS
 10
7.2045186595
 20
0.7566025586
 11
7.2045186595
 21
0.7966025586
  0
LINE
  5
347
100
AcDbEntity
  8
0
100
AcDbLine
 62
7
  6
CONTINUOUS
 10
7.2156786351
 20
0.7966025586
 11
7.2156786351
 21
0.7566025586
  0
LINE
  5
348
100
AcDbEntity
  8
0
100
AcDbLine
 62
7
  6
CONTINUOUS
 10
7.2165630104
 20
0.7566025586
 11
7.2165630104
 21
0.7966025586
  0
LINE
  5
349
100
AcDbEntity
  8
0
100
AcDbLine
 62
7
  6
CONTINUOUS
 10
7.2210665932
 20
0.7566025586
 11
7.2210665932
 21
0.7966025586
  0
LINE
  5
34A
100
AcDbEntity
  8
0
100
AcDbLine
 62
7
  6
CONTINUOUS
 10
7.2323192021
 20
0.7966025586
 11
7.2323192021
 21
0.7566025586
  0
LINE
  5
34B
100
AcDbEntity
  8
0
100
AcDbLine
 62
7
  6
CONTINUOUS
 10
7.2337945153
 20
0.7566025586
 11
7.2337945153
 21
0.7966025586
  0
LINE
  5
34C
100
AcDbEntity
  8
0
100
AcDbLine
 62
7
  6
CONTINUOUS
 10
7.2385403013
 20
0.7566025586
 11
7.2385403013
 21
0.7966025586
  0
LINE
  5
34D
100
AcDbEntity
  8
0
100
AcDbLine
 62
7
  6
CONTINUOUS
 10
7.2462315607
 20
2.6538525586
 11
7.2462315607
 21
2.2976025586
  0
LINE
  5
34E
100
AcDbEntity
  8
0
100
AcDbLine
 62
7
  6
CONTINUOUS
 10
7.2463257583
 20
0.8316025586
 11
7.2463257583
 21
2.2676025586
  0
LINE
  5
34F
100
AcDbEntity
  8
0
100
AcDbLine
 62
7
  6
CONTINUOUS
 10
7.2498547008
 20
0.7966025586
 11
7.2498547008
 21
0.7566025586
  0
LINE
  5
350
100
AcDbEntity
  8
0
100
AcDbLine
 62
7
  6
CONTINUOUS
 10
7.2519169082
 20
0.7566025586
 11
7.2519169082
 21
0.7966025586
  0
LINE
  5
351
100
AcDbEntity
  8
0
100
AcDbLine
 62
7
  6
CONTINUOUS
 10
7.2568918896
 20
0.7566025586
 11
7.2568918896
 21
0.7966025586
  0
LINE
  5
352
100
AcDbEntity
  8
0
100
AcDbLine
 62
7
  6
CONTINUOUS
 10
7.2682370677
 20
0.7966025586
 11
7.2682370677
 21
0.7566025586
  0
LINE
  5
353
100
AcDbEntity
  8
0
100
AcDbLine
 62
7
  6
CONTINUOUS
 10
7.2708805169
 20
0.7566025586
 11
7.2708805169
 21
0.7966025586
  0
LINE
  5
354
100
AcDbEntity
  8
0
100
AcDbLine
 62
7
  6
CONTINUOUS
 10
7.2760710576
 20
0.7566025586
 11
7.2760710576
 21
0.7966025586
  0
LINE
  5
355
100
AcDbEntity
  8
0
100
AcDbLine
 62
7
  6
CONTINUOUS
 10
7.287415918
 20
0.7966025586
 11
7.287415918
 21
0.7566025586
  0
LINE
  5
356
100
AcDbEntity
  8
0
100
AcDbLine
 62
7
  6
CONTINUOUS
 10
7.2906333635
 20
0.7566025586
 11
7.2906333635
 21
0.7966025586
  0
LINE
  5
357
100
AcDbEntity
  8
0
100
AcDbLine
 62
7
  6
CONTINUOUS
 10
7.2960252366
 20
0.7566025586
 11
7.2960252366
 21
0.7966025586
  0
LINE
  5
358
100
AcDbEntity
  8
0
100
AcDbLine
 62
7
  6
CONTINUOUS
 10
7.3073386839
 20
0.7966025586
 11
7.3073386839
 21
0.7566025586
  0
LINE
  5
359
100
AcDbEntity
  8
0
100
AcDbLine
 62
7
  6
CONTINUOUS
 10
7.3088257583
 20
5.5945025586
 11
7.3088257583
 21
3.1653525586
  0
LINE
  5
35A
100
AcDbEntity
  8
0
100
AcDbLine
 62
7
  6
CONTINUOUS
 10
7.3088257583
 20
1.1721025586
 11
7.3088257583
 21
2.5913525586
  0
LINE
  5
35B
100
AcDbEntity
  8
0
100
AcDbLine
 62
7
  6
CONTINUOUS
 10
7.3111213069
 20
0.7566025586
 11
7.3111213069
 21
0.7966025586
  0
LINE
  5
35C
100
AcDbEntity
  8
0
100
AcDbLine
 62
7
  6
CONTINUOUS
 10
7.3166997336
 20
0.7566025586
 11
7.3166997336
 21
0.7966025586
  0
LINE
  5
35D
100
AcDbEntity
  8
0
100
AcDbLine
 62
7
  6
CONTINUOUS
 10
7.3279507583
 20
0.7966025586
 11
7.3279507583
 21
0.7566025586
  0
LINE
  5
35E
100
AcDbEntity
  8
0
100
AcDbLine
 62
7
  6
CONTINUOUS
 10
7.3322881909
 20
0.7566025586
 11
7.3322881909
 21
0.7966025586
  0
LINE
  5
35F
100
AcDbEntity
  8
0
100
AcDbLine
 62
7
  6
CONTINUOUS
 10
7.3380378812
 20
0.7566025586
 11
7.3380378812
 21
0.7966025586
  0
LINE
  5
360
100
AcDbEntity
  8
0
100
AcDbLine
 62
7
  6
CONTINUOUS
 10
7.349195645
 20
0.7966025586
 11
7.349195645
 21
0.7566025586
  0
LINE
  5
361
100
AcDbEntity
  8
0
100
AcDbLine
 62
7
  6
CONTINUOUS
 10
7.3540759986
 20
0.7566025586
 11
7.3540759986
 21
0.7966025586
  0
LINE
  5
362
100
AcDbEntity
  8
0
100
AcDbLine
 62
7
  6
CONTINUOUS
 10
7.359981193
 20
0.7566025586
 11
7.359981193
 21
0.7966025586
  0
LINE
  5
363
100
AcDbEntity
  8
0
100
AcDbLine
 62
7
  6
CONTINUOUS
 10
7.3710151133
 20
0.7966025586
 11
7.3710151133
 21
0.7566025586
  0
LINE
  5
364
100
AcDbEntity
  8
0
100
AcDbLine
 62
7
  6
CONTINUOUS
 10
7.3764250112
 20
0.7566025586
 11
7.3764250112
 21
0.7966025586
  0
LINE
  5
365
100
AcDbEntity
  8
0
100
AcDbLine
 62
7
  6
CONTINUOUS
 10
6.8904687389
 20
2.9973971916
 11
6.8904774527
 21
2.9974561018
  0
LINE
  5
366
100
AcDbEntity
  8
0
100
AcDbLine
 62
7
  6
CONTINUOUS
 10
6.8933728014
 20
3.016985823
 11
6.8904687269
 21
2.9973971004
  0
LINE
  5
367
100
AcDbEntity
  8
0
100
AcDbLine
 62
7
  6
CONTINUOUS
 10
6.8933656433
 20
3.0169376321
 11
6.8933728239
 21
3.0169859602
  0
LINE
  5
368
100
AcDbEntity
  8
0
100
AcDbLine
 62
7
  6
CONTINUOUS
 10
6.9036979773
 20
3.0673394099
 11
6.9032800042
 21
3.0656329849
  0
LINE
  5
369
100
AcDbEntity
  8
0
100
AcDbLine
 62
7
  6
CONTINUOUS
 10
6.9064067244
 20
3.0783713452
 11
6.9013262477
 21
3.057641775
  0
LINE
  5
36A
100
AcDbEntity
  8
0
100
AcDbLine
 62
7
  6
CONTINUOUS
 10
7.9274129363
 20
2.7079707809
 11
8.1882811276
 21
1.9503545419
  0
LINE
  5
36B
100
AcDbEntity
  8
0
100
AcDbLine
 62
7
  6
CONTINUOUS
 10
7.9463233078
 20
2.714482144
 11
8.1864025923
 21
2.0172412742
  0
LINE
  5
36C
100
AcDbEntity
  8
0
100
AcDbLine
 62
7
  6
CONTINUOUS
 10
8.2130029843
 20
2.0167769636
 11
7.9992248215
 21
2.6376338294
  0
LINE
  5
36D
100
AcDbEntity
  8
0
100
AcDbLine
 62
7
  6
CONTINUOUS
 10
8.252702263
 20
1.9629129565
 11
8.0181351931
 21
2.6441451925
  0
LINE
  5
36E
100
AcDbEntity
  8
0
100
AcDbLine
 62
7
  6
CONTINUOUS
 10
7.3824695239
 20
0.7566025586
 11
7.3824695239
 21
0.7966025586
  0
LINE
  5
36F
100
AcDbEntity
  8
0
100
AcDbLine
 62
7
  6
CONTINUOUS
 10
7.3933493576
 20
0.7966025586
 11
7.3933493576
 21
0.7566025586
  0
LINE
  5
370
100
AcDbEntity
  8
0
100
AcDbLine
 62
7
  6
CONTINUOUS
 10
7.3992739716
 20
0.7566025586
 11
7.3992739716
 21
0.7966025586
  0
LINE
  5
371
100
AcDbEntity
  8
0
100
AcDbLine
 62
7
  6
CONTINUOUS
 10
7.405441235
 20
0.7566025586
 11
7.405441235
 21
0.7966025586
  0
LINE
  5
372
100
AcDbEntity
  8
0
100
AcDbLine
 62
7
  6
CONTINUOUS
 10
7.4100757583
 20
3.2834162889
 11
7.4100757583
 21
3.1776025586
  0
LINE
  5
373
100
AcDbEntity
  8
0
100
AcDbLine
 62
7
  6
CONTINUOUS
 10
7.4161371611
 20
0.7966025586
 11
7.4161371611
 21
0.7566025586
  0
LINE
  5
374
100
AcDbEntity
  8
0
100
AcDbLine
 62
7
  6
CONTINUOUS
 10
7.4225602523
 20
0.7566025586
 11
7.4225602523
 21
0.7966025586
  0
LINE
  5
375
100
AcDbEntity
  8
0
100
AcDbLine
 62
7
  6
CONTINUOUS
 10
7.4288333625
 20
0.7566025586
 11
7.4288333625
 21
0.7966025586
  0
LINE
  5
376
100
AcDbEntity
  8
0
100
AcDbLine
 62
7
  6
CONTINUOUS
 10
7.4393160642
 20
0.7966025586
 11
7.4393160642
 21
0.7566025586
  0
LINE
  5
377
100
AcDbEntity
  8
0
100
AcDbLine
 62
7
  6
CONTINUOUS
 10
7.4462200273
 20
0.7566025586
 11
7.4462200273
 21
0.7966025586
  0
LINE
  5
378
100
AcDbEntity
  8
0
100
AcDbLine
 62
7
  6
CONTINUOUS
 10
7.45258179
 20
0.7566025586
 11
7.45258179
 21
0.7966025586
  0
LINE
  5
379
100
AcDbEntity
  8
0
100
AcDbLine
 62
7
  6
CONTINUOUS
 10
7.4613257583
 20
3.3631025586
 11
7.4613257583
 21
3.386075904
  0
LINE
  5
37A
100
AcDbEntity
  8
0
100
AcDbLine
 62
7
  6
CONTINUOUS
 10
7.462822535
 20
0.7966025586
 11
7.462822535
 21
0.7566025586
  0
LINE
  5
37B
100
AcDbEntity
  8
0
100
AcDbLine
 62
7
  6
CONTINUOUS
 10
7.4701884468
 20
0.7566025586
 11
7.4701884468
 21
0.7966025586
  0
LINE
  5
37C
100
AcDbEntity
  8
0
100
AcDbLine
 62
7
  6
CONTINUOUS
 10
7.4766214249
 20
0.7566025586
 11
7.4766214249
 21
0.7966025586
  0
LINE
  5
37D
100
AcDbEntity
  8
0
100
AcDbLine
 62
7
  6
CONTINUOUS
 10
7.486592144
 20
0.7966025586
 11
7.486592144
 21
0.7566025586
  0
LINE
  5
37E
100
AcDbEntity
  8
0
100
AcDbLine
 62
7
  6
CONTINUOUS
 10
7.494399815
 20
0.7566025586
 11
7.494399815
 21
0.7966025586
  0
LINE
  5
37F
100
AcDbEntity
  8
0
100
AcDbLine
 62
7
  6
CONTINUOUS
 10
7.5008863761
 20
0.7566025586
 11
7.5008863761
 21
0.7966025586
  0
LINE
  5
380
100
AcDbEntity
  8
0
100
AcDbLine
 62
7
  6
CONTINUOUS
 10
7.5105597404
 20
0.7966025586
 11
7.5105597404
 21
0.7566025586
  0
LINE
  5
381
100
AcDbEntity
  8
0
100
AcDbLine
 62
7
  6
CONTINUOUS
 10
7.5187877703
 20
0.7566025586
 11
7.5187877703
 21
0.7966025586
  0
LINE
  5
382
100
AcDbEntity
  8
0
100
AcDbLine
 62
7
  6
CONTINUOUS
 10
7.5253101352
 20
0.7566025586
 11
7.5253101352
 21
0.7966025586
  0
LINE
  5
383
100
AcDbEntity
  8
0
100
AcDbLine
 62
7
  6
CONTINUOUS
 10
7.5346596305
 20
0.7966025586
 11
7.5346596305
 21
0.7566025586
  0
LINE
  5
384
100
AcDbEntity
  8
0
100
AcDbLine
 62
7
  6
CONTINUOUS
 10
7.5432854668
 20
0.7566025586
 11
7.5432854668
 21
0.7966025586
  0
LINE
  5
385
100
AcDbEntity
  8
0
100
AcDbLine
 62
7
  6
CONTINUOUS
 10
7.5498257583
 20
0.7566025586
 11
7.5498257583
 21
0.7966025586
  0
LINE
  5
386
100
AcDbEntity
  8
0
100
AcDbLine
 62
7
  6
CONTINUOUS
 10
7.5588257583
 20
0.7966025586
 11
7.5588257583
 21
0.7566025586
  0
LINE
  5
387
100
AcDbEntity
  8
0
100
AcDbLine
 62
7
  6
CONTINUOUS
 10
7.5678257583
 20
0.7566025586
 11
7.5678257583
 21
0.7966025586
  0
LINE
  5
388
100
AcDbEntity
  8
0
100
AcDbLine
 62
7
  6
CONTINUOUS
 10
7.5743660497
 20
0.7566025586
 11
7.5743660497
 21
0.7966025586
  0
LINE
  5
389
100
AcDbEntity
  8
0
100
AcDbLine
 62
7
  6
CONTINUOUS
 10
7.5829918861
 20
0.7966025586
 11
7.5829918861
 21
0.7566025586
  0
LINE
  5
38A
100
AcDbEntity
  8
0
100
AcDbLine
 62
7
  6
CONTINUOUS
 10
7.5923413813
 20
0.7566025586
 11
7.5923413813
 21
0.7966025586
  0
LINE
  5
38B
100
AcDbEntity
  8
0
100
AcDbLine
 62
7
  6
CONTINUOUS
 10
7.5988637463
 20
0.7566025586
 11
7.5988637463
 21
0.7966025586
  0
LINE
  5
38C
100
AcDbEntity
  8
0
100
AcDbLine
 62
7
  6
CONTINUOUS
 10
7.6070917762
 20
0.7966025586
 11
7.6070917762
 21
0.7566025586
  0
LINE
  5
38D
100
AcDbEntity
  8
0
100
AcDbLine
 62
7
  6
CONTINUOUS
 10
7.6167651404
 20
0.7566025586
 11
7.6167651404
 21
0.7966025586
  0
LINE
  5
38E
100
AcDbEntity
  8
0
100
AcDbLine
 62
7
  6
CONTINUOUS
 10
7.6232517015
 20
0.7566025586
 11
7.6232517015
 21
0.7966025586
  0
LINE
  5
38F
100
AcDbEntity
  8
0
100
AcDbLine
 62
7
  6
CONTINUOUS
 10
7.6310593725
 20
0.7966025586
 11
7.6310593725
 21
0.7566025586
  0
LINE
  5
390
100
AcDbEntity
  8
0
100
AcDbLine
 62
7
  6
CONTINUOUS
 10
7.6410300916
 20
0.7566025586
 11
7.6410300916
 21
0.7966025586
  0
LINE
  5
391
100
AcDbEntity
  8
0
100
AcDbLine
 62
7
  6
CONTINUOUS
 10
7.6474630697
 20
0.7566025586
 11
7.6474630697
 21
0.7966025586
  0
LINE
  5
392
100
AcDbEntity
  8
0
100
AcDbLine
 62
7
  6
CONTINUOUS
 10
7.6548289815
 20
0.7966025586
 11
7.6548289815
 21
0.7566025586
  0
LINE
  5
393
100
AcDbEntity
  8
0
100
AcDbLine
 62
7
  6
CONTINUOUS
 10
7.6563257583
 20
3.3631025586
 11
7.6563257583
 21
3.386075904
  0
LINE
  5
394
100
AcDbEntity
  8
0
100
AcDbLine
 62
7
  6
CONTINUOUS
 10
7.6650697265
 20
0.7566025586
 11
7.6650697265
 21
0.7966025586
  0
LINE
  5
395
100
AcDbEntity
  8
0
100
AcDbLine
 62
7
  6
CONTINUOUS
 10
7.6714314892
 20
0.7566025586
 11
7.6714314892
 21
0.7966025586
  0
LINE
  5
396
100
AcDbEntity
  8
0
100
AcDbLine
 62
7
  6
CONTINUOUS
 10
7.6783354523
 20
0.7966025586
 11
7.6783354523
 21
0.7566025586
  0
LINE
  5
397
100
AcDbEntity
  8
0
100
AcDbLine
 62
7
  6
CONTINUOUS
 10
8.2068316938
 20
1.9369100537
 11
8.206842451
 21
1.936868951
  0
LINE
  5
398
100
AcDbEntity
  8
0
100
AcDbLine
 62
7
  6
CONTINUOUS
 10
8.2334428433
 20
1.9364046395
 11
8.233432086
 21
1.936445742
  0
LINE
  5
399
100
AcDbEntity
  8
0
100
AcDbLine
 62
7
  6
CONTINUOUS
 10
8.1864029039
 20
2.0172412688
 11
8.2068424515
 21
1.9368689508
  0
LINE
  5
39A
100
AcDbEntity
  8
0
100
AcDbLine
 62
7
  6
CONTINUOUS
 10
8.2334428433
 20
1.9364046395
 11
8.213003296
 21
2.0167769582
  0
LINE
  5
39B
100
AcDbEntity
  8
0
100
AcDbLine
 62
7
  6
CONTINUOUS
 10
8.232775591
 20
1.9390277838
 11
8.2325992078
 21
1.9397214023
  0
LINE
  5
39C
100
AcDbEntity
  8
0
100
AcDbLine
 62
7
  6
CONTINUOUS
 10
8.2334005805
 20
1.9365690552
 11
8.2333483261
 21
1.9367745445
  0
LINE
  5
39D
100
AcDbEntity
  8
0
100
AcDbLine
 62
7
  6
CONTINUOUS
 10
8.2045182804
 20
1.9460070325
 11
8.2053482767
 21
1.9427444407
  0
LINE
  5
39E
100
AcDbEntity
  8
0
100
AcDbLine
 62
7
  6
CONTINUOUS
 10
8.2059988147
 20
1.9401857162
 11
8.2068001883
 21
1.9370333671
  0
LINE
  5
39F
100
AcDbEntity
  8
0
100
AcDbLine
 62
7
  6
CONTINUOUS
 10
7.8867857178
 20
3.1057895924
 11
7.9078958833
 21
2.8039001611
  0
LINE
  5
3A0
100
AcDbEntity
  8
0
100
AcDbLine
 62
7
  6
CONTINUOUS
 10
7.9188160783
 20
2.9344458366
 11
7.9278471643
 21
2.8052952906
  0
LINE
  5
3A1
100
AcDbEntity
  8
0
100
AcDbLine
 62
7
  6
CONTINUOUS
 10
7.9461384374
 20
2.8985617438
 11
7.9436595015
 21
2.934012179
  0
LINE
  5
3A2
100
AcDbEntity
  8
0
100
AcDbLine
 62
7
  6
CONTINUOUS
 10
7.9660897184
 20
2.8999568732
 11
7.9515317019
 21
3.1081462078
  0
LINE
  5
3A3
100
AcDbEntity
  8
0
100
AcDbLine
 62
7
  6
CONTINUOUS
 10
7.9070860457
 20
3.1271816906
 11
7.9188160617
 21
2.9344458369
  0
LINE
  5
3A4
100
AcDbEntity
  8
0
100
AcDbLine
 62
7
  6
CONTINUOUS
 10
7.9436594847
 20
2.9340121793
 11
7.9319294679
 21
3.126748047
  0
LINE
  5
3A5
100
AcDbEntity
  8
0
100
AcDbLine
 62
7
  6
CONTINUOUS
 10
7.6888181541
 20
0.7566025586
 11
7.6888181541
 21
0.7966025586
  0
LINE
  5
3A6
100
AcDbEntity
  8
0
100
AcDbLine
 62
7
  6
CONTINUOUS
 10
7.6950912642
 20
0.7566025586
 11
7.6950912642
 21
0.7966025586
  0
LINE
  5
3A7
100
AcDbEntity
  8
0
100
AcDbLine
 62
7
  6
CONTINUOUS
 10
7.7015143554
 20
0.7966025586
 11
7.7015143554
 21
0.7566025586
  0
LINE
  5
3A8
100
AcDbEntity
  8
0
100
AcDbLine
 62
7
  6
CONTINUOUS
 10
7.7075757583
 20
3.2834162889
 11
7.7075757583
 21
3.1776025586
  0
LINE
  5
3A9
100
AcDbEntity
  8
0
100
AcDbLine
 62
7
  6
CONTINUOUS
 10
7.7122102815
 20
0.7566025586
 11
7.7122102815
 21
0.7966025586
  0
LINE
  5
3AA
100
AcDbEntity
  8
0
100
AcDbLine
 62
7
  6
CONTINUOUS
 10
7.7183775449
 20
0.7566025586
 11
7.7183775449
 21
0.7966025586
  0
LINE
  5
3AB
100
AcDbEntity
  8
0
100
AcDbLine
 62
7
  6
CONTINUOUS
 10
7.724302159
 20
0.7966025586
 11
7.724302159
 21
0.7566025586
  0
LINE
  5
3AC
100
AcDbEntity
  8
0
100
AcDbLine
 62
7
  6
CONTINUOUS
 10
7.7351819926
 20
0.7566025586
 11
7.7351819926
 21
0.7966025586
  0
LINE
  5
3AD
100
AcDbEntity
  8
0
100
AcDbLine
 62
7
  6
CONTINUOUS
 10
7.7412265053
 20
0.7566025586
 11
7.7412265053
 21
0.7966025586
  0
LINE
  5
3AE
100
AcDbEntity
  8
0
100
AcDbLine
 62
7
  6
CONTINUOUS
 10
7.7466364032
 20
0.7966025586
 11
7.7466364032
 21
0.7566025586
  0
LINE
  5
3AF
100
AcDbEntity
  8
0
100
AcDbLine
 62
7
  6
CONTINUOUS
 10
7.7576703235
 20
0.7566025586
 11
7.7576703235
 21
0.7966025586
  0
LINE
  5
3B0
100
AcDbEntity
  8
0
100
AcDbLine
 62
7
  6
CONTINUOUS
 10
7.7635755179
 20
0.7566025586
 11
7.7635755179
 21
0.7966025586
  0
LINE
  5
3B1
100
AcDbEntity
  8
0
100
AcDbLine
 62
7
  6
CONTINUOUS
 10
7.7684558715
 20
0.7966025586
 11
7.7684558715
 21
0.7566025586
  0
LINE
  5
3B2
100
AcDbEntity
  8
0
100
AcDbLine
 62
7
  6
CONTINUOUS
 10
7.7796136353
 20
0.7566025586
 11
7.7796136353
 21
0.7966025586
  0
LINE
  5
3B3
100
AcDbEntity
  8
0
100
AcDbLine
 62
7
  6
CONTINUOUS
 10
7.7853633257
 20
0.7566025586
 11
7.7853633257
 21
0.7966025586
  0
LINE
  5
3B4
100
AcDbEntity
  8
0
100
AcDbLine
 62
7
  6
CONTINUOUS
 10
7.7897007583
 20
0.7966025586
 11
7.7897007583
 21
0.7566025586
  0
LINE
  5
3B5
100
AcDbEntity
  8
0
100
AcDbLine
 62
7
  6
CONTINUOUS
 10
7.8009517829
 20
0.7566025586
 11
7.8009517829
 21
0.7966025586
  0
LINE
  5
3B6
100
AcDbEntity
  8
0
100
AcDbLine
 62
7
  6
CONTINUOUS
 10
7.8065302097
 20
0.7566025586
 11
7.8065302097
 21
0.7966025586
  0
LINE
  5
3B7
100
AcDbEntity
  8
0
100
AcDbLine
 62
7
  6
CONTINUOUS
 10
7.8088257583
 20
5.5945025586
 11
7.8088257583
 21
3.1653525586
  0
LINE
  5
3B8
100
AcDbEntity
  8
0
100
AcDbLine
 62
7
  6
CONTINUOUS
 10
7.8088257583
 20
2.5913518828
 11
7.8088257583
 21
1.1721025586
  0
LINE
  5
3B9
100
AcDbEntity
  8
0
100
AcDbLine
 62
7
  6
CONTINUOUS
 10
7.8103128327
 20
0.7966025586
 11
7.8103128327
 21
0.7566025586
  0
LINE
  5
3BA
100
AcDbEntity
  8
0
100
AcDbLine
 62
7
  6
CONTINUOUS
 10
7.8216262799
 20
0.7566025586
 11
7.8216262799
 21
0.7966025586
  0
LINE
  5
3BB
100
AcDbEntity
  8
0
100
AcDbLine
 62
7
  6
CONTINUOUS
 10
7.827018153
 20
0.7566025586
 11
7.827018153
 21
0.7966025586
  0
LINE
  5
3BC
100
AcDbEntity
  8
0
100
AcDbLine
 62
7
  6
CONTINUOUS
 10
7.8302355985
 20
0.7966025586
 11
7.8302355985
 21
0.7566025586
  0
LINE
  5
3BD
100
AcDbEntity
  8
0
100
AcDbLine
 62
7
  6
CONTINUOUS
 10
7.834825742
 20
2.6825867213
 11
7.8348257583
 21
3.1653525586
  0
LINE
  5
3BE
100
AcDbEntity
  8
0
100
AcDbLine
 62
7
  6
CONTINUOUS
 10
7.8415804589
 20
0.7566025586
 11
7.8415804589
 21
0.7966025586
  0
LINE
  5
3BF
100
AcDbEntity
  8
0
100
AcDbLine
 62
7
  6
CONTINUOUS
 10
7.8467709996
 20
0.7566025586
 11
7.8467709996
 21
0.7966025586
  0
LINE
  5
3C0
100
AcDbEntity
  8
0
100
AcDbLine
 62
7
  6
CONTINUOUS
 10
7.8494144488
 20
0.7966025586
 11
7.8494144488
 21
0.7566025586
  0
LINE
  5
3C1
100
AcDbEntity
  8
0
100
AcDbLine
 62
7
  6
CONTINUOUS
 10
7.8498257583
 20
2.6597192204
 11
7.8498257583
 21
3.1503525586
  0
LINE
  5
3C2
100
AcDbEntity
  8
0
100
AcDbLine
 62
7
  6
CONTINUOUS
 10
7.8607596269
 20
0.7566025586
 11
7.8607596269
 21
0.7966025586
  0
LINE
  5
3C3
100
AcDbEntity
  8
0
100
AcDbLine
 62
7
  6
CONTINUOUS
 10
7.8657346084
 20
0.7566025586
 11
7.8657346084
 21
0.7966025586
  0
LINE
  5
3C4
100
AcDbEntity
  8
0
100
AcDbLine
 62
7
  6
CONTINUOUS
 10
7.8677968158
 20
0.7966025586
 11
7.8677968158
 21
0.7566025586
  0
LINE
  5
3C5
100
AcDbEntity
  8
0
100
AcDbLine
 62
7
  6
CONTINUOUS
 10
7.8698257583
 20
3.1403525586
 11
7.8698257583
 21
2.6788525586
  0
LINE
  5
3C6
100
AcDbEntity
  8
0
100
AcDbLine
 62
7
  6
CONTINUOUS
 10
7.8713257583
 20
0.8316025586
 11
7.8713257583
 21
2.2676025586
  0
LINE
  5
3C7
100
AcDbEntity
  8
0
100
AcDbLine
 62
7
  6
CONTINUOUS
 10
7.8714199558
 20
2.6789406093
 11
7.8714199558
 21
2.2976025586
  0
LINE
  5
3C8
100
AcDbEntity
  8
0
100
AcDbLine
 62
7
  6
CONTINUOUS
 10
7.8791112152
 20
0.7566025586
 11
7.8791112152
 21
0.7966025586
  0
LINE
  5
3C9
100
AcDbEntity
  8
0
100
AcDbLine
 62
7
  6
CONTINUOUS
 10
7.8838570013
 20
0.7566025586
 11
7.8838570013
 21
0.7966025586
  0
LINE
  5
3CA
100
AcDbEntity
  8
0
100
AcDbLine
 62
7
  6
CONTINUOUS
 10
7.8848257583
 20
3.1253525586
 11
7.8848257583
 21
2.6938525586
  0
LINE
  5
3CB
100
AcDbEntity
  8
0
100
AcDbLine
 62
7
  6
CONTINUOUS
 10
7.8853323145
 20
0.7966025586
 11
7.8853323145
 21
0.7566025586
  0
LINE
  5
3CC
100
AcDbEntity
  8
0
100
AcDbLine
 62
7
  6
CONTINUOUS
 10
7.8965849233
 20
0.7566025586
 11
7.8965849233
 21
0.7966025586
  0
LINE
  5
3CD
100
AcDbEntity
  8
0
100
AcDbLine
 62
7
  6
CONTINUOUS
 10
7.9010885061
 20
0.7566025586
 11
7.9010885061
 21
0.7966025586
  0
LINE
  5
3CE
100
AcDbEntity
  8
0
100
AcDbLine
 62
7
  6
CONTINUOUS
 10
7.9019728814
 20
0.7966025586
 11
7.9019728814
 21
0.7566025586
  0
LINE
  5
3CF
100
AcDbEntity
  8
0
100
AcDbLine
 62
7
  6
CONTINUOUS
 10
7.913132857
 20
0.7566025586
 11
7.913132857
 21
0.7966025586
  0
LINE
  5
3D0
100
AcDbEntity
  8
0
100
AcDbLine
 62
7
  6
CONTINUOUS
 10
7.9173818926
 20
0.7566025586
 11
7.9173818926
 21
0.7966025586
  0
LINE
  5
3D1
100
AcDbEntity
  8
0
100
AcDbLine
 62
7
  6
CONTINUOUS
 10
7.917672906
 20
0.7966025586
 11
7.917672906
 21
0.7566025586
  0
LINE
  5
3D2
100
AcDbEntity
  8
0
100
AcDbLine
 62
7
  6
CONTINUOUS
 10
7.9287096596
 20
0.7566025586
 11
7.9287096596
 21
0.7966025586
  0
LINE
  5
3D3
100
AcDbEntity
  8
0
100
AcDbLine
 62
7
  6
CONTINUOUS
 10
7.9326925016
 20
0.7566025586
 11
7.9326925016
 21
0.7966025586
  0
LINE
  5
3D4
100
AcDbEntity
  8
0
100
AcDbLine
 62
7
  6
CONTINUOUS
 10
7.9432726361
 20
0.7566025586
 11
7.9432726361
 21
0.7966025586
  0
LINE
  5
3D5
100
AcDbEntity
  8
0
100
AcDbLine
 62
7
  6
CONTINUOUS
 10
7.9469783679
 20
0.7566025586
 11
7.9469783679
 21
0.7966025586
  0
LINE
  5
3D6
100
AcDbEntity
  8
0
100
AcDbLine
 62
7
  6
CONTINUOUS
 10
7.9567818705
 20
0.7566025586
 11
7.9567818705
 21
0.7966025586
  0
LINE
  5
3D7
100
AcDbEntity
  8
0
100
AcDbLine
 62
7
  6
CONTINUOUS
 10
7.9602003348
 20
0.7566025586
 11
7.9602003348
 21
0.7966025586
  0
LINE
  5
3D8
100
AcDbEntity
  8
0
100
AcDbLine
 62
7
  6
CONTINUOUS
 10
7.9692003348
 20
0.7566025586
 11
7.9692003348
 21
0.7966025586
  0
LINE
  5
3D9
100
AcDbEntity
  8
0
100
AcDbLine
 62
7
  6
CONTINUOUS
 10
7.9723221619
 20
0.7566025586
 11
7.9723221619
 21
0.7966025586
  0
LINE
  5
3DA
100
AcDbEntity
  8
0
100
AcDbLine
 62
7
  6
CONTINUOUS
 10
7.9804939909
 20
0.7566025586
 11
7.9804939909
 21
0.7966025586
  0
LINE
  5
3DB
100
AcDbEntity
  8
0
100
AcDbLine
 62
7
  6
CONTINUOUS
 10
7.9833106242
 20
0.7566025586
 11
7.9833106242
 21
0.7966025586
  0
LINE
  5
3DC
100
AcDbEntity
  8
0
100
AcDbLine
 62
7
  6
CONTINUOUS
 10
7.9906318837
 20
0.7566025586
 11
7.9906318837
 21
0.7966025586
  0
LINE
  5
3DD
100
AcDbEntity
  8
0
100
AcDbLine
 62
7
  6
CONTINUOUS
 10
7.9931356029
 20
0.7566025586
 11
7.9931356029
 21
0.7966025586
  0
LINE
  5
3DE
100
AcDbEntity
  8
0
100
AcDbLine
 62
7
  6
CONTINUOUS
 10
7.999586226
 20
0.7566025586
 11
7.999586226
 21
0.7966025586
  0
LINE
  5
3DF
100
AcDbEntity
  8
0
100
AcDbLine
 62
7
  6
CONTINUOUS
 10
7.8174166998
 20
1.1721025586
 11
7.8172334216
 21
1.1616025586
  0
LINE
  5
3E0
100
AcDbEntity
  8
0
100
AcDbLine
 62
7
  6
CONTINUOUS
 10
7.9463233078
 20
2.714482144
 11
7.9274129363
 21
2.7079707809
  0
LINE
  5
3E1
100
AcDbEntity
  8
0
100
AcDbLine
 62
7
  6
CONTINUOUS
 10
7.9992248215
 20
2.6376338294
 11
8.0181351931
 21
2.6441451925
  0
LINE
  5
3E2
100
AcDbEntity
  8
0
100
AcDbLine
 62
7
  6
CONTINUOUS
 10
8.0017701685
 20
0.7566025586
 11
8.0017701685
 21
0.7966025586
  0
LINE
  5
3E3
100
AcDbEntity
  8
0
100
AcDbLine
 62
7
  6
CONTINUOUS
 10
8.0025757583
 20
0.7066025586
 11
8.0025757583
 21
0.7566025586
  0
LINE
  5
3E4
100
AcDbEntity
  8
0
100
AcDbLine
 62
7
  6
CONTINUOUS
 10
8.0073324744
 20
0.7566025586
 11
8.0073324744
 21
0.7966025586
  0
LINE
  5
3E5
100
AcDbEntity
  8
0
100
AcDbLine
 62
7
  6
CONTINUOUS
 10
8.0091906543
 20
0.7566025586
 11
8.0091906543
 21
0.7966025586
  0
LINE
  5
3E6
100
AcDbEntity
  8
0
100
AcDbLine
 62
7
  6
CONTINUOUS
 10
8.0138493971
 20
0.7566025586
 11
8.0138493971
 21
0.7966025586
  0
LINE
  5
3E7
100
AcDbEntity
  8
0
100
AcDbLine
 62
7
  6
CONTINUOUS
 10
8.0153767212
 20
0.7566025586
 11
8.0153767212
 21
0.7966025586
  0
LINE
  5
3E8
100
AcDbEntity
  8
0
100
AcDbLine
 62
7
  6
CONTINUOUS
 10
8.0191191316
 20
0.7566025586
 11
8.0191191316
 21
0.7966025586
  0
LINE
  5
3E9
100
AcDbEntity
  8
0
100
AcDbLine
 62
7
  6
CONTINUOUS
 10
8.0203114136
 20
0.7566025586
 11
8.0203114136
 21
0.7966025586
  0
LINE
  5
3EA
100
AcDbEntity
  8
0
100
AcDbLine
 62
7
  6
CONTINUOUS
 10
8.023127234
 20
0.7566025586
 11
8.023127234
 21
0.7966025586
  0
LINE
  5
3EB
100
AcDbEntity
  8
0
100
AcDbLine
 62
7
  6
CONTINUOUS
 10
8.0239812059
 20
0.7566025586
 11
8.0239812059
 21
0.7966025586
  0
LINE
  5
3EC
100
AcDbEntity
  8
0
100
AcDbLine
 62
7
  6
CONTINUOUS
 10
8.0258627183
 20
0.7566025586
 11
8.0258627183
 21
0.7966025586
  0
LINE
  5
3ED
100
AcDbEntity
  8
0
100
AcDbLine
 62
7
  6
CONTINUOUS
 10
8.0263760395
 20
0.7566025586
 11
8.0263760395
 21
0.7966025586
  0
LINE
  5
3EE
100
AcDbEntity
  8
0
100
AcDbLine
 62
7
  6
CONTINUOUS
 10
8.0273180867
 20
0.7566025586
 11
8.0273180867
 21
0.7966025586
  0
LINE
  5
3EF
100
AcDbEntity
  8
0
100
AcDbLine
 62
7
  6
CONTINUOUS
 10
8.0274893503
 20
0.7566025586
 11
8.0274893503
 21
0.7966025586
  0
LINE
  5
3F0
100
AcDbEntity
  8
0
100
AcDbLine
 62
7
  6
CONTINUOUS
 10
8.0275757583
 20
0.6416025586
 11
8.0275757583
 21
0.6816025586
  0
LINE
  5
3F1
100
AcDbEntity
  8
0
100
AcDbLine
 62
7
  6
CONTINUOUS
 10
7.2612786595
 20
2.2825554598
 11
7.2463257583
 21
2.2676025586
  0
LINE
  5
3F2
100
AcDbEntity
  8
0
100
AcDbLine
 62
7
  6
CONTINUOUS
 10
8.1864037555
 20
2.017237896
 11
8.167493384
 21
2.010726533
  0
LINE
  5
3F3
100
AcDbEntity
  8
0
100
AcDbLine
 62
7
  6
CONTINUOUS
 10
8.2130041479
 20
2.0167735845
 11
8.2319145194
 21
2.0232849476
  0
LINE
  5
3F4
100
AcDbEntity
  8
0
100
AcDbLine
 62
7
  6
CONTINUOUS
 10
7.8564199558
 20
2.2826025586
 11
7.8714199558
 21
2.2976025586
  0
LINE
  5
3F5
100
AcDbEntity
  8
0
100
AcDbLine
 62
7
  6
CONTINUOUS
 10
7.0900757583
 20
0.6816025586
 11
7.1150757583
 21
0.7066025586
  0
ARC
  5
3F6
100
AcDbEntity
  8
0
100
AcDbCircle
 62
7
  6
CONTINUOUS
 10
5.2588257583
 20
5.5945025586
 40
2.55
100
AcDbArc
 50
0.0
 51
180.0
  0
ARC
  5
3F7
100
AcDbEntity
  8
0
100
AcDbCircle
 62
7
  6
CONTINUOUS
 10
5.2588257583
 20
5.5945025586
 40
2.05
100
AcDbArc
 50
0.0
 51
180.0
  0
ARC
  5
3F8
100
AcDbEntity
  8
0
100
AcDbCircle
 62
7
  6
CONTINUOUS
 10
3.2100757583
 20
5.1770025586
 40
0.03
100
AcDbArc
 50
282.635625093
 51
90.0
  0
ARC
  5
3F9
100
AcDbEntity
  8
0
100
AcDbCircle
 62
7
  6
CONTINUOUS
 10
3.2100757583
 20
4.8320025586
 40
0.03
100
AcDbArc
 50
270.0
 51
77.364374907
  0
ARC
  5
3FA
100
AcDbEntity
  8
0
100
AcDbCircle
 62
7
  6
CONTINUOUS
 10
2.7075757583
 20
5.1770025586
 40
0.03
100
AcDbArc
 50
90.0
 51
257.364374907
  0
ARC
  5
3FB
100
AcDbEntity
  8
0
100
AcDbCircle
 62
7
  6
CONTINUOUS
 10
2.7075757583
 20
4.8320025586
 40
0.03
100
AcDbArc
 50
102.635625093
 51
270.0
  0
ARC
  5
3FC
100
AcDbEntity
  8
0
100
AcDbCircle
 62
7
  6
CONTINUOUS
 10
3.2188257583
 20
5.1379713211
 40
0.01
100
AcDbArc
 50
102.635625093
 51
180.0
  0
ARC
  5
3FD
100
AcDbEntity
  8
0
100
AcDbCircle
 62
7
  6
CONTINUOUS
 10
2.6988257583
 20
5.1379713211
 40
0.01
100
AcDbArc
 50
0.0
 51
77.364374907
  0
ARC
  5
3FE
100
AcDbEntity
  8
0
100
AcDbCircle
 62
7
  6
CONTINUOUS
 10
3.2188257583
 20
4.8710337961
 40
0.01
100
AcDbArc
 50
180.0
 51
257.364374907
  0
ARC
  5
3FF
100
AcDbEntity
  8
0
100
AcDbCircle
 62
7
  6
CONTINUOUS
 10
2.6988257583
 20
4.8710337961
 40
0.01
100
AcDbArc
 50
282.635625093
 51
360.0
  0
ARC
  5
400
100
AcDbEntity
  8
0
100
AcDbCircle
 62
7
  6
CONTINUOUS
 10
7.1488257583
 20
0.8316025586
 40
0.035
100
AcDbArc
 50
270.0
 51
342.5423968763
  0
ARC
  5
401
100
AcDbEntity
  8
0
100
AcDbCircle
 62
7
  6
CONTINUOUS
 10
7.1965227183
 20
0.8166025586
 40
0.015
100
AcDbArc
 50
90.0
 51
162.5423968763
  0
ARC
  5
402
100
AcDbEntity
  8
0
100
AcDbCircle
 62
7
  6
CONTINUOUS
 10
7.5501827664
 20
2.9096025586
 40
0.6655302365
100
AcDbArc
 50
162.1759428058
 51
165.3102062657
  0
ARC
  5
403
100
AcDbEntity
  8
0
100
AcDbCircle
 62
7
  6
CONTINUOUS
 10
7.5501827664
 20
2.9096025586
 40
0.6655302365
100
AcDbArc
 50
167.1481751459
 51
170.7147267369
  0
ARC
  5
404
100
AcDbEntity
  8
0
100
AcDbCircle
 62
7
  6
CONTINUOUS
 10
7.5501827664
 20
2.9096025586
 40
0.6655302365
100
AcDbArc
 50
172.4196365177
 51
187.5803634823
  0
ARC
  5
405
100
AcDbEntity
  8
0
100
AcDbCircle
 62
7
  6
CONTINUOUS
 10
7.5501827664
 20
2.9096025586
 40
0.6655302365
100
AcDbArc
 50
189.2852732631
 51
192.8518248541
  0
ARC
  5
406
100
AcDbEntity
  8
0
100
AcDbCircle
 62
7
  6
CONTINUOUS
 10
7.5501827664
 20
2.9096025586
 40
0.6655302365
100
AcDbArc
 50
194.6897937343
 51
197.8240571942
  0
ARC
  5
407
100
AcDbEntity
  8
0
100
AcDbCircle
 62
7
  6
CONTINUOUS
 10
7.2463257583
 20
2.5913525586
 40
0.0625
100
AcDbArc
 50
0.0
 51
90.0
  0
ARC
  5
408
100
AcDbEntity
  8
0
100
AcDbCircle
 62
7
  6
CONTINUOUS
 10
7.8713257537
 20
2.5913525632
 40
0.0624999991
100
AcDbArc
 50
118.0971321168
 51
180.0006233435
  0
ARC
  5
409
100
AcDbEntity
  8
0
100
AcDbCircle
 62
7
  6
CONTINUOUS
 10
6.9433348244
 20
2.909604917
 40
0.0420098048
100
AcDbArc
 50
177.412938526
 51
180.0032165323
  0
ARC
  5
40A
100
AcDbEntity
  8
0
100
AcDbCircle
 62
7
  6
CONTINUOUS
 10
6.8648446817
 20
2.9095991858
 40
0.041562075
100
AcDbArc
 50
357.0490043431
 51
0.004649529
  0
ARC
  5
40B
100
AcDbEntity
  8
0
100
AcDbCircle
 62
7
  6
CONTINUOUS
 10
7.9067369988
 20
3.1071847219
 40
0.02
100
AcDbArc
 50
88.9999977482
 51
184.0
  0
ARC
  5
40C
100
AcDbEntity
  8
0
100
AcDbCircle
 62
7
  6
CONTINUOUS
 10
7.3738257583
 20
3.1626025586
 40
0.015
100
AcDbArc
 50
90.0
 51
169.434666514
  0
ARC
  5
40D
100
AcDbEntity
  8
0
100
AcDbCircle
 62
7
  6
CONTINUOUS
 10
7.7438257583
 20
3.1626025586
 40
0.015
100
AcDbArc
 50
10.565333486
 51
90.0
  0
ARC
  5
40E
100
AcDbEntity
  8
0
100
AcDbCircle
 62
7
  6
CONTINUOUS
 10
7.8348257583
 20
3.1503525586
 40
0.015
100
AcDbArc
 50
0.0
 51
90.0
  0
ARC
  5
40F
100
AcDbEntity
  8
0
100
AcDbCircle
 62
7
  6
CONTINUOUS
 10
7.8348257583
 20
2.6597192204
 40
0.015
100
AcDbArc
 50
298.0971273946
 51
360.0
  0
ARC
  5
410
100
AcDbEntity
  8
0
100
AcDbCircle
 62
7
  6
CONTINUOUS
 10
7.8698257583
 20
3.1253525586
 40
0.015
100
AcDbArc
 50
0.0
 51
90.0
  0
ARC
  5
411
100
AcDbEntity
  8
0
100
AcDbCircle
 62
7
  6
CONTINUOUS
 10
7.8698257583
 20
2.6938525586
 40
0.015
100
AcDbArc
 50
270.0
 51
360.0
  0
ARC
  5
412
100
AcDbEntity
  8
0
100
AcDbCircle
 62
7
  6
CONTINUOUS
 10
6.9694163095
 20
2.6496025586
 40
0.015
100
AcDbArc
 50
180.0
 51
270.0
  0
ARC
  5
413
100
AcDbEntity
  8
0
100
AcDbCircle
 62
7
  6
CONTINUOUS
 10
6.9694163095
 20
3.1696025586
 40
0.015
100
AcDbArc
 50
90.0
 51
180.0
  0
ARC
  5
414
100
AcDbEntity
  8
0
100
AcDbCircle
 62
7
  6
CONTINUOUS
 10
6.9344163095
 20
2.6996025586
 40
0.015
100
AcDbArc
 50
180.0
 51
270.0
  0
ARC
  5
415
100
AcDbEntity
  8
0
100
AcDbCircle
 62
7
  6
CONTINUOUS
 10
6.9344163095
 20
3.1196025586
 40
0.015
100
AcDbArc
 50
90.0
 51
180.0
  0
ARC
  5
416
100
AcDbEntity
  8
0
100
AcDbCircle
 62
7
  6
CONTINUOUS
 10
7.167254084
 20
2.6296065872
 40
0.0121559298
100
AcDbArc
 50
344.1231540954
 51
347.1437363244
  0
ARC
  5
417
100
AcDbEntity
  8
0
100
AcDbCircle
 62
7
  6
CONTINUOUS
 10
7.1672791899
 20
3.1896049618
 40
0.0121300221
100
AcDbArc
 50
12.8530309426
 51
15.8811834026
  0
ARC
  5
418
100
AcDbEntity
  8
0
100
AcDbCircle
 62
7
  6
CONTINUOUS
 10
7.1694163095
 20
2.6258525586
 40
0.01
100
AcDbArc
 50
345.610977056
 51
360.0
  0
ARC
  5
419
100
AcDbEntity
  8
0
100
AcDbCircle
 62
7
  6
CONTINUOUS
 10
7.1694163095
 20
3.1933525586
 40
0.01
100
AcDbArc
 50
0.0
 51
14.389022944
  0
ARC
  5
41A
100
AcDbEntity
  8
0
100
AcDbCircle
 62
7
  6
CONTINUOUS
 10
7.1718300978
 20
2.6290723026
 40
0.0075920537
100
AcDbArc
 50
339.6050001852
 51
343.3880219326
  0
ARC
  5
41B
100
AcDbEntity
  8
0
100
AcDbCircle
 62
7
  6
CONTINUOUS
 10
7.1718456909
 20
3.1901380315
 40
0.00757562
100
AcDbArc
 50
16.6078842012
 51
20.3977104744
  0
ARC
  5
41C
100
AcDbEntity
  8
0
100
AcDbCircle
 62
7
  6
CONTINUOUS
 10
6.9213573509
 20
2.7074175192
 40
0.005
100
AcDbArc
 50
197.8240571942
 51
247.147186631
  0
ARC
  5
41D
100
AcDbEntity
  8
0
100
AcDbCircle
 62
7
  6
CONTINUOUS
 10
6.9213573509
 20
3.1117875979
 40
0.005
100
AcDbArc
 50
112.852813369
 51
162.1759428057
  0
ARC
  5
41E
100
AcDbEntity
  8
0
100
AcDbCircle
 62
7
  6
CONTINUOUS
 10
7.9688257583
 20
0.8316025586
 40
0.035
100
AcDbArc
 50
197.4576031237
 51
270.0
  0
ARC
  5
41F
100
AcDbEntity
  8
0
100
AcDbCircle
 62
7
  6
CONTINUOUS
 10
8.2337918915
 20
1.9564015934
 40
0.02
100
AcDbArc
 50
269.0
 51
19.0
  0
ARC
  5
420
100
AcDbEntity
  8
0
100
AcDbCircle
 62
7
  6
CONTINUOUS
 10
8.2071914991
 20
1.9568659049
 40
0.02
100
AcDbArc
 50
199.0
 51
269.0
  0
ARC
  5
421
100
AcDbEntity
  8
0
100
AcDbCircle
 62
7
  6
CONTINUOUS
 10
7.9211287982
 20
0.8166025586
 40
0.015
100
AcDbArc
 50
17.4576031237
 51
90.0
  0
ARC
  5
422
100
AcDbEntity
  8
0
100
AcDbCircle
 62
7
  6
CONTINUOUS
 10
8.9636537687
 20
2.969713347
 40
1.02
100
AcDbArc
 50
184.0
 51
199.0
  0
ARC
  5
423
100
AcDbEntity
  8
0
100
AcDbCircle
 62
7
  6
CONTINUOUS
 10
8.9636537687
 20
2.969713347
 40
1.0
100
AcDbArc
 50
184.0
 51
199.0
  0
ARC
  5
424
100
AcDbEntity
  8
0
100
AcDbCircle
 62
7
  6
CONTINUOUS
 10
8.2819824021
 20
2.8300588388
 40
0.375
100
AcDbArc
 50
184.0
 51
199.0
  0
ARC
  5
425
100
AcDbEntity
  8
0
100
AcDbCircle
 62
7
  6
CONTINUOUS
 10
8.2819824021
 20
2.8300588388
 40
0.355
100
AcDbArc
 50
184.0
 51
199.0
  0
ARC
  5
426
100
AcDbEntity
  8
0
100
AcDbCircle
 62
7
  6
CONTINUOUS
 10
7.9315804209
 20
3.1067510783
 40
0.02
100
AcDbArc
 50
4.0
 51
88.9999977491
  0
CIRCLE
  5
427
100
AcDbEntity
  8
0
100
AcDbCircle
 62
7
  6
CONTINUOUS
 10
7.5588257583
 20
3.5506025586
 40
0.19125
  0
CIRCLE
  5
428
100
AcDbEntity
  8
0
100
AcDbCircle
 62
7
  6
CONTINUOUS
 10
7.5588257583
 20
3.5506025586
 40
0.16125
  0
ARC
  5
429
100
AcDbEntity
  8
0
100
AcDbCircle
 62
7
  6
CONTINUOUS
 10
7.4050757583
 20
3.3231025586
 40
0.03
100
AcDbArc
 50
90.0
 51
262.8192442185
  0
ARC
  5
42A
100
AcDbEntity
  8
0
100
AcDbCircle
 62
7
  6
CONTINUOUS
 10
7.7125757583
 20
3.3231025586
 40
0.03
100
AcDbArc
 50
277.1807557815
 51
90.0
  0
ARC
  5
42B
100
AcDbEntity
  8
0
100
AcDbCircle
 62
7
  6
CONTINUOUS
 10
7.4513257583
 20
3.3631025586
 40
0.01
100
AcDbArc
 50
270.0
 51
360.0
  0
ARC
  5
42C
100
AcDbEntity
  8
0
100
AcDbCircle
 62
7
  6
CONTINUOUS
 10
7.6663257583
 20
3.3631025586
 40
0.01
100
AcDbArc
 50
180.0
 51
270.0
  0
ARC
  5
42D
100
AcDbEntity
  8
0
100
AcDbCircle
 62
7
  6
CONTINUOUS
 10
7.4000757583
 20
3.2834162889
 40
0.01
100
AcDbArc
 50
0.0
 51
82.8192442186
  0
ARC
  5
42E
100
AcDbEntity
  8
0
100
AcDbCircle
 62
7
  6
CONTINUOUS
 10
7.7175757583
 20
3.2834162889
 40
0.01
100
AcDbArc
 50
97.1807557815
 51
180.0
  0
SPLINE
  5
42F
100
AcDbEntity
  8
0
100
AcDbSpline
 62
7
  6
CONTINUOUS
 70
0
 71
3
 72
28
 73
24
 74
0
 42
0.0000001
 43
0.0000001
 44
0.0000000001
 40
0.0
 40
0.0
 40
0.0
 40
0.0
 40
0.0023551542
 40
0.0047791548
 40
0.0074305157
 40
0.0104314709
 40
0.0177808615
 40
0.0272333188
 40
0.0389445455
 40
0.0529769411
 40
0.0693470307
 40
0.0880349983
 40
0.109006502
 40
0.132213236
 40
0.1850578189
 40
0.2459470792
 40
0.3141107845
 40
0.3886627792
 40
0.4686243526
 40
0.5529378479
 40
0.6404935288
 40
0.8207064298
 40
1.0
 40
1.0
 40
1.0
 40
1.0
 10
6.8929402788
 20
2.9884023519
 30
0.0
 10
6.8929499748
 20
2.9884029291
 30
0.0
 10
6.8929699286
 20
2.9884014218
 30
0.0
 10
6.8929989808
 20
2.9883906457
 30
0.0
 10
6.8930267381
 20
2.9883717603
 30
0.0
 10
6.8930646567
 20
2.9883334987
 30
0.0
 10
6.8931080868
 20
2.9882633621
 30
0.0
 10
6.8931531058
 20
2.9881545214
 30
0.0
 10
6.8931944322
 20
2.9880151501
 30
0.0
 10
6.8932318471
 20
2.987845452
 30
0.0
 10
6.8932651701
 20
2.9876456808
 30
0.0
 10
6.8932942606
 20
2.9874163971
 30
0.0
 10
6.893318972
 20
2.9871582695
 30
0.0
 10
6.8933471225
 20
2.9867590845
 30
0.0
 10
6.893368925
 20
2.9861945969
 30
0.0
 10
6.8933757973
 20
2.9854443703
 30
0.0
 10
6.8933639885
 20
2.9846046767
 30
0.0
 10
6.8933336034
 20
2.983686763
 30
0.0
 10
6.8932849811
 20
2.9827029494
 30
0.0
 10
6.8932187736
 20
2.9816664222
 30
0.0
 10
6.8931071412
 20
2.9802186197
 30
0.0
 10
6.8929313674
 20
2.9783830523
 30
0.0
 10
6.8927559927
 20
2.976910614
 30
0.0
 10
6.8926593377
 20
2.9761775115
 30
0.0
  0
SPLINE
  5
430
100
AcDbEntity
  8
0
100
AcDbSpline
 62
7
  6
CONTINUOUS
 70
0
 71
3
 72
19
 73
15
 74
0
 42
0.0000001
 43
0.0000001
 44
0.0000000001
 40
0.0
 40
0.0
 40
0.0
 40
0.0
 40
0.0190739659
 40
0.0391802422
 40
0.0631189375
 40
0.0926251287
 40
0.1286071022
 40
0.171534421
 40
0.2216599851
 40
0.2791207828
 40
0.4161581003
 40
0.5825251803
 40
0.7775669498
 40
1.0
 40
1.0
 40
1.0
 40
1.0
 10
6.9062072445
 20
3.0663134223
 30
0.0
 10
6.906219244
 20
3.0663141126
 30
0.0
 10
6.9062445825
 20
3.0663105309
 30
0.0
 10
6.9062786336
 20
3.0662881257
 30
0.0
 10
6.9063074844
 20
3.0662511948
 30
0.0
 10
6.9063323163
 20
3.0662003307
 30
0.0
 10
6.9063535821
 20
3.0661352541
 30
0.0
 10
6.9063713655
 20
3.0660558249
 30
0.0
 10
6.9063856452
 20
3.065962004
 30
0.0
 10
6.906400806
 20
3.0658085507
 30
0.0
 10
6.9064089186
 20
3.0655811072
 30
0.0
 10
6.9064041795
 20
3.0652669792
 30
0.0
 10
6.9063850769
 20
3.0648995047
 30
0.0
 10
6.9063642031
 20
3.0646372376
 30
0.0
 10
6.9063516426
 20
3.064497637
 30
0.0
  0
SPLINE
  5
431
100
AcDbEntity
  8
0
100
AcDbSpline
 62
7
  6
CONTINUOUS
 70
0
 71
3
 72
24
 73
20
 74
0
 42
0.0000001
 43
0.0000001
 44
0.0000000001
 40
0.0
 40
0.0
 40
0.0
 40
0.0
 40
0.0112226225
 40
0.0225243127
 40
0.034285641
 40
0.0468440226
 40
0.0604758595
 40
0.0753964036
 40
0.1096611313
 40
0.1504583265
 40
0.1981279304
 40
0.2527272738
 40
0.3141395866
 40
0.3821023966
 40
0.4562493924
 40
0.5361191777
 40
0.6211625339
 40
0.8042473004
 40
1.0
 40
1.0
 40
1.0
 40
1.0
 10
6.9048025536
 20
2.9805850334
 30
0.0
 10
6.9048361349
 20
2.9805870046
 30
0.0
 10
6.9049040982
 20
2.9805846439
 30
0.0
 10
6.9050047662
 20
2.9805611648
 30
0.0
 10
6.9051030134
 20
2.9805179475
 30
0.0
 10
6.9051985399
 20
2.9804553653
 30
0.0
 10
6.9052912879
 20
2.9803737006
 30
0.0
 10
6.9054169493
 20
2.9802329887
 30
0.0
 10
6.9055644241
 20
2.98000543
 30
0.0
 10
6.9057212061
 20
2.9796718933
 30
0.0
 10
6.9058645678
 20
2.9792671439
 30
0.0
 10
6.9059934378
 20
2.9787933975
 30
0.0
 10
6.9061066609
 20
2.9782534299
 30
0.0
 10
6.9062032086
 20
2.9776508813
 30
0.0
 10
6.9062821308
 20
2.9769900573
 30
0.0
 10
6.9063426516
 20
2.9762759258
 30
0.0
 10
6.9063993708
 20
2.9752342371
 30
0.0
 10
6.9064179047
 20
2.9738432924
 30
0.0
 10
6.9063819691
 20
2.9727079424
 30
0.0
 10
6.9063516426
 20
2.9721219705
 30
0.0
  0
LINE
  5
432
100
AcDbEntity
  8
0
100
AcDbLine
 62
7
  6
CONTINUOUS
 10
6.9015124284
 20
2.7736255543
 11
6.9021768703
 21
2.7725823671
  0
SPLINE
  5
433
100
AcDbEntity
  8
0
100
AcDbSpline
 62
7
  6
CONTINUOUS
 70
0
 71
3
 72
24
 73
20
 74
0
 42
0.0000001
 43
0.0000001
 44
0.0000000001
 40
0.0
 40
0.0
 40
0.0
 40
0.0
 40
0.0193274013
 40
0.0409609091
 40
0.0906918111
 40
0.1481842587
 40
0.2123039368
 40
0.2818224251
 40
0.3554361264
 40
0.5094185994
 40
0.66268756
 40
0.7352823849
 40
0.8031593846
 40
0.8648523024
 40
0.9189918199
 40
0.9428430567
 40
0.9643690499
 40
0.9834526633
 40
1.0
 40
1.0
 40
1.0
 40
1.0
 10
6.9021768703
 20
2.7725823671
 30
0.0
 10
6.9022250489
 20
2.7724671748
 30
0.0
 10
6.9023233677
 20
2.7722214568
 30
0.0
 10
6.9025286109
 20
2.7716726448
 30
0.0
 10
6.9027980571
 20
2.7708848325
 30
0.0
 10
6.9031296988
 20
2.7698286674
 30
0.0
 10
6.9034761066
 20
2.7686434111
 30
0.0
 10
6.9038305577
 20
2.767352208
 30
0.0
 10
6.9043119713
 20
2.7654940399
 30
0.0
 10
6.9048819276
 20
2.7631001652
 30
0.0
 10
6.9053923997
 20
2.7606996082
 30
0.0
 10
6.9057480807
 20
2.7588355102
 30
0.0
 10
6.9059726429
 20
2.7575488379
 30
0.0
 10
6.9061548546
 20
2.7563760096
 30
0.0
 10
6.9062726487
 20
2.75548119
 30
0.0
 10
6.9063405659
 20
2.7548418431
 30
0.0
 10
6.9063763695
 20
2.7544269099
 30
0.0
 10
6.9063990763
 20
2.7540583162
 30
0.0
 10
6.9064059406
 20
2.7538281634
 30
0.0
 10
6.9064066245
 20
2.7537212641
 30
0.0
  0
LINE
  5
434
100
AcDbEntity
  8
0
100
AcDbLine
 62
7
  6
CONTINUOUS
 10
6.9064066245
 20
2.7537212641
 11
6.9063516426
 21
2.7530672499
  0
SPLINE
  5
435
100
AcDbEntity
  8
0
100
AcDbSpline
 62
7
  6
CONTINUOUS
 70
0
 71
3
 72
25
 73
21
 74
0
 42
0.0000001
 43
0.0000001
 44
0.0000000001
 40
0.0
 40
0.0
 40
0.0
 40
0.0
 40
0.0070906707
 40
0.0147715366
 40
0.0236215692
 40
0.0340166223
 40
0.0461780603
 40
0.060234689
 40
0.0762555118
 40
0.0942687748
 40
0.1362798866
 40
0.1861451492
 40
0.2435566038
 40
0.3080741983
 40
0.3791655173
 40
0.4562030816
 40
0.5384883588
 40
0.6252588587
 40
0.8088779262
 40
1.0
 40
1.0
 40
1.0
 40
1.0
 10
6.8919061529
 20
2.9193960408
 30
0.0
 10
6.8919300019
 20
2.9193974786
 30
0.0
 10
6.8919805428
 20
2.919391862
 30
0.0
 10
6.8920538214
 20
2.9193582877
 30
0.0
 10
6.8921252469
 20
2.9193012994
 30
0.0
 10
6.8921954203
 20
2.919221585
 30
0.0
 10
6.8922647206
 20
2.9191192302
 30
0.0
 10
6.8923331634
 20
2.9189942643
 30
0.0
 10
6.8924006738
 20
2.9188468356
 30
0.0
 10
6.892494114
 20
2.9186081309
 30
0.0
 10
6.8926048323
 20
2.9182543717
 30
0.0
 10
6.8927260751
 20
2.917765986
 30
0.0
 10
6.8928401106
 20
2.9171982952
 30
0.0
 10
6.8929457783
 20
2.9165564426
 30
0.0
 10
6.8930418705
 20
2.91584631
 30
0.0
 10
6.8931273721
 20
2.9150745775
 30
0.0
 10
6.8932013658
 20
2.9142486079
 30
0.0
 10
6.8932851342
 20
2.9130631531
 30
0.0
 10
6.8933544788
 20
2.9115093311
 30
0.0
 10
6.8933728256
 20
2.9102465526
 30
0.0
 10
6.8933728256
 20
2.9096025586
 30
0.0
  0
LINE
  5
436
100
AcDbEntity
  8
0
100
AcDbLine
 62
7
  6
CONTINUOUS
 10
6.8908867809
 20
2.8503907045
 11
6.8911563528
 21
2.8501285946
  0
SPLINE
  5
437
100
AcDbEntity
  8
0
100
AcDbSpline
 62
7
  6
CONTINUOUS
 70
0
 71
3
 72
20
 73
16
 74
0
 42
0.0000001
 43
0.0000001
 44
0.0000000001
 40
0.0
 40
0.0
 40
0.0
 40
0.0
 40
0.0221631333
 40
0.0453748803
 40
0.0721418391
 40
0.1041437234
 40
0.1423230578
 40
0.1871884791
 40
0.2389785702
 40
0.2977528968
 40
0.3634813202
 40
0.4360224813
 40
0.6006849766
 40
0.7896647642
 40
1.0
 40
1.0
 40
1.0
 40
1.0
 10
6.9056418667
 20
3.0319752628
 30
0.0
 10
6.9056785892
 20
3.0319773858
 30
0.0
 10
6.9057554342
 20
3.0319681465
 30
0.0
 10
6.905862499
 20
3.0319095667
 30
0.0
 10
6.9059582186
 20
3.0318108642
 30
0.0
 10
6.9060442037
 20
3.0316739509
 30
0.0
 10
6.9061214848
 20
3.0314988364
 30
0.0
 10
6.9061900732
 20
3.0312855151
 30
0.0
 10
6.9062497722
 20
3.0310343532
 30
0.0
 10
6.9063003425
 20
3.0307460283
 30
0.0
 10
6.9063414572
 20
3.0304214912
 30
0.0
 10
6.9063852541
 20
3.0299205307
 30
0.0
 10
6.9064117468
 20
3.0292132774
 30
0.0
 10
6.906403271
 20
3.0282770712
 30
0.0
 10
6.9063727965
 20
3.0276148818
 30
0.0
 10
6.9063516426
 20
3.0272664329
 30
0.0
  0
SPLINE
  5
438
100
AcDbEntity
  8
0
100
AcDbSpline
 62
7
  6
CONTINUOUS
 70
0
 71
3
 72
33
 73
29
 74
0
 42
0.0000001
 43
0.0000001
 44
0.0000000001
 40
0.0
 40
0.0
 40
0.0
 40
0.0
 40
0.0036618783
 40
0.0075983805
 40
0.0119540674
 40
0.0168317567
 40
0.0223009445
 40
0.0284075437
 40
0.0426298592
 40
0.0596093649
 40
0.0793485713
 40
0.101787085
 40
0.1268321106
 40
0.1543605242
 40
0.1842321394
 40
0.2503512802
 40
0.3237602341
 40
0.4028244403
 40
0.4857339405
 40
0.5705194645
 40
0.6550828071
 40
0.7372449275
 40
0.8148142628
 40
0.885681949
 40
0.9179933296
 40
0.9479410748
 40
0.9753359405
 40
1.0
 40
1.0
 40
1.0
 40
1.0
 10
6.9020486736
 20
2.8079616455
 30
0.0
 10
6.9020729698
 20
2.8079630722
 30
0.0
 10
6.9021238937
 20
2.8079598271
 30
0.0
 10
6.9022007101
 20
2.8079377244
 30
0.0
 10
6.902279555
 20
2.8078988579
 30
0.0
 10
6.9023604495
 20
2.8078435976
 30
0.0
 10
6.902443468
 20
2.8077721434
 30
0.0
 10
6.9025630746
 20
2.807649042
 30
0.0
 10
6.9027156045
 20
2.8074526939
 30
0.0
 10
6.9028975829
 20
2.8071668563
 30
0.0
 10
6.9030856635
 20
2.8068212986
 30
0.0
 10
6.9032787581
 20
2.8064182347
 30
0.0
 10
6.9034755942
 20
2.8059600594
 30
0.0
 10
6.9036750113
 20
2.805449588
 30
0.0
 10
6.9039521182
 20
2.8046767302
 30
0.0
 10
6.9042928167
 20
2.8036032253
 30
0.0
 10
6.9046804794
 20
2.8022028026
 30
0.0
 10
6.905049824
 20
2.8006823518
 30
0.0
 10
6.9053914369
 20
2.7990780749
 30
0.0
 10
6.9056962583
 20
2.7974292234
 30
0.0
 10
6.9059558891
 20
2.7957776792
 30
0.0
 10
6.9061629111
 20
2.7941670292
 30
0.0
 10
6.9063111663
 20
2.7926413258
 30
0.0
 10
6.9063844192
 20
2.7914418729
 30
0.0
 10
6.9064075219
 20
2.7905572915
 30
0.0
 10
6.9064074242
 20
2.789961338
 30
0.0
 10
6.9063904628
 20
2.7894164691
 30
0.0
 10
6.9063668623
 20
2.789071151
 30
0.0
 10
6.9063516426
 20
2.7889079339
 30
0.0
  0
SPLINE
  5
439
100
AcDbEntity
  8
0
100
AcDbSpline
 62
7
  6
CONTINUOUS
 70
0
 71
3
 72
23
 73
19
 74
0
 42
0.0000001
 43
0.0000001
 44
0.0000000001
 40
0.0
 40
0.0
 40
0.0
 40
0.0
 40
0.011158757
 40
0.0226096244
 40
0.0347337693
 40
0.0478483259
 40
0.0779169938
 40
0.1141323989
 40
0.1570564569
 40
0.2068569701
 40
0.2634560513
 40
0.3265968088
 40
0.3958968169
 40
0.4708498112
 40
0.550856272
 40
0.6352290106
 40
0.8138861913
 40
1.0
 40
1.0
 40
1.0
 40
1.0
 10
6.903824406
 20
2.9199669795
 30
0.0
 10
6.9038657224
 20
2.9199693949
 30
0.0
 10
6.9039501678
 20
2.9199658653
 30
0.0
 10
6.9040760198
 20
2.9199350499
 30
0.0
 10
6.9042008015
 20
2.9198791242
 30
0.0
 10
6.9043731275
 20
2.9197665762
 30
0.0
 10
6.9045839531
 20
2.9195570626
 30
0.0
 10
6.9048172348
 20
2.9192244933
 30
0.0
 10
6.9050418307
 20
2.9188012142
 30
0.0
 10
6.9052558782
 20
2.9182898219
 30
0.0
 10
6.9054574876
 20
2.9176937721
 30
0.0
 10
6.9056446134
 20
2.9170177629
 30
0.0
 10
6.9058151978
 20
2.9162674699
 30
0.0
 10
6.9059673778
 20
2.9154495596
 30
0.0
 10
6.9060994117
 20
2.9145716068
 30
0.0
 10
6.9062492791
 20
2.9133079981
 30
0.0
 10
6.9063737742
 20
2.9116459633
 30
0.0
 10
6.9064067566
 20
2.9102928393
 30
0.0
 10
6.9064067566
 20
2.9096025586
 30
0.0
  0
SPLINE
  5
43A
100
AcDbEntity
  8
0
100
AcDbSpline
 62
7
  6
CONTINUOUS
 70
0
 71
3
 72
28
 73
24
 74
0
 42
0.0000001
 43
0.0000001
 44
0.0000000001
 40
0.0
 40
0.0
 40
0.0
 40
0.0
 40
0.0093717345
 40
0.0195779247
 40
0.0311823456
 40
0.044551139
 40
0.0598951745
 40
0.0773290765
 40
0.0968987836
 40
0.1186075841
 40
0.1424300127
 40
0.1683128212
 40
0.2259673214
 40
0.2908518377
 40
0.362037469
 40
0.4384212072
 40
0.5187437805
 40
0.6016100797
 40
0.6855145327
 40
0.7688833652
 40
0.8501111588
 40
0.9276486277
 40
1.0
 40
1.0
 40
1.0
 40
1.0
 10
6.9028583846
 20
2.8593497886
 30
0.0
 10
6.9029117842
 20
2.8593529162
 30
0.0
 10
6.9030248972
 20
2.8593417421
 30
0.0
 10
6.9031920294
 20
2.8592758034
 30
0.0
 10
6.903359763
 20
2.8591633125
 30
0.0
 10
6.9035283143
 20
2.8590055828
 30
0.0
 10
6.9036978684
 20
2.858803393
 30
0.0
 10
6.9038679915
 20
2.8585573687
 30
0.0
 10
6.9040381684
 20
2.8582684091
 30
0.0
 10
6.9042077224
 20
2.857937577
 30
0.0
 10
6.9043759238
 20
2.857566142
 30
0.0
 10
6.9046057945
 20
2.8569979654
 30
0.0
 10
6.904881096
 20
2.8561961546
 30
0.0
 10
6.9051842956
 20
2.8551324184
 30
0.0
 10
6.9054652436
 20
2.8539524326
 30
0.0
 10
6.9057184517
 20
2.8526762959
 30
0.0
 10
6.9059387264
 20
2.851326492
 30
0.0
 10
6.9061214014
 20
2.849927803
 30
0.0
 10
6.9062624839
 20
2.8485068369
 30
0.0
 10
6.906358779
 20
2.8470915034
 30
0.0
 10
6.906408144
 20
2.8457100898
 30
0.0
 10
6.9064094325
 20
2.8443906753
 30
0.0
 10
6.9063770679
 20
2.843535458
 30
0.0
 10
6.9063516426
 20
2.8431232805
 30
0.0
  0
SPLINE
  5
43B
100
AcDbEntity
  8
0
100
AcDbSpline
 62
7
  6
CONTINUOUS
 70
0
 71
3
 72
17
 73
13
 74
0
 42
0.0000001
 43
0.0000001
 44
0.0000000001
 40
0.0
 40
0.0
 40
0.0
 40
0.0
 40
0.2025940952
 40
0.3820164862
 40
0.5377892649
 40
0.6699599583
 40
0.7792518944
 40
0.867410616
 40
0.9047438078
 40
0.9385160593
 40
0.9698109579
 40
1.0
 40
1.0
 40
1.0
 40
1.0
 10
6.8926593377
 20
2.9011749523
 30
0.0
 10
6.8926324819
 20
2.9010678303
 30
0.0
 10
6.892578377
 20
2.9008666732
 30
0.0
 10
6.8924895554
 20
2.9005871639
 30
0.0
 10
6.8923983628
 20
2.9003490904
 30
0.0
 10
6.8923051856
 20
2.9001532467
 30
0.0
 10
6.8922104439
 20
2.9000001184
 30
0.0
 10
6.892125498
 20
2.8999028657
 30
0.0
 10
6.8920559818
 20
2.8998503376
 30
0.0
 10
6.8920062158
 20
2.8998243644
 30
0.0
 10
6.8919559557
 20
2.8998098698
 30
0.0
 10
6.891922136
 20
2.8998080752
 30
0.0
 10
6.8919057117
 20
2.8998091042
 30
0.0
  0
SPLINE
  5
43C
100
AcDbEntity
  8
0
100
AcDbSpline
 62
7
  6
CONTINUOUS
 70
0
 71
3
 72
14
 73
10
 74
0
 42
0.0000001
 43
0.0000001
 44
0.0000000001
 40
0.0
 40
0.0
 40
0.0
 40
0.0
 40
0.2969937944
 40
0.439243516
 40
0.5741593665
 40
0.6995438888
 40
0.8134136697
 40
0.9140485018
 40
1.0
 40
1.0
 40
1.0
 40
1.0
 10
6.8933728256
 20
2.9096025586
 30
0.0
 10
6.8933728256
 20
2.9087636741
 30
0.0
 10
6.8933496098
 20
2.907522781
 30
0.0
 10
6.8932693687
 20
2.9059029165
 30
0.0
 10
6.8931878641
 20
2.904768692
 30
0.0
 10
6.8930857529
 20
2.9037166393
 30
0.0
 10
6.892964999
 20
2.9027640346
 30
0.0
 10
6.892827858
 20
2.901926336
 30
0.0
 10
6.8927183756
 20
2.901410442
 30
0.0
 10
6.8926593377
 20
2.9011749523
 30
0.0
  0
SPLINE
  5
43D
100
AcDbEntity
  8
0
100
AcDbSpline
 62
7
  6
CONTINUOUS
 70
0
 71
3
 72
22
 73
18
 74
0
 42
0.0000001
 43
0.0000001
 44
0.0000000001
 40
0.0
 40
0.0
 40
0.0
 40
0.0
 40
0.1931286698
 40
0.3733554936
 40
0.4570713597
 40
0.5357896483
 40
0.6090415645
 40
0.6764395624
 40
0.7376786876
 40
0.7925448461
 40
0.8409495765
 40
0.8829589208
 40
0.9188802743
 40
0.9493819162
 40
0.9757188934
 40
0.9879701809
 40
1.0
 40
1.0
 40
1.0
 40
1.0
 10
6.9063516426
 20
2.9074594945
 30
0.0
 10
6.9063216081
 20
2.9068819118
 30
0.0
 10
6.9062392776
 20
2.9057664205
 30
0.0
 10
6.9060724305
 20
2.9044071345
 30
0.0
 10
6.9059028665
 20
2.9033949258
 30
0.0
 10
6.9057640268
 20
2.9027027666
 30
0.0
 10
6.9056115843
 20
2.9020635878
 30
0.0
 10
6.9054468047
 20
2.9014816644
 30
0.0
 10
6.905271034
 20
2.9009607117
 30
0.0
 10
6.9050856131
 20
2.9005038861
 30
0.0
 10
6.9048919114
 20
2.9001137325
 30
0.0
 10
6.9046911224
 20
2.8997921673
 30
0.0
 10
6.9044839861
 20
2.8995404605
 30
0.0
 10
6.9042706091
 20
2.8993596035
 30
0.0
 10
6.904081352
 20
2.8992681238
 30
0.0
 10
6.903932118
 20
2.8992379579
 30
0.0
 10
6.9038589913
 20
2.8992360354
 30
0.0
 10
6.903823032
 20
2.8992382214
 30
0.0
  0
LINE
  5
43E
100
AcDbEntity
  8
0
100
AcDbLine
 62
7
  6
CONTINUOUS
 10
6.9063516426
 20
2.7530672499
 11
6.9062067321
 21
2.7528917058
  0
SPLINE
  5
43F
100
AcDbEntity
  8
0
100
AcDbSpline
 62
7
  6
CONTINUOUS
 70
0
 71
3
 72
18
 73
14
 74
0
 42
0.0000001
 43
0.0000001
 44
0.0000000001
 40
0.0
 40
0.0
 40
0.0
 40
0.0
 40
0.2034583643
 40
0.3826721574
 40
0.537173923
 40
0.6672961628
 40
0.7742692966
 40
0.8199257851
 40
0.8610433095
 40
0.8984188284
 40
0.9331198322
 40
0.9664843739
 40
1.0
 40
1.0
 40
1.0
 40
1.0
 10
6.9063516426
 20
2.7889079339
 30
0.0
 10
6.9063393756
 20
2.7887763817
 30
0.0
 10
6.9063113536
 20
2.7885293554
 30
0.0
 10
6.9062537414
 20
2.7881851211
 30
0.0
 10
6.9061835015
 20
2.7878918521
 30
0.0
 10
6.9061011726
 20
2.7876508241
 30
0.0
 10
6.9060187442
 20
2.787485596
 30
0.0
 10
6.9059451166
 20
2.7873832353
 30
0.0
 10
6.9058898506
 20
2.787324167
 30
0.0
 10
6.9058315608
 20
2.7872787907
 30
0.0
 10
6.9057701768
 20
2.7872474015
 30
0.0
 10
6.9057059345
 20
2.7872303282
 30
0.0
 10
6.9056621468
 20
2.7872286056
 30
0.0
 10
6.905640424
 20
2.7872299535
 30
0.0
  0
SPLINE
  5
440
100
AcDbEntity
  8
0
100
AcDbSpline
 62
7
  6
CONTINUOUS
 70
0
 71
3
 72
20
 73
16
 74
0
 42
0.0000001
 43
0.0000001
 44
0.0000000001
 40
0.0
 40
0.0
 40
0.0
 40
0.0
 40
0.2023245085
 40
0.3841464109
 40
0.543185268
 40
0.613723306
 40
0.6781170863
 40
0.7363301997
 40
0.7884420838
 40
0.8346371421
 40
0.8752749389
 40
0.9109674156
 40
0.9426592737
 40
0.9717410837
 40
1.0
 40
1.0
 40
1.0
 40
1.0
 10
6.9063516426
 20
2.8431232805
 30
0.0
 10
6.9063307494
 20
2.8427845722
 30
0.0
 10
6.9062785073
 20
2.8421421159
 30
0.0
 10
6.9061603022
 20
2.8412383699
 30
0.0
 10
6.906029136
 20
2.8405602298
 30
0.0
 10
6.9059047871
 20
2.8400829376
 30
0.0
 10
6.905807801
 20
2.8397736776
 30
0.0
 10
6.9057037034
 20
2.8394995212
 30
0.0
 10
6.9055929465
 20
2.8392611941
 30
0.0
 10
6.9054758543
 20
2.8390592379
 30
0.0
 10
6.9053526267
 20
2.8388940513
 30
0.0
 10
6.9052233355
 20
2.8387659092
 30
0.0
 10
6.9050876054
 20
2.8386754974
 30
0.0
 10
6.9049456212
 20
2.8386242351
 30
0.0
 10
6.9048482799
 20
2.8386172482
 30
0.0
 10
6.9048009718
 20
2.838620162
 30
0.0
  0
LINE
  5
441
100
AcDbEntity
  8
0
100
AcDbLine
 62
7
  6
CONTINUOUS
 10
6.8911563528
 20
2.8501285946
 11
6.891372473
 21
2.8496206383
  0
SPLINE
  5
442
100
AcDbEntity
  8
0
100
AcDbSpline
 62
7
  6
CONTINUOUS
 70
0
 71
3
 72
23
 73
19
 74
0
 42
0.0000001
 43
0.0000001
 44
0.0000000001
 40
0.0
 40
0.0
 40
0.0
 40
0.0
 40
0.0171360682
 40
0.0366224815
 40
0.0823149583
 40
0.1362623318
 40
0.1974591947
 40
0.2647521055
 40
0.3368610711
 40
0.489900318
 40
0.6446466957
 40
0.7187842368
 40
0.7887316733
 40
0.8530552826
 40
0.9104410958
 40
0.959736227
 40
0.9810467703
 40
1.0
 40
1.0
 40
1.0
 40
1.0
 10
6.891372473
 20
2.8496206383
 30
0.0
 10
6.8914065552
 20
2.8495241011
 30
0.0
 10
6.8914746798
 20
2.849316115
 30
0.0
 10
6.8916126184
 20
2.8488440199
 30
0.0
 10
6.8917852841
 20
2.8481533233
 30
0.0
 10
6.8919869644
 20
2.847213723
 30
0.0
 10
6.8921881638
 20
2.8461424044
 30
0.0
 10
6.8923848561
 20
2.8449601356
 30
0.0
 10
6.8926407425
 20
2.8432317526
 30
0.0
 10
6.8929188985
 20
2.8409788725
 30
0.0
 10
6.8931342253
 20
2.8387069588
 30
0.0
 10
6.8932609498
 20
2.8369260661
 30
0.0
 10
6.8933279399
 20
2.8356826943
 30
0.0
 10
6.8933669873
 20
2.8345382396
 30
0.0
 10
6.8933773303
 20
2.8335165501
 30
0.0
 10
6.8933616977
 20
2.8327518331
 30
0.0
 10
6.8933323858
 20
2.8322175338
 30
0.0
 10
6.8933125616
 20
2.8319777529
 30
0.0
 10
6.8933011076
 20
2.8318651004
 30
0.0
  0
SPLINE
  5
443
100
AcDbEntity
  8
0
100
AcDbSpline
 62
7
  6
CONTINUOUS
 70
0
 71
3
 72
17
 73
13
 74
0
 42
0.0000001
 43
0.0000001
 44
0.0000000001
 40
0.0
 40
0.0
 40
0.0
 40
0.0
 40
0.2134471879
 40
0.4003690159
 40
0.5605486694
 40
0.6940302726
 40
0.8014018508
 40
0.8843904714
 40
0.9179812995
 40
0.9474185288
 40
0.9741305931
 40
1.0
 40
1.0
 40
1.0
 40
1.0
 10
6.8933011076
 20
2.8318651004
 30
0.0
 10
6.8932926461
 20
2.8317818794
 30
0.0
 10
6.8932745934
 20
2.8316259843
 30
0.0
 10
6.8932410572
 20
2.8314088075
 30
0.0
 10
6.8932030586
 20
2.8312242522
 30
0.0
 10
6.8931607865
 20
2.8310726473
 30
0.0
 10
6.8931144281
 20
2.8309543081
 30
0.0
 10
6.8930695443
 20
2.8308778833
 30
0.0
 10
6.8930300805
 20
2.8308360797
 30
0.0
 10
6.8930011975
 20
2.8308155068
 30
0.0
 10
6.89297086
 20
2.8308037689
 30
0.0
 10
6.8929499744
 20
2.8308021514
 30
0.0
 10
6.8929398563
 20
2.8308027906
 30
0.0
  0
SPLINE
  5
444
100
AcDbEntity
  8
0
100
AcDbSpline
 62
7
  6
CONTINUOUS
 70
0
 71
3
 72
25
 73
21
 74
0
 42
0.0000001
 43
0.0000001
 44
0.0000000001
 40
0.0
 40
0.0
 40
0.0
 40
0.0
 40
0.2018810266
 40
0.389798197
 40
0.4769615422
 40
0.5588375529
 40
0.6348836717
 40
0.7046186997
 40
0.7675953044
 40
0.8234291497
 40
0.8717816022
 40
0.9124072682
 40
0.9297716025
 40
0.9451629948
 40
0.9585957422
 40
0.9701055278
 40
0.9797685217
 40
0.9877396349
 40
0.9943092613
 40
1.0
 40
1.0
 40
1.0
 40
1.0
 10
6.8926593377
 20
2.9761775115
 30
0.0
 10
6.8925918676
 20
2.975665769
 30
0.0
 10
6.892452892
 20
2.974678802
 30
0.0
 10
6.8922588502
 20
2.9734747315
 30
0.0
 10
6.8920972016
 20
2.9725764685
 30
0.0
 10
6.8919779508
 20
2.9719612613
 30
0.0
 10
6.8918584181
 20
2.9713915645
 30
0.0
 10
6.8917394632
 20
2.9708711995
 30
0.0
 10
6.8916218797
 20
2.9704036402
 30
0.0
 10
6.8915065692
 20
2.9699920113
 30
0.0
 10
6.8913943015
 20
2.9696391042
 30
0.0
 10
6.8912998097
 20
2.96938396
 30
0.0
 10
6.8912250409
 20
2.9692118271
 30
0.0
 10
6.891173164
 20
2.9691056813
 30
0.0
 10
6.8911226114
 20
2.9690157118
 30
0.0
 10
6.8910734416
 20
2.9689420148
 30
0.0
 10
6.8910256447
 20
2.9688845971
 30
0.0
 10
6.8909790132
 20
2.9688433966
 30
0.0
 10
6.8909329838
 20
2.9688184249
 30
0.0
 10
6.8909011062
 20
2.9688135217
 30
0.0
 10
6.8908865841
 20
2.9688144251
 30
0.0
  0
SPLINE
  5
445
100
AcDbEntity
  8
0
100
AcDbSpline
 62
7
  6
CONTINUOUS
 70
0
 71
3
 72
20
 73
16
 74
0
 42
0.0000001
 43
0.0000001
 44
0.0000000001
 40
0.0
 40
0.0
 40
0.0
 40
0.0
 40
0.0459560537
 40
0.0991284248
 40
0.1585510644
 40
0.2231911999
 40
0.3636307876
 40
0.5112833894
 40
0.6570610447
 40
0.726520322
 40
0.7923114085
 40
0.8534527
 40
0.9090131139
 40
0.9581250404
 40
1.0
 40
1.0
 40
1.0
 40
1.0
 10
6.9063516426
 20
3.064497637
 30
0.0
 10
6.9063267776
 20
3.0642212796
 30
0.0
 10
6.9062612912
 20
3.0636262329
 30
0.0
 10
6.9061319282
 20
3.062677647
 30
0.0
 10
6.9059659
 20
3.0616204286
 30
0.0
 10
6.9056919959
 20
3.0600470234
 30
0.0
 10
6.9052815455
 20
3.0579569516
 30
0.0
 10
6.9047180598
 20
3.0553984606
 30
0.0
 10
6.9042002471
 20
3.0532692515
 30
0.0
 10
6.9037695927
 20
3.051627981
 30
0.0
 10
6.9034536177
 20
3.0504850394
 30
0.0
 10
6.9031442701
 20
3.049427453
 30
0.0
 10
6.9028463482
 20
3.0484715852
 30
0.0
 10
6.9025646072
 20
3.0476327411
 30
0.0
 10
6.9023747718
 20
3.0471170693
 30
0.0
 10
6.9022819986
 20
3.0468818724
 30
0.0
  0
SPLINE
  5
446
100
AcDbEntity
  8
0
100
AcDbSpline
 62
7
  6
CONTINUOUS
 70
0
 71
3
 72
17
 73
13
 74
0
 42
0.0000001
 43
0.0000001
 44
0.0000000001
 40
0.0
 40
0.0
 40
0.0
 40
0.0
 40
0.2103640823
 40
0.3967698072
 40
0.558497799
 40
0.6950661889
 40
0.8062269709
 40
0.8923377248
 40
0.9264702627
 40
0.955157497
 40
0.9792015869
 40
1.0
 40
1.0
 40
1.0
 40
1.0
 10
6.9022819986
 20
3.0468818724
 30
0.0
 10
6.9022421741
 20
3.0467809099
 30
0.0
 10
6.9021651258
 20
3.0465912352
 30
0.0
 10
6.9020495339
 20
3.0463272399
 30
0.0
 10
6.9019412543
 20
3.0461017657
 30
0.0
 10
6.9018408692
 20
3.045915728
 30
0.0
 10
6.901748814
 20
3.045770035
 30
0.0
 10
6.9016746187
 20
3.045675826
 30
0.0
 10
6.9016183363
 20
3.0456232732
 30
0.0
 10
6.9015814936
 20
3.0455974035
 30
0.0
 10
6.9015464838
 20
3.0455819662
 30
0.0
 10
6.9015230555
 20
3.0455789518
 30
0.0
 10
6.9015123441
 20
3.0455795919
 30
0.0
  0
SPLINE
  5
447
100
AcDbEntity
  8
0
100
AcDbSpline
 62
7
  6
CONTINUOUS
 70
0
 71
3
 72
29
 73
25
 74
0
 42
0.0000001
 43
0.0000001
 44
0.0000000001
 40
0.0
 40
0.0
 40
0.0
 40
0.0
 40
0.0736641596
 40
0.1522637801
 40
0.234268248
 40
0.3181523776
 40
0.4023789039
 40
0.4854646976
 40
0.5659944539
 40
0.6426427608
 40
0.7141822036
 40
0.779491823
 40
0.8375691568
 40
0.8636215421
 40
0.8875565292
 40
0.9092931995
 40
0.928769652
 40
0.9459470055
 40
0.9608163069
 40
0.9734254034
 40
0.9839069625
 40
0.9925603649
 40
0.996383436
 40
1.0
 40
1.0
 40
1.0
 40
1.0
 10
6.9063516426
 20
3.0272664329
 30
0.0
 10
6.9063264876
 20
3.0268520773
 30
0.0
 10
6.9062595478
 20
3.0259964763
 30
0.0
 10
6.906119152
 20
3.0246836502
 30
0.0
 10
6.9059378067
 20
3.0233177345
 30
0.0
 10
6.9057193846
 20
3.0219251665
 30
0.0
 10
6.9054683013
 20
3.020531926
 30
0.0
 10
6.9051895148
 20
3.019163248
 30
0.0
 10
6.9048883013
 20
3.0178430884
 30
0.0
 10
6.9045701805
 20
3.0165939258
 30
0.0
 10
6.9042408468
 20
3.0154365664
 30
0.0
 10
6.9039060451
 20
3.0143901516
 30
0.0
 10
6.9036179474
 20
3.0135984738
 30
0.0
 10
6.9033868387
 20
3.0130349729
 30
0.0
 10
6.9032220119
 20
3.0126658401
 30
0.0
 10
6.9030600537
 20
3.012336255
 30
0.0
 10
6.9029016706
 20
3.0120476779
 30
0.0
 10
6.9027475734
 20
3.0118013549
 30
0.0
 10
6.9025983688
 20
3.0115983457
 30
0.0
 10
6.9024544761
 20
3.0114393273
 30
0.0
 10
6.9023161022
 20
3.0113247846
 30
0.0
 10
6.9021995194
 20
3.011264673
 30
0.0
 10
6.9021107713
 20
3.011244037
 30
0.0
 10
6.9020685693
 20
3.0112422569
 30
0.0
 10
6.9020482259
 20
3.0112434834
 30
0.0
  0
SPLINE
  5
448
100
AcDbEntity
  8
0
100
AcDbSpline
 62
7
  6
CONTINUOUS
 70
0
 71
3
 72
25
 73
21
 74
0
 42
0.0000001
 43
0.0000001
 44
0.0000000001
 40
0.0
 40
0.0
 40
0.0
 40
0.0
 40
0.1767195525
 40
0.3518758615
 40
0.4362291932
 40
0.5171220194
 40
0.5936723338
 40
0.6650853313
 40
0.7306633553
 40
0.7898094787
 40
0.8420494273
 40
0.8870581719
 40
0.9068099766
 40
0.9247358312
 40
0.9408758844
 40
0.9553088025
 40
0.96817173
 40
0.9796769627
 40
0.9901409254
 40
1.0
 40
1.0
 40
1.0
 40
1.0
 10
6.9063516426
 20
2.9721219705
 30
0.0
 10
6.9063115682
 20
2.9713476463
 30
0.0
 10
6.9061910152
 20
2.9698077369
 30
0.0
 10
6.9059474865
 20
2.9679084633
 30
0.0
 10
6.9056989011
 20
2.9664356085
 30
0.0
 10
6.9054930994
 20
2.9653947185
 30
0.0
 10
6.905268409
 20
2.9644158953
 30
0.0
 10
6.9050277453
 20
2.963510199
 30
0.0
 10
6.9047741678
 20
2.962687588
 30
0.0
 10
6.9045107959
 20
2.9619567958
 30
0.0
 10
6.9042407749
 20
2.9613255168
 30
0.0
 10
6.9040036572
 20
2.9608693062
 30
0.0
 10
6.9038103841
 20
2.9605620533
 30
0.0
 10
6.9036719739
 20
2.9603705049
 30
0.0
 10
6.9035340698
 20
2.9602081003
 30
0.0
 10
6.903396879
 20
2.9600752805
 30
0.0
 10
6.9032605891
 20
2.9599723885
 30
0.0
 10
6.9031251534
 20
2.9598999129
 30
0.0
 10
6.9029906722
 20
2.9598587197
 30
0.0
 10
6.902900674
 20
2.9598527966
 30
0.0
 10
6.9028574949
 20
2.9598553892
 30
0.0
  0
SPLINE
  5
449
100
AcDbEntity
  8
0
100
AcDbSpline
 62
7
  6
CONTINUOUS
 70
0
 71
3
 72
15
 73
11
 74
0
 42
0.0000001
 43
0.0000001
 44
0.0000000001
 40
0.0
 40
0.0
 40
0.0
 40
0.0
 40
0.1406689682
 40
0.2783258029
 40
0.4109832154
 40
0.5379218796
 40
0.6594123168
 40
0.7762470579
 40
0.8894382189
 40
1.0
 40
1.0
 40
1.0
 40
1.0
 10
7.1694163095
 20
2.6159190555
 30
0.0
 10
7.1700325128
 20
2.6159190555
 30
0.0
 10
7.1712546626
 20
2.6160303711
 30
0.0
 10
7.1729979354
 20
2.6165154467
 30
0.0
 10
7.1745745815
 20
2.6172727717
 30
0.0
 10
7.1759406122
 20
2.6182459312
 30
0.0
 10
7.1770783658
 20
2.6193808891
 30
0.0
 10
7.1779859351
 20
2.6206326802
 30
0.0
 10
7.1786686675
 20
2.6219653767
 30
0.0
 10
7.1789822622
 20
2.6228983899
 30
0.0
 10
7.1791026173
 20
2.6233675154
 30
0.0
  0
SPLINE
  5
44A
100
AcDbEntity
  8
0
100
AcDbSpline
 62
7
  6
CONTINUOUS
 70
0
 71
3
 72
17
 73
13
 74
0
 42
0.0000001
 43
0.0000001
 44
0.0000000001
 40
0.0
 40
0.0
 40
0.0
 40
0.0
 40
0.1432070073
 40
0.2137526876
 40
0.2830757625
 40
0.4170354046
 40
0.5443495672
 40
0.6056205345
 40
0.6653899226
 40
0.7808488871
 40
0.8919886027
 40
1.0
 40
1.0
 40
1.0
 40
1.0
 10
7.1694163095
 20
2.6166492695
 30
0.0
 10
7.1700328476
 20
2.6166492695
 30
0.0
 10
7.1709557506
 20
2.6167295659
 30
0.0
 10
7.172146857
 20
2.6169925347
 30
0.0
 10
7.1732732054
 20
2.6173449767
 30
0.0
 10
7.1745736256
 20
2.6179409881
 30
0.0
 10
7.1757274351
 20
2.618725738
 30
0.0
 10
7.1765308823
 20
2.6194328163
 30
0.0
 10
7.1772390391
 20
2.6201656881
 30
0.0
 10
7.1779879294
 20
2.6211522074
 30
0.0
 10
7.1786709967
 20
2.622426691
 30
0.0
 10
7.1789851052
 20
2.6233209648
 30
0.0
 10
7.1791052807
 20
2.6237701809
 30
0.0
  0
SPLINE
  5
44B
100
AcDbEntity
  8
0
100
AcDbSpline
 62
7
  6
CONTINUOUS
 70
0
 71
3
 72
17
 73
13
 74
0
 42
0.0000001
 43
0.0000001
 44
0.0000000001
 40
0.0
 40
0.0
 40
0.0
 40
0.0
 40
0.1459671373
 40
0.2177352746
 40
0.2881111089
 40
0.423533691
 40
0.5513210221
 40
0.6124471723
 40
0.67182861
 40
0.7858408637
 40
0.8947713856
 40
1.0
 40
1.0
 40
1.0
 40
1.0
 10
7.1694163095
 20
2.6181822655
 30
0.0
 10
7.1700326199
 20
2.6181822655
 30
0.0
 10
7.1709543634
 20
2.6182583162
 30
0.0
 10
7.172145941
 20
2.618508076
 30
0.0
 10
7.1732704946
 20
2.6188421961
 30
0.0
 10
7.17456828
 20
2.6194063609
 30
0.0
 10
7.1757244439
 20
2.6201521994
 30
0.0
 10
7.1765297113
 20
2.6208250866
 30
0.0
 10
7.1772366246
 20
2.6215197322
 30
0.0
 10
7.1779849652
 20
2.6224548364
 30
0.0
 10
7.1786692941
 20
2.623666021
 30
0.0
 10
7.1789848275
 20
2.6245182258
 30
0.0
 10
7.1791052807
 20
2.6249458885
 30
0.0
  0
SPLINE
  5
44C
100
AcDbEntity
  8
0
100
AcDbSpline
 62
7
  6
CONTINUOUS
 70
0
 71
3
 72
16
 73
12
 74
0
 42
0.0000001
 43
0.0000001
 44
0.0000000001
 40
0.0
 40
0.0
 40
0.0
 40
0.0
 40
0.1475408415
 40
0.2910747686
 40
0.4277804491
 40
0.4931565386
 40
0.5564614594
 40
0.6769586138
 40
0.7901909468
 40
0.8973938361
 40
1.0
 40
1.0
 40
1.0
 40
1.0
 10
7.1694163095
 20
2.6205140243
 30
0.0
 10
7.1700020169
 20
2.6205140243
 30
0.0
 10
7.1711594333
 20
2.6205995831
 30
0.0
 10
7.1728217287
 20
2.6209741598
 30
0.0
 10
7.1741062111
 20
2.6214721669
 30
0.0
 10
7.1750396875
 20
2.6219624741
 30
0.0
 10
7.1758791608
 20
2.6224871692
 30
0.0
 10
7.1768072718
 20
2.6232224046
 30
0.0
 10
7.1777313354
 20
2.6242185391
 30
0.0
 10
7.1784508089
 20
2.6252861075
 30
0.0
 10
7.1788042892
 20
2.626044749
 30
0.0
 10
7.178946224
 20
2.6264265459
 30
0.0
  0
SPLINE
  5
44D
100
AcDbEntity
  8
0
100
AcDbSpline
 62
7
  6
CONTINUOUS
 70
0
 71
3
 72
15
 73
11
 74
0
 42
0.0000001
 43
0.0000001
 44
0.0000000001
 40
0.0
 40
0.0
 40
0.0
 40
0.0
 40
0.1521130712
 40
0.2992681127
 40
0.4380519707
 40
0.5670302344
 40
0.686375453
 40
0.7972120351
 40
0.901156377
 40
1.0
 40
1.0
 40
1.0
 40
1.0
 10
7.1694163095
 20
2.6236381547
 30
0.0
 10
7.1700321694
 20
2.6236381547
 30
0.0
 10
7.1712457428
 20
2.6237265723
 30
0.0
 10
7.1729829146
 20
2.6241130964
 30
0.0
 10
7.1745569597
 20
2.6247178434
 30
0.0
 10
7.1759239686
 20
2.6254969005
 30
0.0
 10
7.1770651873
 20
2.626407812
 30
0.0
 10
7.1779774638
 20
2.6274150005
 30
0.0
 10
7.1786648208
 20
2.628489514
 30
0.0
 10
7.1789840764
 20
2.6292512229
 30
0.0
 10
7.1791052807
 20
2.629632615
 30
0.0
  0
SPLINE
  5
44E
100
AcDbEntity
  8
0
100
AcDbSpline
 62
7
  6
CONTINUOUS
 70
0
 71
3
 72
15
 73
11
 74
0
 42
0.0000001
 43
0.0000001
 44
0.0000000001
 40
0.0
 40
0.0
 40
0.0
 40
0.0
 40
0.1554508483
 40
0.3054129818
 40
0.4460684076
 40
0.575751325
 40
0.694558747
 40
0.8036587928
 40
0.9048038293
 40
1.0
 40
1.0
 40
1.0
 40
1.0
 10
7.1694163095
 20
2.6275460936
 30
0.0
 10
7.1700319514
 20
2.6275460936
 30
0.0
 10
7.1712431752
 20
2.6276281981
 30
0.0
 10
7.1729783279
 20
2.627987353
 30
0.0
 10
7.1745510742
 20
2.6285494497
 30
0.0
 10
7.1759176842
 20
2.6292738707
 30
0.0
 10
7.1770593654
 20
2.630121366
 30
0.0
 10
7.1779728447
 20
2.6310591382
 30
0.0
 10
7.1786618504
 20
2.6320604501
 30
0.0
 10
7.1789835641
 20
2.6327739649
 30
0.0
 10
7.1791052807
 20
2.633130788
 30
0.0
  0
SPLINE
  5
44F
100
AcDbEntity
  8
0
100
AcDbSpline
 62
7
  6
CONTINUOUS
 70
0
 71
3
 72
15
 73
11
 74
0
 42
0.0000001
 43
0.0000001
 44
0.0000000001
 40
0.0
 40
0.0
 40
0.0
 40
0.0
 40
0.1589146216
 40
0.3118113492
 40
0.454459319
 40
0.5849410216
 40
0.7032485656
 40
0.8105614942
 40
0.9087415915
 40
1.0
 40
1.0
 40
1.0
 40
1.0
 10
7.1694163095
 20
2.6322243054
 30
0.0
 10
7.1700311845
 20
2.6322243054
 30
0.0
 10
7.1712390812
 20
2.6322997894
 30
0.0
 10
7.17297082
 20
2.632630182
 30
0.0
 10
7.1745411169
 20
2.6331474064
 30
0.0
 10
7.1759065059
 20
2.6338142519
 30
0.0
 10
7.177048243
 20
2.6345947929
 30
0.0
 10
7.177963042
 20
2.6354591652
 30
0.0
 10
7.1786544256
 20
2.6363830651
 30
0.0
 10
7.1789798362
 20
2.6370457916
 30
0.0
 10
7.1791026173
 20
2.6373768556
 30
0.0
  0
SPLINE
  5
450
100
AcDbEntity
  8
0
100
AcDbSpline
 62
7
  6
CONTINUOUS
 70
0
 71
3
 72
15
 73
11
 74
0
 42
0.0000001
 43
0.0000001
 44
0.0000000001
 40
0.0
 40
0.0
 40
0.0
 40
0.0
 40
0.162600155
 40
0.3186257157
 40
0.4634124948
 40
0.5947758658
 40
0.7125864005
 40
0.8180149061
 40
0.9130146582
 40
1.0
 40
1.0
 40
1.0
 40
1.0
 10
7.1694163095
 20
2.6376684325
 30
0.0
 10
7.1700315421
 20
2.6376684325
 30
0.0
 10
7.1712383348
 20
2.6377374047
 30
0.0
 10
7.1729694657
 20
2.6380394288
 30
0.0
 10
7.1745392302
 20
2.6385122384
 30
0.0
 10
7.1759042993
 20
2.6391218349
 30
0.0
 10
7.1770460492
 20
2.6398354592
 30
0.0
 10
7.1779613741
 20
2.6406261146
 30
0.0
 10
7.1786538179
 20
2.6414719911
 30
0.0
 10
7.1789821075
 20
2.6420836279
 30
0.0
 10
7.1791052807
 20
2.6423888384
 30
0.0
  0
SPLINE
  5
451
100
AcDbEntity
  8
0
100
AcDbSpline
 62
7
  6
CONTINUOUS
 70
0
 71
3
 72
15
 73
11
 74
0
 42
0.0000001
 43
0.0000001
 44
0.0000000001
 40
0.0
 40
0.0
 40
0.0
 40
0.0
 40
0.1663501461
 40
0.3255827041
 40
0.4726023279
 40
0.6049432184
 40
0.7223247474
 40
0.8258664413
 40
0.9175646427
 40
1.0
 40
1.0
 40
1.0
 40
1.0
 10
7.1694163095
 20
2.6438550879
 30
0.0
 10
7.1700313552
 20
2.6438550879
 30
0.0
 10
7.1712361171
 20
2.6439172781
 30
0.0
 10
7.1729653092
 20
2.6441897159
 30
0.0
 10
7.1745334515
 20
2.6446161965
 30
0.0
 10
7.1758973868
 20
2.6451660385
 30
0.0
 10
7.1770386391
 20
2.6458097069
 30
0.0
 10
7.1779543827
 20
2.6465231034
 30
0.0
 10
7.1786484005
 20
2.647286999
 30
0.0
 10
7.1789810589
 20
2.6478450154
 30
0.0
 10
7.1791052807
 20
2.6481233401
 30
0.0
  0
SPLINE
  5
452
100
AcDbEntity
  8
0
100
AcDbSpline
 62
7
  6
CONTINUOUS
 70
0
 71
3
 72
16
 73
12
 74
0
 42
0.0000001
 43
0.0000001
 44
0.0000000001
 40
0.0
 40
0.0
 40
0.0
 40
0.0
 40
0.1701388949
 40
0.3326279978
 40
0.4819447791
 40
0.615334603
 40
0.7323431454
 40
0.8339991641
 40
0.8797033064
 40
0.9223841672
 40
1.0
 40
1.0
 40
1.0
 40
1.0
 10
7.1694163095
 20
2.6507701386
 30
0.0
 10
7.1700311829
 20
2.6507701386
 30
0.0
 10
7.1712340677
 20
2.6508254262
 30
0.0
 10
7.1729614195
 20
2.6510677107
 30
0.0
 10
7.1745278913
 20
2.6514469343
 30
0.0
 10
7.1758905377
 20
2.6519357785
 30
0.0
 10
7.1770307447
 20
2.6525078035
 30
0.0
 10
7.1778197771
 20
2.6530540355
 30
0.0
 10
7.1783292517
 20
2.6535161019
 30
0.0
 10
7.1787344949
 20
2.6539590291
 30
0.0
 10
7.1789796894
 20
2.6543237256
 30
0.0
 10
7.1791052807
 20
2.6545745382
 30
0.0
  0
SPLINE
  5
453
100
AcDbEntity
  8
0
100
AcDbSpline
 62
7
  6
CONTINUOUS
 70
0
 71
3
 72
19
 73
15
 74
0
 42
0.0000001
 43
0.0000001
 44
0.0000000001
 40
0.0
 40
0.0
 40
0.0
 40
0.0
 40
0.1739056016
 40
0.2582524942
 40
0.3396865315
 40
0.4913303729
 40
0.6258303272
 40
0.6864053768
 40
0.742594069
 40
0.7945480827
 40
0.8424818746
 40
0.8866615644
 40
0.9274122544
 40
1.0
 40
1.0
 40
1.0
 40
1.0
 10
7.1694163095
 20
2.658394631
 30
0.0
 10
7.1700310272
 20
2.658394631
 30
0.0
 10
7.1709445086
 20
2.6584313231
 30
0.0
 10
7.1721391867
 20
2.6585542065
 30
0.0
 10
7.1732497382
 20
2.6587163016
 30
0.0
 10
7.1745226195
 20
2.6589857692
 30
0.0
 10
7.1756943799
 20
2.6593530415
 30
0.0
 10
7.1765166251
 20
2.6596900177
 30
0.0
 10
7.1770542141
 20
2.6599491322
 30
0.0
 10
7.1775346749
 20
2.6602212101
 30
0.0
 10
7.1779586438
 20
2.660504154
 30
0.0
 10
7.178327163
 20
2.6607964668
 30
0.0
 10
7.1787299231
 20
2.6611813212
 30
0.0
 10
7.1789778757
 20
2.6615020351
 30
0.0
 10
7.1791052807
 20
2.6617247503
 30
0.0
  0
SPLINE
  5
454
100
AcDbEntity
  8
0
100
AcDbSpline
 62
7
  6
CONTINUOUS
 70
0
 71
3
 72
20
 73
16
 74
0
 42
0.0000001
 43
0.0000001
 44
0.0000000001
 40
0.0
 40
0.0
 40
0.0
 40
0.0
 40
0.1776006406
 40
0.2636364692
 40
0.34658391
 40
0.5005615976
 40
0.5708003745
 40
0.636269715
 40
0.6969264756
 40
0.7528350272
 40
0.8041272863
 40
0.8509992037
 40
0.8936992793
 40
0.9325382009
 40
1.0
 40
1.0
 40
1.0
 40
1.0
 10
7.1694163095
 20
2.6667076668
 30
0.0
 10
7.1700308898
 20
2.6667076668
 30
0.0
 10
7.1709436409
 20
2.6667389781
 30
0.0
 10
7.1721385824
 20
2.6668440111
 30
0.0
 10
7.1732477445
 20
2.666982393
 30
0.0
 10
7.1742950567
 20
2.6671716139
 30
0.0
 10
7.1752683004
 20
2.667412933
 30
0.0
 10
7.1759200664
 20
2.6676060306
 30
0.0
 10
7.1765148378
 20
2.667814347
 30
0.0
 10
7.1770522317
 20
2.6680356329
 30
0.0
 10
7.1775325203
 20
2.6682679732
 30
0.0
 10
7.1779563334
 20
2.6685095459
 30
0.0
 10
7.1783248058
 20
2.6687590992
 30
0.0
 10
7.1787244241
 20
2.669085112
 30
0.0
 10
7.178975447
 20
2.6693603637
 30
0.0
 10
7.1791052807
 20
2.6695543783
 30
0.0
  0
SPLINE
  5
455
100
AcDbEntity
  8
0
100
AcDbSpline
 62
7
  6
CONTINUOUS
 70
0
 71
3
 72
20
 73
16
 74
0
 42
0.0000001
 43
0.0000001
 44
0.0000000001
 40
0.0
 40
0.0
 40
0.0
 40
0.0
 40
0.1809888243
 40
0.3529114557
 40
0.5090857084
 40
0.5800440213
 40
0.6459472269
 40
0.7067278347
 40
0.7624268506
 40
0.813151832
 40
0.8590730089
 40
0.9004104858
 40
0.9374450294
 40
0.9705074143
 40
1.0
 40
1.0
 40
1.0
 40
1.0
 10
7.1694163095
 20
2.6756812714
 30
0.0
 10
7.1700302177
 20
2.6756812714
 30
0.0
 10
7.1712275975
 20
2.6757152264
 30
0.0
 10
7.1729488883
 20
2.6758641817
 30
0.0
 10
7.174288756
 20
2.6760640645
 30
0.0
 10
7.1752626912
 20
2.6762636058
 30
0.0
 10
7.175914037
 20
2.6764230413
 30
0.0
 10
7.176508489
 20
2.6765950301
 30
0.0
 10
7.1770456553
 20
2.6767777085
 30
0.0
 10
7.1775257933
 20
2.6769694697
 30
0.0
 10
7.1779495986
 20
2.6771688414
 30
0.0
 10
7.1783180179
 20
2.67737462
 30
0.0
 10
7.1786321243
 20
2.6775858236
 30
0.0
 10
7.1788929237
 20
2.6778014635
 30
0.0
 10
7.1790395402
 20
2.6779558986
 30
0.0
 10
7.1791026173
 20
2.6780335443
 30
0.0
  0
SPLINE
  5
456
100
AcDbEntity
  8
0
100
AcDbSpline
 62
7
  6
CONTINUOUS
 70
0
 71
3
 72
19
 73
15
 74
0
 42
0.0000001
 43
0.0000001
 44
0.0000000001
 40
0.0
 40
0.0
 40
0.0
 40
0.0
 40
0.1842306195
 40
0.3589902948
 40
0.5172682458
 40
0.6552373872
 40
0.7161569714
 40
0.771683612
 40
0.8219005476
 40
0.8669502006
 40
0.9070189836
 40
0.942347368
 40
0.9732214922
 40
1.0
 40
1.0
 40
1.0
 40
1.0
 10
7.1694163095
 20
2.6853064024
 30
0.0
 10
7.1700306757
 20
2.6853064024
 30
0.0
 10
7.1712280084
 20
2.6853331992
 30
0.0
 10
7.1729496021
 20
2.6854506884
 30
0.0
 10
7.1745101692
 20
2.6856344829
 30
0.0
 10
7.1756844038
 20
2.6858389824
 30
0.0
 10
7.1765116978
 20
2.686027869
 30
0.0
 10
7.1770486169
 20
2.6861720264
 30
0.0
 10
7.1775283743
 20
2.6863232892
 30
0.0
 10
7.1779516625
 20
2.6864804894
 30
0.0
 10
7.1783194426
 20
2.6866426451
 30
0.0
 10
7.1786328367
 20
2.68680896
 30
0.0
 10
7.1788929167
 20
2.6869786243
 30
0.0
 10
7.1790413494
 20
2.6871018884
 30
0.0
 10
7.1791052807
 20
2.6871642366
 30
0.0
  0
SPLINE
  5
457
100
AcDbEntity
  8
0
100
AcDbSpline
 62
7
  6
CONTINUOUS
 70
0
 71
3
 72
19
 73
15
 74
0
 42
0.0000001
 43
0.0000001
 44
0.0000000001
 40
0.0
 40
0.0
 40
0.0
 40
0.0
 40
0.186874544
 40
0.36396466
 40
0.5240005199
 40
0.662960151
 40
0.7240325987
 40
0.7794592175
 40
0.8292995252
 40
0.8736672159
 40
0.9127114722
 40
0.9466238025
 40
0.97562709
 40
1.0
 40
1.0
 40
1.0
 40
1.0
 10
7.1694163095
 20
2.6955411242
 30
0.0
 10
7.1700306013
 20
2.6955411242
 30
0.0
 10
7.1712271193
 20
2.6955606481
 30
0.0
 10
7.1729478157
 20
2.6956462508
 30
0.0
 10
7.1745074107
 20
2.6957801484
 30
0.0
 10
7.1756820591
 20
2.6959292198
 30
0.0
 10
7.176510491
 20
2.6960671344
 30
0.0
 10
7.177047178
 20
2.696172195
 30
0.0
 10
7.1775266531
 20
2.6962824015
 30
0.0
 10
7.1779495888
 20
2.696396882
 30
0.0
 10
7.1783169294
 20
2.6965148888
 30
0.0
 10
7.1786297986
 20
2.6966357894
 30
0.0
 10
7.1788892765
 20
2.6967589275
 30
0.0
 10
7.1790399944
 20
2.6968497597
 30
0.0
 10
7.1791052807
 20
2.6968961994
 30
0.0
  0
SPLINE
  5
458
100
AcDbEntity
  8
0
100
AcDbSpline
 62
7
  6
CONTINUOUS
 70
0
 71
3
 72
18
 73
14
 74
0
 42
0.0000001
 43
0.0000001
 44
0.0000000001
 40
0.0
 40
0.0
 40
0.0
 40
0.0
 40
0.1888395331
 40
0.3676676203
 40
0.5290265592
 40
0.6687519842
 40
0.7853270742
 40
0.8349104972
 40
0.8787927742
 40
0.9170904325
 40
0.9499489866
 40
0.9775253259
 40
1.0
 40
1.0
 40
1.0
 40
1.0
 10
7.1694163095
 20
2.7063625735
 30
0.0
 10
7.1700305499
 20
2.7063625735
 30
0.0
 10
7.1712265064
 20
2.7063747874
 30
0.0
 10
7.1729465679
 20
2.7064283701
 30
0.0
 10
7.1745054948
 20
2.7065121047
 30
0.0
 10
7.1758598968
 20
2.7066198218
 30
0.0
 10
7.1768490581
 20
2.7067293282
 30
0.0
 10
7.1775253589
 20
2.7068265848
 30
0.0
 10
7.177947979
 20
2.7068981917
 30
0.0
 10
7.1783148938
 20
2.7069719449
 30
0.0
 10
7.1786271713
 20
2.7070474056
 30
0.0
 10
7.178885834
 20
2.7071241104
 30
0.0
 10
7.1790385029
 20
2.7071814289
 30
0.0
 10
7.1791052807
 20
2.7072111756
 30
0.0
  0
SPLINE
  5
459
100
AcDbEntity
  8
0
100
AcDbSpline
 62
7
  6
CONTINUOUS
 70
0
 71
3
 72
17
 73
13
 74
0
 42
0.0000001
 43
0.0000001
 44
0.0000000001
 40
0.0
 40
0.0
 40
0.0
 40
0.0
 40
0.189958822
 40
0.3697791547
 40
0.5318980852
 40
0.6720711783
 40
0.7887127623
 40
0.8817725892
 40
0.9196515296
 40
0.9519099803
 40
0.9786583178
 40
1.0
 40
1.0
 40
1.0
 40
1.0
 10
7.1694163095
 20
2.7177410895
 30
0.0
 10
7.1700305221
 20
2.7177410895
 30
0.0
 10
7.1712261717
 20
2.7177459792
 30
0.0
 10
7.1729458975
 20
2.7177674225
 30
0.0
 10
7.1745044213
 20
2.717800949
 30
0.0
 10
7.1758583476
 20
2.7178440122
 30
0.0
 10
7.1769885459
 20
2.7178942051
 30
0.0
 10
7.1777876685
 20
2.7179427095
 30
0.0
 10
7.1783136693
 20
2.7179849885
 30
0.0
 10
7.1786255063
 20
2.7180151396
 30
0.0
 10
7.1788835149
 20
2.7180457376
 30
0.0
 10
7.1790373468
 20
2.7180687749
 30
0.0
 10
7.1791052807
 20
2.7180808926
 30
0.0
  0
SPLINE
  5
45A
100
AcDbEntity
  8
0
100
AcDbSpline
 62
7
  6
CONTINUOUS
 70
0
 71
3
 72
17
 73
13
 74
0
 42
0.0000001
 43
0.0000001
 44
0.0000000001
 40
0.0
 40
0.0
 40
0.0
 40
0.0
 40
0.0213416961
 40
0.0480899783
 40
0.0803481962
 40
0.1182268462
 40
0.2112863053
 40
0.3279272344
 40
0.4681002296
 40
0.6302191217
 40
0.8100400169
 40
1.0
 40
1.0
 40
1.0
 40
1.0
 10
7.1791052807
 20
3.1011242246
 30
0.0
 10
7.1790373467
 20
3.1011363422
 30
0.0
 10
7.178883515
 20
3.1011593795
 30
0.0
 10
7.1786255073
 20
3.1011899774
 30
0.0
 10
7.1783136722
 20
3.1012201284
 30
0.0
 10
7.1777876742
 20
3.1012624072
 30
0.0
 10
7.1769885559
 20
3.1013109115
 30
0.0
 10
7.1758583612
 20
3.1013611044
 30
0.0
 10
7.1745044374
 20
3.1014041677
 30
0.0
 10
7.1729459123
 20
3.1014376943
 30
0.0
 10
7.171226181
 20
3.1014591379
 30
0.0
 10
7.1700305258
 20
3.1014640276
 30
0.0
 10
7.1694163095
 20
3.1014640276
 30
0.0
  0
SPLINE
  5
45B
100
AcDbEntity
  8
0
100
AcDbSpline
 62
7
  6
CONTINUOUS
 70
0
 71
3
 72
18
 73
14
 74
0
 42
0.0000001
 43
0.0000001
 44
0.0000000001
 40
0.0
 40
0.0
 40
0.0
 40
0.0
 40
0.0224746875
 40
0.0500509706
 40
0.0829092896
 40
0.1212066554
 40
0.1650887519
 40
0.2146719913
 40
0.3312464316
 40
0.470971762
 40
0.6323306643
 40
0.8111593118
 40
1.0
 40
1.0
 40
1.0
 40
1.0
 10
7.1791052807
 20
3.1119939415
 30
0.0
 10
7.1790385029
 20
3.1120236883
 30
0.0
 10
7.178885834
 20
3.1120810066
 30
0.0
 10
7.1786271722
 20
3.1121577113
 30
0.0
 10
7.1783148966
 20
3.1122331717
 30
0.0
 10
7.1779479841
 20
3.1123069244
 30
0.0
 10
7.1775253661
 20
3.1123785313
 30
0.0
 10
7.1768490687
 20
3.1124757875
 30
0.0
 10
7.1758599104
 20
3.1125852941
 30
0.0
 10
7.174505511
 20
3.1126930114
 30
0.0
 10
7.1729465827
 20
3.1127767464
 30
0.0
 10
7.1712265158
 20
3.1128303296
 30
0.0
 10
7.1700305537
 20
3.1128425436
 30
0.0
 10
7.1694163095
 20
3.1128425436
 30
0.0
  0
SPLINE
  5
45C
100
AcDbEntity
  8
0
100
AcDbSpline
 62
7
  6
CONTINUOUS
 70
0
 71
3
 72
19
 73
15
 74
0
 42
0.0000001
 43
0.0000001
 44
0.0000000001
 40
0.0
 40
0.0
 40
0.0
 40
0.0
 40
0.0243729228
 40
0.0533761524
 40
0.0872882433
 40
0.1263322035
 40
0.1706997177
 40
0.2205398446
 40
0.2759662348
 40
0.3370382705
 40
0.4759978134
 40
0.6360336401
 40
0.8131243131
 40
1.0
 40
1.0
 40
1.0
 40
1.0
 10
7.1791052807
 20
3.1223089177
 30
0.0
 10
7.1790399943
 20
3.1223553574
 30
0.0
 10
7.1788892766
 20
3.1224461895
 30
0.0
 10
7.1786297995
 20
3.1225693273
 30
0.0
 10
7.1783169322
 20
3.1226902274
 30
0.0
 10
7.1779495939
 20
3.1228082335
 30
0.0
 10
7.1775266604
 20
3.1229227139
 30
0.0
 10
7.1770471871
 20
3.1230329201
 30
0.0
 10
7.1765105029
 20
3.1231379807
 30
0.0
 10
7.1756820734
 20
3.1232758953
 30
0.0
 10
7.1745074269
 20
3.1234249671
 30
0.0
 10
7.1729478305
 20
3.1235588653
 30
0.0
 10
7.1712271287
 20
3.1236444688
 30
0.0
 10
7.1700306051
 20
3.123663993
 30
0.0
 10
7.1694163095
 20
3.123663993
 30
0.0
  0
SPLINE
  5
45D
100
AcDbEntity
  8
0
100
AcDbSpline
 62
7
  6
CONTINUOUS
 70
0
 71
3
 72
19
 73
15
 74
0
 42
0.0000001
 43
0.0000001
 44
0.0000000001
 40
0.0
 40
0.0
 40
0.0
 40
0.0
 40
0.0267785199
 40
0.057652584
 40
0.092980723
 40
0.1330492048
 40
0.1780986865
 40
0.2283154449
 40
0.2838418633
 40
0.3447610412
 40
0.4827301028
 40
0.6410080253
 40
0.8157682529
 40
1.0
 40
1.0
 40
1.0
 40
1.0
 10
7.1791052807
 20
3.1320408806
 30
0.0
 10
7.1790413494
 20
3.1321032288
 30
0.0
 10
7.1788929167
 20
3.1322264927
 30
0.0
 10
7.1786328376
 20
3.1323961566
 30
0.0
 10
7.1783194455
 20
3.1325624707
 30
0.0
 10
7.1779516676
 20
3.1327246254
 30
0.0
 10
7.1775283815
 20
3.1328818255
 30
0.0
 10
7.177048626
 20
3.1330330879
 30
0.0
 10
7.1765117097
 20
3.1331772453
 30
0.0
 10
7.1756844182
 20
3.1333661318
 30
0.0
 10
7.1745101854
 20
3.133570632
 30
0.0
 10
7.1729496169
 20
3.1337544272
 30
0.0
 10
7.1712280178
 20
3.1338719177
 30
0.0
 10
7.1700306794
 20
3.1338987148
 30
0.0
 10
7.1694163095
 20
3.1338987148
 30
0.0
  0
SPLINE
  5
45E
100
AcDbEntity
  8
0
100
AcDbSpline
 62
7
  6
CONTINUOUS
 70
0
 71
3
 72
20
 73
16
 74
0
 42
0.0000001
 43
0.0000001
 44
0.0000000001
 40
0.0
 40
0.0
 40
0.0
 40
0.0
 40
0.0294925972
 40
0.0625549193
 40
0.0995892104
 40
0.1409263805
 40
0.1868473927
 40
0.2375722019
 40
0.2932710037
 40
0.3540512131
 40
0.4199544219
 40
0.4909126635
 40
0.6470868939
 40
0.819010071
 40
1.0
 40
1.0
 40
1.0
 40
1.0
 10
7.1791026173
 20
3.1411715729
 30
0.0
 10
7.1790395402
 20
3.1412492186
 30
0.0
 10
7.1788929237
 20
3.1414036535
 30
0.0
 10
7.1786321252
 20
3.1416192928
 30
0.0
 10
7.1783180208
 20
3.1418304954
 30
0.0
 10
7.1779496036
 20
3.1420362729
 30
0.0
 10
7.1775258005
 20
3.1422356444
 30
0.0
 10
7.1770456644
 20
3.1424274051
 30
0.0
 10
7.1765085009
 20
3.1426100834
 30
0.0
 10
7.175914051
 20
3.1427820721
 30
0.0
 10
7.1752627069
 20
3.1429415077
 30
0.0
 10
7.1742887722
 20
3.1431410499
 30
0.0
 10
7.172948903
 20
3.1433409334
 30
0.0
 10
7.1712276069
 20
3.1434898905
 30
0.0
 10
7.1700302215
 20
3.1435238457
 30
0.0
 10
7.1694163095
 20
3.1435238457
 30
0.0
  0
SPLINE
  5
45F
100
AcDbEntity
  8
0
100
AcDbSpline
 62
7
  6
CONTINUOUS
 70
0
 71
3
 72
20
 73
16
 74
0
 42
0.0000001
 43
0.0000001
 44
0.0000000001
 40
0.0
 40
0.0
 40
0.0
 40
0.0
 40
0.0674617455
 40
0.1063004059
 40
0.1490001667
 40
0.1958719248
 40
0.2471640153
 40
0.3030723607
 40
0.3637287289
 40
0.4291980778
 40
0.4994367888
 40
0.6534144601
 40
0.7363619011
 40
0.8223982718
 40
1.0
 40
1.0
 40
1.0
 40
1.0
 10
7.1791052807
 20
3.1496507388
 30
0.0
 10
7.1789754472
 20
3.1498447533
 30
0.0
 10
7.1787244249
 20
3.1501200041
 30
0.0
 10
7.1783248086
 20
3.1504460159
 30
0.0
 10
7.1779563383
 20
3.1506955678
 30
0.0
 10
7.1775325276
 20
3.1509371402
 30
0.0
 10
7.1770522408
 20
3.1511694799
 30
0.0
 10
7.1765148498
 20
3.1513907658
 30
0.0
 10
7.1759200805
 20
3.151599082
 30
0.0
 10
7.1752683162
 20
3.1517921797
 30
0.0
 10
7.174295073
 20
3.1520334999
 30
0.0
 10
7.1732477611
 20
3.152222721
 30
0.0
 10
7.1721385974
 20
3.1523611048
 30
0.0
 10
7.1709436503
 20
3.1524661384
 30
0.0
 10
7.1700308936
 20
3.1524974503
 30
0.0
 10
7.1694163095
 20
3.1524974503
 30
0.0
  0
SPLINE
  5
460
100
AcDbEntity
  8
0
100
AcDbSpline
 62
7
  6
CONTINUOUS
 70
0
 71
3
 72
19
 73
15
 74
0
 42
0.0000001
 43
0.0000001
 44
0.0000000001
 40
0.0
 40
0.0
 40
0.0
 40
0.0
 40
0.0725876894
 40
0.1133381095
 40
0.1575174763
 40
0.205451115
 40
0.2574049647
 40
0.3135934593
 40
0.3741681243
 40
0.5086680365
 40
0.6603118671
 40
0.741745908
 40
0.8260933321
 40
1.0
 40
1.0
 40
1.0
 40
1.0
 10
7.1791052807
 20
3.1574803668
 30
0.0
 10
7.1789778758
 20
3.1577030819
 30
0.0
 10
7.1787299239
 20
3.1580237948
 30
0.0
 10
7.1783271658
 20
3.158408648
 30
0.0
 10
7.1779586487
 20
3.1587009591
 30
0.0
 10
7.1775346823
 20
3.1589839026
 30
0.0
 10
7.1770542232
 20
3.1592559799
 30
0.0
 10
7.1765166371
 20
3.1595150943
 30
0.0
 10
7.1756943943
 20
3.1598520704
 30
0.0
 10
7.1745226358
 20
3.160219344
 30
0.0
 10
7.1732497547
 20
3.1604888119
 30
0.0
 10
7.1721392017
 20
3.1606509092
 30
0.0
 10
7.170944518
 20
3.1607737933
 30
0.0
 10
7.170031031
 20
3.1608104862
 30
0.0
 10
7.1694163095
 20
3.1608104862
 30
0.0
  0
SPLINE
  5
461
100
AcDbEntity
  8
0
100
AcDbSpline
 62
7
  6
CONTINUOUS
 70
0
 71
3
 72
16
 73
12
 74
0
 42
0.0000001
 43
0.0000001
 44
0.0000000001
 40
0.0
 40
0.0
 40
0.0
 40
0.0
 40
0.0776157726
 40
0.1202963542
 40
0.1660001657
 40
0.2676558772
 40
0.3846638537
 40
0.5180536472
 40
0.6673704279
 40
0.8298600609
 40
1.0
 40
1.0
 40
1.0
 40
1.0
 10
7.1791052807
 20
3.164630579
 30
0.0
 10
7.1789796895
 20
3.1648813914
 30
0.0
 10
7.1787344957
 20
3.1652460867
 30
0.0
 10
7.1783292545
 20
3.1656890126
 30
0.0
 10
7.1778197824
 20
3.1661510768
 30
0.0
 10
7.1770307546
 20
3.1666973075
 30
0.0
 10
7.1758905514
 20
3.1672693328
 30
0.0
 10
7.1745279076
 20
3.167758178
 30
0.0
 10
7.1729614344
 20
3.1681374033
 30
0.0
 10
7.1712340772
 20
3.1683796904
 30
0.0
 10
7.1700311867
 20
3.1684349786
 30
0.0
 10
7.1694163095
 20
3.1684349786
 30
0.0
  0
SPLINE
  5
462
100
AcDbEntity
  8
0
100
AcDbSpline
 62
7
  6
CONTINUOUS
 70
0
 71
3
 72
15
 73
11
 74
0
 42
0.0000001
 43
0.0000001
 44
0.0000000001
 40
0.0
 40
0.0
 40
0.0
 40
0.0
 40
0.0824352938
 40
0.1741328681
 40
0.2776742647
 40
0.3950552439
 40
0.5273961182
 40
0.6744157497
 40
0.8336488326
 40
1.0
 40
1.0
 40
1.0
 40
1.0
 10
7.1791052807
 20
3.1710817771
 30
0.0
 10
7.178981059
 20
3.1713601015
 30
0.0
 10
7.178648402
 20
3.1719181157
 30
0.0
 10
7.1779543871
 20
3.172682009
 30
0.0
 10
7.1770386489
 20
3.1733954034
 30
0.0
 10
7.1758974005
 20
3.1740390721
 30
0.0
 10
7.1745334679
 20
3.1745889153
 30
0.0
 10
7.1729653241
 20
3.1750153977
 30
0.0
 10
7.1712361266
 20
3.1752878384
 30
0.0
 10
7.1700313589
 20
3.1753500293
 30
0.0
 10
7.1694163095
 20
3.1753500293
 30
0.0
  0
SPLINE
  5
463
100
AcDbEntity
  8
0
100
AcDbSpline
 62
7
  6
CONTINUOUS
 70
0
 71
3
 72
15
 73
11
 74
0
 42
0.0000001
 43
0.0000001
 44
0.0000000001
 40
0.0
 40
0.0
 40
0.0
 40
0.0
 40
0.0869852752
 40
0.1819843829
 40
0.2874126003
 40
0.4052226008
 40
0.5365859697
 40
0.6813727649
 40
0.8373988456
 40
1.0
 40
1.0
 40
1.0
 40
1.0
 10
7.1791052807
 20
3.1768162788
 30
0.0
 10
7.1789821076
 20
3.177121489
 30
0.0
 10
7.1786538194
 20
3.1777331234
 30
0.0
 10
7.1779613784
 20
3.1785789973
 30
0.0
 10
7.1770460589
 20
3.1793696504
 30
0.0
 10
7.175904313
 20
3.1800832751
 30
0.0
 10
7.1745392466
 20
3.1806928728
 30
0.0
 10
7.1729694806
 20
3.1811656844
 30
0.0
 10
7.1712383443
 20
3.1814677118
 30
0.0
 10
7.1700315458
 20
3.1815366847
 30
0.0
 10
7.1694163095
 20
3.1815366847
 30
0.0
  0
SPLINE
  5
464
100
AcDbEntity
  8
0
100
AcDbSpline
 62
7
  6
CONTINUOUS
 70
0
 71
3
 72
15
 73
11
 74
0
 42
0.0000001
 43
0.0000001
 44
0.0000000001
 40
0.0
 40
0.0
 40
0.0
 40
0.0
 40
0.0912583389
 40
0.1894377765
 40
0.2967504265
 40
0.4150574524
 40
0.5455391676
 40
0.6881871622
 40
0.841084404
 40
1.0
 40
1.0
 40
1.0
 40
1.0
 10
7.1791026173
 20
3.1818282616
 30
0.0
 10
7.1789798363
 20
3.1821593252
 30
0.0
 10
7.178654427
 20
3.1828220492
 30
0.0
 10
7.1779630463
 20
3.1837459463
 30
0.0
 10
7.1770482527
 20
3.1846103161
 30
0.0
 10
7.1759065195
 20
3.1853908574
 30
0.0
 10
7.1745411333
 20
3.1860577043
 30
0.0
 10
7.1729708349
 20
3.1865749309
 30
0.0
 10
7.1712390908
 20
3.1869053269
 30
0.0
 10
7.1700311882
 20
3.1869808117
 30
0.0
 10
7.1694163095
 20
3.1869808117
 30
0.0
  0
SPLINE
  5
465
100
AcDbEntity
  8
0
100
AcDbSpline
 62
7
  6
CONTINUOUS
 70
0
 71
3
 72
15
 73
11
 74
0
 42
0.0000001
 43
0.0000001
 44
0.0000000001
 40
0.0
 40
0.0
 40
0.0
 40
0.0
 40
0.0951960986
 40
0.196340458
 40
0.3054402316
 40
0.424247148
 40
0.553930091
 40
0.6945855498
 40
0.8445481947
 40
1.0
 40
1.0
 40
1.0
 40
1.0
 10
7.1791052807
 20
3.1860743291
 30
0.0
 10
7.1789835642
 20
3.186431152
 30
0.0
 10
7.1786618518
 20
3.187144664
 30
0.0
 10
7.1779728489
 20
3.1881459729
 30
0.0
 10
7.1770593751
 20
3.1890837423
 30
0.0
 10
7.1759176979
 20
3.1899312379
 30
0.0
 10
7.1745510906
 20
3.1906556603
 30
0.0
 10
7.1729783429
 20
3.1912177595
 30
0.0
 10
7.1712431849
 20
3.1915769182
 30
0.0
 10
7.1700319552
 20
3.1916590236
 30
0.0
 10
7.1694163095
 20
3.1916590236
 30
0.0
  0
SPLINE
  5
466
100
AcDbEntity
  8
0
100
AcDbSpline
 62
7
  6
CONTINUOUS
 70
0
 71
3
 72
15
 73
11
 74
0
 42
0.0000001
 43
0.0000001
 44
0.0000000001
 40
0.0
 40
0.0
 40
0.0
 40
0.0
 40
0.0988435485
 40
0.202787198
 40
0.3136235148
 40
0.4329682406
 40
0.5619465431
 40
0.7007304423
 40
0.8478859916
 40
1.0
 40
1.0
 40
1.0
 40
1.0
 10
7.1791052807
 20
3.1895725021
 30
0.0
 10
7.1789840765
 20
3.189953894
 30
0.0
 10
7.1786648222
 20
3.1907156
 30
0.0
 10
7.1779774679
 20
3.1917901102
 30
0.0
 10
7.1770651969
 20
3.1927972956
 30
0.0
 10
7.1759239823
 20
3.1937082075
 30
0.0
 10
7.1745569761
 20
3.1944872661
 30
0.0
 10
7.1729829296
 20
3.1950920157
 30
0.0
 10
7.1712457525
 20
3.1954785439
 30
0.0
 10
7.1700321732
 20
3.1955669625
 30
0.0
 10
7.1694163095
 20
3.1955669625
 30
0.0
  0
SPLINE
  5
467
100
AcDbEntity
  8
0
100
AcDbSpline
 62
7
  6
CONTINUOUS
 70
0
 71
3
 72
16
 73
12
 74
0
 42
0.0000001
 43
0.0000001
 44
0.0000000001
 40
0.0
 40
0.0
 40
0.0
 40
0.0
 40
0.1026056764
 40
0.2098076947
 40
0.3230395178
 40
0.4435360135
 40
0.5068408806
 40
0.5722170423
 40
0.7089228571
 40
0.8524577342
 40
1.0
 40
1.0
 40
1.0
 40
1.0
 10
7.1789462886
 20
3.1927783971
 30
0.0
 10
7.1788043615
 20
3.1931602015
 30
0.0
 10
7.1784508959
 20
3.1939188583
 30
0.0
 10
7.1777314365
 20
3.1949864516
 30
0.0
 10
7.1768073818
 20
3.1959826125
 30
0.0
 10
7.1758792707
 20
3.1967178697
 30
0.0
 10
7.1750397935
 20
3.1972425828
 30
0.0
 10
7.1741063072
 20
3.1977329079
 30
0.0
 10
7.1728218047
 20
3.1982309357
 30
0.0
 10
7.1711594756
 20
3.1986055299
 30
0.0
 10
7.1700020317
 20
3.1986910928
 30
0.0
 10
7.1694163095
 20
3.1986910928
 30
0.0
  0
SPLINE
  5
468
100
AcDbEntity
  8
0
100
AcDbSpline
 62
7
  6
CONTINUOUS
 70
0
 71
3
 72
17
 73
13
 74
0
 42
0.0000001
 43
0.0000001
 44
0.0000000001
 40
0.0
 40
0.0
 40
0.0
 40
0.0
 40
0.1052285349
 40
0.2141583366
 40
0.3281703357
 40
0.3875516368
 40
0.4486774532
 40
0.5764648465
 40
0.7118874845
 40
0.7822633625
 40
0.8540319625
 40
1.0
 40
1.0
 40
1.0
 40
1.0
 10
7.1791052807
 20
3.1942592287
 30
0.0
 10
7.1789848276
 20
3.194686891
 30
0.0
 10
7.1786692955
 20
3.1955390926
 30
0.0
 10
7.1779849693
 20
3.1967502736
 30
0.0
 10
7.1772366328
 20
3.1976853749
 30
0.0
 10
7.1765297234
 20
3.19838002
 30
0.0
 10
7.1757244582
 20
3.1990529072
 30
0.0
 10
7.1745682966
 20
3.1997987479
 30
0.0
 10
7.1732705111
 20
3.2003629136
 30
0.0
 10
7.1721459563
 20
3.2006970382
 30
0.0
 10
7.1709543729
 20
3.2009467993
 30
0.0
 10
7.1700326237
 20
3.2010228516
 30
0.0
 10
7.1694163095
 20
3.2010228516
 30
0.0
  0
SPLINE
  5
469
100
AcDbEntity
  8
0
100
AcDbSpline
 62
7
  6
CONTINUOUS
 70
0
 71
3
 72
17
 73
13
 74
0
 42
0.0000001
 43
0.0000001
 44
0.0000000001
 40
0.0
 40
0.0
 40
0.0
 40
0.0
 40
0.1080113159
 40
0.2191502989
 40
0.3346090136
 40
0.3943782704
 40
0.4556489081
 40
0.5829631438
 40
0.716922849
 40
0.7862459719
 40
0.8567921083
 40
1.0
 40
1.0
 40
1.0
 40
1.0
 10
7.1791052807
 20
3.1954349363
 30
0.0
 10
7.1789851053
 20
3.195884152
 30
0.0
 10
7.1786709981
 20
3.1967784225
 30
0.0
 10
7.1779879335
 20
3.1980529023
 30
0.0
 10
7.1772390473
 20
3.1990394186
 30
0.0
 10
7.1765308943
 20
3.1997722898
 30
0.0
 10
7.1757274493
 20
3.2004793681
 30
0.0
 10
7.1745736423
 20
3.2012641201
 30
0.0
 10
7.1732732218
 20
3.2018601326
 30
0.0
 10
7.1721468723
 20
3.2022125793
 30
0.0
 10
7.1709557601
 20
3.2024755496
 30
0.0
 10
7.1700328514
 20
3.2025558476
 30
0.0
 10
7.1694163095
 20
3.2025558476
 30
0.0
  0
SPLINE
  5
46A
100
AcDbEntity
  8
0
100
AcDbSpline
 62
7
  6
CONTINUOUS
 70
0
 71
3
 72
15
 73
11
 74
0
 42
0.0000001
 43
0.0000001
 44
0.0000000001
 40
0.0
 40
0.0
 40
0.0
 40
0.0
 40
0.1105617093
 40
0.2237521412
 40
0.3405866431
 40
0.4620766212
 40
0.5890153231
 40
0.7216728194
 40
0.859330152
 40
1.0
 40
1.0
 40
1.0
 40
1.0
 10
7.1791026173
 20
3.1958376017
 30
0.0
 10
7.1789822624
 20
3.1963067262
 30
0.0
 10
7.1786686696
 20
3.1972397347
 30
0.0
 10
7.1779859412
 20
3.1985724255
 30
0.0
 10
7.1770783794
 20
3.1998242113
 30
0.0
 10
7.1759406327
 20
3.2009591684
 30
0.0
 10
7.1745746082
 20
3.2019323296
 30
0.0
 10
7.1729979641
 20
3.2026896591
 30
0.0
 10
7.1712546894
 20
3.2031747408
 30
0.0
 10
7.1700325357
 20
3.2032860617
 30
0.0
 10
7.1694163294
 20
3.2032860617
 30
0.0
  0
SPLINE
  5
46B
100
AcDbEntity
  8
0
100
AcDbSpline
 62
7
  6
CONTINUOUS
 70
0
 71
3
 72
109
 73
105
 74
0
 42
0.0000001
 43
0.0000001
 44
0.0000000001
 40
0.0
 40
0.0
 40
0.0
 40
0.0
 40
0.0259701627
 40
0.0545154352
 40
0.0851112189
 40
0.1173440421
 40
0.1508900079
 40
0.1854936954
 40
0.220950942
 40
0.2389467985
 40
0.2570964898
 40
0.266224058
 40
0.2753842128
 40
0.2937952251
 40
0.3123162212
 40
0.321614091
 40
0.3309349791
 40
0.3496397656
 40
0.359021475
 40
0.3684207809
 40
0.377836857
 40
0.3872681832
 40
0.3919894331
 40
0.3967143084
 40
0.4014424067
 40
0.4061735912
 40
0.4109080754
 40
0.4156456316
 40
0.4251277629
 40
0.4346199614
 40
0.4441200139
 40
0.4488731789
 40
0.4536278593
 40
0.4583834788
 40
0.463139588
 40
0.4678961599
 40
0.4726527248
 40
0.4821619932
 40
0.4916672363
 40
0.5011663034
 40
0.5106571732
 40
0.5201382961
 40
0.5248750331
 40
0.5296085969
 40
0.5390662483
 40
0.5485101387
 40
0.5579398512
 40
0.5673537386
 40
0.5767510357
 40
0.5861304099
 40
0.5954906815
 40
0.6048306179
 40
0.6141487396
 40
0.6234437558
 40
0.6327141969
 40
0.6419585073
 40
0.6511751438
 40
0.6603624751
 40
0.6695187722
 40
0.687730937
 40
0.7057964675
 40
0.7236982586
 40
0.7414180039
 40
0.758934587
 40
0.7762253584
 40
0.8100237179
 40
0.8425702957
 40
0.8582811082
 40
0.8735578786
 40
0.888348451
 40
0.9025948536
 40
0.9162308603
 40
0.9291824741
 40
0.941367296
 40
0.9526939849
 40
0.9630632537
 40
0.967855821
 40
0.9723685702
 40
0.9765876983
 40
0.9804994898
 40
0.9840902006
 40
0.9873460188
 40
0.9902536371
 40
0.9928014725
 40
0.993936983
 40
0.9949784646
 40
0.9959246483
 40
0.9967742652
 40
0.9975261219
 40
0.9981794734
 40
0.9987337386
 40
0.9989735324
 40
0.9991883369
 40
0.9993780812
 40
0.9995427068
 40
0.9996821607
 40
0.9997963899
 40
0.9998853415
 40
0.9999203216
 40
0.9999489624
 40
0.9999712572
 40
0.9999871995
 40
0.9999967827
 40
1.0
 40
1.0
 40
1.0
 40
1.0
 10
7.834825742
 20
2.6825867213
 30
0.0
 10
7.8299865578
 20
2.6863861672
 30
0.0
 10
7.819823674
 20
2.6943558418
 30
0.0
 10
7.8039394649
 20
2.7067758849
 30
0.0
 10
7.7868618556
 20
2.720078302
 30
0.0
 10
7.7688156597
 20
2.7340650341
 30
0.0
 10
7.7499723643
 20
2.7485731277
 30
0.0
 10
7.7304590085
 20
2.763462766
 30
0.0
 10
7.7137986512
 20
2.776018037
 30
0.0
 10
7.700185423
 20
2.7861389451
 30
0.0
 10
7.691544011
 20
2.792492252
 30
0.0
 10
7.6845637087
 20
2.7975708387
 30
0.0
 10
7.6775147867
 20
2.8026602431
 30
0.0
 10
7.6686212636
 20
2.8089962918
 30
0.0
 10
7.6596351401
 20
2.8152578068
 30
0.0
 10
7.6523639424
 20
2.8202123959
 30
0.0
 10
7.6450179412
 20
2.8251339699
 30
0.0
 10
7.6375871087
 20
2.8299644761
 30
0.0
 10
7.6300527763
 20
2.8346659944
 30
0.0
 10
7.6243328438
 20
2.838117086
 30
0.0
 10
7.6185435021
 20
2.8414740878
 30
0.0
 10
7.6136546104
 20
2.8441725088
 30
0.0
 10
7.6096987123
 20
2.846258778
 30
0.0
 10
7.6067070534
 20
2.8477841603
 30
0.0
 10
7.6036900801
 20
2.8492642567
 30
0.0
 10
7.6006462737
 20
2.8506937709
 30
0.0
 10
7.5975743791
 20
2.8520675328
 30
0.0
 10
7.5934383596
 20
2.8538165375
 30
0.0
 10
7.5881902529
 20
2.8558270356
 30
0.0
 10
7.5817644575
 20
2.8578925487
 30
0.0
 10
7.5763024786
 20
2.8592606576
 30
0.0
 10
7.5718782838
 20
2.8601054185
 30
0.0
 10
7.568535237
 20
2.8606046008
 30
0.0
 10
7.5651733292
 20
2.8609621543
 30
0.0
 10
7.5617983741
 20
2.8611706591
 30
0.0
 10
7.558417164
 20
2.8612268397
 30
0.0
 10
7.5539111594
 20
2.8611004939
 30
0.0
 10
7.548296871
 20
2.8605684094
 30
0.0
 10
7.5416433467
 20
2.8593614025
 30
0.0
 10
7.5351038816
 20
2.8576641468
 30
0.0
 10
7.5286935567
 20
2.8555534935
 30
0.0
 10
7.5234589977
 20
2.853510495
 30
0.0
 10
7.5193322098
 20
2.8517415046
 30
0.0
 10
7.5152464799
 20
2.8498929876
 30
0.0
 10
7.5102092347
 20
2.8474452442
 30
0.0
 10
7.5042623239
 20
2.8443316884
 30
0.0
 10
7.4984047728
 20
2.8410748408
 30
0.0
 10
7.4926240522
 20
2.8377057486
 30
0.0
 10
7.4869129854
 20
2.8342430289
 30
0.0
 10
7.4812628675
 20
2.8307057705
 30
0.0
 10
7.4756682073
 20
2.8271065733
 30
0.0
 10
7.4701240681
 20
2.8234564305
 30
0.0
 10
7.4646255954
 20
2.8197655655
 30
0.0
 10
7.4591701858
 20
2.816040492
 30
0.0
 10
7.4537545973
 20
2.8122884093
 30
0.0
 10
7.4483764171
 20
2.8085151542
 30
0.0
 10
7.443034369
 20
2.8047248532
 30
0.0
 10
7.4377268697
 20
2.8009220244
 30
0.0
 10
7.4307074446
 20
2.7958496133
 30
0.0
 10
7.4220181475
 20
2.7894971366
 30
0.0
 10
7.4117003195
 20
2.7818620734
 30
0.0
 10
7.4015128371
 20
2.7742472531
 30
0.0
 10
7.3914589974
 20
2.7666710428
 30
0.0
 10
7.3815455194
 20
2.7591492212
 30
0.0
 10
7.368624647
 20
2.7492893156
 30
0.0
 10
7.3529148528
 20
2.7372147335
 30
0.0
 10
7.3375423884
 20
2.7253157241
 30
0.0
 10
7.3256578465
 20
2.7160793031
 30
0.0
 10
7.317102206
 20
2.7094145524
 30
0.0
 10
7.3088266194
 20
2.7029548406
 30
0.0
 10
7.3008628007
 20
2.6967274522
 30
0.0
 10
7.293246695
 20
2.6907626546
 30
0.0
 10
7.2860188791
 20
2.6850941821
 30
0.0
 10
7.279224684
 20
2.6797593447
 30
0.0
 10
7.2729141754
 20
2.6747991212
 30
0.0
 10
7.2679821241
 20
2.6709191017
 30
0.0
 10
7.2643196185
 20
2.6680361426
 30
0.0
 10
7.2618024121
 20
2.666053837
 30
0.0
 10
7.2594494944
 20
2.6642001761
 30
0.0
 10
7.2572683371
 20
2.6624814722
 30
0.0
 10
7.2552664907
 20
2.6609039411
 30
0.0
 10
7.253451694
 20
2.6594734031
 30
0.0
 10
7.2518312536
 20
2.6581954
 30
0.0
 10
7.2506053196
 20
2.6572283412
 30
0.0
 10
7.2497264037
 20
2.6565352022
 30
0.0
 10
7.24914541
 20
2.6560770508
 30
0.0
 10
7.2486176191
 20
2.6556608143
 30
0.0
 10
7.2481437568
 20
2.6552869998
 30
0.0
 10
7.2477244644
 20
2.6549560212
 30
0.0
 10
7.2473601635
 20
2.6546683079
 30
0.0
 10
7.247091081
 20
2.6544557604
 30
0.0
 10
7.2469035049
 20
2.6543076403
 30
0.0
 10
7.2467836844
 20
2.6542130628
 30
0.0
 10
7.2466778119
 20
2.6541295568
 30
0.0
 10
7.2465859261
 20
2.6540571432
 30
0.0
 10
7.2465080684
 20
2.6539958317
 30
0.0
 10
7.2464442722
 20
2.6539456425
 30
0.0
 10
7.2463999216
 20
2.6539107626
 30
0.0
 10
7.2463714892
 20
2.6538884474
 30
0.0
 10
7.246355499
 20
2.6538758477
 30
0.0
 10
7.2463429876
 20
2.653866142
 30
0.0
 10
7.2463341815
 20
2.653858978
 30
0.0
 10
7.2463286321
 20
2.6538550803
 30
0.0
 10
7.2463264414
 20
2.6538528967
 30
0.0
 10
7.2463257583
 20
2.6538525586
 30
0.0
  0
LINE
  5
46C
100
AcDbEntity
  8
0
100
AcDbLine
 62
7
  6
CONTINUOUS
 10
7.8418902729
 20
2.6464869618
 11
7.8348257088
 21
2.6825867844
  0
SPLINE
  5
46D
100
AcDbEntity
  8
0
100
AcDbSpline
 62
7
  6
CONTINUOUS
 70
0
 71
3
 72
21
 73
17
 74
0
 42
0.0000001
 43
0.0000001
 44
0.0000000001
 40
0.0
 40
0.0
 40
0.0
 40
0.0
 40
0.0661542877
 40
0.1321951103
 40
0.1979554198
 40
0.2633338041
 40
0.3923816958
 40
0.5188142156
 40
0.5810220446
 40
0.6425080304
 40
0.7033057582
 40
0.7634785587
 40
0.823113387
 40
0.8823191761
 40
0.9412443005
 40
1.0
 40
1.0
 40
1.0
 40
1.0
 10
7.834825742
 20
2.6825867243
 30
0.0
 10
7.8353162297
 20
2.6825867235
 30
0.0
 10
7.8362969044
 20
2.6826294815
 30
0.0
 10
7.8377538217
 20
2.6828210445
 30
0.0
 10
7.8391829507
 20
2.6831385125
 30
0.0
 10
7.8410237161
 20
2.6837224845
 30
0.0
 10
7.8431875008
 20
2.6847442482
 30
0.0
 10
7.8451065369
 20
2.686136437
 30
0.0
 10
7.8464340254
 20
2.6874351361
 30
0.0
 10
7.8473132558
 20
2.6884861469
 30
0.0
 10
7.8480722396
 20
2.6896088395
 30
0.0
 10
7.8487037068
 20
2.6907924843
 30
0.0
 10
7.8492014218
 20
2.692025631
 30
0.0
 10
7.8495605363
 20
2.6932965236
 30
0.0
 10
7.8497773313
 20
2.6945925274
 30
0.0
 10
7.849825759
 20
2.6954658095
 30
0.0
 10
7.8498257583
 20
2.6959014418
 30
0.0
  0
SPLINE
  5
46E
100
AcDbEntity
  8
0
100
AcDbSpline
 62
7
  6
CONTINUOUS
 70
0
 71
3
 72
23
 73
19
 74
0
 42
0.0000001
 43
0.0000001
 44
0.0000000001
 40
0.0
 40
0.0
 40
0.0
 40
0.0
 40
0.0111439329
 40
0.0227877372
 40
0.0352631592
 40
0.0488340581
 40
0.0799672784
 40
0.1172402287
 40
0.1610846747
 40
0.2116001312
 40
0.2686781508
 40
0.3320486847
 40
0.4013286469
 40
0.4760223216
 40
0.5555465146
 40
0.6392387822
 40
0.8160703239
 40
1.0
 40
1.0
 40
1.0
 40
1.0
 10
6.903823032
 20
2.8992382214
 30
0.0
 10
6.9037820612
 20
2.899240712
 30
0.0
 10
6.9036985931
 20
2.8992541707
 30
0.0
 10
6.9035758206
 20
2.89929847
 30
0.0
 10
6.9034542715
 20
2.8993666687
 30
0.0
 10
6.9032864356
 20
2.8994948301
 30
0.0
 10
6.9030820074
 20
2.8997200962
 30
0.0
 10
6.9028555209
 20
2.9000671904
 30
0.0
 10
6.9026378603
 20
2.9005013428
 30
0.0
 10
6.9024307986
 20
2.9010197995
 30
0.0
 10
6.9022361862
 20
2.9016190697
 30
0.0
 10
6.9020559001
 20
2.9022945173
 30
0.0
 10
6.9018918376
 20
2.9030406149
 30
0.0
 10
6.9017457128
 20
2.9038509248
 30
0.0
 10
6.9016191037
 20
2.9047181741
 30
0.0
 10
6.9014756714
 20
2.9059625903
 30
0.0
 10
6.901356568
 20
2.9075960982
 30
0.0
 10
6.9013250196
 20
2.9089250915
 30
0.0
 10
6.9013250196
 20
2.9096025586
 30
0.0
  0
LINE
  5
46F
100
AcDbEntity
  8
0
100
AcDbLine
 62
7
  6
CONTINUOUS
 10
6.8929398563
 20
2.8308027906
 11
6.8926593377
 21
2.8311091706
  0
SPLINE
  5
470
100
AcDbEntity
  8
0
100
AcDbSpline
 62
7
  6
CONTINUOUS
 70
0
 71
3
 72
22
 73
18
 74
0
 42
0.0000001
 43
0.0000001
 44
0.0000000001
 40
0.0
 40
0.0
 40
0.0
 40
0.0
 40
0.0111672746
 40
0.0226285063
 40
0.0476527887
 40
0.0772156857
 40
0.1125291303
 40
0.1542159938
 40
0.2025384771
 40
0.257530774
 40
0.3190664249
 40
0.3869011758
 40
0.4606899958
 40
0.5400103822
 40
0.6243536121
 40
0.805806517
 40
1.0
 40
1.0
 40
1.0
 40
1.0
 10
6.9028574949
 20
2.9598553892
 30
0.0
 10
6.9028252418
 20
2.9598573257
 30
0.0
 10
6.9027600947
 20
2.959867396
 30
0.0
 10
6.9026293532
 20
2.9599132778
 30
0.0
 10
6.9024689192
 20
2.9600228995
 30
0.0
 10
6.902296554
 20
2.9602199665
 30
0.0
 10
6.9021360241
 20
2.9604844975
 30
0.0
 10
6.901987521
 20
2.9608160188
 30
0.0
 10
6.9018515695
 20
2.9612133913
 30
0.0
 10
6.9017291868
 20
2.9616747142
 30
0.0
 10
6.9016213215
 20
2.9621973542
 30
0.0
 10
6.901528923
 20
2.9627780363
 30
0.0
 10
6.9014527712
 20
2.9634128945
 30
0.0
 10
6.9013935827
 20
2.9640974927
 30
0.0
 10
6.901336593
 20
2.9650945365
 30
0.0
 10
6.9013135758
 20
2.9664258174
 30
0.0
 10
6.9013421778
 20
2.9675126686
 30
0.0
 10
6.9013678364
 20
2.9680739585
 30
0.0
  0
SPLINE
  5
471
100
AcDbEntity
  8
0
100
AcDbSpline
 62
7
  6
CONTINUOUS
 70
0
 71
3
 72
19
 73
15
 74
0
 42
0.0000001
 43
0.0000001
 44
0.0000000001
 40
0.0
 40
0.0
 40
0.0
 40
0.0
 40
0.0193417912
 40
0.0404234925
 40
0.0656119633
 40
0.0963303592
 40
0.1333419484
 40
0.177062521
 40
0.2277267584
 40
0.285462732
 40
0.4222594631
 40
0.5874142746
 40
0.7803641341
 40
1.0
 40
1.0
 40
1.0
 40
1.0
 10
6.9015123441
 20
3.0455795919
 30
0.0
 10
6.9015011452
 20
3.0455802612
 30
0.0
 10
6.9014777618
 20
3.0455865367
 30
0.0
 10
6.9014471511
 20
3.0456103557
 30
0.0
 10
6.901420778
 20
3.0456468648
 30
0.0
 10
6.9013978196
 20
3.0456958488
 30
0.0
 10
6.9013779823
 20
3.0457574993
 30
0.0
 10
6.9013612214
 20
3.0458319222
 30
0.0
 10
6.9013475572
 20
3.0459191418
 30
0.0
 10
6.9013327023
 20
3.0460606324
 30
0.0
 10
6.9013236493
 20
3.0462692361
 30
0.0
 10
6.901325668
 20
3.046556355
 30
0.0
 10
6.9013403457
 20
3.046891203
 30
0.0
 10
6.9013574257
 20
3.0471299321
 30
0.0
 10
6.9013678364
 20
3.0472569023
 30
0.0
  0
SPLINE
  5
472
100
AcDbEntity
  8
0
100
AcDbSpline
 62
7
  6
CONTINUOUS
 70
0
 71
3
 72
28
 73
24
 74
0
 42
0.0000001
 43
0.0000001
 44
0.0000000001
 40
0.0
 40
0.0
 40
0.0
 40
0.0
 40
0.0023530832
 40
0.0048447011
 40
0.007614594
 40
0.0107652391
 40
0.0184545842
 40
0.0282467231
 40
0.0402698698
 40
0.0545757275
 40
0.0711747782
 40
0.0900451877
 40
0.1111528616
 40
0.1344493763
 40
0.1873425874
 40
0.2481223881
 40
0.316046748
 40
0.3902627406
 40
0.4698299211
 40
0.5537331075
 40
0.6409050822
 40
0.8206044404
 40
1.0
 40
1.0
 40
1.0
 40
1.0
 10
6.8908865841
 20
2.9688144251
 30
0.0
 10
6.890877051
 20
2.9688150181
 30
0.0
 10
6.8908574999
 20
2.9688189944
 30
0.0
 10
6.8908296098
 20
2.9688329696
 30
0.0
 10
6.8908029379
 20
2.9688546308
 30
0.0
 10
6.890766444
 20
2.968896368
 30
0.0
 10
6.890724647
 20
2.9689697147
 30
0.0
 10
6.8906811188
 20
2.9690814697
 30
0.0
 10
6.8906411841
 20
2.9692227374
 30
0.0
 10
6.8906050424
 20
2.9693932807
 30
0.0
 10
6.890572864
 20
2.9695928119
 30
0.0
 10
6.8905447757
 20
2.969820783
 30
0.0
 10
6.8905209165
 20
2.9700765443
 30
0.0
 10
6.8904937489
 20
2.9704705837
 30
0.0
 10
6.8904726309
 20
2.9710262881
 30
0.0
 10
6.8904658452
 20
2.9717634561
 30
0.0
 10
6.890477029
 20
2.9725871242
 30
0.0
 10
6.8905060872
 20
2.9734866424
 30
0.0
 10
6.8905527115
 20
2.9744503561
 30
0.0
 10
6.8906163075
 20
2.975465793
 30
0.0
 10
6.8907237522
 20
2.9768856129
 30
0.0
 10
6.8908934309
 20
2.9786892854
 30
0.0
 10
6.8910628749
 20
2.9801371757
 30
0.0
 10
6.8911563528
 20
2.9808593443
 30
0.0
  0
SPLINE
  5
473
100
AcDbEntity
  8
0
100
AcDbSpline
 62
7
  6
CONTINUOUS
 70
0
 71
3
 72
33
 73
29
 74
0
 42
0.0000001
 43
0.0000001
 44
0.0000000001
 40
0.0
 40
0.0
 40
0.0
 40
0.0
 40
0.0037680687
 40
0.0078781442
 40
0.0124483272
 40
0.0175604126
 40
0.023269289
 40
0.0296111646
 40
0.0442678122
 40
0.0616112268
 40
0.0816324146
 40
0.1042674873
 40
0.1294242645
 40
0.1569826031
 40
0.186807088
 40
0.2526248836
 40
0.325505565
 40
0.4038837185
 40
0.486026672
 40
0.5700516914
 40
0.6539518074
 40
0.7356419101
 40
0.813021684
 40
0.8840614733
 40
0.9166133635
 40
0.9469108224
 40
0.9747662961
 40
1.0
 40
1.0
 40
1.0
 40
1.0
 10
6.905640424
 20
2.7872299535
 30
0.0
 10
6.9056156476
 20
2.7872314908
 30
0.0
 10
6.9055641126
 20
2.7872407154
 30
0.0
 10
6.9054873152
 20
2.7872705623
 30
0.0
 10
6.9054085185
 20
2.7873164086
 30
0.0
 10
6.9053277113
 20
2.7873779911
 30
0.0
 10
6.9052448619
 20
2.7874551527
 30
0.0
 10
6.9051259728
 20
2.787585055
 30
0.0
 10
6.9049745342
 20
2.78778793
 30
0.0
 10
6.9047939203
 20
2.7880794893
 30
0.0
 10
6.9046076987
 20
2.7884284047
 30
0.0
 10
6.9044169183
 20
2.788832523
 30
0.0
 10
6.9042227998
 20
2.789289517
 30
0.0
 10
6.9040264454
 20
2.7897966846
 30
0.0
 10
6.9037542485
 20
2.790561415
 30
0.0
 10
6.9034199109
 20
2.7916204953
 30
0.0
 10
6.9030397334
 20
2.7929993948
 30
0.0
 10
6.9026777206
 20
2.7944940639
 30
0.0
 10
6.902342714
 20
2.7960701223
 30
0.0
 10
6.9020431976
 20
2.7976903136
 30
0.0
 10
6.9017870293
 20
2.7993149036
 30
0.0
 10
6.9015811612
 20
2.800902524
 30
0.0
 10
6.9014313956
 20
2.8024113106
 30
0.0
 10
6.9013545588
 20
2.803601414
 30
0.0
 10
6.9013268354
 20
2.8044831125
 30
0.0
 10
6.9013228242
 20
2.8050807379
 30
0.0
 10
6.9013349981
 20
2.8056300344
 30
0.0
 10
6.9013547322
 20
2.8059793342
 30
0.0
 10
6.9013678364
 20
2.8061450569
 30
0.0
  0
SPLINE
  5
474
100
AcDbEntity
  8
0
100
AcDbSpline
 62
7
  6
CONTINUOUS
 70
0
 71
3
 72
28
 73
24
 74
0
 42
0.0000001
 43
0.0000001
 44
0.0000000001
 40
0.0
 40
0.0
 40
0.0
 40
0.0
 40
0.0095662921
 40
0.0201660415
 40
0.0322614902
 40
0.0461434171
 40
0.0619778016
 40
0.079853165
 40
0.0997999489
 40
0.1218150976
 40
0.14586839
 40
0.1719066752
 40
0.2296526383
 40
0.2943587778
 40
0.3651379587
 40
0.4409418242
 40
0.5205775236
 40
0.6027262855
 40
0.685966103
 40
0.7688102054
 40
0.8497384552
 40
0.9272796819
 40
1.0
 40
1.0
 40
1.0
 40
1.0
 10
6.9048009718
 20
2.838620162
 30
0.0
 10
6.9047473386
 20
2.8386234654
 30
0.0
 10
6.9046349752
 20
2.8386476161
 30
0.0
 10
6.9044714211
 20
2.8387286822
 30
0.0
 10
6.9043071216
 20
2.8388536086
 30
0.0
 10
6.9041419962
 20
2.8390214481
 30
0.0
 10
6.9039760554
 20
2.8392315518
 30
0.0
 10
6.9038097946
 20
2.8394832759
 30
0.0
 10
6.9036437116
 20
2.8397757214
 30
0.0
 10
6.9034784813
 20
2.8401078588
 30
0.0
 10
6.9033147591
 20
2.8404784551
 30
0.0
 10
6.9030916004
 20
2.8410417161
 30
0.0
 10
6.9028244262
 20
2.8418324363
 30
0.0
 10
6.9025301285
 20
2.842877542
 30
0.0
 10
6.9022574472
 20
2.8440329534
 30
0.0
 10
6.9020114081
 20
2.8452798586
 30
0.0
 10
6.9017967559
 20
2.8465972734
 30
0.0
 10
6.9016177577
 20
2.8479621245
 30
0.0
 10
6.9014780749
 20
2.8493496689
 30
0.0
 10
6.9013806639
 20
2.8507339509
 30
0.0
 10
6.9013275514
 20
2.8520886311
 30
0.0
 10
6.9013199
 20
2.853387466
 30
0.0
 10
6.9013460707
 20
2.8542313647
 30
0.0
 10
6.9013678364
 20
2.8546392617
 30
0.0
  0
SPLINE
  5
475
100
AcDbEntity
  8
0
100
AcDbSpline
 62
7
  6
CONTINUOUS
 70
0
 71
3
 72
25
 73
21
 74
0
 42
0.0000001
 43
0.0000001
 44
0.0000000001
 40
0.0
 40
0.0
 40
0.0
 40
0.0
 40
0.007161288
 40
0.015125772
 40
0.0243842509
 40
0.0352427766
 40
0.0478799114
 40
0.0623995251
 40
0.0788552378
 40
0.0972666473
 40
0.1399451236
 40
0.1902870369
 40
0.2479787472
 40
0.3125825178
 40
0.3835733266
 40
0.4603370388
 40
0.5421912427
 40
0.6283937813
 40
0.8105634405
 40
1.0
 40
1.0
 40
1.0
 40
1.0
 10
6.8919057117
 20
2.8998091042
 30
0.0
 10
6.8918816928
 20
2.899810609
 30
0.0
 10
6.8918312747
 20
2.899822598
 30
0.0
 10
6.891759649
 20
2.8998640572
 30
0.0
 10
6.8916895749
 20
2.8999280462
 30
0.0
 10
6.8916205756
 20
2.9000142047
 30
0.0
 10
6.891552401
 20
2.9001224836
 30
0.0
 10
6.8914850963
 20
2.9002528281
 30
0.0
 10
6.891418751
 20
2.9004050592
 30
0.0
 10
6.8913271946
 20
2.9006491407
 30
0.0
 10
6.8912186869
 20
2.9010079246
 30
0.0
 10
6.8910998712
 20
2.9015004391
 30
0.0
 10
6.8909882742
 20
2.9020699161
 30
0.0
 10
6.8908849956
 20
2.9027113004
 30
0.0
 10
6.8907911732
 20
2.9034188281
 30
0.0
 10
6.8907077712
 20
2.9041859827
 30
0.0
 10
6.8906356498
 20
2.9050056024
 30
0.0
 10
6.8905540928
 20
2.9061797856
 30
0.0
 10
6.8904865855
 20
2.9077170708
 30
0.0
 10
6.8904687256
 20
2.9089659454
 30
0.0
 10
6.8904687256
 20
2.9096025586
 30
0.0
  0
SPLINE
  5
476
100
AcDbEntity
  8
0
100
AcDbSpline
 62
7
  6
CONTINUOUS
 70
0
 71
3
 72
20
 73
16
 74
0
 42
0.0000001
 43
0.0000001
 44
0.0000000001
 40
0.0
 40
0.0
 40
0.0
 40
0.0
 40
0.0221794126
 40
0.0461367118
 40
0.0740014072
 40
0.1071408467
 40
0.1463272055
 40
0.1919885801
 40
0.2443151476
 40
0.3033603052
 40
0.3690931513
 40
0.4413804202
 40
0.6048639657
 40
0.791962018
 40
1.0
 40
1.0
 40
1.0
 40
1.0
 10
6.9020482259
 20
3.0112434834
 30
0.0
 10
6.9020132995
 20
3.0112455891
 30
0.0
 10
6.9019408339
 20
3.0112634081
 30
0.0
 10
6.9018423681
 20
3.0113293849
 30
0.0
 10
6.9017536685
 20
3.0114313213
 30
0.0
 10
6.9016734424
 20
3.0115682181
 30
0.0
 10
6.9016010609
 20
3.011740117
 30
0.0
 10
6.9015366113
 20
3.0119469573
 30
0.0
 10
6.901480231
 20
3.0121883581
 30
0.0
 10
6.9014321681
 20
3.0124637087
 30
0.0
 10
6.9013926836
 20
3.012772165
 30
0.0
 10
6.9013499362
 20
3.0132459733
 30
0.0
 10
6.901322052
 20
3.0139128718
 30
0.0
 10
6.9013252478
 20
3.0147943303
 30
0.0
 10
6.9013500638
 20
3.0154173317
 30
0.0
 10
6.9013678364
 20
3.0157450462
 30
0.0
  0
LINE
  5
477
100
AcDbEntity
  8
0
100
AcDbLine
 62
7
  6
CONTINUOUS
 10
6.9062067321
 20
2.7528917058
 11
6.9056240072
 21
2.7537613746
  0
SPLINE
  5
478
100
AcDbEntity
  8
0
100
AcDbSpline
 62
7
  6
CONTINUOUS
 70
0
 71
3
 72
24
 73
20
 74
0
 42
0.0000001
 43
0.0000001
 44
0.0000000001
 40
0.0
 40
0.0
 40
0.0
 40
0.0
 40
0.0183132819
 40
0.0390968046
 40
0.0876006289
 40
0.1444628572
 40
0.2084850022
 40
0.2783585824
 40
0.3526876916
 40
0.508769414
 40
0.6642724101
 40
0.7377334999
 40
0.8061485788
 40
0.8679414365
 40
0.921651662
 40
0.9450684988
 40
0.9660063396
 40
0.9843458353
 40
1.0
 40
1.0
 40
1.0
 40
1.0
 10
6.9056240072
 20
2.7537613746
 30
0.0
 10
6.9055754042
 20
2.7538713558
 30
0.0
 10
6.905476091
 20
2.7541081249
 30
0.0
 10
6.9052679137
 20
2.7546443485
 30
0.0
 10
6.9049934332
 20
2.7554260368
 30
0.0
 10
6.9046545372
 20
2.7564854124
 30
0.0
 10
6.9042989015
 20
2.757686435
 30
0.0
 10
6.9039339456
 20
2.7590040552
 30
0.0
 10
6.9034368734
 20
2.76091205
 30
0.0
 10
6.9028494106
 20
2.7633771705
 30
0.0
 10
6.9023256275
 20
2.7658507993
 30
0.0
 10
6.9019630047
 20
2.7677694419
 30
0.0
 10
6.9017362798
 20
2.7690874161
 30
0.0
 10
6.9015548983
 20
2.7702813728
 30
0.0
 10
6.9014401363
 20
2.771186409
 30
0.0
 10
6.9013765684
 20
2.7718271788
 30
0.0
 10
6.9013448481
 20
2.7722376389
 30
0.0
 10
6.9013270098
 20
2.7725979156
 30
0.0
 10
6.9013240948
 20
2.7728211838
 30
0.0
 10
6.9013256653
 20
2.7729239545
 30
0.0
  0
LINE
  5
479
100
AcDbEntity
  8
0
100
AcDbLine
 62
7
  6
CONTINUOUS
 10
6.9013256653
 20
2.7729239545
 11
6.9013678364
 21
2.7734013188
  0
LINE
  5
47A
100
AcDbEntity
  8
0
100
AcDbLine
 62
7
  6
CONTINUOUS
 10
6.9013678364
 20
2.7734013188
 11
6.9015124284
 21
2.7736255543
  0
SPLINE
  5
47B
100
AcDbEntity
  8
0
100
AcDbSpline
 62
7
  6
CONTINUOUS
 70
0
 71
3
 72
17
 73
13
 74
0
 42
0.0000001
 43
0.0000001
 44
0.0000000001
 40
0.0
 40
0.0
 40
0.0
 40
0.0
 40
0.2019774563
 40
0.3808152149
 40
0.5359121473
 40
0.6673827676
 40
0.7760954607
 40
0.8225608886
 40
0.8642937413
 40
0.9360600093
 40
0.9683805529
 40
1.0
 40
1.0
 40
1.0
 40
1.0
 10
6.9013678364
 20
2.8061450569
 30
0.0
 10
6.9013786984
 20
2.8062824228
 30
0.0
 10
6.9014040137
 20
2.8065410872
 30
0.0
 10
6.9014573658
 20
2.8069029595
 30
0.0
 10
6.9015235022
 20
2.8072138165
 30
0.0
 10
6.9016019393
 20
2.8074722093
 30
0.0
 10
6.9016808585
 20
2.8076520333
 30
0.0
 10
6.9017519011
 20
2.8077664081
 30
0.0
 10
6.901819568
 20
2.8078520708
 30
0.0
 10
6.901897397
 20
2.8079177887
 30
0.0
 10
6.901983713
 20
2.807953053
 30
0.0
 10
6.9020271391
 20
2.807960381
 30
0.0
 10
6.9020486736
 20
2.8079616455
 30
0.0
  0
SPLINE
  5
47C
100
AcDbEntity
  8
0
100
AcDbSpline
 62
7
  6
CONTINUOUS
 70
0
 71
3
 72
20
 73
16
 74
0
 42
0.0000001
 43
0.0000001
 44
0.0000000001
 40
0.0
 40
0.0
 40
0.0
 40
0.0
 40
0.1996440144
 40
0.3799828756
 40
0.5386814829
 40
0.60944487
 40
0.6743041441
 40
0.7331896234
 40
0.7861363283
 40
0.8332695181
 40
0.874852454
 40
0.911363523
 40
0.9435552288
 40
0.9725757436
 40
1.0
 40
1.0
 40
1.0
 40
1.0
 10
6.9013678364
 20
2.8546392617
 30
0.0
 10
6.9013861774
 20
2.8549829756
 30
0.0
 10
6.9014333849
 20
2.8556366364
 30
0.0
 10
6.9015433532
 20
2.856559185
 30
0.0
 10
6.9016672925
 20
2.8572553819
 30
0.0
 10
6.9017857354
 20
2.8577489422
 30
0.0
 10
6.9018787086
 20
2.8580712867
 30
0.0
 10
6.9019788942
 20
2.8583591599
 30
0.0
 10
6.9020858571
 20
2.8586117553
 30
0.0
 10
6.9021992308
 20
2.8588284657
 30
0.0
 10
6.9023187901
 20
2.8590088237
 30
0.0
 10
6.9024443461
 20
2.8591525553
 30
0.0
 10
6.9025761676
 20
2.8592592137
 30
0.0
 10
6.902714365
 20
2.859327728
 30
0.0
 10
6.9028111838
 20
2.8593470241
 30
0.0
 10
6.9028583846
 20
2.8593497886
 30
0.0
  0
LINE
  5
47D
100
AcDbEntity
  8
0
100
AcDbLine
 62
7
  6
CONTINUOUS
 10
6.8926593377
 20
2.8311091706
 11
6.8924435109
 21
2.8316383889
  0
SPLINE
  5
47E
100
AcDbEntity
  8
0
100
AcDbSpline
 62
7
  6
CONTINUOUS
 70
0
 71
3
 72
23
 73
19
 74
0
 42
0.0000001
 43
0.0000001
 44
0.0000000001
 40
0.0
 40
0.0
 40
0.0
 40
0.0
 40
0.01759573
 40
0.0374839864
 40
0.0838041842
 40
0.1381489392
 40
0.1995285745
 40
0.2668130219
 40
0.3387513693
 40
0.4911074894
 40
0.644990949
 40
0.7187396559
 40
0.7883846242
 40
0.8525317627
 40
0.9099011524
 40
0.9593658877
 40
0.980836084
 40
1.0
 40
1.0
 40
1.0
 40
1.0
 10
6.8924435109
 20
2.8316383889
 30
0.0
 10
6.8924096785
 20
2.831737213
 30
0.0
 10
6.8923420411
 20
2.8319492615
 30
0.0
 10
6.8922052565
 20
2.8324276332
 30
0.0
 10
6.8920342078
 20
2.833122775
 30
0.0
 10
6.8918346881
 20
2.8340639181
 30
0.0
 10
6.8916361091
 20
2.8351321245
 30
0.0
 10
6.8914423442
 20
2.8363071759
 30
0.0
 10
6.891190805
 20
2.8380197968
 30
0.0
 10
6.8909175261
 20
2.8402484609
 30
0.0
 10
6.8907058566
 20
2.8424946015
 30
0.0
 10
6.8905809839
 20
2.8442549956
 30
0.0
 10
6.8905146353
 20
2.8454853139
 30
0.0
 10
6.8904754615
 20
2.8466195339
 30
0.0
 10
6.890464202
 20
2.8476345761
 30
0.0
 10
6.8904783908
 20
2.848396302
 30
0.0
 10
6.8905060271
 20
2.8489304908
 30
0.0
 10
6.890524869
 20
2.8491710179
 30
0.0
 10
6.8905357768
 20
2.849284258
 30
0.0
  0
SPLINE
  5
47F
100
AcDbEntity
  8
0
100
AcDbSpline
 62
7
  6
CONTINUOUS
 70
0
 71
3
 72
17
 73
13
 74
0
 42
0.0000001
 43
0.0000001
 44
0.0000000001
 40
0.0
 40
0.0
 40
0.0
 40
0.0
 40
0.2109272194
 40
0.3964056387
 40
0.5561817732
 40
0.6902255662
 40
0.7989717407
 40
0.8837932901
 40
0.9182163127
 40
0.948201821
 40
0.9749191682
 40
1.0
 40
1.0
 40
1.0
 40
1.0
 10
6.8905357768
 20
2.849284258
 30
0.0
 10
6.8905439082
 20
2.8493686757
 30
0.0
 10
6.8905613094
 20
2.8495271375
 30
0.0
 10
6.890593699
 20
2.849748471
 30
0.0
 10
6.8906305177
 20
2.8499377149
 30
0.0
 10
6.8906715745
 20
2.850094482
 30
0.0
 10
6.8907167014
 20
2.8502184098
 30
0.0
 10
6.8907602565
 20
2.8502998789
 30
0.0
 10
6.8907985909
 20
2.850346317
 30
0.0
 10
6.8908265994
 20
2.8503703075
 30
0.0
 10
6.8908560018
 20
2.8503857573
 30
0.0
 10
6.8908767148
 20
2.8503900968
 30
0.0
 10
6.8908867809
 20
2.8503907045
 30
0.0
  0
SPLINE
  5
480
100
AcDbEntity
  8
0
100
AcDbSpline
 62
7
  6
CONTINUOUS
 70
0
 71
3
 72
15
 73
11
 74
0
 42
0.0000001
 43
0.0000001
 44
0.0000000001
 40
0.0
 40
0.0
 40
0.0
 40
0.0
 40
0.1128366324
 40
0.2278568465
 40
0.3459174327
 40
0.4678902068
 40
0.5944733215
 40
0.7259287434
 40
0.8616679258
 40
1.0
 40
1.0
 40
1.0
 40
1.0
 10
7.1791052807
 20
2.6237701809
 30
0.0
 10
7.1789855273
 20
2.6232813614
 30
0.0
 10
7.1786736536
 20
2.6223098827
 30
0.0
 10
7.1779925989
 20
2.6209194971
 30
0.0
 10
7.1770864533
 20
2.6196130158
 30
0.0
 10
7.1759495645
 20
2.6184277892
 30
0.0
 10
7.174583426
 20
2.6174107701
 30
0.0
 10
7.1730052381
 20
2.6166186222
 30
0.0
 10
7.1712589035
 20
2.6161108183
 30
0.0
 10
7.1700332989
 20
2.6159941723
 30
0.0
 10
7.1694163095
 20
2.6159941723
 30
0.0
  0
SPLINE
  5
481
100
AcDbEntity
  8
0
100
AcDbSpline
 62
7
  6
CONTINUOUS
 70
0
 71
3
 72
15
 73
11
 74
0
 42
0.0000001
 43
0.0000001
 44
0.0000000001
 40
0.0
 40
0.0
 40
0.0
 40
0.0
 40
0.1148812846
 40
0.2315598482
 40
0.350746796
 40
0.4731805585
 40
0.5994619631
 40
0.7298336463
 40
0.8638186191
 40
1.0
 40
1.0
 40
1.0
 40
1.0
 10
7.1791052807
 20
2.6249458885
 30
0.0
 10
7.1789856879
 20
2.6244391415
 30
0.0
 10
7.17867467
 20
2.6234327196
 30
0.0
 10
7.177994488
 20
2.6219900933
 30
0.0
 10
7.1770893711
 20
2.6206342214
 30
0.0
 10
7.1759534414
 20
2.6194036969
 30
0.0
 10
7.1745878278
 20
2.6183471908
 30
0.0
 10
7.1730092493
 20
2.6175236666
 30
0.0
 10
7.171261394
 20
2.6169953423
 30
0.0
 10
7.170033514
 20
2.6168738666
 30
0.0
 10
7.1694163095
 20
2.6168738666
 30
0.0
  0
SPLINE
  5
482
100
AcDbEntity
  8
0
100
AcDbSpline
 62
7
  6
CONTINUOUS
 70
0
 71
3
 72
19
 73
15
 74
0
 42
0.0000001
 43
0.0000001
 44
0.0000000001
 40
0.0
 40
0.0
 40
0.0
 40
0.0
 40
0.1167183477
 40
0.2349770111
 40
0.2949065806
 40
0.3554334816
 40
0.4166311402
 40
0.4785503495
 40
0.6046425158
 40
0.7339284674
 40
0.7997330578
 40
0.8661265419
 40
0.9329660303
 40
1.0
 40
1.0
 40
1.0
 40
1.0
 10
7.1789462886
 20
2.6262810829
 30
0.0
 10
7.1788061091
 20
2.6257883825
 30
0.0
 10
7.1784603347
 20
2.6248133195
 30
0.0
 10
7.1778677651
 20
2.6236578661
 30
0.0
 10
7.1772941527
 20
2.6227802456
 30
0.0
 10
7.1768102385
 20
2.6221457353
 30
0.0
 10
7.1762741896
 20
2.6215427655
 30
0.0
 10
7.175485522
 20
2.6207836332
 30
0.0
 10
7.1743670895
 20
2.6199426133
 30
0.0
 10
7.173104172
 20
2.6192984769
 30
0.0
 10
7.1720190231
 20
2.6189207824
 30
0.0
 10
7.1711693926
 20
2.6187119457
 30
0.0
 10
7.1702984499
 20
2.6185845446
 30
0.0
 10
7.1697105083
 20
2.61855591
 30
0.0
 10
7.1694163095
 20
2.61855591
 30
0.0
  0
SPLINE
  5
483
100
AcDbEntity
  8
0
100
AcDbSpline
 62
7
  6
CONTINUOUS
 70
0
 71
3
 72
19
 73
15
 74
0
 42
0.0000001
 43
0.0000001
 44
0.0000000001
 40
0.0
 40
0.0
 40
0.0
 40
0.0
 40
0.118262974
 40
0.2376923817
 40
0.2980243662
 40
0.3588343987
 40
0.4201821473
 40
0.4821239296
 40
0.6078625063
 40
0.7363372452
 40
0.8016141227
 40
0.8674146451
 40
0.9336180727
 40
1.0
 40
1.0
 40
1.0
 40
1.0
 10
7.1791052807
 20
2.629632615
 30
0.0
 10
7.178985936
 20
2.6290940353
 30
0.0
 10
7.178676315
 20
2.6280256818
 30
0.0
 10
7.1781122275
 20
2.6267499866
 30
0.0
 10
7.1775510892
 20
2.6257772025
 30
0.0
 10
7.1770719298
 20
2.6250726425
 30
0.0
 10
7.1765351637
 20
2.6244011408
 30
0.0
 10
7.1757388388
 20
2.6235540147
 30
0.0
 10
7.1745956519
 20
2.6226100283
 30
0.0
 10
7.173285068
 20
2.6218805049
 30
0.0
 10
7.1721511243
 20
2.6214514399
 30
0.0
 10
7.1712603935
 20
2.6212136923
 30
0.0
 10
7.1703448949
 20
2.6210683695
 30
0.0
 10
7.1697259516
 20
2.6210356919
 30
0.0
 10
7.1694163095
 20
2.6210356919
 30
0.0
  0
SPLINE
  5
484
100
AcDbEntity
  8
0
100
AcDbSpline
 62
7
  6
CONTINUOUS
 70
0
 71
3
 72
19
 73
15
 74
0
 42
0.0000001
 43
0.0000001
 44
0.0000000001
 40
0.0
 40
0.0
 40
0.0
 40
0.0
 40
0.1196785907
 40
0.2402705136
 40
0.301055918
 40
0.3622175741
 40
0.4857568038
 40
0.611303739
 40
0.6749627968
 40
0.7391619304
 40
0.8038614084
 40
0.8689778799
 40
0.9344198408
 40
1.0
 40
1.0
 40
1.0
 40
1.0
 10
7.1791052807
 20
2.633130788
 30
0.0
 10
7.1789860309
 20
2.6325783989
 30
0.0
 10
7.178676921
 20
2.631483132
 30
0.0
 10
7.1781129193
 20
2.6301732098
 30
0.0
 10
7.1775514572
 20
2.6291739831
 30
0.0
 10
7.176910801
 20
2.6282068685
 30
0.0
 10
7.1759628696
 20
2.6270814511
 30
0.0
 10
7.1748301449
 20
2.6261211311
 30
0.0
 10
7.1738189963
 20
2.6254784903
 30
0.0
 10
7.1730071518
 20
2.6250657396
 30
0.0
 10
7.1721517775
 20
2.6247333574
 30
0.0
 10
7.1712609117
 20
2.6244892389
 30
0.0
 10
7.170345167
 20
2.6243399785
 30
0.0
 10
7.1697259746
 20
2.6243064156
 30
0.0
 10
7.1694163095
 20
2.6243064156
 30
0.0
  0
SPLINE
  5
485
100
AcDbEntity
  8
0
100
AcDbSpline
 62
7
  6
CONTINUOUS
 70
0
 71
3
 72
18
 73
14
 74
0
 42
0.0000001
 43
0.0000001
 44
0.0000000001
 40
0.0
 40
0.0
 40
0.0
 40
0.0
 40
0.1209241221
 40
0.2425460034
 40
0.3651355309
 40
0.489002955
 40
0.6144056785
 40
0.6778034872
 40
0.7416175896
 40
0.8058184495
 40
0.8703409409
 40
0.9351194753
 40
1.0
 40
1.0
 40
1.0
 40
1.0
 10
7.1791026173
 20
2.6373768556
 30
0.0
 10
7.1789830418
 20
2.6368127262
 30
0.0
 10
7.1786736094
 20
2.6356945502
 30
0.0
 10
7.1779952467
 20
2.6340855022
 30
0.0
 10
7.1770929198
 20
2.6325726232
 30
0.0
 10
7.1759606474
 20
2.6311985073
 30
0.0
 10
7.1748276188
 20
2.6302161681
 30
0.0
 10
7.1738161098
 20
2.6295590384
 30
0.0
 10
7.1730047893
 20
2.6291373719
 30
0.0
 10
7.1721499834
 20
2.6287977994
 30
0.0
 10
7.1712597075
 20
2.6285483894
 30
0.0
 10
7.1703445669
 20
2.6283958883
 30
0.0
 10
7.1697257118
 20
2.628361593
 30
0.0
 10
7.1694163095
 20
2.628361593
 30
0.0
  0
SPLINE
  5
486
100
AcDbEntity
  8
0
100
AcDbSpline
 62
7
  6
CONTINUOUS
 70
0
 71
3
 72
18
 73
14
 74
0
 42
0.0000001
 43
0.0000001
 44
0.0000000001
 40
0.0
 40
0.0
 40
0.0
 40
0.0
 40
0.1219835336
 40
0.244480292
 40
0.3676835152
 40
0.4918258648
 40
0.6170982272
 40
0.6802682185
 40
0.7437477231
 40
0.8075158704
 40
0.8715231107
 40
0.935726267
 40
1.0
 40
1.0
 40
1.0
 40
1.0
 10
7.1791052807
 20
2.6423888384
 30
0.0
 10
7.1789861758
 20
2.6418132506
 30
0.0
 10
7.1786778007
 20
2.6406726716
 30
0.0
 10
7.1780005403
 20
2.6390302408
 30
0.0
 10
7.1770990844
 20
2.6374857522
 30
0.0
 10
7.1759673637
 20
2.6360825815
 30
0.0
 10
7.1748333255
 20
2.635078179
 30
0.0
 10
7.1738204047
 20
2.6344063064
 30
0.0
 10
7.1730085053
 20
2.6339754887
 30
0.0
 10
7.1721529584
 20
2.6336284987
 30
0.0
 10
7.1712617901
 20
2.6333736091
 30
0.0
 10
7.170345644
 20
2.6332177423
 30
0.0
 10
7.1697260145
 20
2.6331826855
 30
0.0
 10
7.1694163095
 20
2.6331826855
 30
0.0
  0
SPLINE
  5
487
100
AcDbEntity
  8
0
100
AcDbSpline
 62
7
  6
CONTINUOUS
 70
0
 71
3
 72
18
 73
14
 74
0
 42
0.0000001
 43
0.0000001
 44
0.0000000001
 40
0.0
 40
0.0
 40
0.0
 40
0.0
 40
0.1228743905
 40
0.2461094786
 40
0.3698336925
 40
0.494213151
 40
0.6193804449
 40
0.6823595561
 40
0.7455569338
 40
0.8089587786
 40
0.8725286916
 40
0.9362426277
 40
1.0
 40
1.0
 40
1.0
 40
1.0
 10
7.1791052807
 20
2.6481233401
 30
0.0
 10
7.1789862294
 20
2.6475384318
 30
0.0
 10
7.1786781489
 20
2.6463796881
 30
0.0
 10
7.1780012322
 20
2.6447102811
 30
0.0
 10
7.1771002463
 20
2.6431403686
 30
0.0
 10
7.1759690829
 20
2.6417139406
 30
0.0
 10
7.1748345905
 20
2.6406918768
 30
0.0
 10
7.173820969
 20
2.6400082375
 30
0.0
 10
7.1730090536
 20
2.639570165
 30
0.0
 10
7.1721534408
 20
2.6392173049
 30
0.0
 10
7.1712621514
 20
2.6389580848
 30
0.0
 10
7.1703458411
 20
2.6387995606
 30
0.0
 10
7.169726031
 20
2.6387639025
 30
0.0
 10
7.1694163095
 20
2.6387639025
 30
0.0
  0
SPLINE
  5
488
100
AcDbEntity
  8
0
100
AcDbSpline
 62
7
  6
CONTINUOUS
 70
0
 71
3
 72
18
 73
14
 74
0
 42
0.0000001
 43
0.0000001
 44
0.0000000001
 40
0.0
 40
0.0
 40
0.0
 40
0.0
 40
0.1236031368
 40
0.2474433423
 40
0.3715960183
 40
0.4961723313
 40
0.6212560209
 40
0.6840794293
 40
0.7470457326
 40
0.8101467994
 40
0.8733569928
 40
0.9366680724
 40
1.0
 40
1.0
 40
1.0
 40
1.0
 10
7.1791052807
 20
2.6545745382
 30
0.0
 10
7.1789862721
 20
2.6539818665
 30
0.0
 10
7.1786784275
 20
2.6528079925
 30
0.0
 10
7.1780017886
 20
2.6511161278
 30
0.0
 10
7.1771011877
 20
2.6495250564
 30
0.0
 10
7.1759704891
 20
2.6480792787
 30
0.0
 10
7.1748356365
 20
2.6470425069
 30
0.0
 10
7.1738214383
 20
2.6463490602
 30
0.0
 10
7.1730095121
 20
2.6459049461
 30
0.0
 10
7.172153846
 20
2.6455471963
 30
0.0
 10
7.171262456
 20
2.6452843679
 30
0.0
 10
7.1703460076
 20
2.6451236288
 30
0.0
 10
7.169726045
 20
2.6450874694
 30
0.0
 10
7.1694163095
 20
2.6450874694
 30
0.0
  0
SPLINE
  5
489
100
AcDbEntity
  8
0
100
AcDbSpline
 62
7
  6
CONTINUOUS
 70
0
 71
3
 72
13
 73
9
 74
0
 42
0.0000001
 43
0.0000001
 44
0.0000000001
 40
0.0
 40
0.0
 40
0.0
 40
0.0
 40
0.2490796844
 40
0.4985165787
 40
0.6235870771
 40
0.7488442456
 40
0.8743118021
 40
1.0
 40
1.0
 40
1.0
 40
1.0
 10
7.1791052807
 20
2.6617247503
 30
0.0
 10
7.1789455701
 20
2.6609208596
 30
0.0
 10
7.1785005796
 20
2.6593337408
 30
0.0
 10
7.1776162779
 20
2.6574689289
 30
0.0
 10
7.1767046035
 20
2.6560973652
 30
0.0
 10
7.1759156513
 20
2.6551419526
 30
0.0
 10
7.1750230998
 20
2.6542793979
 30
0.0
 10
7.1743612868
 20
2.6537800023
 30
0.0
 10
7.1740154638
 20
2.653553166
 30
0.0
  0
SPLINE
  5
48A
100
AcDbEntity
  8
0
100
AcDbSpline
 62
7
  6
CONTINUOUS
 70
0
 71
3
 72
11
 73
7
 74
0
 42
0.0000001
 43
0.0000001
 44
0.0000000001
 40
0.0
 40
0.0
 40
0.0
 40
0.0
 40
0.2495066069
 40
0.4994037927
 40
0.7496244442
 40
1.0
 40
1.0
 40
1.0
 40
1.0
 10
7.1740154638
 20
2.653553166
 30
0.0
 10
7.1736762911
 20
2.6533306917
 30
0.0
 10
7.1729675998
 20
2.6529287844
 30
0.0
 10
7.1718307721
 20
2.6524785394
 30
0.0
 10
7.1706385428
 20
2.6521992201
 30
0.0
 10
7.1698233487
 20
2.6521360538
 30
0.0
 10
7.1694163095
 20
2.6521360538
 30
0.0
  0
SPLINE
  5
48B
100
AcDbEntity
  8
0
100
AcDbSpline
 62
7
  6
CONTINUOUS
 70
0
 71
3
 72
18
 73
14
 74
0
 42
0.0000001
 43
0.0000001
 44
0.0000000001
 40
0.0
 40
0.0
 40
0.0
 40
0.0
 40
0.1245944353
 40
0.2492593993
 40
0.3739981707
 40
0.4988464496
 40
0.6238198601
 40
0.686432147
 40
0.7490837427
 40
0.8117740463
 40
0.8744920567
 40
0.9372512549
 40
1.0
 40
1.0
 40
1.0
 40
1.0
 10
7.1791052807
 20
2.6695543783
 30
0.0
 10
7.1789863287
 20
2.6689509382
 30
0.0
 10
7.1786787976
 20
2.6677560762
 30
0.0
 10
7.178002532
 20
2.6660330766
 30
0.0
 10
7.1771024552
 20
2.6644126802
 30
0.0
 10
7.1759724011
 20
2.6629400946
 30
0.0
 10
7.1748370755
 20
2.6618829259
 30
0.0
 10
7.1738220881
 20
2.6611758658
 30
0.0
 10
7.1730101503
 20
2.6607233735
 30
0.0
 10
7.1721544129
 20
2.6603588406
 30
0.0
 10
7.1712628838
 20
2.6600910051
 30
0.0
 10
7.1703462421
 20
2.6599271915
 30
0.0
 10
7.1697260646
 20
2.659890336
 30
0.0
 10
7.1694163095
 20
2.659890336
 30
0.0
  0
SPLINE
  5
48C
100
AcDbEntity
  8
0
100
AcDbSpline
 62
7
  6
CONTINUOUS
 70
0
 71
3
 72
18
 73
14
 74
0
 42
0.0000001
 43
0.0000001
 44
0.0000000001
 40
0.0
 40
0.0
 40
0.0
 40
0.0
 40
0.1248642452
 40
0.2497540283
 40
0.3746530349
 40
0.4995762597
 40
0.6245204707
 40
0.6870754146
 40
0.7496412579
 40
0.8122193895
 40
0.8748028158
 40
0.9374109485
 40
1.0
 40
1.0
 40
1.0
 40
1.0
 10
7.1791026173
 20
2.6780335443
 30
0.0
 10
7.1789832769
 20
2.6774277868
 30
0.0
 10
7.178675136
 20
2.6762284821
 30
0.0
 10
7.1779982821
 20
2.6744989896
 30
0.0
 10
7.1770980317
 20
2.6728726272
 30
0.0
 10
7.1759682442
 20
2.6713947296
 30
0.0
 10
7.1748332405
 20
2.6703335493
 30
0.0
 10
7.1738186256
 20
2.6696238705
 30
0.0
 10
7.1730072412
 20
2.6691698228
 30
0.0
 10
7.1721521462
 20
2.6688040466
 30
0.0
 10
7.1712613309
 20
2.6685353032
 30
0.0
 10
7.1703454535
 20
2.6683709363
 30
0.0
 10
7.169725786
 20
2.6683339558
 30
0.0
 10
7.1694163095
 20
2.6683339558
 30
0.0
  0
SPLINE
  5
48D
100
AcDbEntity
  8
0
100
AcDbSpline
 62
7
  6
CONTINUOUS
 70
0
 71
3
 72
18
 73
14
 74
0
 42
0.0000001
 43
0.0000001
 44
0.0000000001
 40
0.0
 40
0.0
 40
0.0
 40
0.0
 40
0.1249864799
 40
0.2499781372
 40
0.3749497348
 40
0.4999069071
 40
0.6248378154
 40
0.6873668323
 40
0.7498938526
 40
0.8124211933
 40
0.874943638
 40
0.9374833288
 40
1.0
 40
1.0
 40
1.0
 40
1.0
 10
7.1791052807
 20
2.6871642366
 30
0.0
 10
7.1789863507
 20
2.6865564695
 30
0.0
 10
7.1786789411
 20
2.6853531735
 30
0.0
 10
7.1780028218
 20
2.6836176684
 30
0.0
 10
7.1771029523
 20
2.681985496
 30
0.0
 10
7.1759731569
 20
2.6805021487
 30
0.0
 10
7.1748376497
 20
2.6794367856
 30
0.0
 10
7.1738223488
 20
2.6787242524
 30
0.0
 10
7.1730104075
 20
2.6782683941
 30
0.0
 10
7.1721546422
 20
2.6779011354
 30
0.0
 10
7.1712630574
 20
2.6776312872
 30
0.0
 10
7.1703463374
 20
2.6774662374
 30
0.0
 10
7.1697260726
 20
2.6774291019
 30
0.0
 10
7.1694163095
 20
2.6774291019
 30
0.0
  0
SPLINE
  5
48E
100
AcDbEntity
  8
0
100
AcDbSpline
 62
7
  6
CONTINUOUS
 70
0
 71
3
 72
18
 73
14
 74
0
 42
0.0000001
 43
0.0000001
 44
0.0000000001
 40
0.0
 40
0.0
 40
0.0
 40
0.0
 40
0.1249620517
 40
0.2499333445
 40
0.3748904176
 40
0.4998407827
 40
0.6247743207
 40
0.6873085224
 40
0.7498433066
 40
0.81238081
 40
0.8749154555
 40
0.9374688445
 40
1.0
 40
1.0
 40
1.0
 40
1.0
 10
7.1791052807
 20
2.6968961994
 30
0.0
 10
7.1789863493
 20
2.6962887031
 30
0.0
 10
7.1786789322
 20
2.6950859349
 30
0.0
 10
7.1780028038
 20
2.6933512122
 30
0.0
 10
7.1771029214
 20
2.6917197767
 30
0.0
 10
7.1759731098
 20
2.6902371026
 30
0.0
 10
7.1748376139
 20
2.6891722522
 30
0.0
 10
7.1738223325
 20
2.6884600615
 30
0.0
 10
7.1730103914
 20
2.6880044139
 30
0.0
 10
7.1721546279
 20
2.6876373257
 30
0.0
 10
7.1712630465
 20
2.6873676035
 30
0.0
 10
7.1703463315
 20
2.6872026311
 30
0.0
 10
7.1697260721
 20
2.6871655131
 30
0.0
 10
7.1694163095
 20
2.6871655131
 30
0.0
  0
SPLINE
  5
48F
100
AcDbEntity
  8
0
100
AcDbSpline
 62
7
  6
CONTINUOUS
 70
0
 71
3
 72
18
 73
14
 74
0
 42
0.0000001
 43
0.0000001
 44
0.0000000001
 40
0.0
 40
0.0
 40
0.0
 40
0.0
 40
0.1247907761
 40
0.249619316
 40
0.3744746166
 40
0.499377336
 40
0.6243293815
 40
0.6868999494
 40
0.7494891638
 40
0.8120978896
 40
0.8747180232
 40
0.9373673782
 40
1.0
 40
1.0
 40
1.0
 40
1.0
 10
7.1791052807
 20
2.7072111756
 30
0.0
 10
7.1789863398
 20
2.7066055735
 30
0.0
 10
7.1786788697
 20
2.7054064972
 30
0.0
 10
7.1780026774
 20
2.7036772486
 30
0.0
 10
7.1771027045
 20
2.7020509674
 30
0.0
 10
7.1759727797
 20
2.7005730038
 30
0.0
 10
7.1748373627
 20
2.6995117404
 30
0.0
 10
7.1738222184
 20
2.6988019457
 30
0.0
 10
7.1730102788
 20
2.6983477715
 30
0.0
 10
7.1721545274
 20
2.6979818766
 30
0.0
 10
7.1712629704
 20
2.6977130354
 30
0.0
 10
7.1703462896
 20
2.6975486042
 30
0.0
 10
7.1697260686
 20
2.6975116088
 30
0.0
 10
7.1694163095
 20
2.6975116088
 30
0.0
  0
SPLINE
  5
490
100
AcDbEntity
  8
0
100
AcDbSpline
 62
7
  6
CONTINUOUS
 70
0
 71
3
 72
18
 73
14
 74
0
 42
0.0000001
 43
0.0000001
 44
0.0000000001
 40
0.0
 40
0.0
 40
0.0
 40
0.0
 40
0.1244713984
 40
0.2490338946
 40
0.3736997178
 40
0.4985139784
 40
0.6235008583
 40
0.686139305
 40
0.748829984
 40
0.8115713714
 40
0.8743506499
 40
0.9371785906
 40
1.0
 40
1.0
 40
1.0
 40
1.0
 10
7.1791052807
 20
2.7180808926
 30
0.0
 10
7.1789863218
 20
2.7174788024
 30
0.0
 10
7.1786787522
 20
2.7162865713
 30
0.0
 10
7.1780024406
 20
2.7145674738
 30
0.0
 10
7.1771022987
 20
2.7129507518
 30
0.0
 10
7.1759721639
 20
2.7114815249
 30
0.0
 10
7.1748368959
 20
2.7104269127
 30
0.0
 10
7.1738220067
 20
2.7097215597
 30
0.0
 10
7.1730100702
 20
2.7092701176
 30
0.0
 10
7.1721543415
 20
2.708906435
 30
0.0
 10
7.1712628298
 20
2.7086392273
 30
0.0
 10
7.1703462124
 20
2.7084757992
 30
0.0
 10
7.1697260621
 20
2.708439031
 30
0.0
 10
7.1694163095
 20
2.708439031
 30
0.0
  0
SPLINE
  5
491
100
AcDbEntity
  8
0
100
AcDbSpline
 62
7
  6
CONTINUOUS
 70
0
 71
3
 72
18
 73
14
 74
0
 42
0.0000001
 43
0.0000001
 44
0.0000000001
 40
0.0
 40
0.0
 40
0.0
 40
0.0
 40
0.1240015796
 40
0.2481730643
 40
0.3725608643
 40
0.4972459106
 40
0.6222847935
 40
0.6850232474
 40
0.747863108
 40
0.8107992963
 40
0.873812059
 40
0.9369018558
 40
1.0
 40
1.0
 40
1.0
 40
1.0
 10
7.1791052807
 20
2.7294755571
 30
0.0
 10
7.1789862951
 20
2.7288785864
 30
0.0
 10
7.1786785774
 20
2.7276963338
 30
0.0
 10
7.1780020893
 20
2.7259920372
 30
0.0
 10
7.177101699
 20
2.7243892554
 30
0.0
 10
7.1759712578
 20
2.7229327711
 30
0.0
 10
7.1748362127
 20
2.7218878558
 30
0.0
 10
7.1738216979
 20
2.7211889757
 30
0.0
 10
7.1730097666
 20
2.7207415166
 30
0.0
 10
7.1721540716
 20
2.7203810589
 30
0.0
 10
7.171262626
 20
2.7201162319
 30
0.0
 10
7.1703461007
 20
2.7199542657
 30
0.0
 10
7.1697260528
 20
2.7199178285
 30
0.0
 10
7.1694163095
 20
2.7199178285
 30
0.0
  0
LINE
  5
492
100
AcDbEntity
  8
0
100
AcDbLine
 62
7
  6
CONTINUOUS
 10
7.1694163095
 20
2.7296454845
 11
7.1791052807
 21
2.7294755571
  0
SPLINE
  5
493
100
AcDbEntity
  8
0
100
AcDbSpline
 62
7
  6
CONTINUOUS
 70
0
 71
3
 72
18
 73
14
 74
0
 42
0.0000001
 43
0.0000001
 44
0.0000000001
 40
0.0
 40
0.0
 40
0.0
 40
0.0
 40
0.1233778502
 40
0.2470313079
 40
0.3710520483
 40
0.4955680371
 40
0.6206779522
 40
0.6835494793
 40
0.7465870941
 40
0.8097808833
 40
0.8731019157
 40
0.936537061
 40
1.0
 40
1.0
 40
1.0
 40
1.0
 10
7.1791026173
 20
2.7413578215
 30
0.0
 10
7.1789831915
 20
2.7407682006
 30
0.0
 10
7.1786745795
 20
2.7396003462
 30
0.0
 10
7.1779971662
 20
2.7379175075
 30
0.0
 10
7.1770961312
 20
2.7363350831
 30
0.0
 10
7.1759653791
 20
2.7348973479
 30
0.0
 10
7.1748310851
 20
2.7338667213
 30
0.0
 10
7.1738176525
 20
2.7331774329
 30
0.0
 10
7.1730062856
 20
2.7327359336
 30
0.0
 10
7.1721512975
 20
2.732380316
 30
0.0
 10
7.1712606905
 20
2.7321190713
 30
0.0
 10
7.1703451025
 20
2.7319593085
 30
0.0
 10
7.1697257566
 20
2.7319233704
 30
0.0
 10
7.1694163095
 20
2.7319233704
 30
0.0
  0
SPLINE
  5
494
100
AcDbEntity
  8
0
100
AcDbSpline
 62
7
  6
CONTINUOUS
 70
0
 71
3
 72
18
 73
14
 74
0
 42
0.0000001
 43
0.0000001
 44
0.0000000001
 40
0.0
 40
0.0
 40
0.0
 40
0.0
 40
0.1891975264
 40
0.3683526959
 40
0.5299768744
 40
0.6698752231
 40
0.7864995109
 40
0.8360483817
 40
0.8798488804
 40
0.9180085379
 40
0.9506599704
 40
0.9779406895
 40
1.0
 40
1.0
 40
1.0
 40
1.0
 10
7.1694163095
 20
2.7420360828
 30
0.0
 10
7.1700299842
 20
2.7420360828
 30
0.0
 10
7.1712247861
 20
2.7420263258
 30
0.0
 10
7.1729433481
 20
2.7419835192
 30
0.0
 10
7.1745011231
 20
2.741916622
 30
0.0
 10
7.1758547747
 20
2.7418305594
 30
0.0
 10
7.1768438367
 20
2.7417430544
 30
0.0
 10
7.1775204835
 20
2.7416653003
 30
0.0
 10
7.1779432226
 20
2.7416080794
 30
0.0
 10
7.1783103161
 20
2.7415491505
 30
0.0
 10
7.1786228017
 20
2.7414888797
 30
0.0
 10
7.1788816762
 20
2.7414276464
 30
0.0
 10
7.179035188
 20
2.7413817549
 30
0.0
 10
7.1791026173
 20
2.7413578215
 30
0.0
  0
SPLINE
  5
495
100
AcDbEntity
  8
0
100
AcDbSpline
 62
7
  6
CONTINUOUS
 70
0
 71
3
 72
18
 73
14
 74
0
 42
0.0000001
 43
0.0000001
 44
0.0000000001
 40
0.0
 40
0.0
 40
0.0
 40
0.0
 40
0.1225957463
 40
0.2455997321
 40
0.3691606595
 40
0.4934655368
 40
0.6186653576
 40
0.6817041102
 40
0.7449897748
 40
0.8085063566
 40
0.8722133425
 40
0.936080681
 40
1.0
 40
1.0
 40
1.0
 40
1.0
 10
7.1791052807
 20
2.7537134476
 30
0.0
 10
7.1789862128
 20
2.7531314744
 30
0.0
 10
7.1786780409
 20
2.7519784509
 30
0.0
 10
7.1780010172
 20
2.7503175372
 30
0.0
 10
7.1770998842
 20
2.7487556283
 30
0.0
 10
7.1759685452
 20
2.747336521
 30
0.0
 10
7.1748341932
 20
2.7463200185
 30
0.0
 10
7.1738207913
 20
2.7456400856
 30
0.0
 10
7.1730088807
 20
2.7452042974
 30
0.0
 10
7.1721532885
 20
2.7448532859
 30
0.0
 10
7.1712620372
 20
2.7445954297
 30
0.0
 10
7.1703457787
 20
2.7444377425
 30
0.0
 10
7.1697260258
 20
2.7444022739
 30
0.0
 10
7.1694163095
 20
2.7444022739
 30
0.0
  0
SPLINE
  5
496
100
AcDbEntity
  8
0
100
AcDbSpline
 62
7
  6
CONTINUOUS
 70
0
 71
3
 72
19
 73
15
 74
0
 42
0.0000001
 43
0.0000001
 44
0.0000000001
 40
0.0
 40
0.0
 40
0.0
 40
0.0
 40
0.1876134585
 40
0.3653564974
 40
0.5258881456
 40
0.6651326014
 40
0.7262530348
 40
0.7816575796
 40
0.8313987328
 40
0.8755814229
 40
0.9143430533
 40
0.9478588491
 40
0.9763290042
 40
1.0
 40
1.0
 40
1.0
 40
1.0
 10
7.1694163095
 20
2.7549000428
 30
0.0
 10
7.1700305816
 20
2.7549000428
 30
0.0
 10
7.1712268835
 20
2.7548829512
 30
0.0
 10
7.1729473399
 20
2.7548080133
 30
0.0
 10
7.1745066716
 20
2.7546908009
 30
0.0
 10
7.1756814222
 20
2.7545602857
 30
0.0
 10
7.1765101599
 20
2.7544394848
 30
0.0
 10
7.1770467783
 20
2.754347508
 30
0.0
 10
7.1775261671
 20
2.7542510351
 30
0.0
 10
7.1779489899
 20
2.754150836
 30
0.0
 10
7.1783161806
 20
2.7540475749
 30
0.0
 10
7.1786288508
 20
2.7539418285
 30
0.0
 10
7.1788880663
 20
2.7538341961
 30
0.0
 10
7.1790394965
 20
2.7537544234
 30
0.0
 10
7.1791052807
 20
2.7537134476
 30
0.0
  0
SPLINE
  5
497
100
AcDbEntity
  8
0
100
AcDbSpline
 62
7
  6
CONTINUOUS
 70
0
 71
3
 72
18
 73
14
 74
0
 42
0.0000001
 43
0.0000001
 44
0.0000000001
 40
0.0
 40
0.0
 40
0.0
 40
0.0
 40
0.1216494778
 40
0.2438697674
 40
0.3668784149
 40
0.4909328534
 40
0.6162454319
 40
0.6794871426
 40
0.7430723297
 40
0.806977438
 40
0.8711479856
 40
0.9355336804
 40
1.0
 40
1.0
 40
1.0
 40
1.0
 10
7.1791052807
 20
2.7664902393
 30
0.0
 10
7.1789861553
 20
2.7659180998
 30
0.0
 10
7.1786776678
 20
2.7647842409
 30
0.0
 10
7.1780002775
 20
2.7631517944
 30
0.0
 10
7.1770986455
 20
2.7616167177
 30
0.0
 10
7.175966719
 20
2.7602221588
 30
0.0
 10
7.174832855
 20
2.7592242911
 30
0.0
 10
7.1738201956
 20
2.7585567696
 30
0.0
 10
7.1730083029
 20
2.7581286363
 30
0.0
 10
7.1721527811
 20
2.7577838181
 30
0.0
 10
7.1712616577
 20
2.7575305301
 30
0.0
 10
7.170345572
 20
2.757375646
 30
0.0
 10
7.1697260085
 20
2.7573408115
 30
0.0
 10
7.1694163095
 20
2.7573408115
 30
0.0
  0
SPLINE
  5
498
100
AcDbEntity
  8
0
100
AcDbSpline
 62
7
  6
CONTINUOUS
 70
0
 71
3
 72
19
 73
15
 74
0
 42
0.0000001
 43
0.0000001
 44
0.0000000001
 40
0.0
 40
0.0
 40
0.0
 40
0.0
 40
0.1851765191
 40
0.3607689029
 40
0.5196729256
 40
0.657991387
 40
0.7189623718
 40
0.774449582
 40
0.824528031
 40
0.8693303439
 40
0.9090304865
 40
0.9438530094
 40
0.9740643631
 40
1.0
 40
1.0
 40
1.0
 40
1.0
 10
7.1694163095
 20
2.7681809852
 30
0.0
 10
7.1700306484
 20
2.7681809852
 30
0.0
 10
7.1712276821
 20
2.7681566081
 30
0.0
 10
7.1729489479
 20
2.7680497276
 30
0.0
 10
7.174509162
 20
2.7678825356
 30
0.0
 10
7.1756835535
 20
2.7676964668
 30
0.0
 10
7.1765112624
 20
2.7675245026
 30
0.0
 10
7.1770481009
 20
2.767393348
 30
0.0
 10
7.1775277622
 20
2.7672557425
 30
0.0
 10
7.1779509334
 20
2.7671127568
 30
0.0
 10
7.1783185728
 20
2.7669652966
 30
0.0
 10
7.1786318092
 20
2.7668141027
 30
0.0
 10
7.1788917256
 20
2.7666599334
 30
0.0
 10
7.1790409274
 20
2.7665473546
 30
0.0
 10
7.1791052807
 20
2.7664902393
 30
0.0
  0
SPLINE
  5
499
100
AcDbEntity
  8
0
100
AcDbSpline
 62
7
  6
CONTINUOUS
 70
0
 71
3
 72
18
 73
14
 74
0
 42
0.0000001
 43
0.0000001
 44
0.0000000001
 40
0.0
 40
0.0
 40
0.0
 40
0.0
 40
0.1205321819
 40
0.2418294225
 40
0.364190476
 40
0.4879548459
 40
0.6134049984
 40
0.6768871516
 40
0.7408253887
 40
0.8051870119
 40
0.8699010757
 40
0.9348936786
 40
1.0
 40
1.0
 40
1.0
 40
1.0
 10
7.1791052807
 20
2.7796592918
 30
0.0
 10
7.1789860854
 20
2.7790985059
 30
0.0
 10
7.1786772146
 20
2.7779867724
 30
0.0
 10
7.1779993854
 20
2.776387215
 30
0.0
 10
7.1770971657
 20
2.77488315
 30
0.0
 10
7.1759645635
 20
2.7735169745
 30
0.0
 10
7.1748312972
 20
2.7725406245
 30
0.0
 10
7.1738195073
 20
2.7718874196
 30
0.0
 10
7.1730076395
 20
2.7714681264
 30
0.0
 10
7.1721522017
 20
2.7711304577
 30
0.0
 10
7.1712612262
 20
2.7708824416
 30
0.0
 10
7.1703453375
 20
2.7707307913
 30
0.0
 10
7.1697259889
 20
2.7706966881
 30
0.0
 10
7.1694163095
 20
2.7706966881
 30
0.0
  0
SPLINE
  5
49A
100
AcDbEntity
  8
0
100
AcDbSpline
 62
7
  6
CONTINUOUS
 70
0
 71
3
 72
20
 73
16
 74
0
 42
0.0000001
 43
0.0000001
 44
0.0000000001
 40
0.0
 40
0.0
 40
0.0
 40
0.0
 40
0.1821732802
 40
0.3551253901
 40
0.5120514975
 40
0.5832526549
 40
0.6492999142
 40
0.7101186056
 40
0.7657427538
 40
0.8162723835
 40
0.8618693157
 40
0.9027437484
 40
0.9391651349
 40
0.9714528177
 40
1.0
 40
1.0
 40
1.0
 40
1.0
 10
7.1694163095
 20
2.7818495542
 30
0.0
 10
7.1700307376
 20
2.7818495542
 30
0.0
 10
7.171228767
 20
2.7818179439
 30
0.0
 10
7.1729510222
 20
2.781679267
 30
0.0
 10
7.174291884
 20
2.7814931468
 30
0.0
 10
7.1752666744
 20
2.7813072589
 30
0.0
 10
7.1759181692
 20
2.7811588183
 30
0.0
 10
7.1765126542
 20
2.7809987063
 30
0.0
 10
7.1770497387
 20
2.7808286628
 30
0.0
 10
7.1775296855
 20
2.780650189
 30
0.0
 10
7.1779531946
 20
2.7804646628
 30
0.0
 10
7.1783212229
 20
2.7802732131
 30
0.0
 10
7.1786348653
 20
2.7800767567
 30
0.0
 10
7.1788951543
 20
2.7798762174
 30
0.0
 10
7.1790420937
 20
2.7797319405
 30
0.0
 10
7.1791052807
 20
2.7796592918
 30
0.0
  0
SPLINE
  5
49B
100
AcDbEntity
  8
0
100
AcDbSpline
 62
7
  6
CONTINUOUS
 70
0
 71
3
 72
20
 73
16
 74
0
 42
0.0000001
 43
0.0000001
 44
0.0000000001
 40
0.0
 40
0.0
 40
0.0
 40
0.0
 40
0.1192130799
 40
0.1792089711
 40
0.2394898472
 40
0.3610824664
 40
0.4844943623
 40
0.5470590669
 40
0.6102064963
 40
0.6739564564
 40
0.7382911427
 40
0.8031670102
 40
0.8684940707
 40
0.9341714638
 40
1.0
 40
1.0
 40
1.0
 40
1.0
 10
7.1791052807
 20
2.7931845099
 30
0.0
 10
7.1789860011
 20
2.7926365635
 30
0.0
 10
7.1787543327
 20
2.7918228277
 30
0.0
 10
7.1783400317
 20
2.7907745212
 30
0.0
 10
7.1778502563
 20
2.7897466939
 30
0.0
 10
7.1770955677
 20
2.7885186295
 30
0.0
 10
7.176154292
 20
2.7874110294
 30
0.0
 10
7.175289115
 20
2.7866187706
 30
0.0
 10
7.174580808
 20
2.7860758291
 30
0.0
 10
7.1738187006
 20
2.7855954758
 30
0.0
 10
7.1730069016
 20
2.7851862184
 30
0.0
 10
7.1721515528
 20
2.7848566246
 30
0.0
 10
7.1712607474
 20
2.7846145701
 30
0.0
 10
7.1703450777
 20
2.784466573
 30
0.0
 10
7.1697259671
 20
2.7844332959
 30
0.0
 10
7.1694163095
 20
2.7844332959
 30
0.0
  0
SPLINE
  5
49C
100
AcDbEntity
  8
0
100
AcDbSpline
 62
7
  6
CONTINUOUS
 70
0
 71
3
 72
21
 73
17
 74
0
 42
0.0000001
 43
0.0000001
 44
0.0000000001
 40
0.0
 40
0.0
 40
0.0
 40
0.0
 40
0.1787730345
 40
0.2653454134
 40
0.3487743873
 40
0.5034975404
 40
0.5739747696
 40
0.6395819394
 40
0.7002679709
 40
0.7560898069
 40
0.8071718291
 40
0.8537023068
 40
0.8959216143
 40
0.9341324551
 40
0.9686862635
 40
1.0
 40
1.0
 40
1.0
 40
1.0
 10
7.1694163095
 20
2.7958682854
 30
0.0
 10
7.1700308484
 20
2.7958682854
 30
0.0
 10
7.1709433807
 20
2.795838782
 30
0.0
 10
7.1721383958
 20
2.795739764
 30
0.0
 10
7.1732471531
 20
2.7956093563
 30
0.0
 10
7.1742942056
 20
2.7954310746
 30
0.0
 10
7.175267866
 20
2.7952034968
 30
0.0
 10
7.1759195641
 20
2.7950214921
 30
0.0
 10
7.1765142645
 20
2.7948251519
 30
0.0
 10
7.1770515881
 20
2.7946165948
 30
0.0
 10
7.1775317914
 20
2.7943976462
 30
0.0
 10
7.1779555725
 20
2.7941699731
 30
0.0
 10
7.178323864
 20
2.793934936
 30
0.0
 10
7.1786377019
 20
2.7936936592
 30
0.0
 10
7.1788980478
 20
2.7934472776
 30
0.0
 10
7.1790429746
 20
2.7932722868
 30
0.0
 10
7.1791052807
 20
2.7931845099
 30
0.0
  0
SPLINE
  5
49D
100
AcDbEntity
  8
0
100
AcDbSpline
 62
7
  6
CONTINUOUS
 70
0
 71
3
 72
19
 73
15
 74
0
 42
0.0000001
 43
0.0000001
 44
0.0000000001
 40
0.0
 40
0.0
 40
0.0
 40
0.0
 40
0.1177463307
 40
0.2367521116
 40
0.2969191161
 40
0.3576013581
 40
0.4188630195
 40
0.4807644819
 40
0.6065723515
 40
0.7353222773
 40
0.8008069091
 40
0.8668533019
 40
0.9333302202
 40
1.0
 40
1.0
 40
1.0
 40
1.0
 10
7.1791052807
 20
2.8070288217
 30
0.0
 10
7.1789859004
 20
2.8064951628
 30
0.0
 10
7.1786760872
 20
2.8054363979
 30
0.0
 10
7.1781119752
 20
2.8041729166
 30
0.0
 10
7.1775509466
 20
2.8032095472
 30
0.0
 10
7.1770717523
 20
2.8025116191
 30
0.0
 10
7.1765349511
 20
2.8018464468
 30
0.0
 10
7.1757382576
 20
2.8010069745
 30
0.0
 10
7.1745944607
 20
2.8000716674
 30
0.0
 10
7.1732843904
 20
2.7993495512
 30
0.0
 10
7.1721508816
 20
2.7989247346
 30
0.0
 10
7.1712602149
 20
2.7986892699
 30
0.0
 10
7.1703447987
 20
2.7985453456
 30
0.0
 10
7.1697259436
 20
2.7985129841
 30
0.0
 10
7.1694163095
 20
2.7985129841
 30
0.0
  0
SPLINE
  5
49E
100
AcDbEntity
  8
0
100
AcDbSpline
 62
7
  6
CONTINUOUS
 70
0
 71
3
 72
20
 73
16
 74
0
 42
0.0000001
 43
0.0000001
 44
0.0000000001
 40
0.0
 40
0.0
 40
0.0
 40
0.0
 40
0.1751478864
 40
0.2600618355
 40
0.3420031017
 40
0.4944254203
 40
0.564167766
 40
0.6293506971
 40
0.6899467171
 40
0.7460343148
 40
0.7977590987
 40
0.8453301418
 40
0.8890088124
 40
0.9291169236
 40
1.0
 40
1.0
 40
1.0
 40
1.0
 10
7.1694163095
 20
2.8101987543
 30
0.0
 10
7.1700309793
 20
2.8101987543
 30
0.0
 10
7.170944202
 20
2.8101638481
 30
0.0
 10
7.1721389833
 20
2.8100468812
 30
0.0
 10
7.1732490125
 20
2.809892651
 30
0.0
 10
7.1742968642
 20
2.8096816741
 30
0.0
 10
7.1752692157
 20
2.8094131357
 30
0.0
 10
7.1759211164
 20
2.809198015
 30
0.0
 10
7.1765160204
 20
2.8089659232
 30
0.0
 10
7.1770535491
 20
2.8087193589
 30
0.0
 10
7.1775339604
 20
2.8084604523
 30
0.0
 10
7.1779578888
 20
2.8081912225
 30
0.0
 10
7.1783264053
 20
2.8079130775
 30
0.0
 10
7.1787281964
 20
2.8075477698
 30
0.0
 10
7.1789771444
 20
2.8072420407
 30
0.0
 10
7.1791052807
 20
2.8070288217
 30
0.0
  0
SPLINE
  5
49F
100
AcDbEntity
  8
0
100
AcDbSpline
 62
7
  6
CONTINUOUS
 70
0
 71
3
 72
18
 73
14
 74
0
 42
0.0000001
 43
0.0000001
 44
0.0000000001
 40
0.0
 40
0.0
 40
0.0
 40
0.0
 40
0.116072737
 40
0.2337145762
 40
0.3535463581
 40
0.4145392913
 40
0.4763210204
 40
0.6023747907
 40
0.7320316713
 40
0.7981932484
 40
0.865037499
 40
0.9323996376
 40
1.0
 40
1.0
 40
1.0
 40
1.0
 10
7.1791026173
 20
2.8211510658
 30
0.0
 10
7.1789827099
 20
2.8206336532
 30
0.0
 10
7.1786714622
 20
2.8196064904
 30
0.0
 10
7.1779912239
 20
2.8181331416
 30
0.0
 10
7.1772410518
 20
2.8169850519
 30
0.0
 10
7.1765295509
 20
2.8161315841
 30
0.0
 10
7.1757317788
 20
2.8153176957
 30
0.0
 10
7.1745865324
 20
2.8144115469
 30
0.0
 10
7.1732789656
 20
2.8137141505
 30
0.0
 10
7.1721477036
 20
2.8133035621
 30
0.0
 10
7.1712579909
 20
2.8130757767
 30
0.0
 10
7.1703436483
 20
2.8129365599
 30
0.0
 10
7.1697256347
 20
2.8129052619
 30
0.0
 10
7.1694163095
 20
2.8129052619
 30
0.0
  0
SPLINE
  5
4A0
100
AcDbEntity
  8
0
100
AcDbSpline
 62
7
  6
CONTINUOUS
 70
0
 71
3
 72
18
 73
14
 74
0
 42
0.0000001
 43
0.0000001
 44
0.0000000001
 40
0.0
 40
0.0
 40
0.0
 40
0.0
 40
0.1713213491
 40
0.334836113
 40
0.4848907636
 40
0.6186345401
 40
0.6791879341
 40
0.7356062644
 40
0.7880506911
 40
0.83674297
 40
0.8819542938
 40
0.9240109161
 40
1.0
 40
1.0
 40
1.0
 40
1.0
 10
7.1694163095
 20
2.8247934684
 30
0.0
 10
7.1700305737
 20
2.8247934684
 30
0.0
 10
7.1712318218
 20
2.8247405974
 30
0.0
 10
7.172957249
 20
2.8245088698
 30
0.0
 10
7.1745220475
 20
2.8241461646
 30
0.0
 10
7.1756924642
 20
2.8237443583
 30
0.0
 10
7.1765131563
 20
2.8233763063
 30
0.0
 10
7.1770508472
 20
2.8230927362
 30
0.0
 10
7.1775314825
 20
2.82279495
 30
0.0
 10
7.1779556964
 20
2.8224852378
 30
0.0
 10
7.1783244766
 20
2.8221652721
 30
0.0
 10
7.1787294465
 20
2.8217421162
 30
0.0
 10
7.1789760407
 20
2.8213923336
 30
0.0
 10
7.1791026173
 20
2.8211510658
 30
0.0
  0
SPLINE
  5
4A1
100
AcDbEntity
  8
0
100
AcDbSpline
 62
7
  6
CONTINUOUS
 70
0
 71
3
 72
15
 73
11
 74
0
 42
0.0000001
 43
0.0000001
 44
0.0000000001
 40
0.0
 40
0.0
 40
0.0
 40
0.0
 40
0.1142247139
 40
0.230369742
 40
0.3491931124
 40
0.471476667
 40
0.5978534489
 40
0.7285733331
 40
0.8631240058
 40
1.0
 40
1.0
 40
1.0
 40
1.0
 10
7.1791052807
 20
2.8355221709
 30
0.0
 10
7.1789856375
 20
2.8350212553
 30
0.0
 10
7.17867435
 20
2.8340261988
 30
0.0
 10
7.1779938898
 20
2.832600554
 30
0.0
 10
7.1770884402
 20
2.8312607331
 30
0.0
 10
7.1759521939
 20
2.8300449283
 30
0.0
 10
7.1745863991
 20
2.8290012578
 30
0.0
 10
7.1730079372
 20
2.8281879414
 30
0.0
 10
7.1712605749
 20
2.8276663011
 30
0.0
 10
7.1700334432
 20
2.8275464007
 30
0.0
 10
7.1694163095
 20
2.8275464007
 30
0.0
  0
SPLINE
  5
4A2
100
AcDbEntity
  8
0
100
AcDbSpline
 62
7
  6
CONTINUOUS
 70
0
 71
3
 72
15
 73
11
 74
0
 42
0.0000001
 43
0.0000001
 44
0.0000000001
 40
0.0
 40
0.0
 40
0.0
 40
0.0
 40
0.1676153078
 40
0.3279338352
 40
0.4757169012
 40
0.6084029119
 40
0.7256556373
 40
0.8285688138
 40
0.9191416909
 40
1.0
 40
1.0
 40
1.0
 40
1.0
 10
7.1694163095
 20
2.8396370433
 30
0.0
 10
7.170031296
 20
2.8396370433
 30
0.0
 10
7.1712354143
 20
2.8395771412
 30
0.0
 10
7.1729639792
 20
2.8393146959
 30
0.0
 10
7.1745315713
 20
2.8389038706
 30
0.0
 10
7.1758950808
 20
2.8383742382
 30
0.0
 10
7.1770360801
 20
2.8377542665
 30
0.0
 10
7.1779518574
 20
2.8370671029
 30
0.0
 10
7.1786463345
 20
2.8363311282
 30
0.0
 10
7.1789806433
 20
2.8357913917
 30
0.0
 10
7.1791052807
 20
2.8355221709
 30
0.0
  0
SPLINE
  5
4A3
100
AcDbEntity
  8
0
100
AcDbSpline
 62
7
  6
CONTINUOUS
 70
0
 71
3
 72
15
 73
11
 74
0
 42
0.0000001
 43
0.0000001
 44
0.0000000001
 40
0.0
 40
0.0
 40
0.0
 40
0.0
 40
0.1121041211
 40
0.226532507
 40
0.3441937973
 40
0.4660062681
 40
0.5927007834
 40
0.7245439726
 40
0.8609062682
 40
1.0
 40
1.0
 40
1.0
 40
1.0
 10
7.1791052807
 20
2.85009311
 30
0.0
 10
7.1789854671
 20
2.8496105513
 30
0.0
 10
7.1786732748
 20
2.8486512774
 30
0.0
 10
7.1779919032
 20
2.8472791601
 30
0.0
 10
7.1770853947
 20
2.8459899592
 30
0.0
 10
7.1759481816
 20
2.844820583
 30
0.0
 10
7.174581883
 20
2.8438173717
 30
0.0
 10
7.1730038537
 20
2.8430361765
 30
0.0
 10
7.1712580532
 20
2.8425355189
 30
0.0
 10
7.1700332257
 20
2.8424205506
 30
0.0
 10
7.1694163095
 20
2.8424205506
 30
0.0
  0
SPLINE
  5
4A4
100
AcDbEntity
  8
0
100
AcDbSpline
 62
7
  6
CONTINUOUS
 70
0
 71
3
 72
15
 73
11
 74
0
 42
0.0000001
 43
0.0000001
 44
0.0000000001
 40
0.0
 40
0.0
 40
0.0
 40
0.0
 40
0.1638406458
 40
0.3209250958
 40
0.4664455154
 40
0.5981247953
 40
0.715785816
 40
0.820586549
 40
0.9144999046
 40
1.0
 40
1.0
 40
1.0
 40
1.0
 10
7.1694163095
 20
2.8546641751
 30
0.0
 10
7.1700314783
 20
2.8546641751
 30
0.0
 10
7.1712375782
 20
2.8545974491
 30
0.0
 10
7.1729680546
 20
2.8543052188
 30
0.0
 10
7.1745372849
 20
2.8538477406
 30
0.0
 10
7.1759020013
 20
2.8532579081
 30
0.0
 10
7.1770436282
 20
2.8525674024
 30
0.0
 10
7.1779591408
 20
2.8518022484
 30
0.0
 10
7.1786521337
 20
2.8509833953
 30
0.0
 10
7.1789817876
 20
2.8503894319
 30
0.0
 10
7.1791052807
 20
2.85009311
 30
0.0
  0
SPLINE
  5
4A5
100
AcDbEntity
  8
0
100
AcDbSpline
 62
7
  6
CONTINUOUS
 70
0
 71
3
 72
15
 73
11
 74
0
 42
0.0000001
 43
0.0000001
 44
0.0000000001
 40
0.0
 40
0.0
 40
0.0
 40
0.0
 40
0.1097465024
 40
0.222278494
 40
0.3386700004
 40
0.4599837988
 40
0.5870482716
 40
0.720137294
 40
0.8584859723
 40
1.0
 40
1.0
 40
1.0
 40
1.0
 10
7.1791052807
 20
2.8648271603
 30
0.0
 10
7.1789852634
 20
2.8643642086
 30
0.0
 10
7.1786720004
 20
2.8634431656
 30
0.0
 10
7.1779895948
 20
2.8621283515
 30
0.0
 10
7.177081942
 20
2.860893383
 30
0.0
 10
7.1759437559
 20
2.8597737538
 30
0.0
 10
7.1745770378
 20
2.858813841
 30
0.0
 10
7.172999577
 20
2.8580669274
 30
0.0
 10
7.1712554565
 20
2.8575885845
 30
0.0
 10
7.1700330023
 20
2.8574788418
 30
0.0
 10
7.1694163095
 20
2.8574788418
 30
0.0
  0
SPLINE
  5
4A6
100
AcDbEntity
  8
0
100
AcDbSpline
 62
7
  6
CONTINUOUS
 70
0
 71
3
 72
15
 73
11
 74
0
 42
0.0000001
 43
0.0000001
 44
0.0000000001
 40
0.0
 40
0.0
 40
0.0
 40
0.0
 40
0.1601559382
 40
0.3141009209
 40
0.457456637
 40
0.5882188167
 40
0.7063449495
 40
0.8130194123
 40
0.9101426245
 40
1.0
 40
1.0
 40
1.0
 40
1.0
 10
7.1694163095
 20
2.8698418891
 30
0.0
 10
7.1700316738
 20
2.8698418891
 30
0.0
 10
7.1712398949
 20
2.8697684711
 30
0.0
 10
7.1729723532
 20
2.8694470796
 30
0.0
 10
7.1745431594
 20
2.8689439703
 30
0.0
 10
7.1759088532
 20
2.8682953501
 30
0.0
 10
7.1770507268
 20
2.8675361412
 30
0.0
 10
7.1779655557
 20
2.8666952895
 30
0.0
 10
7.1786568617
 20
2.8657963049
 30
0.0
 10
7.1789826724
 20
2.8651499139
 30
0.0
 10
7.1791052807
 20
2.8648271603
 30
0.0
  0
SPLINE
  5
4A7
100
AcDbEntity
  8
0
100
AcDbSpline
 62
7
  6
CONTINUOUS
 70
0
 71
3
 72
17
 73
13
 74
0
 42
0.0000001
 43
0.0000001
 44
0.0000000001
 40
0.0
 40
0.0
 40
0.0
 40
0.0
 40
0.1071134217
 40
0.2175374604
 40
0.3325256596
 40
0.3921677095
 40
0.4533897495
 40
0.5808542816
 40
0.7152868047
 40
0.784951392
 40
0.8558945893
 40
1.0
 40
1.0
 40
1.0
 40
1.0
 10
7.1791052807
 20
2.8796839369
 30
0.0
 10
7.1789850185
 20
2.8792417816
 30
0.0
 10
7.1786704637
 20
2.878361288
 30
0.0
 10
7.1779869942
 20
2.8771075191
 30
0.0
 10
7.1772382734
 20
2.8761378292
 30
0.0
 10
7.1765305166
 20
2.875417478
 30
0.0
 10
7.1757264791
 20
2.8747215802
 30
0.0
 10
7.1745718898
 20
2.8739495527
 30
0.0
 10
7.1732723257
 20
2.8733639889
 30
0.0
 10
7.1721465686
 20
2.8730175503
 30
0.0
 10
7.1709552987
 20
2.8727589046
 30
0.0
 10
7.1700327756
 20
2.8726800004
 30
0.0
 10
7.1694163095
 20
2.8726800004
 30
0.0
  0
SPLINE
  5
4A8
100
AcDbEntity
  8
0
100
AcDbSpline
 62
7
  6
CONTINUOUS
 70
0
 71
3
 72
15
 73
11
 74
0
 42
0.0000001
 43
0.0000001
 44
0.0000000001
 40
0.0
 40
0.0
 40
0.0
 40
0.0
 40
0.1566014812
 40
0.3075348706
 40
0.4488439862
 40
0.578781467
 40
0.6974137008
 40
0.8059177992
 40
0.9060874224
 40
1.0
 40
1.0
 40
1.0
 40
1.0
 10
7.1694163095
 20
2.8851285844
 30
0.0
 10
7.1700318804
 20
2.8851285844
 30
0.0
 10
7.1712423377
 20
2.8850486241
 30
0.0
 10
7.1729768148
 20
2.8846987805
 30
0.0
 10
7.1745490967
 20
2.8841512149
 30
0.0
 10
7.1759155196
 20
2.8834454432
 30
0.0
 10
7.1770572987
 20
2.8826196363
 30
0.0
 10
7.1779711498
 20
2.8817056403
 30
0.0
 10
7.1786607244
 20
2.8807294128
 30
0.0
 10
7.1789833664
 20
2.8800323772
 30
0.0
 10
7.1791052807
 20
2.8796839369
 30
0.0
  0
SPLINE
  5
4A9
100
AcDbEntity
  8
0
100
AcDbSpline
 62
7
  6
CONTINUOUS
 70
0
 71
3
 72
17
 73
13
 74
0
 42
0.0000001
 43
0.0000001
 44
0.0000000001
 40
0.0
 40
0.0
 40
0.0
 40
0.0
 40
0.1042404851
 40
0.212390664
 40
0.3258972428
 40
0.3851452617
 40
0.446223744
 40
0.5741842374
 40
0.7101244555
 40
0.7808701842
 40
0.853067081
 40
1.0
 40
1.0
 40
1.0
 40
1.0
 10
7.1791052807
 20
2.8946227184
 30
0.0
 10
7.1789847225
 20
2.8942024837
 30
0.0
 10
7.1786686568
 20
2.8933647886
 30
0.0
 10
7.1779838788
 20
2.8921754752
 30
0.0
 10
7.1772357645
 20
2.8912581255
 30
0.0
 10
7.1765293075
 20
2.8905766573
 30
0.0
 10
7.175723408
 20
2.8899155952
 30
0.0
 10
7.1745664592
 20
2.8891832098
 30
0.0
 10
7.1732695947
 20
2.8886299837
 30
0.0
 10
7.1721456485
 20
2.8883021604
 30
0.0
 10
7.1709539096
 20
2.8880569564
 30
0.0
 10
7.1700325479
 20
2.8879823612
 30
0.0
 10
7.1694163095
 20
2.8879823612
 30
0.0
  0
SPLINE
  5
4AA
100
AcDbEntity
  8
0
100
AcDbSpline
 62
7
  6
CONTINUOUS
 70
0
 71
3
 72
15
 73
11
 74
0
 42
0.0000001
 43
0.0000001
 44
0.0000000001
 40
0.0
 40
0.0
 40
0.0
 40
0.0
 40
0.1532059696
 40
0.3012784322
 40
0.4406710452
 40
0.5698745383
 40
0.6890389372
 40
0.7993057939
 40
0.9023385174
 40
1.0
 40
1.0
 40
1.0
 40
1.0
 10
7.1694163095
 20
2.9004823612
 30
0.0
 10
7.170032096
 20
2.9004823612
 30
0.0
 10
7.1712448788
 20
2.9003960272
 30
0.0
 10
7.17298138
 20
2.9000185288
 30
0.0
 10
7.1745550085
 20
2.8994278356
 30
0.0
 10
7.175921911
 20
2.8986667646
 30
0.0
 10
7.1770633096
 20
2.8977767092
 30
0.0
 10
7.1779759985
 20
2.8967923343
 30
0.0
 10
7.1786638937
 20
2.8957418749
 30
0.0
 10
7.1789839179
 20
2.8949960204
 30
0.0
 10
7.1791052807
 20
2.8946227184
 30
0.0
  0
SPLINE
  5
4AB
100
AcDbEntity
  8
0
100
AcDbSpline
 62
7
  6
CONTINUOUS
 70
0
 71
3
 72
16
 73
12
 74
0
 42
0.0000001
 43
0.0000001
 44
0.0000000001
 40
0.0
 40
0.0
 40
0.0
 40
0.0
 40
0.1011053196
 40
0.2068089157
 40
0.318758356
 40
0.4384672689
 40
0.5016467583
 40
0.567113869
 40
0.7047064725
 40
0.8500513867
 40
1.0
 40
1.0
 40
1.0
 40
1.0
 10
7.1791026173
 20
2.9096025586
 30
0.0
 10
7.1789812831
 20
2.9092057132
 30
0.0
 10
7.1786627184
 20
2.9084138339
 30
0.0
 10
7.1779757032
 20
2.9072936476
 30
0.0
 10
7.1770640871
 20
2.906243306
 30
0.0
 10
7.1761301054
 20
2.9054651626
 30
0.0
 10
7.1752757298
 20
2.9049075878
 30
0.0
 10
7.1743158759
 20
2.9043832003
 30
0.0
 10
7.1729828373
 20
2.9038484228
 30
0.0
 10
7.1712459062
 20
2.9034449359
 30
0.0
 10
7.1700317632
 20
2.9033525586
 30
0.0
 10
7.1694163095
 20
2.9033525586
 30
0.0
  0
SPLINE
  5
4AC
100
AcDbEntity
  8
0
100
AcDbSpline
 62
7
  6
CONTINUOUS
 70
0
 71
3
 72
16
 73
12
 74
0
 42
0.0000001
 43
0.0000001
 44
0.0000000001
 40
0.0
 40
0.0
 40
0.0
 40
0.0
 40
0.1499476889
 40
0.2952920945
 40
0.4328846639
 40
0.4983517802
 40
0.5615312056
 40
0.6812406052
 40
0.7931903051
 40
0.898894604
 40
1.0
 40
1.0
 40
1.0
 40
1.0
 10
7.1694163095
 20
2.9158525586
 30
0.0
 10
7.1700317594
 20
2.9158525586
 30
0.0
 10
7.1712458965
 20
2.9157601822
 30
0.0
 10
7.1729828225
 20
2.9153566996
 30
0.0
 10
7.1743158595
 20
2.9148219242
 30
0.0
 10
7.1752757141
 20
2.9142975389
 30
0.0
 10
7.176130092
 20
2.9137399643
 30
0.0
 10
7.1770640775
 20
2.9129618211
 30
0.0
 10
7.1779756991
 20
2.9119114762
 30
0.0
 10
7.178662717
 20
2.9107912865
 30
0.0
 10
7.178981283
 20
2.9099994042
 30
0.0
 10
7.1791026173
 20
2.9096025586
 30
0.0
  0
SPLINE
  5
4AD
100
AcDbEntity
  8
0
100
AcDbSpline
 62
7
  6
CONTINUOUS
 70
0
 71
3
 72
15
 73
11
 74
0
 42
0.0000001
 43
0.0000001
 44
0.0000000001
 40
0.0
 40
0.0
 40
0.0
 40
0.0
 40
0.0976614088
 40
0.200693445
 40
0.3109600341
 40
0.4301239361
 40
0.5593274637
 40
0.6987201152
 40
0.8467930867
 40
1.0
 40
1.0
 40
1.0
 40
1.0
 10
7.1791052807
 20
2.9245823987
 30
0.0
 10
7.178983918
 20
2.924209097
 30
0.0
 10
7.1786638951
 20
2.9234632453
 30
0.0
 10
7.1779760027
 20
2.9224127891
 30
0.0
 10
7.1770633193
 20
2.9214284173
 30
0.0
 10
7.1759219247
 20
2.9205383616
 30
0.0
 10
7.1745550249
 20
2.919777289
 30
0.0
 10
7.1729813949
 20
2.9191865933
 30
0.0
 10
7.1712448885
 20
2.9188090908
 30
0.0
 10
7.1700320998
 20
2.918722756
 30
0.0
 10
7.1694163095
 20
2.918722756
 30
0.0
  0
SPLINE
  5
4AE
100
AcDbEntity
  8
0
100
AcDbSpline
 62
7
  6
CONTINUOUS
 70
0
 71
3
 72
17
 73
13
 74
0
 42
0.0000001
 43
0.0000001
 44
0.0000000001
 40
0.0
 40
0.0
 40
0.0
 40
0.0
 40
0.1469320127
 40
0.2191284444
 40
0.2898741312
 40
0.4258142959
 40
0.553774731
 40
0.6148535488
 40
0.6741017061
 40
0.7876085412
 40
0.8957594361
 40
1.0
 40
1.0
 40
1.0
 40
1.0
 10
7.1694163095
 20
2.931222756
 30
0.0
 10
7.1700325441
 20
2.931222756
 30
0.0
 10
7.1709539001
 20
2.9311481623
 30
0.0
 10
7.1721456332
 20
2.9309029597
 30
0.0
 10
7.1732695783
 20
2.9305751407
 30
0.0
 10
7.1745664426
 20
2.9300219156
 30
0.0
 10
7.1757233937
 20
2.9292895323
 30
0.0
 10
7.1765292954
 20
2.9286284702
 30
0.0
 10
7.1772357563
 20
2.9279470014
 30
0.0
 10
7.1779838747
 20
2.927029649
 30
0.0
 10
7.1786686555
 20
2.9258403319
 30
0.0
 10
7.1789847224
 20
2.9250026337
 30
0.0
 10
7.1791052807
 20
2.9245823987
 30
0.0
  0
SPLINE
  5
4AF
100
AcDbEntity
  8
0
100
AcDbSpline
 62
7
  6
CONTINUOUS
 70
0
 71
3
 72
15
 73
11
 74
0
 42
0.0000001
 43
0.0000001
 44
0.0000000001
 40
0.0
 40
0.0
 40
0.0
 40
0.0
 40
0.0939125063
 40
0.1940814576
 40
0.3025852815
 40
0.4212170052
 40
0.5511545071
 40
0.6924636531
 40
0.8433975552
 40
1.0
 40
1.0
 40
1.0
 40
1.0
 10
7.1791052807
 20
2.9395211802
 30
0.0
 10
7.1789833665
 20
2.9391727402
 30
0.0
 10
7.1786607258
 20
2.9384757073
 30
0.0
 10
7.177971154
 20
2.9374994828
 30
0.0
 10
7.1770573084
 20
2.9365854895
 30
0.0
 10
7.1759155333
 20
2.9357596823
 30
0.0
 10
7.1745491131
 20
2.9350539092
 30
0.0
 10
7.1729768298
 20
2.9345063411
 30
0.0
 10
7.1712423473
 20
2.9341564938
 30
0.0
 10
7.1700318842
 20
2.9340765327
 30
0.0
 10
7.1694163095
 20
2.9340765327
 30
0.0
  0
SPLINE
  5
4B0
100
AcDbEntity
  8
0
100
AcDbSpline
 62
7
  6
CONTINUOUS
 70
0
 71
3
 72
17
 73
13
 74
0
 42
0.0000001
 43
0.0000001
 44
0.0000000001
 40
0.0
 40
0.0
 40
0.0
 40
0.0
 40
0.1441045214
 40
0.2150472605
 40
0.284711801
 40
0.4191442634
 40
0.5466087259
 40
0.6078310969
 40
0.6674732797
 40
0.7824617302
 40
0.8928864975
 40
1.0
 40
1.0
 40
1.0
 40
1.0
 10
7.1694163095
 20
2.9465251168
 30
0.0
 10
7.1700327718
 20
2.9465251168
 30
0.0
 10
7.1709552893
 20
2.9464462141
 30
0.0
 10
7.1721465533
 20
2.9461875699
 30
0.0
 10
7.1732723092
 20
2.9458411359
 30
0.0
 10
7.1745718731
 20
2.9452555732
 30
0.0
 10
7.1757264648
 20
2.9444835478
 30
0.0
 10
7.1765305046
 20
2.94378765
 30
0.0
 10
7.1772382652
 20
2.9430672983
 30
0.0
 10
7.1779869901
 20
2.9420976054
 30
0.0
 10
7.1786704624
 20
2.9408438327
 30
0.0
 10
7.1789850185
 20
2.9399633359
 30
0.0
 10
7.1791052807
 20
2.9395211802
 30
0.0
  0
SPLINE
  5
4B1
100
AcDbEntity
  8
0
100
AcDbSpline
 62
7
  6
CONTINUOUS
 70
0
 71
3
 72
15
 73
11
 74
0
 42
0.0000001
 43
0.0000001
 44
0.0000000001
 40
0.0
 40
0.0
 40
0.0
 40
0.0
 40
0.089857307
 40
0.1869798635
 40
0.2936540438
 40
0.4117796524
 40
0.5425418394
 40
0.6858975772
 40
0.8398430767
 40
1.0
 40
1.0
 40
1.0
 40
1.0
 10
7.1791052807
 20
2.9543779568
 30
0.0
 10
7.1789826725
 20
2.9540552035
 30
0.0
 10
7.1786568632
 20
2.953408815
 30
0.0
 10
7.17796556
 20
2.9525098332
 30
0.0
 10
7.1770507366
 20
2.9516689839
 30
0.0
 10
7.175908867
 20
2.9509097747
 30
0.0
 10
7.1745431758
 20
2.9502611531
 30
0.0
 10
7.1729723681
 20
2.9497580417
 30
0.0
 10
7.1712399045
 20
2.9494366468
 30
0.0
 10
7.1700316776
 20
2.949363228
 30
0.0
 10
7.1694163095
 20
2.949363228
 30
0.0
  0
SPLINE
  5
4B2
100
AcDbEntity
  8
0
100
AcDbSpline
 62
7
  6
CONTINUOUS
 70
0
 71
3
 72
15
 73
11
 74
0
 42
0.0000001
 43
0.0000001
 44
0.0000000001
 40
0.0
 40
0.0
 40
0.0
 40
0.0
 40
0.1415131523
 40
0.2798613327
 40
0.4129502866
 40
0.5400146786
 40
0.6613289317
 40
0.7777206844
 40
0.8902534157
 40
1.0
 40
1.0
 40
1.0
 40
1.0
 10
7.1694163095
 20
2.9617262754
 30
0.0
 10
7.1700329985
 20
2.9617262754
 30
0.0
 10
7.1712554466
 20
2.9616165338
 30
0.0
 10
7.1729995619
 20
2.9611381959
 30
0.0
 10
7.1745770212
 20
2.9603912856
 30
0.0
 10
7.1759437422
 20
2.9594313747
 30
0.0
 10
7.1770819325
 20
2.9583117457
 30
0.0
 10
7.1779895908
 20
2.9570767734
 30
0.0
 10
7.178671999
 20
2.9557619553
 30
0.0
 10
7.1789852633
 20
2.9548409089
 30
0.0
 10
7.1791052807
 20
2.9543779568
 30
0.0
  0
SPLINE
  5
4B3
100
AcDbEntity
  8
0
100
AcDbSpline
 62
7
  6
CONTINUOUS
 70
0
 71
3
 72
15
 73
11
 74
0
 42
0.0000001
 43
0.0000001
 44
0.0000000001
 40
0.0
 40
0.0
 40
0.0
 40
0.0
 40
0.0855000299
 40
0.1794127467
 40
0.2842131887
 40
0.4018736701
 40
0.5335529433
 40
0.6790733762
 40
0.8361583478
 40
1.0
 40
1.0
 40
1.0
 40
1.0
 10
7.1791052807
 20
2.9691120071
 30
0.0
 10
7.1789817877
 20
2.9688156854
 30
0.0
 10
7.1786521352
 20
2.9682217244
 30
0.0
 10
7.1779591451
 20
2.9674028738
 30
0.0
 10
7.177043638
 20
2.966637722
 30
0.0
 10
7.175902015
 20
2.965947216
 30
0.0
 10
7.1745373012
 20
2.9653573823
 30
0.0
 10
7.1729680695
 20
2.9648999021
 30
0.0
 10
7.1712375878
 20
2.9646076687
 30
0.0
 10
7.170031482
 20
2.9645409421
 30
0.0
 10
7.1694163095
 20
2.9645409421
 30
0.0
  0
SPLINE
  5
4B4
100
AcDbEntity
  8
0
100
AcDbSpline
 62
7
  6
CONTINUOUS
 70
0
 71
3
 72
15
 73
11
 74
0
 42
0.0000001
 43
0.0000001
 44
0.0000000001
 40
0.0
 40
0.0
 40
0.0
 40
0.0
 40
0.139092871
 40
0.2754546704
 40
0.4072977845
 40
0.5339922092
 40
0.6558051266
 40
0.7734666593
 40
0.8878957954
 40
1.0
 40
1.0
 40
1.0
 40
1.0
 10
7.1694163095
 20
2.9767845665
 30
0.0
 10
7.1700332219
 20
2.9767845665
 30
0.0
 10
7.1712580433
 20
2.9766695995
 30
0.0
 10
7.1730038386
 20
2.9761689471
 30
0.0
 10
7.1745818664
 20
2.9753877553
 30
0.0
 10
7.1759481679
 20
2.9743845459
 30
0.0
 10
7.1770853852
 20
2.97321517
 30
0.0
 10
7.1779918992
 20
2.9719259651
 30
0.0
 10
7.1786732735
 20
2.9705538436
 30
0.0
 10
7.178985467
 20
2.9695945662
 30
0.0
 10
7.1791052807
 20
2.9691120071
 30
0.0
  0
SPLINE
  5
4B5
100
AcDbEntity
  8
0
100
AcDbSpline
 62
7
  6
CONTINUOUS
 70
0
 71
3
 72
15
 73
11
 74
0
 42
0.0000001
 43
0.0000001
 44
0.0000000001
 40
0.0
 40
0.0
 40
0.0
 40
0.0
 40
0.0808582467
 40
0.1714305024
 40
0.2743433784
 40
0.3915955486
 40
0.5242815382
 40
0.6720646092
 40
0.8323836631
 40
1.0
 40
1.0
 40
1.0
 40
1.0
 10
7.1791052807
 20
2.9836829462
 30
0.0
 10
7.1789806434
 20
2.9834137257
 30
0.0
 10
7.178646336
 20
2.9828739912
 30
0.0
 10
7.1779518619
 20
2.9821380189
 30
0.0
 10
7.1770360899
 20
2.9814508572
 30
0.0
 10
7.1758950945
 20
2.9808308852
 30
0.0
 10
7.1745315876
 20
2.9803012517
 30
0.0
 10
7.1729639941
 20
2.9798904246
 30
0.0
 10
7.1712354238
 20
2.9796279765
 30
0.0
 10
7.1700312998
 20
2.9795680738
 30
0.0
 10
7.1694163095
 20
2.9795680738
 30
0.0
  0
SPLINE
  5
4B6
100
AcDbEntity
  8
0
100
AcDbSpline
 62
7
  6
CONTINUOUS
 70
0
 71
3
 72
15
 73
11
 74
0
 42
0.0000001
 43
0.0000001
 44
0.0000000001
 40
0.0
 40
0.0
 40
0.0
 40
0.0
 40
0.1368751463
 40
0.2714253244
 40
0.4021451275
 40
0.5285218099
 40
0.6508058037
 40
0.7696294133
 40
0.8857752012
 40
1.0
 40
1.0
 40
1.0
 40
1.0
 10
7.1694163095
 20
2.9916587164
 30
0.0
 10
7.1700334394
 20
2.9916587164
 30
0.0
 10
7.1712605649
 20
2.9915388173
 30
0.0
 10
7.1730079222
 20
2.9910171825
 30
0.0
 10
7.1745863825
 20
2.9902038696
 30
0.0
 10
7.1759521803
 20
2.9891602011
 30
0.0
 10
7.1770884308
 20
2.9879443966
 30
0.0
 10
7.1779938858
 20
2.9866045715
 30
0.0
 10
7.1786743487
 20
2.9851789224
 30
0.0
 10
7.1789856374
 20
2.9841838622
 30
0.0
 10
7.1791052807
 20
2.9836829462
 30
0.0
  0
SPLINE
  5
4B7
100
AcDbEntity
  8
0
100
AcDbSpline
 62
7
  6
CONTINUOUS
 70
0
 71
3
 72
18
 73
14
 74
0
 42
0.0000001
 43
0.0000001
 44
0.0000000001
 40
0.0
 40
0.0
 40
0.0
 40
0.0
 40
0.0759890245
 40
0.1180453711
 40
0.1632563677
 40
0.2119484983
 40
0.2643927646
 40
0.3208109039
 40
0.3813639193
 40
0.5151076617
 40
0.6651623091
 40
0.8286776035
 40
1.0
 40
1.0
 40
1.0
 40
1.0
 10
7.1791026173
 20
2.9980540513
 30
0.0
 10
7.1789760408
 20
2.9978127837
 30
0.0
 10
7.1787294473
 20
2.9974630022
 30
0.0
 10
7.1783244794
 20
2.9970398476
 30
0.0
 10
7.1779557013
 20
2.9967198837
 30
0.0
 10
7.1775314898
 20
2.996410172
 30
0.0
 10
7.1770508563
 20
2.9961123865
 30
0.0
 10
7.1765131682
 20
2.9958288164
 30
0.0
 10
7.1756924785
 20
2.9954607645
 30
0.0
 10
7.1745220637
 20
2.995058957
 30
0.0
 10
7.1729572638
 20
2.9946962504
 30
0.0
 10
7.1712318312
 20
2.9944645202
 30
0.0
 10
7.1700305774
 20
2.9944116488
 30
0.0
 10
7.1694163095
 20
2.9944116488
 30
0.0
  0
SPLINE
  5
4B8
100
AcDbEntity
  8
0
100
AcDbSpline
 62
7
  6
CONTINUOUS
 70
0
 71
3
 72
18
 73
14
 74
0
 42
0.0000001
 43
0.0000001
 44
0.0000000001
 40
0.0
 40
0.0
 40
0.0
 40
0.0
 40
0.0676001381
 40
0.1349616688
 40
0.2018054844
 40
0.2679669985
 40
0.3976237938
 40
0.5236774571
 40
0.5854595025
 40
0.6464525517
 40
0.7662845695
 40
0.8839271758
 40
1.0
 40
1.0
 40
1.0
 40
1.0
 10
7.1694163095
 20
3.0062998552
 30
0.0
 10
7.1697256337
 20
3.0062998552
 30
0.0
 10
7.1703436435
 20
3.0062685583
 30
0.0
 10
7.1712579805
 20
3.0061293426
 30
0.0
 10
7.1721476883
 20
3.0059015588
 30
0.0
 10
7.1732789494
 20
3.0054909756
 30
0.0
 10
7.1745865157
 20
3.0047935806
 30
0.0
 10
7.1757317646
 20
3.0038874342
 30
0.0
 10
7.1765295389
 20
3.0030735459
 30
0.0
 10
7.1772410437
 20
3.0022200773
 30
0.0
 10
7.1779912199
 20
3.001071984
 30
0.0
 10
7.1786714609
 20
2.9995986308
 30
0.0
 10
7.1789827098
 20
2.9985714643
 30
0.0
 10
7.1791026173
 20
2.9980540513
 30
0.0
  0
SPLINE
  5
4B9
100
AcDbEntity
  8
0
100
AcDbSpline
 62
7
  6
CONTINUOUS
 70
0
 71
3
 72
20
 73
16
 74
0
 42
0.0000001
 43
0.0000001
 44
0.0000000001
 40
0.0
 40
0.0
 40
0.0
 40
0.0
 40
0.0708830204
 40
0.1109908646
 40
0.1546692153
 40
0.2022401032
 40
0.2539647215
 40
0.3100521189
 40
0.3706477516
 40
0.4358306951
 40
0.5055729794
 40
0.6579952866
 40
0.7399365558
 40
0.8248510406
 40
1.0
 40
1.0
 40
1.0
 40
1.0
 10
7.1791052807
 20
3.0121762954
 30
0.0
 10
7.1789771445
 20
3.0119630766
 30
0.0
 10
7.1787281971
 20
3.0116573485
 30
0.0
 10
7.1783264081
 20
3.0112920418
 30
0.0
 10
7.1779578936
 20
3.0110138985
 30
0.0
 10
7.1775339678
 20
3.010744669
 30
0.0
 10
7.1770535582
 20
3.0104857631
 30
0.0
 10
7.1765160324
 20
3.0102391988
 30
0.0
 10
7.1759211305
 20
3.0100071072
 30
0.0
 10
7.1752692315
 20
3.0097919863
 30
0.0
 10
7.1742968805
 20
3.0095234467
 30
0.0
 10
7.1732490291
 20
3.0093124697
 30
0.0
 10
7.1721389983
 20
3.0091582373
 30
0.0
 10
7.1709442114
 20
3.0090412698
 30
0.0
 10
7.1700309831
 20
3.0090063628
 30
0.0
 10
7.1694163095
 20
3.0090063628
 30
0.0
  0
SPLINE
  5
4BA
100
AcDbEntity
  8
0
100
AcDbSpline
 62
7
  6
CONTINUOUS
 70
0
 71
3
 72
19
 73
15
 74
0
 42
0.0000001
 43
0.0000001
 44
0.0000000001
 40
0.0
 40
0.0
 40
0.0
 40
0.0
 40
0.0666695577
 40
0.1331458738
 40
0.1991918344
 40
0.2646764002
 40
0.3934262354
 40
0.5192339914
 40
0.5811357684
 40
0.6423975427
 40
0.7030799122
 40
0.7632470233
 40
0.882253581
 40
1.0
 40
1.0
 40
1.0
 40
1.0
 10
7.1694163095
 20
3.0206921331
 30
0.0
 10
7.1697259425
 20
3.0206921331
 30
0.0
 10
7.1703447939
 20
3.0206597726
 30
0.0
 10
7.1712602044
 20
3.0205158495
 30
0.0
 10
7.1721508662
 20
3.0202803864
 30
0.0
 10
7.1732843741
 20
3.0198555753
 30
0.0
 10
7.1745944439
 20
3.0191334605
 30
0.0
 10
7.1757382434
 20
3.0181981559
 30
0.0
 10
7.176534939
 20
3.0173586836
 30
0.0
 10
7.1770717435
 20
3.0166935106
 30
0.0
 10
7.1775509392
 20
3.0159955815
 30
0.0
 10
7.1781119718
 20
3.015032209
 30
0.0
 10
7.1786760858
 20
3.0137687234
 30
0.0
 10
7.1789859003
 20
3.0127099547
 30
0.0
 10
7.1791052807
 20
3.0121762954
 30
0.0
  0
SPLINE
  5
4BB
100
AcDbEntity
  8
0
100
AcDbSpline
 62
7
  6
CONTINUOUS
 70
0
 71
3
 72
21
 73
17
 74
0
 42
0.0000001
 43
0.0000001
 44
0.0000000001
 40
0.0
 40
0.0
 40
0.0
 40
0.0
 40
0.0313137478
 40
0.0658674914
 40
0.104078074
 40
0.1462970693
 40
0.1928273857
 40
0.2439092379
 40
0.2997308649
 40
0.3604165016
 40
0.4260236779
 40
0.4965008391
 40
0.6512239739
 40
0.7346529467
 40
0.8212258709
 40
1.0
 40
1.0
 40
1.0
 40
1.0
 10
7.1791052807
 20
3.0260206073
 30
0.0
 10
7.1790429746
 20
3.0259328303
 30
0.0
 10
7.1788980478
 20
3.0257578397
 30
0.0
 10
7.1786377028
 20
3.0255114588
 30
0.0
 10
7.1783238668
 20
3.0252701831
 30
0.0
 10
7.1779555774
 20
3.0250351473
 30
0.0
 10
7.1775317988
 20
3.0248074745
 30
0.0
 10
7.1770515973
 20
3.0245885264
 30
0.0
 10
7.1765142765
 20
3.0243799694
 30
0.0
 10
7.1759195781
 20
3.0241836293
 30
0.0
 10
7.1752678817
 20
3.0240016245
 30
0.0
 10
7.1742942219
 20
3.0237740456
 30
0.0
 10
7.1732471697
 20
3.0235957638
 30
0.0
 10
7.1721384108
 20
3.0234653543
 30
0.0
 10
7.17094339
 20
3.0233663358
 30
0.0
 10
7.1700308521
 20
3.0233368317
 30
0.0
 10
7.1694163095
 20
3.0233368317
 30
0.0
  0
SPLINE
  5
4BC
100
AcDbEntity
  8
0
100
AcDbSpline
 62
7
  6
CONTINUOUS
 70
0
 71
3
 72
20
 73
16
 74
0
 42
0.0000001
 43
0.0000001
 44
0.0000000001
 40
0.0
 40
0.0
 40
0.0
 40
0.0
 40
0.065828317
 40
0.1315051153
 40
0.1968317477
 40
0.2617075461
 40
0.3260421427
 40
0.389792093
 40
0.4529394939
 40
0.515504108
 40
0.6389164271
 40
0.7605092789
 40
0.8207905707
 40
0.8807868306
 40
1.0
 40
1.0
 40
1.0
 40
1.0
 10
7.1694163095
 20
3.0347718212
 30
0.0
 10
7.1697259661
 20
3.0347718212
 30
0.0
 10
7.1703450729
 20
3.0347385452
 30
0.0
 10
7.171260737
 20
3.0345905493
 30
0.0
 10
7.1721515373
 20
3.0343484964
 30
0.0
 10
7.1730068851
 20
3.0340189076
 30
0.0
 10
7.1738186832
 20
3.0336096501
 30
0.0
 10
7.1745807917
 20
3.0331292997
 30
0.0
 10
7.1752890993
 20
3.03258636
 30
0.0
 10
7.1761542786
 20
3.0317941016
 30
0.0
 10
7.1770955583
 20
3.0306865013
 30
0.0
 10
7.1778502513
 20
3.0294584336
 30
0.0
 10
7.1783400289
 20
3.0284306021
 30
0.0
 10
7.1787543322
 20
3.027382292
 30
0.0
 10
7.1789860011
 20
3.0265685541
 30
0.0
 10
7.1791052807
 20
3.0260206073
 30
0.0
  0
SPLINE
  5
4BD
100
AcDbEntity
  8
0
100
AcDbSpline
 62
7
  6
CONTINUOUS
 70
0
 71
3
 72
20
 73
16
 74
0
 42
0.0000001
 43
0.0000001
 44
0.0000000001
 40
0.0
 40
0.0
 40
0.0
 40
0.0
 40
0.028547194
 40
0.060834815
 40
0.0972559513
 40
0.1381300788
 40
0.1837268436
 40
0.2342562988
 40
0.2898802298
 40
0.3506985194
 40
0.4167457798
 40
0.4879468629
 40
0.6448729456
 40
0.8178256043
 40
1.0
 40
1.0
 40
1.0
 40
1.0
 10
7.1791052807
 20
3.0395458253
 30
0.0
 10
7.1790420937
 20
3.0394731766
 30
0.0
 10
7.1788951544
 20
3.0393288999
 30
0.0
 10
7.1786348662
 20
3.0391283611
 30
0.0
 10
7.1783212257
 20
3.0389319056
 30
0.0
 10
7.1779531996
 20
3.0387404571
 30
0.0
 10
7.1775296928
 20
3.0385549311
 30
0.0
 10
7.1770497478
 20
3.0383764576
 30
0.0
 10
7.1765126662
 20
3.0382064142
 30
0.0
 10
7.1759181833
 20
3.0380463023
 30
0.0
 10
7.1752666902
 20
3.0378978616
 30
0.0
 10
7.1742919003
 20
3.0377119729
 30
0.0
 10
7.172951037
 20
3.0375258519
 30
0.0
 10
7.1712287764
 20
3.0373871735
 30
0.0
 10
7.1700307414
 20
3.0373555629
 30
0.0
 10
7.1694163095
 20
3.0373555629
 30
0.0
  0
SPLINE
  5
4BE
100
AcDbEntity
  8
0
100
AcDbSpline
 62
7
  6
CONTINUOUS
 70
0
 71
3
 72
18
 73
14
 74
0
 42
0.0000001
 43
0.0000001
 44
0.0000000001
 40
0.0
 40
0.0
 40
0.0
 40
0.0
 40
0.0651061044
 40
0.1300981183
 40
0.1948117572
 40
0.2591733089
 40
0.3231114557
 40
0.3865935957
 40
0.5120436229
 40
0.6358084119
 40
0.7581696964
 40
0.8794677274
 40
1.0
 40
1.0
 40
1.0
 40
1.0
 10
7.1694163095
 20
3.0485084291
 30
0.0
 10
7.1697259878
 20
3.0485084291
 30
0.0
 10
7.1703453326
 20
3.048474327
 30
0.0
 10
7.1712612157
 20
3.0483226779
 30
0.0
 10
7.1721521861
 20
3.0480746634
 30
0.0
 10
7.173007623
 20
3.0477369998
 30
0.0
 10
7.1738194899
 20
3.0473177065
 30
0.0
 10
7.174831281
 20
3.0466645057
 30
0.0
 10
7.1759645498
 20
3.0456881563
 30
0.0
 10
7.1770971564
 20
3.0443219812
 30
0.0
 10
7.1779993815
 20
3.0428179113
 30
0.0
 10
7.1786772132
 20
3.0412183492
 30
0.0
 10
7.1789860853
 20
3.0401066117
 30
0.0
 10
7.1791052807
 20
3.0395458253
 30
0.0
  0
SPLINE
  5
4BF
100
AcDbEntity
  8
0
100
AcDbSpline
 62
7
  6
CONTINUOUS
 70
0
 71
3
 72
19
 73
15
 74
0
 42
0.0000001
 43
0.0000001
 44
0.0000000001
 40
0.0
 40
0.0
 40
0.0
 40
0.0
 40
0.0259356493
 40
0.0561469433
 40
0.0909692219
 40
0.1306690645
 40
0.1754712044
 40
0.2255494753
 40
0.2810364597
 40
0.3420070349
 40
0.4803254209
 40
0.639229405
 40
0.8148223464
 40
1.0
 40
1.0
 40
1.0
 40
1.0
 10
7.1791052807
 20
3.0527148779
 30
0.0
 10
7.1790409273
 20
3.0526577625
 30
0.0
 10
7.1788917256
 20
3.0525451839
 30
0.0
 10
7.1786318102
 20
3.052391015
 30
0.0
 10
7.1783185756
 20
3.0522398218
 30
0.0
 10
7.1779509385
 20
3.0520923624
 30
0.0
 10
7.1775277695
 20
3.0519493768
 30
0.0
 10
7.1770481101
 20
3.0518117717
 30
0.0
 10
7.1765112743
 20
3.0516806171
 30
0.0
 10
7.1756835678
 20
3.051508653
 30
0.0
 10
7.1745091782
 20
3.0513225836
 30
0.0
 10
7.1729489627
 20
3.0511553909
 30
0.0
 10
7.1712276915
 20
3.0510485093
 30
0.0
 10
7.1700306521
 20
3.051024132
 30
0.0
 10
7.1694163095
 20
3.051024132
 30
0.0
  0
SPLINE
  5
4C0
100
AcDbEntity
  8
0
100
AcDbSpline
 62
7
  6
CONTINUOUS
 70
0
 71
3
 72
18
 73
14
 74
0
 42
0.0000001
 43
0.0000001
 44
0.0000000001
 40
0.0
 40
0.0
 40
0.0
 40
0.0
 40
0.064466103
 40
0.128851213
 40
0.1930213376
 40
0.2569263676
 40
0.3205114693
 40
0.3837531748
 40
0.5090656074
 40
0.6331204649
 40
0.7561293424
 40
0.8783504309
 40
1.0
 40
1.0
 40
1.0
 40
1.0
 10
7.1694163095
 20
3.0618643056
 30
0.0
 10
7.1697260074
 20
3.0618643056
 30
0.0
 10
7.1703455671
 20
3.0618294723
 30
0.0
 10
7.1712616472
 20
3.0616745894
 30
0.0
 10
7.1721527654
 20
3.0614213031
 30
0.0
 10
7.1730082864
 20
3.0610764901
 30
0.0
 10
7.1738201781
 20
3.0606483567
 30
0.0
 10
7.1748328388
 20
3.0599808394
 30
0.0
 10
7.1759667052
 20
3.0589829723
 30
0.0
 10
7.1770986362
 20
3.0575884139
 30
0.0
 10
7.1780002737
 20
3.0560533321
 30
0.0
 10
7.1786776665
 20
3.0544208808
 30
0.0
 10
7.1789861553
 20
3.0532870178
 30
0.0
 10
7.1791052807
 20
3.0527148779
 30
0.0
  0
SPLINE
  5
4C1
100
AcDbEntity
  8
0
100
AcDbSpline
 62
7
  6
CONTINUOUS
 70
0
 71
3
 72
19
 73
15
 74
0
 42
0.0000001
 43
0.0000001
 44
0.0000000001
 40
0.0
 40
0.0
 40
0.0
 40
0.0
 40
0.0236710088
 40
0.0521411067
 40
0.0856566646
 40
0.1244180003
 40
0.1686005124
 40
0.2183414838
 40
0.2737457981
 40
0.3348658179
 40
0.474110183
 40
0.6346417968
 40
0.8123853938
 40
1.0
 40
1.0
 40
1.0
 40
1.0
 10
7.1791052807
 20
3.0654916696
 30
0.0
 10
7.1790394965
 20
3.0654506937
 30
0.0
 10
7.1788880664
 20
3.0653709212
 30
0.0
 10
7.1786288517
 20
3.065263289
 30
0.0
 10
7.1783161834
 20
3.065157543
 30
0.0
 10
7.177948995
 20
3.0650542826
 30
0.0
 10
7.1775261744
 20
3.0649540836
 30
0.0
 10
7.1770467875
 20
3.0648576109
 30
0.0
 10
7.1765101718
 20
3.0647656342
 30
0.0
 10
7.1756814365
 20
3.0646448333
 30
0.0
 10
7.1745066878
 20
3.0645143177
 30
0.0
 10
7.1729473546
 20
3.0643971048
 30
0.0
 10
7.1712268929
 20
3.0643221661
 30
0.0
 10
7.1700305853
 20
3.0643050744
 30
0.0
 10
7.1694163095
 20
3.0643050744
 30
0.0
  0
SPLINE
  5
4C2
100
AcDbEntity
  8
0
100
AcDbSpline
 62
7
  6
CONTINUOUS
 70
0
 71
3
 72
18
 73
14
 74
0
 42
0.0000001
 43
0.0000001
 44
0.0000000001
 40
0.0
 40
0.0
 40
0.0
 40
0.0
 40
0.0639191058
 40
0.1277858654
 40
0.1914924317
 40
0.2550089374
 40
0.3182945105
 40
0.3813332443
 40
0.5065329306
 40
0.6308382201
 40
0.7543993757
 40
0.8774041616
 40
1.0
 40
1.0
 40
1.0
 40
1.0
 10
7.1694163095
 20
3.0748028433
 30
0.0
 10
7.1697260248
 20
3.0748028433
 30
0.0
 10
7.1703457739
 20
3.0747673758
 30
0.0
 10
7.1712620266
 20
3.0746096899
 30
0.0
 10
7.1721532729
 20
3.0743518354
 30
0.0
 10
7.1730088642
 20
3.0740008291
 30
0.0
 10
7.1738207739
 20
3.0735650409
 30
0.0
 10
7.1748341771
 20
3.0728851122
 30
0.0
 10
7.1759685315
 20
3.0718686103
 30
0.0
 10
7.1770998749
 20
3.0704495034
 30
0.0
 10
7.1780010133
 20
3.0688875895
 30
0.0
 10
7.1786780396
 20
3.0672266709
 30
0.0
 10
7.1789862127
 20
3.0660736432
 30
0.0
 10
7.1791052807
 20
3.0654916696
 30
0.0
  0
SPLINE
  5
4C3
100
AcDbEntity
  8
0
100
AcDbSpline
 62
7
  6
CONTINUOUS
 70
0
 71
3
 72
18
 73
14
 74
0
 42
0.0000001
 43
0.0000001
 44
0.0000000001
 40
0.0
 40
0.0
 40
0.0
 40
0.0
 40
0.0220593241
 40
0.0493399872
 40
0.0819911858
 40
0.1201505522
 40
0.1639508703
 40
0.2134995576
 40
0.3301231953
 40
0.4700214495
 40
0.6316455911
 40
0.8108013204
 40
1.0
 40
1.0
 40
1.0
 40
1.0
 10
7.1791026173
 20
3.0778472956
 30
0.0
 10
7.179035188
 20
3.0778233622
 30
0.0
 10
7.1788816763
 20
3.0777774708
 30
0.0
 10
7.1786228026
 20
3.0777162376
 30
0.0
 10
7.1783103189
 20
3.0776559671
 30
0.0
 10
7.1779432277
 20
3.0775970386
 30
0.0
 10
7.1775204907
 20
3.0775398177
 30
0.0
 10
7.1768438473
 20
3.0774620638
 30
0.0
 10
7.1758547883
 20
3.0773745587
 30
0.0
 10
7.1745011392
 20
3.077288496
 30
0.0
 10
7.1729433628
 20
3.0772215985
 30
0.0
 10
7.1712247954
 20
3.0771787914
 30
0.0
 10
7.1700299879
 20
3.0771690343
 30
0.0
 10
7.1694163095
 20
3.0771690343
 30
0.0
  0
SPLINE
  5
4C4
100
AcDbEntity
  8
0
100
AcDbSpline
 62
7
  6
CONTINUOUS
 70
0
 71
3
 72
18
 73
14
 74
0
 42
0.0000001
 43
0.0000001
 44
0.0000000001
 40
0.0
 40
0.0
 40
0.0
 40
0.0
 40
0.063462728
 40
0.1268972998
 40
0.1902179158
 40
0.2534116271
 40
0.3164491501
 40
0.3793206566
 40
0.5044304334
 40
0.628946831
 40
0.7529677974
 40
0.876622057
 40
1.0
 40
1.0
 40
1.0
 40
1.0
 10
7.1694163095
 20
3.0872817468
 30
0.0
 10
7.1697257556
 20
3.0872817468
 30
0.0
 10
7.1703450977
 20
3.0872458099
 30
0.0
 10
7.17126068
 20
3.0870860483
 30
0.0
 10
7.172151282
 20
3.0868248053
 30
0.0
 10
7.1730062692
 20
3.086469193
 30
0.0
 10
7.1738176351
 20
3.0860276936
 30
0.0
 10
7.174831069
 20
3.0853384095
 30
0.0
 10
7.1759653655
 20
3.0843077835
 30
0.0
 10
7.1770961219
 20
3.0828700488
 30
0.0
 10
7.1779971624
 20
3.0812876193
 30
0.0
 10
7.1786745782
 20
3.0796047756
 30
0.0
 10
7.1789831914
 20
3.078436917
 30
0.0
 10
7.1791026173
 20
3.0778472956
 30
0.0
  0
LINE
  5
4C5
100
AcDbEntity
  8
0
100
AcDbLine
 62
7
  6
CONTINUOUS
 10
7.1791052807
 20
3.0897295601
 11
7.1694163095
 21
3.0895596327
  0
SPLINE
  5
4C6
100
AcDbEntity
  8
0
100
AcDbSpline
 62
7
  6
CONTINUOUS
 70
0
 71
3
 72
18
 73
14
 74
0
 42
0.0000001
 43
0.0000001
 44
0.0000000001
 40
0.0
 40
0.0
 40
0.0
 40
0.0
 40
0.0630979336
 40
0.126187158
 40
0.1891995046
 40
0.2521356137
 40
0.3149753821
 40
0.3777138134
 40
0.5027525555
 40
0.6274380094
 40
0.7518260357
 40
0.8759983272
 40
1.0
 40
1.0
 40
1.0
 40
1.0
 10
7.1694163095
 20
3.0992872886
 30
0.0
 10
7.1697260517
 20
3.0992872886
 30
0.0
 10
7.1703460959
 20
3.0992508527
 30
0.0
 10
7.1712626155
 20
3.0990888878
 30
0.0
 10
7.172154056
 20
3.0988240625
 30
0.0
 10
7.1730097501
 20
3.0984636101
 30
0.0
 10
7.1738216804
 20
3.098016151
 30
0.0
 10
7.1748361966
 20
3.0973172753
 30
0.0
 10
7.1759712441
 20
3.0962723606
 30
0.0
 10
7.1771016898
 20
3.0948158767
 30
0.0
 10
7.1780020855
 20
3.0932130897
 30
0.0
 10
7.1786785761
 20
3.0915087881
 30
0.0
 10
7.178986295
 20
3.0903265312
 30
0.0
 10
7.1791052807
 20
3.0897295601
 30
0.0
  0
SPLINE
  5
4C7
100
AcDbEntity
  8
0
100
AcDbSpline
 62
7
  6
CONTINUOUS
 70
0
 71
3
 72
18
 73
14
 74
0
 42
0.0000001
 43
0.0000001
 44
0.0000000001
 40
0.0
 40
0.0
 40
0.0
 40
0.0
 40
0.0628211997
 40
0.1256485705
 40
0.1884274342
 40
0.2511687413
 40
0.3138593277
 40
0.3764977505
 40
0.5014844873
 40
0.6262991541
 40
0.7509652029
 40
0.8755285082
 40
1.0
 40
1.0
 40
1.0
 40
1.0
 10
7.1694163095
 20
3.1107660861
 30
0.0
 10
7.1697260611
 20
3.1107660861
 30
0.0
 10
7.1703462076
 20
3.1107293191
 30
0.0
 10
7.1712628193
 20
3.1105658924
 30
0.0
 10
7.1721543259
 20
3.1102986864
 30
0.0
 10
7.1730100537
 20
3.1099350093
 30
0.0
 10
7.1738219893
 20
3.1094835671
 30
0.0
 10
7.1748368798
 20
3.1087782185
 30
0.0
 10
7.1759721502
 20
3.1077236069
 30
0.0
 10
7.1771022895
 20
3.1062543804
 30
0.0
 10
7.1780024368
 20
3.1046376532
 30
0.0
 10
7.1786787509
 20
3.1029185505
 30
0.0
 10
7.1789863217
 20
3.1017263152
 30
0.0
 10
7.1791052807
 20
3.1011242246
 30
0.0
  0
SPLINE
  5
4C8
100
AcDbEntity
  8
0
100
AcDbSpline
 62
7
  6
CONTINUOUS
 70
0
 71
3
 72
18
 73
14
 74
0
 42
0.0000001
 43
0.0000001
 44
0.0000000001
 40
0.0
 40
0.0
 40
0.0
 40
0.0
 40
0.0626324126
 40
0.125281199
 40
0.1879009185
 40
0.2505095635
 40
0.3130986851
 40
0.3756692282
 40
0.5006211293
 40
0.6255242539
 40
0.7503797797
 40
0.8752091302
 40
1.0
 40
1.0
 40
1.0
 40
1.0
 10
7.1694163095
 20
3.1216935083
 30
0.0
 10
7.1697260676
 20
3.1216935083
 30
0.0
 10
7.1703462848
 20
3.1216565142
 30
0.0
 10
7.1712629599
 20
3.1214920843
 30
0.0
 10
7.1721545117
 20
3.1212232449
 30
0.0
 10
7.1730102623
 20
3.1208573554
 30
0.0
 10
7.1738222009
 20
3.1204031811
 30
0.0
 10
7.1748373466
 20
3.1196933909
 30
0.0
 10
7.175972766
 20
3.1186321281
 30
0.0
 10
7.1771026952
 20
3.1171541649
 30
0.0
 10
7.1780026736
 20
3.1155278784
 30
0.0
 10
7.1786788684
 20
3.1137986247
 30
0.0
 10
7.1789863397
 20
3.1125995441
 30
0.0
 10
7.1791052807
 20
3.1119939415
 30
0.0
  0
SPLINE
  5
4C9
100
AcDbEntity
  8
0
100
AcDbSpline
 62
7
  6
CONTINUOUS
 70
0
 71
3
 72
18
 73
14
 74
0
 42
0.0000001
 43
0.0000001
 44
0.0000000001
 40
0.0
 40
0.0
 40
0.0
 40
0.0
 40
0.0625309468
 40
0.1250837683
 40
0.1876180003
 40
0.2501554221
 40
0.3126901135
 40
0.3752242898
 40
0.5001576825
 40
0.6251084522
 40
0.7500657503
 40
0.8750378545
 40
1.0
 40
1.0
 40
1.0
 40
1.0
 10
7.1694163095
 20
3.132039604
 30
0.0
 10
7.1697260711
 20
3.132039604
 30
0.0
 10
7.1703463266
 20
3.1320024873
 30
0.0
 10
7.171263036
 20
3.1318375162
 30
0.0
 10
7.1721546122
 20
3.1315677957
 30
0.0
 10
7.1730103749
 20
3.131200713
 30
0.0
 10
7.173822315
 20
3.1307450654
 30
0.0
 10
7.1748375978
 20
3.1300328791
 30
0.0
 10
7.1759730961
 20
3.1289680294
 30
0.0
 10
7.1771029121
 20
3.1274853557
 30
0.0
 10
7.1780028
 20
3.1258539148
 30
0.0
 10
7.1786789309
 20
3.124119187
 30
0.0
 10
7.1789863492
 20
3.1229164145
 30
0.0
 10
7.1791052807
 20
3.1223089177
 30
0.0
  0
SPLINE
  5
4CA
100
AcDbEntity
  8
0
100
AcDbSpline
 62
7
  6
CONTINUOUS
 70
0
 71
3
 72
18
 73
14
 74
0
 42
0.0000001
 43
0.0000001
 44
0.0000000001
 40
0.0
 40
0.0
 40
0.0
 40
0.0
 40
0.0625164624
 40
0.1250555859
 40
0.1875776171
 40
0.2501048763
 40
0.3126318036
 40
0.3751607952
 40
0.5000915581
 40
0.625049135
 40
0.7500209574
 40
0.8750134263
 40
1.0
 40
1.0
 40
1.0
 40
1.0
 10
7.1694163095
 20
3.1417760152
 30
0.0
 10
7.1697260716
 20
3.1417760152
 30
0.0
 10
7.1703463326
 20
3.141738881
 30
0.0
 10
7.1712630469
 20
3.1415738325
 30
0.0
 10
7.1721546266
 20
3.1413039861
 30
0.0
 10
7.173010391
 20
3.1409367328
 30
0.0
 10
7.1738223313
 20
3.1404808746
 30
0.0
 10
7.1748376336
 20
3.1397683457
 30
0.0
 10
7.1759731432
 20
3.1387029833
 30
0.0
 10
7.177102943
 20
3.1372196363
 30
0.0
 10
7.178002818
 20
3.1355874587
 30
0.0
 10
7.1786789398
 20
3.1338519484
 30
0.0
 10
7.1789863506
 20
3.1326486481
 30
0.0
 10
7.1791052807
 20
3.1320408806
 30
0.0
  0
SPLINE
  5
4CB
100
AcDbEntity
  8
0
100
AcDbSpline
 62
7
  6
CONTINUOUS
 70
0
 71
3
 72
18
 73
14
 74
0
 42
0.0000001
 43
0.0000001
 44
0.0000000001
 40
0.0
 40
0.0
 40
0.0
 40
0.0
 40
0.0625888432
 40
0.1251964097
 40
0.1877794233
 40
0.2503574737
 40
0.3129232243
 40
0.3754781434
 40
0.5004222095
 40
0.6253458384
 40
0.7502450688
 40
0.8751356609
 40
1.0
 40
1.0
 40
1.0
 40
1.0
 10
7.1694163095
 20
3.1508711614
 30
0.0
 10
7.169725785
 20
3.1508711614
 30
0.0
 10
7.1703454487
 20
3.150834182
 30
0.0
 10
7.1712613204
 20
3.1506698164
 30
0.0
 10
7.1721521306
 20
3.1504010748
 30
0.0
 10
7.1730072249
 20
3.1500353041
 30
0.0
 10
7.1738186082
 20
3.1495812563
 30
0.0
 10
7.1748332244
 20
3.148871582
 30
0.0
 10
7.1759682305
 20
3.1478104022
 30
0.0
 10
7.1770980225
 20
3.1463325051
 30
0.0
 10
7.1779982783
 20
3.1447061374
 30
0.0
 10
7.1786751347
 20
3.1429766398
 30
0.0
 10
7.1789832768
 20
3.1417773308
 30
0.0
 10
7.1791026173
 20
3.1411715729
 30
0.0
  0
SPLINE
  5
4CC
100
AcDbEntity
  8
0
100
AcDbSpline
 62
7
  6
CONTINUOUS
 70
0
 71
3
 72
18
 73
14
 74
0
 42
0.0000001
 43
0.0000001
 44
0.0000000001
 40
0.0
 40
0.0
 40
0.0
 40
0.0
 40
0.0627485356
 40
0.1255071643
 40
0.1882247601
 40
0.2509149832
 40
0.3135664863
 40
0.3761787489
 40
0.5011520159
 40
0.6260007006
 40
0.7507396975
 40
0.8754054711
 40
1.0
 40
1.0
 40
1.0
 40
1.0
 10
7.1694163095
 20
3.1593147812
 30
0.0
 10
7.1697260636
 20
3.1593147812
 30
0.0
 10
7.1703462372
 20
3.1592779269
 30
0.0
 10
7.1712628733
 20
3.1591141146
 30
0.0
 10
7.1721543972
 20
3.1588462808
 30
0.0
 10
7.1730101339
 20
3.1584817533
 30
0.0
 10
7.1738220706
 20
3.158029261
 30
0.0
 10
7.1748370594
 20
3.1573222054
 30
0.0
 10
7.1759723874
 20
3.1562650372
 30
0.0
 10
7.177102446
 20
3.1547924521
 30
0.0
 10
7.1780025282
 20
3.1531720503
 30
0.0
 10
7.1786787963
 20
3.1514490457
 30
0.0
 10
7.1789863287
 20
3.1502541794
 30
0.0
 10
7.1791052807
 20
3.1496507388
 30
0.0
  0
SPLINE
  5
4CD
100
AcDbEntity
  8
0
100
AcDbSpline
 62
7
  6
CONTINUOUS
 70
0
 71
3
 72
11
 73
7
 74
0
 42
0.0000001
 43
0.0000001
 44
0.0000000001
 40
0.0
 40
0.0
 40
0.0
 40
0.0
 40
0.2503890374
 40
0.5006118425
 40
0.750507642
 40
1.0
 40
1.0
 40
1.0
 40
1.0
 10
7.1694163095
 20
3.1670690633
 30
0.0
 10
7.1698315521
 20
3.1670690633
 30
0.0
 10
7.1706632136
 20
3.1670033156
 30
0.0
 10
7.1718782761
 20
3.1667127572
 30
0.0
 10
7.1730347089
 20
3.166245024
 30
0.0
 10
7.1737537593
 20
3.1658281422
 30
0.0
 10
7.1740973524
 20
3.1655976265
 30
0.0
  0
SPLINE
  5
4CE
100
AcDbEntity
  8
0
100
AcDbSpline
 62
7
  6
CONTINUOUS
 70
0
 71
3
 72
13
 73
9
 74
0
 42
0.0000001
 43
0.0000001
 44
0.0000000001
 40
0.0
 40
0.0
 40
0.0
 40
0.0
 40
0.1256772211
 40
0.2511365558
 40
0.3763904515
 40
0.501459139
 40
0.7509066531
 40
1.0
 40
1.0
 40
1.0
 40
1.0
 10
7.1740973524
 20
3.1655976265
 30
0.0
 10
7.1744373611
 20
3.1653695156
 30
0.0
 10
7.1750878301
 20
3.164869048
 30
0.0
 10
7.1759650198
 20
3.1640085931
 30
0.0
 10
7.1767405469
 20
3.1630582152
 30
0.0
 10
7.1776371483
 20
3.1616963346
 30
0.0
 10
7.1785077779
 20
3.1598479458
 30
0.0
 10
7.1789471466
 20
3.1582763226
 30
0.0
 10
7.1791052807
 20
3.1574803668
 30
0.0
  0
SPLINE
  5
4CF
100
AcDbEntity
  8
0
100
AcDbSpline
 62
7
  6
CONTINUOUS
 70
0
 71
3
 72
18
 73
14
 74
0
 42
0.0000001
 43
0.0000001
 44
0.0000000001
 40
0.0
 40
0.0
 40
0.0
 40
0.0
 40
0.0633317162
 40
0.1266422214
 40
0.1898519977
 40
0.2529529863
 40
0.3159191976
 40
0.3787425845
 40
0.503826135
 40
0.6284028571
 40
0.7525557599
 40
0.8763967704
 40
1.0
 40
1.0
 40
1.0
 40
1.0
 10
7.1694163095
 20
3.1741176477
 30
0.0
 10
7.1697260439
 20
3.1741176477
 30
0.0
 10
7.1703460028
 20
3.1740814896
 30
0.0
 10
7.1712624455
 20
3.1739207517
 30
0.0
 10
7.1721538304
 20
3.1736579251
 30
0.0
 10
7.1730094956
 20
3.1733001806
 30
0.0
 10
7.1738214208
 20
3.1728560665
 30
0.0
 10
7.1748356204
 20
3.1721626241
 30
0.0
 10
7.1759704754
 20
3.1711258529
 30
0.0
 10
7.1771011785
 20
3.1696800756
 30
0.0
 10
7.1780017848
 20
3.168088999
 30
0.0
 10
7.1786784262
 20
3.1663971293
 30
0.0
 10
7.178986272
 20
3.1652232511
 30
0.0
 10
7.1791052807
 20
3.164630579
 30
0.0
  0
SPLINE
  5
4D0
100
AcDbEntity
  8
0
100
AcDbSpline
 62
7
  6
CONTINUOUS
 70
0
 71
3
 72
18
 73
14
 74
0
 42
0.0000001
 43
0.0000001
 44
0.0000000001
 40
0.0
 40
0.0
 40
0.0
 40
0.0
 40
0.0637571597
 40
0.1274705183
 40
0.1910400124
 40
0.2544417804
 40
0.3176390664
 40
0.3806181581
 40
0.5057853161
 40
0.630165186
 40
0.7538896276
 40
0.8771255172
 40
1.0
 40
1.0
 40
1.0
 40
1.0
 10
7.1694163095
 20
3.1804412146
 30
0.0
 10
7.16972603
 20
3.1804412146
 30
0.0
 10
7.1703458363
 20
3.1804055578
 30
0.0
 10
7.1712621409
 20
3.1802470348
 30
0.0
 10
7.1721534252
 20
3.1799878164
 30
0.0
 10
7.1730090372
 20
3.1796349616
 30
0.0
 10
7.1738209515
 20
3.179196889
 30
0.0
 10
7.1748345744
 20
3.178513254
 30
0.0
 10
7.1759690692
 20
3.1774911907
 30
0.0
 10
7.177100237
 20
3.1760647632
 30
0.0
 10
7.1780012283
 20
3.1744948456
 30
0.0
 10
7.1786781476
 20
3.1728254337
 30
0.0
 10
7.1789862293
 20
3.1716666858
 30
0.0
 10
7.1791052807
 20
3.1710817771
 30
0.0
  0
SPLINE
  5
4D1
100
AcDbEntity
  8
0
100
AcDbSpline
 62
7
  6
CONTINUOUS
 70
0
 71
3
 72
18
 73
14
 74
0
 42
0.0000001
 43
0.0000001
 44
0.0000000001
 40
0.0
 40
0.0
 40
0.0
 40
0.0
 40
0.0642735188
 40
0.1284760932
 40
0.1924829123
 40
0.2562509849
 40
0.3197303982
 40
0.3829003724
 40
0.508172603
 40
0.6323153669
 40
0.7555188191
 40
0.8780163748
 40
1.0
 40
1.0
 40
1.0
 40
1.0
 10
7.1694163095
 20
3.1860224316
 30
0.0
 10
7.1697260135
 20
3.1860224316
 30
0.0
 10
7.1703456392
 20
3.185987376
 30
0.0
 10
7.1712617796
 20
3.1858315104
 30
0.0
 10
7.1721529429
 20
3.1855766225
 30
0.0
 10
7.1730084888
 20
3.1852296377
 30
0.0
 10
7.1738203872
 20
3.1847988199
 30
0.0
 10
7.1748333094
 20
3.1841269516
 30
0.0
 10
7.17596735
 20
3.1831225496
 30
0.0
 10
7.1770990751
 20
3.1817193794
 30
0.0
 10
7.1780005365
 20
3.1801748857
 30
0.0
 10
7.1786777993
 20
3.1785324501
 30
0.0
 10
7.1789861757
 20
3.1773918669
 30
0.0
 10
7.1791052807
 20
3.1768162788
 30
0.0
  0
SPLINE
  5
4D2
100
AcDbEntity
  8
0
100
AcDbSpline
 62
7
  6
CONTINUOUS
 70
0
 71
3
 72
18
 73
14
 74
0
 42
0.0000001
 43
0.0000001
 44
0.0000000001
 40
0.0
 40
0.0
 40
0.0
 40
0.0
 40
0.0648803092
 40
0.1296582585
 40
0.1941803273
 40
0.2583811147
 40
0.3221951266
 40
0.3855929213
 40
0.5109955174
 40
0.6348633584
 40
0.7574531152
 40
0.8790757868
 40
1.0
 40
1.0
 40
1.0
 40
1.0
 10
7.1694163095
 20
3.1908435241
 30
0.0
 10
7.1697257107
 20
3.1908435241
 30
0.0
 10
7.1703445621
 20
3.19080923
 30
0.0
 10
7.1712596971
 20
3.19065673
 30
0.0
 10
7.1721499679
 20
3.1904073217
 30
0.0
 10
7.1730047729
 20
3.1900677543
 30
0.0
 10
7.1738160924
 20
3.1896460877
 30
0.0
 10
7.1748276027
 20
3.1889889621
 30
0.0
 10
7.1759606337
 20
3.1880066235
 30
0.0
 10
7.1770929106
 20
3.1866325081
 30
0.0
 10
7.1779952428
 20
3.1851196241
 30
0.0
 10
7.1786736081
 20
3.1835105714
 30
0.0
 10
7.1789830417
 20
3.1823923914
 30
0.0
 10
7.1791026173
 20
3.1818282616
 30
0.0
  0
SPLINE
  5
4D3
100
AcDbEntity
  8
0
100
AcDbSpline
 62
7
  6
CONTINUOUS
 70
0
 71
3
 72
19
 73
15
 74
0
 42
0.0000001
 43
0.0000001
 44
0.0000000001
 40
0.0
 40
0.0
 40
0.0
 40
0.0
 40
0.0655799409
 40
0.1310213088
 40
0.1961373533
 40
0.2608367616
 40
0.3250358053
 40
0.3886948522
 40
0.5142416659
 40
0.6377813175
 40
0.6989431003
 40
0.7597286099
 40
0.8803213192
 40
1.0
 40
1.0
 40
1.0
 40
1.0
 10
7.1694163095
 20
3.1948987015
 30
0.0
 10
7.1697259736
 20
3.1948987015
 30
0.0
 10
7.1703451622
 20
3.1948651397
 30
0.0
 10
7.1712609012
 20
3.1947158805
 30
0.0
 10
7.172151762
 20
3.1944717637
 30
0.0
 10
7.1730071353
 20
3.1941393864
 30
0.0
 10
7.1738189789
 20
3.1937266357
 30
0.0
 10
7.1748301288
 20
3.1930839989
 30
0.0
 10
7.1759628558
 20
3.1921236794
 30
0.0
 10
7.1769107911
 20
3.1909982627
 30
0.0
 10
7.1775514498
 20
3.1900311459
 30
0.0
 10
7.1781129159
 20
3.189031916
 30
0.0
 10
7.1786769196
 20
3.1877219895
 30
0.0
 10
7.1789860308
 20
3.1866267187
 30
0.0
 10
7.1791052807
 20
3.1860743291
 30
0.0
  0
SPLINE
  5
4D4
100
AcDbEntity
  8
0
100
AcDbSpline
 62
7
  6
CONTINUOUS
 70
0
 71
3
 72
19
 73
15
 74
0
 42
0.0000001
 43
0.0000001
 44
0.0000000001
 40
0.0
 40
0.0
 40
0.0
 40
0.0
 40
0.0663817062
 40
0.1325845342
 40
0.1983846259
 40
0.2636614361
 40
0.3921360828
 40
0.5178745435
 40
0.5798166397
 40
0.6411645001
 40
0.7019746599
 40
0.7623067504
 40
0.8817369374
 40
1.0
 40
1.0
 40
1.0
 40
1.0
 10
7.1694163095
 20
3.1981694252
 30
0.0
 10
7.1697259506
 20
3.1981694252
 30
0.0
 10
7.1703448901
 20
3.1981367487
 30
0.0
 10
7.171260383
 20
3.197991427
 30
0.0
 10
7.1721511089
 20
3.1977536811
 30
0.0
 10
7.1732850517
 20
3.1973246216
 30
0.0
 10
7.1745956351
 20
3.1965950997
 30
0.0
 10
7.1757388246
 20
3.1956511159
 30
0.0
 10
7.1765351517
 20
3.1948039897
 30
0.0
 10
7.1770719211
 20
3.1941324873
 30
0.0
 10
7.1775510818
 20
3.1934279263
 30
0.0
 10
7.1781122242
 20
3.192455139
 30
0.0
 10
7.1786763136
 20
3.1911794396
 30
0.0
 10
7.1789859359
 20
3.1901110823
 30
0.0
 10
7.1791052807
 20
3.1895725021
 30
0.0
  0
SPLINE
  5
4D5
100
AcDbEntity
  8
0
100
AcDbSpline
 62
7
  6
CONTINUOUS
 70
0
 71
3
 72
19
 73
15
 74
0
 42
0.0000001
 43
0.0000001
 44
0.0000000001
 40
0.0
 40
0.0
 40
0.0
 40
0.0
 40
0.067033666
 40
0.1338724671
 40
0.2002654182
 40
0.2660698624
 40
0.3953557483
 40
0.5214478115
 40
0.5833671864
 40
0.6445651486
 40
0.7050921847
 40
0.7650219012
 40
0.8832812805
 40
1.0
 40
1.0
 40
1.0
 40
1.0
 10
7.1694163095
 20
3.2006492072
 30
0.0
 10
7.1697105017
 20
3.2006492072
 30
0.0
 10
7.1702984285
 20
3.2006205747
 30
0.0
 10
7.1711693492
 20
3.200493179
 30
0.0
 10
7.1720189597
 20
3.2002843526
 30
0.0
 10
7.1731040895
 20
3.1999066758
 30
0.0
 10
7.1743669893
 20
3.1992625642
 30
0.0
 10
7.1754854134
 20
3.1984215752
 30
0.0
 10
7.1762740783
 20
3.197662466
 30
0.0
 10
7.1768101295
 20
3.1970595142
 30
0.0
 10
7.1772940468
 20
3.196425021
 30
0.0
 10
7.1778676666
 20
3.1955474226
 30
0.0
 10
7.1784602481
 20
3.1943919954
 30
0.0
 10
7.1788060369
 20
3.1934169522
 30
0.0
 10
7.178946224
 20
3.1929242618
 30
0.0
  0
SPLINE
  5
4D6
100
AcDbEntity
  8
0
100
AcDbSpline
 62
7
  6
CONTINUOUS
 70
0
 71
3
 72
15
 73
11
 74
0
 42
0.0000001
 43
0.0000001
 44
0.0000000001
 40
0.0
 40
0.0
 40
0.0
 40
0.0
 40
0.1361805372
 40
0.2701650158
 40
0.400536616
 40
0.5268179183
 40
0.6492521177
 40
0.7684393036
 40
0.88511863
 40
1.0
 40
1.0
 40
1.0
 40
1.0
 10
7.1694163095
 20
3.2023312505
 30
0.0
 10
7.1700335102
 20
3.2023312505
 30
0.0
 10
7.171261384
 20
3.2022097762
 30
0.0
 10
7.1730092342
 20
3.2016814574
 30
0.0
 10
7.1745878112
 20
3.2008579367
 30
0.0
 10
7.1759534277
 20
3.1998014327
 30
0.0
 10
7.1770893617
 20
3.1985709085
 30
0.0
 10
7.1779944841
 20
3.1972150322
 30
0.0
 10
7.1786746687
 20
3.1957724016
 30
0.0
 10
7.1789856878
 20
3.194765976
 30
0.0
 10
7.1791052807
 20
3.1942592287
 30
0.0
  0
SPLINE
  5
4D7
100
AcDbEntity
  8
0
100
AcDbSpline
 62
7
  6
CONTINUOUS
 70
0
 71
3
 72
15
 73
11
 74
0
 42
0.0000001
 43
0.0000001
 44
0.0000000001
 40
0.0
 40
0.0
 40
0.0
 40
0.0
 40
0.1383312178
 40
0.2740699046
 40
0.4055252494
 40
0.5321082703
 40
0.6540814885
 40
0.7721423161
 40
0.8871632837
 40
1.0
 40
1.0
 40
1.0
 40
1.0
 10
7.1694163095
 20
3.2032109449
 30
0.0
 10
7.1700332951
 20
3.2032109449
 30
0.0
 10
7.1712588935
 20
3.2030943001
 30
0.0
 10
7.1730052231
 20
3.2025865015
 30
0.0
 10
7.1745834094
 20
3.2017943571
 30
0.0
 10
7.1759495508
 20
3.20077734
 30
0.0
 10
7.1770864438
 20
3.1995921136
 30
0.0
 10
7.1779925949
 20
3.1982856282
 30
0.0
 10
7.1786736522
 20
3.1968952383
 30
0.0
 10
7.1789855272
 20
3.1959237561
 30
0.0
 10
7.1791052807
 20
3.1954349363
 30
0.0
  0
SPLINE
  5
4D8
100
AcDbEntity
  8
0
100
AcDbSpline
 62
7
  6
CONTINUOUS
 70
0
 71
3
 72
22
 73
18
 74
0
 42
0.0000001
 43
0.0000001
 44
0.0000000001
 40
0.0
 40
0.0
 40
0.0
 40
0.0
 40
0.1900845877
 40
0.3683538293
 40
0.4515088774
 40
0.5299461192
 40
0.603188832
 40
0.6708393598
 40
0.732574615
 40
0.7881581118
 40
0.8374631077
 40
0.8805003227
 40
0.9174831495
 40
0.9489267093
 40
0.9758372253
 40
0.9881328711
 40
1.0
 40
1.0
 40
1.0
 40
1.0
 10
6.9013678364
 20
2.9115011303
 30
0.0
 10
6.9013941904
 20
2.9120804155
 30
0.0
 10
6.9014692236
 20
2.9132020529
 30
0.0
 10
6.9016259178
 20
2.9145711715
 30
0.0
 10
6.9017872289
 20
2.9155954863
 30
0.0
 10
6.9019203577
 20
2.9162995406
 30
0.0
 10
6.902067327
 20
2.9169524583
 30
0.0
 10
6.9022269175
 20
2.9175498482
 30
0.0
 10
6.9023978602
 20
2.9180878664
 30
0.0
 10
6.9025788385
 20
2.9185632169
 30
0.0
 10
6.9027685302
 20
2.9189731891
 30
0.0
 10
6.9029656848
 20
2.9193156815
 30
0.0
 10
6.9031694363
 20
2.9195892607
 30
0.0
 10
6.9033792691
 20
2.9197928954
 30
0.0
 10
6.9035660532
 20
2.9199060755
 30
0.0
 10
6.9037149138
 20
2.9199541
 30
0.0
 10
6.9037882651
 20
2.9199648667
 30
0.0
 10
6.903824406
 20
2.9199669795
 30
0.0
  0
SPLINE
  5
4D9
100
AcDbEntity
  8
0
100
AcDbSpline
 62
7
  6
CONTINUOUS
 70
0
 71
3
 72
17
 73
13
 74
0
 42
0.0000001
 43
0.0000001
 44
0.0000000001
 40
0.0
 40
0.0
 40
0.0
 40
0.0
 40
0.2003672334
 40
0.3786150717
 40
0.5342023274
 40
0.6670581385
 40
0.77769652
 40
0.8674505851
 40
0.9054203961
 40
0.9395286285
 40
0.970661576
 40
1.0
 40
1.0
 40
1.0
 40
1.0
 10
6.8911563528
 20
2.9179342718
 30
0.0
 10
6.8911829302
 20
2.9180451644
 30
0.0
 10
6.891236557
 20
2.9182539222
 30
0.0
 10
6.8913245777
 20
2.9185450456
 30
0.0
 10
6.8914151192
 20
2.918794905
 30
0.0
 10
6.8915077671
 20
2.9190026007
 30
0.0
 10
6.891602082
 20
2.9191675293
 30
0.0
 10
6.8916864531
 20
2.9192749752
 30
0.0
 10
6.8917557151
 20
2.9193360778
 30
0.0
 10
6.8918052385
 20
2.9193681617
 30
0.0
 10
6.8918552727
 20
2.9193889034
 30
0.0
 10
6.8918894861
 20
2.9193950361
 30
0.0
 10
6.8919061529
 20
2.9193960408
 30
0.0
  0
SPLINE
  5
4DA
100
AcDbEntity
  8
0
100
AcDbSpline
 62
7
  6
CONTINUOUS
 70
0
 71
3
 72
14
 73
10
 74
0
 42
0.0000001
 43
0.0000001
 44
0.0000000001
 40
0.0
 40
0.0
 40
0.0
 40
0.0
 40
0.2951067682
 40
0.4366775705
 40
0.5712195626
 40
0.6966175589
 40
0.8109542058
 40
0.912556438
 40
1.0
 40
1.0
 40
1.0
 40
1.0
 10
6.8904687256
 20
2.9096025586
 30
0.0
 10
6.8904687256
 20
2.9104263776
 30
0.0
 10
6.8904910429
 20
2.911645603
 30
0.0
 10
6.8905680955
 20
2.9132384371
 30
0.0
 10
6.8906464772
 20
2.9143566534
 30
0.0
 10
6.8907448015
 20
2.9153969587
 30
0.0
 10
6.8908612704
 20
2.916342855
 30
0.0
 10
6.8909938098
 20
2.9171795148
 30
0.0
 10
6.8910994595
 20
2.9176968872
 30
0.0
 10
6.8911563528
 20
2.9179342718
 30
0.0
  0
SPLINE
  5
4DB
100
AcDbEntity
  8
0
100
AcDbSpline
 62
7
  6
CONTINUOUS
 70
0
 71
3
 72
24
 73
20
 74
0
 42
0.0000001
 43
0.0000001
 44
0.0000000001
 40
0.0
 40
0.0
 40
0.0
 40
0.0
 40
0.1996606422
 40
0.3860887169
 40
0.5543522089
 40
0.6302753016
 40
0.7000568254
 40
0.7632437674
 40
0.8194454612
 40
0.8683147543
 40
0.9095934461
 40
0.9273292378
 40
0.9431165431
 40
0.9569642444
 40
0.9688991027
 40
0.9789806105
 40
0.9873337161
 40
0.9941950609
 40
1.0
 40
1.0
 40
1.0
 40
1.0
 10
6.8911563528
 20
2.9808593443
 30
0.0
 10
6.8912233296
 20
2.9813767762
 30
0.0
 10
6.8913616378
 20
2.9823762426
 30
0.0
 10
6.8915886587
 20
2.9838070591
 30
0.0
 10
6.891790712
 20
2.9849141967
 30
0.0
 10
6.8919565724
 20
2.9857177451
 30
0.0
 10
6.8920762914
 20
2.9862503608
 30
0.0
 10
6.8921948207
 20
2.9867303184
 30
0.0
 10
6.8923112564
 20
2.9871543792
 30
0.0
 10
6.8924248107
 20
2.9875196476
 30
0.0
 10
6.8925204327
 20
2.9877850336
 30
0.0
 10
6.8925961129
 20
2.9879653062
 30
0.0
 10
6.892648767
 20
2.9880773872
 30
0.0
 10
6.892700119
 20
2.9881731859
 30
0.0
 10
6.8927500982
 20
2.9882525848
 30
0.0
 10
6.8927986769
 20
2.9883155468
 30
0.0
 10
6.8928460049
 20
2.9883621131
 30
0.0
 10
6.8928924339
 20
2.9883923933
 30
0.0
 10
6.8929251362
 20
2.9884014504
 30
0.0
 10
6.8929402788
 20
2.9884023519
 30
0.0
  0
SPLINE
  5
4DC
100
AcDbEntity
  8
0
100
AcDbSpline
 62
7
  6
CONTINUOUS
 70
0
 71
3
 72
30
 73
26
 74
0
 42
0.0000001
 43
0.0000001
 44
0.0000000001
 40
0.0
 40
0.0
 40
0.0
 40
0.0
 40
0.0247528116
 40
0.0522936841
 40
0.114887242
 40
0.1860318806
 40
0.2637768333
 40
0.3460615651
 40
0.4307912252
 40
0.5158903352
 40
0.5993359247
 40
0.6791792146
 40
0.753562241
 40
0.820730143
 40
0.8790545741
 40
0.9044372044
 40
0.9270753785
 40
0.9468257049
 40
0.9635629423
 40
0.9771992085
 40
0.9828414414
 40
0.9877016677
 40
0.9917962311
 40
0.9951595978
 40
1.0
 40
1.0
 40
1.0
 40
1.0
 10
6.9013678364
 20
3.0472569023
 30
0.0
 10
6.9013811805
 20
3.0474196468
 30
0.0
 10
6.901413927
 20
3.0477630984
 30
0.0
 10
6.9015007409
 20
3.0485160386
 30
0.0
 10
6.9016490184
 20
3.0495697516
 30
0.0
 10
6.9018753737
 20
3.0509464757
 30
0.0
 10
6.9021511227
 20
3.0524464443
 30
0.0
 10
6.9024687243
 20
3.0540296051
 30
0.0
 10
6.9028198951
 20
3.0556553235
 30
0.0
 10
6.9031957673
 20
3.0572833671
 30
0.0
 10
6.9035871372
 20
3.0588745822
 30
0.0
 10
6.9039846038
 20
3.0603913192
 30
0.0
 10
6.9043786168
 20
3.0617977618
 30
0.0
 10
6.9047596508
 20
3.06306015
 30
0.0
 10
6.9050710878
 20
3.0640056564
 30
0.0
 10
6.9053090201
 20
3.0646656696
 30
0.0
 10
6.9054700727
 20
3.065082777
 30
0.0
 10
6.9056209199
 20
3.0654425545
 30
0.0
 10
6.9057605496
 20
3.065742385
 30
0.0
 10
6.9058724874
 20
3.0659522011
 30
0.0
 10
6.9059571946
 20
3.0660871727
 30
0.0
 10
6.9060131564
 20
3.0661655107
 30
0.0
 10
6.9060659811
 20
3.0662278043
 30
0.0
 10
6.9061246809
 20
3.0662827341
 30
0.0
 10
6.9061753658
 20
3.0663115885
 30
0.0
 10
6.9062072445
 20
3.0663134223
 30
0.0
  0
SPLINE
  5
4DD
100
AcDbEntity
  8
0
100
AcDbSpline
 62
7
  6
CONTINUOUS
 70
0
 71
3
 72
27
 73
23
 74
0
 42
0.0000001
 43
0.0000001
 44
0.0000000001
 40
0.0
 40
0.0
 40
0.0
 40
0.0
 40
0.0720321909
 40
0.1492184053
 40
0.2300454391
 40
0.3130008808
 40
0.3965505147
 40
0.4792088402
 40
0.55955463
 40
0.6362542005
 40
0.7080707517
 40
0.7738729433
 40
0.8326463149
 40
0.8835119605
 40
0.9057544352
 40
0.9257717953
 40
0.9435197137
 40
0.9589780395
 40
0.9721754083
 40
0.9832136204
 40
0.9923281788
 40
1.0
 40
1.0
 40
1.0
 40
1.0
 10
6.9013678364
 20
3.0157450462
 30
0.0
 10
6.9013900419
 20
3.0161544998
 30
0.0
 10
6.9014512747
 20
3.0170019133
 30
0.0
 10
6.901583506
 20
3.0183049399
 30
0.0
 10
6.9017571819
 20
3.0196658002
 30
0.0
 10
6.9019686265
 20
3.0210579388
 30
0.0
 10
6.9022136042
 20
3.0224551513
 30
0.0
 10
6.9024872996
 20
3.0238318807
 30
0.0
 10
6.9027845467
 20
3.0251637989
 30
0.0
 10
6.9030998969
 20
3.0264280456
 30
0.0
 10
6.9034277267
 20
3.0276033962
 30
0.0
 10
6.9037622446
 20
3.0286704218
 30
0.0
 10
6.9040976421
 20
3.0296114267
 30
0.0
 10
6.9043842316
 20
3.0303058787
 30
0.0
 10
6.9046125719
 20
3.0307844541
 30
0.0
 10
6.9047727962
 20
3.0310862965
 30
0.0
 10
6.9049289687
 20
3.0313461402
 30
0.0
 10
6.9050805072
 20
3.0315628469
 30
0.0
 10
6.9052268001
 20
3.0317356188
 30
0.0
 10
6.9053677882
 20
3.0318639136
 30
0.0
 10
6.9055038648
 20
3.0319473786
 30
0.0
 10
6.9055982664
 20
3.0319727421
 30
0.0
 10
6.9056418667
 20
3.0319752628
 30
0.0
  0
SPLINE
  5
4DE
100
AcDbEntity
  8
0
100
AcDbSpline
 62
7
  6
CONTINUOUS
 70
0
 71
3
 72
25
 73
21
 74
0
 42
0.0000001
 43
0.0000001
 44
0.0000000001
 40
0.0
 40
0.0
 40
0.0
 40
0.0
 40
0.1736176089
 40
0.3466335326
 40
0.4303049015
 40
0.5107787131
 40
0.5871709872
 40
0.6586833133
 40
0.7246085537
 40
0.7843371038
 40
0.8373781465
 40
0.8833760035
 40
0.903677751
 40
0.9221776909
 40
0.9389033801
 40
0.9539118004
 40
0.9673091778
 40
0.9792657992
 40
0.9900390413
 40
1.0
 40
1.0
 40
1.0
 40
1.0
 10
6.9013678364
 20
2.9680739585
 30
0.0
 10
6.9014031011
 20
2.9688453838
 30
0.0
 10
6.9015143553
 20
2.9703839071
 30
0.0
 10
6.9017459119
 20
2.9722846365
 30
0.0
 10
6.901985248
 20
2.9737652278
 30
0.0
 10
6.9021849456
 20
2.9748164591
 30
0.0
 10
6.9024041425
 20
2.9758084953
 30
0.0
 10
6.9026400088
 20
2.9767300796
 30
0.0
 10
6.9028895763
 20
2.9775710405
 30
0.0
 10
6.903149804
 20
2.9783224083
 30
0.0
 10
6.9034175745
 20
2.9789762716
 30
0.0
 10
6.90365318
 20
2.979452738
 30
0.0
 10
6.9038455643
 20
2.9797773651
 30
0.0
 10
6.9039838534
 20
2.9799822045
 30
0.0
 10
6.9041218304
 20
2.9801582372
 30
0.0
 10
6.904259261
 20
2.9803049934
 30
0.0
 10
6.9043959135
 20
2.9804221046
 30
0.0
 10
6.9045317371
 20
2.9805091944
 30
0.0
 10
6.9046666829
 20
2.9805655884
 30
0.0
 10
6.9047583245
 20
2.9805824372
 30
0.0
 10
6.9048025536
 20
2.9805850334
 30
0.0
  0
SPLINE
  5
4DF
100
AcDbEntity
  8
0
100
AcDbSpline
 62
7
  6
CONTINUOUS
 70
0
 71
3
 72
167
 73
163
 74
0
 42
0.0000001
 43
0.0000001
 44
0.0000000001
 40
0.0
 40
0.0
 40
0.0
 40
0.0
 40
0.0000009749
 40
0.0000038864
 40
0.0000087337
 40
0.000015516
 40
0.0000242322
 40
0.0000348817
 40
0.0000619764
 40
0.0000967932
 40
0.000139325
 40
0.0001895647
 40
0.0002475054
 40
0.0003864613
 40
0.0005561365
 40
0.0007564746
 40
0.0009874119
 40
0.0012488417
 40
0.0015406416
 40
0.0022148624
 40
0.0030090953
 40
0.0039223005
 40
0.0049530256
 40
0.0060996468
 40
0.0073605399
 40
0.0087339823
 40
0.0102179949
 40
0.0118105572
 40
0.0153131321
 40
0.0192241217
 40
0.0235250788
 40
0.0281971222
 40
0.0332211497
 40
0.0385783534
 40
0.0442501487
 40
0.050218494
 40
0.0564659373
 40
0.0697316775
 40
0.0839232684
 40
0.0989299222
 40
0.1146537258
 40
0.1310084721
 40
0.147919422
 40
0.165321234
 40
0.1831564867
 40
0.201375903
 40
0.2199350856
 40
0.2387960121
 40
0.2579241566
 40
0.2772897871
 40
0.2968661604
 40
0.3166294388
 40
0.3265744228
 40
0.3365582576
 40
0.3465786075
 40
0.3566332348
 40
0.3667199834
 40
0.3768368623
 40
0.3869818902
 40
0.392064454
 40
0.3971533653
 40
0.4022484233
 40
0.4073494925
 40
0.4175685073
 40
0.4278091379
 40
0.4329372194
 40
0.4380703944
 40
0.4432082065
 40
0.4483507863
 40
0.4534979259
 40
0.4586495832
 40
0.4638057095
 40
0.4689658968
 40
0.4741302568
 40
0.4767142194
 40
0.4792993477
 40
0.4844706712
 40
0.4896450336
 40
0.4922337518
 40
0.4948229052
 40
0.4974121242
 40
0.5000015603
 40
0.5051790266
 40
0.5103553507
 40
0.515529647
 40
0.5181163471
 40
0.5207019976
 40
0.5258703615
 40
0.5310346035
 40
0.5361948892
 40
0.5387734556
 40
0.5413510929
 40
0.543927728
 40
0.5465031006
 40
0.5516501516
 40
0.5567927335
 40
0.5619304843
 40
0.5670636442
 40
0.5721917893
 40
0.5773147735
 40
0.5824325726
 40
0.5926515715
 40
0.5977526735
 40
0.6028477539
 40
0.6079366443
 40
0.6130191769
 40
0.6231641742
 40
0.6332810359
 40
0.6433677912
 40
0.6534224187
 40
0.6634427624
 40
0.6833714828
 40
0.7031347456
 40
0.7227110977
 40
0.7420766788
 40
0.7612047857
 40
0.7800656755
 40
0.7986248605
 40
0.8168442895
 40
0.8346795458
 40
0.8520813665
 40
0.8689922908
 40
0.885347042
 40
0.9010708427
 40
0.916077489
 40
0.9302690993
 40
0.9435348471
 40
0.9497822345
 40
0.9557505592
 40
0.961422428
 40
0.9667797561
 40
0.9718037458
 40
0.9764755773
 40
0.9807764491
 40
0.9846875672
 40
0.9881901602
 40
0.9897826252
 40
0.9912665372
 40
0.9926399455
 40
0.9939009178
 40
0.9950476665
 40
0.9960784708
 40
0.9969916106
 40
0.9977855711
 40
0.998459422
 40
0.998751048
 40
0.9990123365
 40
0.9992431843
 40
0.9994434943
 40
0.9996131912
 40
0.9997522042
 40
0.999810182
 40
0.9998604624
 40
0.9999030363
 40
0.999937895
 40
0.9999650295
 40
0.9999756975
 40
0.9999844311
 40
0.9999912293
 40
0.9999960909
 40
0.9999990148
 40
1.0
 40
1.0
 40
1.0
 40
1.0
 10
7.8088257583
 20
2.5913518828
 30
0.0
 10
7.8088256772
 20
2.591352105
 30
0.0
 10
7.8088249203
 20
2.5913527455
 30
0.0
 10
7.8088237426
 20
2.5913544799
 30
0.0
 10
7.8088214296
 20
2.5913571687
 30
0.0
 10
7.8088183576
 20
2.5913610233
 30
0.0
 10
7.8088143428
 20
2.5913659395
 30
0.0
 10
7.808807243
 20
2.5913746935
 30
0.0
 10
7.8087961369
 20
2.591388355
 30
0.0
 10
7.8087801575
 20
2.5914080222
 30
0.0
 10
7.8087606311
 20
2.5914320437
 30
0.0
 10
7.8087375639
 20
2.5914604171
 30
0.0
 10
7.8086997333
 20
2.5915069394
 30
0.0
 10
7.8086436095
 20
2.5915759363
 30
0.0
 10
7.8085656658
 20
2.5916717206
 30
0.0
 10
7.8084736148
 20
2.591784798
 30
0.0
 10
7.8083674848
 20
2.5919151203
 30
0.0
 10
7.8082473226
 20
2.5920626342
 30
0.0
 10
7.8080592129
 20
2.5922935197
 30
0.0
 10
7.8077894204
 20
2.5926246022
 30
0.0
 10
7.8074243701
 20
2.5930725509
 30
0.0
 10
7.8070046831
 20
2.5935875574
 30
0.0
 10
7.8065309776
 20
2.5941688372
 30
0.0
 10
7.8060039571
 20
2.5948154923
 30
0.0
 10
7.8054243669
 20
2.5955265745
 30
0.0
 10
7.804793009
 20
2.5963010703
 30
0.0
 10
7.8041107593
 20
2.5971379025
 30
0.0
 10
7.8031020205
 20
2.5983750693
 30
0.0
 10
7.8017210522
 20
2.6000685186
 30
0.0
 10
7.7999245344
 20
2.6022710285
 30
0.0
 10
7.7979483117
 20
2.6046931251
 30
0.0
 10
7.7958009089
 20
2.6073240928
 30
0.0
 10
7.7934908942
 20
2.6101531385
 30
0.0
 10
7.7910268327
 20
2.6131695596
 30
0.0
 10
7.7884171583
 20
2.6163628782
 30
0.0
 10
7.7856700354
 20
2.6197228213
 30
0.0
 10
7.7817553906
 20
2.6245081498
 30
0.0
 10
7.7765745979
 20
2.6308354492
 30
0.0
 10
7.7700421805
 20
2.6388027981
 30
0.0
 10
7.7631251449
 20
2.647226024
 30
0.0
 10
7.7558671167
 20
2.6560483546
 30
0.0
 10
7.7483060183
 20
2.6652196451
 30
0.0
 10
7.7404744767
 20
2.6746956182
 30
0.0
 10
7.7324002966
 20
2.6844370591
 30
0.0
 10
7.7241070909
 20
2.6944092854
 30
0.0
 10
7.7156143679
 20
2.7045807857
 30
0.0
 10
7.7069382862
 20
2.7149233472
 30
0.0
 10
7.6980911794
 20
2.7254101681
 30
0.0
 10
7.6890822676
 20
2.7360163914
 30
0.0
 10
7.6799167404
 20
2.74671721
 30
0.0
 10
7.6705954251
 20
2.7574872731
 30
0.0
 10
7.662711555
 20
2.7664782525
 30
0.0
 10
7.6563167779
 20
2.7736791223
 30
0.0
 10
7.6514656248
 20
2.7790892115
 30
0.0
 10
7.6465663794
 20
2.7844917672
 30
0.0
 10
7.6416158439
 20
2.7898813398
 30
0.0
 10
7.6366083065
 20
2.7952500972
 30
0.0
 10
7.631538365
 20
2.8005902857
 30
0.0
 10
7.6272566016
 20
2.8050041481
 30
0.0
 10
7.6237906762
 20
2.8085093263
 30
0.0
 10
7.6211673923
 20
2.8111244657
 30
0.0
 10
7.6185201486
 20
2.8137217774
 30
0.0
 10
7.6149544133
 20
2.8171599703
 30
0.0
 10
7.6104264714
 20
2.8213985262
 30
0.0
 10
7.60579146
 20
2.8255302361
 30
0.0
 10
7.6020003036
 20
2.8287510006
 30
0.0
 10
7.5991099597
 20
2.8311189609
 30
0.0
 10
7.5961677619
 20
2.8334280026
 30
0.0
 10
7.5931682251
 20
2.835667887
 30
0.0
 10
7.5901046426
 20
2.8378254454
 30
0.0
 10
7.5869700018
 20
2.8398847189
 30
0.0
 10
7.5837573566
 20
2.8418267931
 30
0.0
 10
7.5804579919
 20
2.84362474
 30
0.0
 10
7.5776316979
 20
2.844978579
 30
0.0
 10
7.5753231274
 20
2.8459575965
 30
0.0
 10
7.5729822919
 20
2.8468613898
 30
0.0
 10
7.5699965569
 20
2.8478351981
 30
0.0
 10
7.566939615
 20
2.8485630973
 30
0.0
 10
7.5644622905
 20
2.8489819317
 30
0.0
 10
7.5625909557
 20
2.849210328
 30
0.0
 10
7.560710586
 20
2.8493489724
 30
0.0
 10
7.5581977576
 20
2.849409085
 30
0.0
 10
7.5550558582
 20
2.8492532195
 30
0.0
 10
7.5513224083
 20
2.8487100818
 30
0.0
 10
7.5482652197
 20
2.8479802102
 30
0.0
 10
7.5458627799
 20
2.8472502587
 30
0.0
 10
7.5434912184
 20
2.8464297404
 30
0.0
 10
7.5405852641
 20
2.8452486303
 30
0.0
 10
7.5371928673
 20
2.8436251161
 30
0.0
 10
7.5344425713
 20
2.8421267047
 30
0.0
 10
7.5322860082
 20
2.8408557623
 30
0.0
 10
7.5306895931
 20
2.8398698061
 30
0.0
 10
7.5291128321
 20
2.838854206
 30
0.0
 10
7.5270354564
 20
2.8374652392
 30
0.0
 10
7.5244826361
 20
2.835668127
 30
0.0
 10
7.5214831031
 20
2.8334283163
 30
0.0
 10
7.5185411417
 20
2.83111899
 30
0.0
 10
7.5156511884
 20
2.828750566
 30
0.0
 10
7.5128063368
 20
2.8263337804
 30
0.0
 10
7.5100025171
 20
2.8238751987
 30
0.0
 10
7.5063164769
 20
2.8205500106
 30
0.0
 10
7.5026964708
 20
2.8171602803
 30
0.0
 10
7.4991313593
 20
2.8137214543
 30
0.0
 10
7.4964842812
 20
2.8111239589
 30
0.0
 10
7.4938608516
 20
2.8085089782
 30
0.0
 10
7.4903946705
 20
2.8050040803
 30
0.0
 10
7.4861127563
 20
2.8005903898
 30
0.0
 10
7.4810427462
 20
2.7952502788
 30
0.0
 10
7.4760354121
 20
2.789881335
 30
0.0
 10
7.4710849952
 20
2.7844916523
 30
0.0
 10
7.4645650017
 20
2.7773015413
 30
0.0
 10
7.4565368952
 20
2.7682994674
 30
0.0
 10
7.4470559901
 20
2.757487192
 30
0.0
 10
7.43773474
 20
2.7467170888
 30
0.0
 10
7.4285692187
 20
2.7360163028
 30
0.0
 10
7.4195602954
 20
2.7254101278
 30
0.0
 10
7.4107132075
 20
2.714923314
 30
0.0
 10
7.4020371214
 20
2.704580763
 30
0.0
 10
7.3935444053
 20
2.694409251
 30
0.0
 10
7.3852511969
 20
2.684437019
 30
0.0
 10
7.3771770188
 20
2.6746955807
 30
0.0
 10
7.3693454711
 20
2.6652196164
 30
0.0
 10
7.3617843612
 20
2.6560483428
 30
0.0
 10
7.3545263332
 20
2.6472260137
 30
0.0
 10
7.3476093017
 20
2.6388027817
 30
0.0
 10
7.3410768975
 20
2.6308354159
 30
0.0
 10
7.335896132
 20
2.6245081033
 30
0.0
 10
7.3319814489
 20
2.6197228277
 30
0.0
 10
7.3292342962
 20
2.6163629099
 30
0.0
 10
7.3266246449
 20
2.6131695168
 30
0.0
 10
7.3241606617
 20
2.6101529817
 30
0.0
 10
7.3218506627
 20
2.6073239624
 30
0.0
 10
7.3197031581
 20
2.6046931827
 30
0.0
 10
7.3177268855
 20
2.6022711797
 30
0.0
 10
7.3159304709
 20
2.6000685663
 30
0.0
 10
7.3145495317
 20
2.598375078
 30
0.0
 10
7.313540749
 20
2.5971380031
 30
0.0
 10
7.3128584825
 20
2.5963012573
 30
0.0
 10
7.3122271055
 20
2.5955267944
 30
0.0
 10
7.3116475276
 20
2.5948156482
 30
0.0
 10
7.3111205357
 20
2.5941688803
 30
0.0
 10
7.3106468613
 20
2.5935875309
 30
0.0
 10
7.3102271978
 20
2.5930725863
 30
0.0
 10
7.3098621244
 20
2.5926248779
 30
0.0
 10
7.3095923021
 20
2.5922940751
 30
0.0
 10
7.3094041839
 20
2.5920634111
 30
0.0
 10
7.3092840175
 20
2.5919160273
 30
0.0
 10
7.309177884
 20
2.5917857888
 30
0.0
 10
7.3090858365
 20
2.5916727387
 30
0.0
 10
7.3090078981
 20
2.5915769341
 30
0.0
 10
7.3089517825
 20
2.5915078943
 30
0.0
 10
7.3089139579
 20
2.591461325
 30
0.0
 10
7.3088908922
 20
2.5914329129
 30
0.0
 10
7.3088713668
 20
2.5914088516
 30
0.0
 10
7.3088553875
 20
2.5913891455
 30
0.0
 10
7.3088442817
 20
2.5913754525
 30
0.0
 10
7.3088371813
 20
2.5913666753
 30
0.0
 10
7.3088331661
 20
2.5913617434
 30
0.0
 10
7.3088300912
 20
2.5913578759
 30
0.0
 10
7.3088277799
 20
2.5913551732
 30
0.0
 10
7.3088265944
 20
2.5913534323
 30
0.0
 10
7.3088258415
 20
2.5913527827
 30
0.0
 10
7.3088257583
 20
2.5913525586
 30
0.0
  0
ENDSEC
  0
SECTION
  2
OBJECTS
  0
DICTIONARY
  5
C
100
AcDbDictionary
280
0
281
1
  3
ACAD_GROUP
350
D
  3
ACAD_MLINESTYLE
350
17
  3
ACAD_LAYOUT
350
1A
  3
ACAD_PLOTSETTINGS
350
19
  3
ACAD_PLOTSTYLENAME
350
E
  0
DICTIONARY
  5
D
102
{ACAD_REACTORS
330
C
102
}
100
AcDbDictionary
280
0
281
1
  0
ACDBDICTIONARYWDFLT
  5
E
102
{ACAD_REACTORS
330
C
102
}
100
AcDbDictionary
281
1
  3
Normal
350
F
100
AcDbDictionaryWithDefault
340
F
  0
DICTIONARY
  5
17
102
{ACAD_REACTORS
330
C
102
}
100
AcDbDictionary
280
0
281
1
  3
Standard
350
18
  0
DICTIONARY
  5
19
102
{ACAD_REACTORS
330
C
102
}
100
AcDbDictionary
281
1
  0
DICTIONARY
  5
1A
102
{ACAD_REACTORS
330
C
102
}
100
AcDbDictionary
281
1
  3
Model
350
4E0
  3
Layout1
350
4E1
  0
ACDBPLACEHOLDER
  5
F
102
{ACAD_REACTORS
330
E
102
}
  0
MLINESTYLE
  5
18
102
{ACAD_REACTORS
330
17
102
}
100
AcDbMlineStyle
  2
STANDARD
 70
0
  3

 62
256
 51
90.0
 52
90.0
 71
2
 49
0.5
 62
256
  6
BYLAYER
 49
-0.5
 62
256
  6
BYLAYER
  0
LAYOUT
  5
4E0
102
{ACAD_REACTORS
330
1A
102
}
100
AcDbPlotSettings
  1

  2
none_device
  4
ANSI_A_(11.00_x_8.50_Inches)
  6

 40
0.0
 41
0.0
 42
0.0
 43
0.0
 44
279.4
 45
215.9
 46
0.0
 47
0.0
 48
0.0
 49
0.0
140
0.0
141
0.0
142
1.0
143
1.0
 70
1024
 72
0
 73
0
 74
0
  7

 75
0
147
1.0
148
0.0
149
0.0
100
AcDbLayout
  1
Model
 70
0
 71
0
 10
0.0
 20
0.0
 11
11.0
 21
8.5
 12
0.0
 22
0.0
 32
0.0
 14
0.0
 24
0.0
 34
0.0
 15
0.0
 25
0.0
 35
0.0
146
0.0
 13
0.0
 23
0.0
 33
0.0
 16
1.0
 26
0.0
 36
0.0
 17
0.0
 27
1.0
 37
0.0
 76
0
330
203
345
0
346
0
  0
LAYOUT
  5
4E1
102
{ACAD_REACTORS
330
1A
102
}
100
AcDbPlotSettings
  1

  2
none_device
  4
ANSI_A_(11.00_x_8.50_Inches)
  6

 40
0.0
 41
0.0
 42
0.0
 43
0.0
 44
279.4
 45
215.9
 46
0.0
 47
0.0
 48
0.0
 49
0.0
140
0.0
141
0.0
142
1.0
143
1.0
 70
0
 72
0
 73
0
 74
0
  7

 75
0
147
1.0
148
0.0
149
0.0
100
AcDbLayout
  1
Layout1
 70
0
 71
1
 10
0.0
 20
0.0
 11
11.0
 21
8.5
 12
0.0
 22
0.0
 32
0.0
 14
0.0
 24
0.0
 34
0.0
 15
0.0
 25
0.0
 35
0.0
146
0.0
 13
0.0
 23
0.0
 33
0.0
 16
1.0
 26
0.0
 36
0.0
 17
0.0
 27
1.0
 37
0.0
 76
0
330
204
345
0
346
0
  0
ENDSEC
  0
EOF
