999
DXF file: 2940-5463_side.dxf
999
Pro/ENGINEER 2018400 by Parametric Technology Corporation
  0
SECTION
  2
HEADER
  9
$ACADVER
  1
AC1027
  9
$DWGCODEPAGE
  3
ANSI_1252
  9
$EXTMAX
 10
11.0
 20
8.5
 30
0.0
  9
$EXTMIN
 10
0.0
 20
0.0
 30
0.0
  9
$LIMMIN
 10
0.0
 20
0.0
  9
$LIMMAX
 10
11.0
 20
8.5
  9
$VIEWCTR
 10
5.5
 20
4.25
  9
$VIEWSIZE
 40
8.5
  9
$CLAYER
  8
0
  9
$LTSCALE
 40
0.605
  9
$CELTYPE
  6
BYLAYER
  9
$DIMSCALE
 40
1.0
  9
$DIMASZ
 40
0.1
  9
$DIMEXO
 40
0.0625
  9
$DIMDLI
 40
0.418
  9
$DIMEXE
 40
0.125
  9
$DIMCEN
 40
0.099
  9
$DIMLFAC
 40
1.0
  9
$DIMBLK
  1
_FILLED
  9
$DIMALT
 70
1
  9
$DIMALTD
 70
2
  9
$DIMALTTD
 70
2
  9
$DIMALTF
 40
25.4
  9
$DIMTXT
 40
0.08
  9
$DIMTOL
 70
1
  9
$DIMLIM
 70
0
  9
$DIMTFAC
 40
1.0
  9
$DIMTP
 40
0.001
  9
$DIMTM
 40
0.001
  9
$DIMGAP
 40
0.09
  9
$DIMDSEP
 70
46
  9
$AUNITS
 70
0
  9
$PDMODE
 70
3
  9
$PDSIZE
 40
0.06
  9
$HANDSEED
  5
437
  9
$TILEMODE
 70
1
  9
$MEASUREMENT
 70
0
  9
$INSUNITS
 70
1
  0
ENDSEC
  0
SECTION
  2
CLASSES
  0
CLASS
  1
ACDBDICTIONARYWDFLT
  2
AcDbDictionaryWithDefault
  3
AutoCAD 2000
 90
0
 91
1
280
0
281
0
  0
CLASS
  1
ACDBPLACEHOLDER
  2
AcDbPlaceHolder
  3
AutoCAD 2000
 90
0
 91
1
280
0
281
0
  0
CLASS
  1
LAYOUT
  2
AcDbLayout
  3
AutoCAD 2000
 90
0
 91
0
280
0
281
0
  0
ENDSEC
  0
SECTION
  2
TABLES
  0
TABLE
  2
VPORT
  5
8
100
AcDbSymbolTable
 70
2
  0
VPORT
  5
1F4
100
AcDbSymbolTableRecord
100
AcDbViewportTableRecord
  2
*ACTIVE
 70
0
 10
0.0
 20
0.0
 11
1.0
 21
1.0
 12
5.5
 22
4.25
 13
0.0
 23
0.0
 14
1.0
 24
1.0
 15
0.0
 25
0.0
 16
0.0
 26
0.0
 36
1.0
 17
0.0
 27
0.0
 37
0.0
 40
8.5
 41
1.2941176471
 42
50.0
 43
0.0
 44
0.0
 50
0.0
 51
0.0
 71
0
 72
100
 73
1
 74
1
 75
0
 76
0
 77
0
 78
0
  0
ENDTAB
  0
TABLE
  2
LTYPE
  5
5
100
AcDbSymbolTable
 70
6
  0
LTYPE
  5
14
100
AcDbSymbolTableRecord
100
AcDbLinetypeTableRecord
  2
BYBLOCK
 70
0
  3

 72
65
 73
0
 40
0.0
  0
LTYPE
  5
15
100
AcDbSymbolTableRecord
100
AcDbLinetypeTableRecord
  2
BYLAYER
 70
0
  3

 72
65
 73
0
 40
0.0
  0
LTYPE
  5
16
100
AcDbSymbolTableRecord
100
AcDbLinetypeTableRecord
  2
CONTINUOUS
 70
64
  3
Solid line
 72
65
 73
0
 40
0.0
  0
LTYPE
  5
1F5
100
AcDbSymbolTableRecord
100
AcDbLinetypeTableRecord
  2
CENTER
 70
64
  3
____ _ ____ _ ____ _ ____ _ ____ _ ____ _ ____
 72
65
 73
4
 40
0.6
 49
0.375
 74
0
 49
-0.075
 74
0
 49
0.075
 74
0
 49
-0.075
 74
0
  0
LTYPE
  5
1F6
100
AcDbSymbolTableRecord
100
AcDbLinetypeTableRecord
  2
HIDDEN
 70
64
  3
- - - - - - - - - - - - - - - - - - - -
 72
65
 73
2
 40
0.2
 49
0.1
 74
0
 49
-0.1
 74
0
  0
LTYPE
  5
1F7
100
AcDbSymbolTableRecord
100
AcDbLinetypeTableRecord
  2
PHANTOM
 70
64
  3
_____ _ _ _____ _ _ _____ _ _ _____
 72
65
 73
6
 40
0.8
 49
0.45
 74
0
 49
-0.05
 74
0
 49
0.1
 74
0
 49
-0.05
 74
0
 49
0.1
 74
0
 49
-0.05
 74
0
  0
LTYPE
  5
1F8
100
AcDbSymbolTableRecord
100
AcDbLinetypeTableRecord
  2
DOT
 70
64
  3
. . . . . . . . . . . . . . . . . . . .
 72
65
 73
2
 40
0.2
 49
0.1
 74
0
 49
-0.1
 74
0
  0
LTYPE
  5
1F9
100
AcDbSymbolTableRecord
100
AcDbLinetypeTableRecord
  2
DASHED
 70
64
  3
- - - - - - - - - - - - - - - - - - - -
 72
65
 73
2
 40
0.2
 49
0.1
 74
0
 49
-0.1
 74
0
  0
ENDTAB
  0
TABLE
  2
LAYER
  5
2
100
AcDbSymbolTable
 70
36
  0
LAYER
  5
10
100
AcDbSymbolTableRecord
100
AcDbLayerTableRecord
  2
0
 70
0
 62
7
  6
CONTINUOUS
370
-3
390
F
  0
LAYER
  5
1FA
100
AcDbSymbolTableRecord
100
AcDbLayerTableRecord
  2
DEFAULT_1
 70
0
 62
7
  6
CENTER
370
-3
390
F
  0
LAYER
  5
1FB
100
AcDbSymbolTableRecord
100
AcDbLayerTableRecord
  2
DEFAULT_2
 70
0
 62
8
  6
HIDDEN
370
-3
390
F
  0
LAYER
  5
1FC
100
AcDbSymbolTableRecord
100
AcDbLayerTableRecord
  2
DEFAULT_3
 70
0
 62
7
  6
PHANTOM
370
-3
390
F
  0
LAYER
  5
1FD
100
AcDbSymbolTableRecord
100
AcDbLayerTableRecord
  2
DEFAULT_COORDINATE_SYSTEM
 70
0
 62
7
  6
CONTINUOUS
370
-3
390
F
  0
LAYER
  5
1FE
100
AcDbSymbolTableRecord
100
AcDbLayerTableRecord
  2
DEFAULT_DATUM_AXES
 70
0
 62
7
  6
CONTINUOUS
370
-3
390
F
  0
LAYER
  5
1FF
100
AcDbSymbolTableRecord
100
AcDbLayerTableRecord
  2
DEFAULT_DATUM_PLANES
 70
0
 62
7
  6
CONTINUOUS
370
-3
390
F
  0
ENDTAB
  0
TABLE
  2
STYLE
  5
3
100
AcDbSymbolTable
 70
1
  0
STYLE
  5
11
100
AcDbSymbolTableRecord
100
AcDbTextStyleTableRecord
  2
STANDARD
 70
0
 40
0.0
 41
0.8
 50
0.0
 71
0
 42
0.2
  3
txt
  4

  0
STYLE
  5
200
100
AcDbSymbolTableRecord
100
AcDbTextStyleTableRecord
  2
TEXTSTYLE_1
 70
0
 40
0.0
 41
0.8
 50
0.0
 71
0
 42
0.2
  3
gdt
  4

  0
ENDTAB
  0
TABLE
  2
VIEW
  5
6
100
AcDbSymbolTable
 70
0
  0
ENDTAB
  0
TABLE
  2
UCS
  5
7
100
AcDbSymbolTable
 70
0
  0
ENDTAB
  0
TABLE
  2
APPID
  5
9
100
AcDbSymbolTable
 70
1
  0
APPID
  5
201
100
AcDbSymbolTableRecord
100
AcDbRegAppTableRecord
  2
ACAD
 70
0
  0
ENDTAB
  0
TABLE
  2
BLOCK_RECORD
  5
1
100
AcDbSymbolTable
 70
0
  0
BLOCK_RECORD
  5
202
100
AcDbSymbolTableRecord
100
AcDbBlockTableRecord
  2
*Model_Space
  0
BLOCK_RECORD
  5
203
100
AcDbSymbolTableRecord
100
AcDbBlockTableRecord
  2
*Paper_Space
  0
BLOCK_RECORD
  5
204
100
AcDbSymbolTableRecord
100
AcDbBlockTableRecord
  2
_FILLED
  0
ENDTAB
  0
TABLE
  2
DIMSTYLE
  5
A
100
AcDbSymbolTable
 70
1
100
AcDbDimStyleTable
 71
0
  0
DIMSTYLE
105
205
100
AcDbSymbolTableRecord
100
AcDbDimStyleTableRecord
  2
STANDARD
 70
0
  3

  4

 40
1.0
 41
0.1
 42
0.0625
 43
0.38
 44
0.125
 45
0.0
 46
0.0
 47
0.001
 48
0.001
140
0.08
141
0.09
142
0.0
143
25.4
144
1.0
145
0.0
146
1.0
147
0.09
 71
1.0
 72
0.0
 73
1
 74
1
 75
0
 76
0
 77
0
 78
4
 79
1
170
1
171
2
172
0
173
0
174
0
175
0
176
0
177
0
178
0
270
2
179
3
271
3
272
3
273
2
274
2
275
0
280
0
281
0
282
0
283
1
284
4
285
0
286
0
287
3
288
0
340
11
278
46
341
204
342
204
343
204
344
204
  0
ENDTAB
  0
ENDSEC
  0
SECTION
  2
BLOCKS
  0
BLOCK
  5
20
100
AcDbEntity
  8
0
100
AcDbBlockBegin
  2
*Model_Space
 70
0
 10
0.0
 20
0.0
 30
0.0
  3
*Model_Space
  1

  0
ENDBLK
  5
21
100
AcDbEntity
  8
0
100
AcDbBlockEnd
  0
BLOCK
  5
1C
100
AcDbEntity
  8
0
100
AcDbBlockBegin
  2
*Paper_Space
 70
0
 10
0.0
 20
0.0
 30
0.0
  3
*Paper_Space
  1

  0
ENDBLK
  5
1D
100
AcDbEntity
  8
0
100
AcDbBlockEnd
  0
BLOCK
  5
206
100
AcDbEntity
  8
0
100
AcDbBlockBegin
  2
_FILLED
 70
64
 10
0.0
 20
0.0
  3
_FILLED
  1

  0
SOLID
  5
207
100
AcDbEntity
  8
0
  6
BYBLOCK
 62
0
100
AcDbTrace
 10
0.0
 20
0.0
 11
-1.0
 21
0.2
 12
-1.0
 22
-0.2
 13
-1.0
 23
-0.2
  0
ENDBLK
  5
208
100
AcDbEntity
  8
0
  6
BYBLOCK
 62
0
100
AcDbBlockEnd
  0
ENDSEC
  0
SECTION
  2
ENTITIES
  0
MTEXT
  5
209
100
AcDbEntity
  8
0
100
AcDbMText
 62
2
  6
CONTINUOUS
  7
STANDARD
 71
3
 72
1
 10
5.1446547118
 20
0.1419562415
 30
0.0
 11
1.0
 21
0.0
 31
0.0
 73
2
 44
0.9
  1
SCALE  .450
 40
0.08
 41
0.704
  0
LINE
  5
20A
100
AcDbEntity
  8
0
100
AcDbLine
 62
7
  6
CONTINUOUS
 10
0.0
 20
0.0
 11
0.0
 21
8.5
  0
LINE
  5
20B
100
AcDbEntity
  8
0
100
AcDbLine
 62
7
  6
CONTINUOUS
 10
0.0
 20
0.0
 11
11.0
 21
0.0
  0
LINE
  5
20C
100
AcDbEntity
  8
0
100
AcDbLine
 62
7
  6
CONTINUOUS
 10
0.0
 20
8.5
 11
11.0
 21
8.5
  0
LINE
  5
20D
100
AcDbEntity
  8
0
100
AcDbLine
 62
7
  6
CONTINUOUS
 10
11.0
 20
0.0
 11
11.0
 21
8.5
  0
LINE
  5
20E
100
AcDbEntity
  8
0
100
AcDbLine
 62
7
  6
CONTINUOUS
 10
6.6205971255
 20
0.2369562415
 11
7.4643471255
 21
0.2369562415
  0
LINE
  5
20F
100
AcDbEntity
  8
0
100
AcDbLine
 62
7
  6
CONTINUOUS
 10
6.6205971255
 20
0.2729562415
 11
7.4643471255
 21
0.2729562415
  0
LINE
  5
210
100
AcDbEntity
  8
0
100
AcDbLine
 62
7
  6
CONTINUOUS
 10
6.6430971255
 20
0.2954562415
 11
7.4418471255
 21
0.2954562415
  0
LINE
  5
211
100
AcDbEntity
  8
0
100
AcDbLine
 62
7
  6
CONTINUOUS
 10
7.4641152212
 20
0.3404562415
 11
7.4632673787
 21
0.3404562415
  0
LINE
  5
212
100
AcDbEntity
  8
0
100
AcDbLine
 62
7
  6
CONTINUOUS
 10
7.4628053896
 20
0.3404562415
 11
7.3654345585
 21
0.3404562415
  0
LINE
  5
213
100
AcDbEntity
  8
0
100
AcDbLine
 62
7
  6
CONTINUOUS
 10
7.3651726464
 20
0.3404562415
 11
6.7197716047
 21
0.3404562415
  0
LINE
  5
214
100
AcDbEntity
  8
0
100
AcDbLine
 62
7
  6
CONTINUOUS
 10
6.6271350357
 20
0.3404562415
 11
6.6246007974
 21
0.3404562415
  0
LINE
  5
215
100
AcDbEntity
  8
0
100
AcDbLine
 62
7
  6
CONTINUOUS
 10
6.7195096926
 20
0.3404562415
 11
6.6282080896
 21
0.3404562415
  0
LINE
  5
216
100
AcDbEntity
  8
0
100
AcDbLine
 62
7
  6
CONTINUOUS
 10
6.6238322226
 20
0.3404562415
 11
6.6208290299
 21
0.3404562415
  0
LINE
  5
217
100
AcDbEntity
  8
0
100
AcDbLine
 62
7
  6
CONTINUOUS
 10
7.4603434537
 20
0.3764562415
 11
7.4578092153
 21
0.3764562415
  0
LINE
  5
218
100
AcDbEntity
  8
0
100
AcDbLine
 62
7
  6
CONTINUOUS
 10
6.6216768724
 20
0.3764562415
 11
6.6208290299
 21
0.3764562415
  0
LINE
  5
219
100
AcDbEntity
  8
0
100
AcDbLine
 62
7
  6
CONTINUOUS
 10
6.6221388615
 20
0.3764562415
 11
6.7195096926
 21
0.3764562415
  0
LINE
  5
21A
100
AcDbEntity
  8
0
100
AcDbLine
 62
7
  6
CONTINUOUS
 10
6.7197716047
 20
0.3764562415
 11
7.3651726464
 21
0.3764562415
  0
LINE
  5
21B
100
AcDbEntity
  8
0
100
AcDbLine
 62
7
  6
CONTINUOUS
 10
7.3654345585
 20
0.3764562415
 11
7.4567361615
 21
0.3764562415
  0
LINE
  5
21C
100
AcDbEntity
  8
0
100
AcDbLine
 62
7
  6
CONTINUOUS
 10
7.4611120284
 20
0.3764562415
 11
7.4641152212
 21
0.3764562415
  0
LINE
  5
21D
100
AcDbEntity
  8
0
100
AcDbLine
 62
9
  6
CONTINUOUS
 10
7.3814230407
 20
0.3985062415
 11
6.7035212104
 21
0.3985062415
  0
LINE
  5
21E
100
AcDbEntity
  8
0
100
AcDbLine
 62
7
  6
CONTINUOUS
 10
7.3685448615
 20
0.4079562415
 11
6.7163993896
 21
0.4079562415
  0
LINE
  5
21F
100
AcDbEntity
  8
0
100
AcDbLine
 62
7
  6
CONTINUOUS
 10
2.9897229016
 20
5.2999277628
 11
2.8249622981
 21
4.6594593855
  0
LINE
  5
220
100
AcDbEntity
  8
0
100
AcDbLine
 62
7
  6
CONTINUOUS
 10
2.965513405
 20
4.6212786644
 11
2.966260468
 21
4.6328311074
  0
LINE
  5
221
100
AcDbEntity
  8
0
100
AcDbLine
 62
7
  6
CONTINUOUS
 10
2.9776668259
 20
4.6310856894
 11
2.976919763
 21
4.6195332463
  0
LINE
  5
222
100
AcDbEntity
  8
0
100
AcDbLine
 62
7
  6
CONTINUOUS
 10
3.0105101247
 20
4.6260599584
 11
3.0097630617
 21
4.6145075154
  0
LINE
  5
223
100
AcDbEntity
  8
0
100
AcDbLine
 62
7
  6
CONTINUOUS
 10
3.0608289776
 20
4.6183600919
 11
3.0600819147
 21
4.6068076489
  0
LINE
  5
224
100
AcDbEntity
  8
0
100
AcDbLine
 62
7
  6
CONTINUOUS
 10
3.1225541886
 20
4.6089148074
 11
3.1218071256
 21
4.5973623644
  0
LINE
  5
225
100
AcDbEntity
  8
0
100
AcDbLine
 62
7
  6
CONTINUOUS
 10
3.062183297
 20
5.7667375262
 11
3.0054364387
 21
5.395895147
  0
LINE
  5
226
100
AcDbEntity
  8
0
100
AcDbLine
 62
7
  6
CONTINUOUS
 10
3.1394234436
 20
6.0335046419
 11
3.1138981802
 21
5.8666962985
  0
LINE
  5
227
100
AcDbEntity
  8
0
100
AcDbLine
 62
7
  6
CONTINUOUS
 10
3.1154147371
 20
5.8528070921
 11
3.1171164213
 21
5.8639276483
  0
LINE
  5
228
100
AcDbEntity
  8
0
100
AcDbLine
 62
7
  6
CONTINUOUS
 10
3.1483719045
 20
5.8614210774
 11
3.1480315676
 21
5.8591969662
  0
LINE
  5
229
100
AcDbEntity
  8
0
100
AcDbLine
 62
7
  6
CONTINUOUS
 10
3.0588769969
 20
4.618658787
 11
3.0561352228
 21
4.6074115776
  0
LINE
  5
22A
100
AcDbEntity
  8
0
100
AcDbLine
 62
7
  6
CONTINUOUS
 10
3.1091958498
 20
4.6109589205
 11
3.1064540757
 21
4.5997117111
  0
LINE
  5
22B
100
AcDbEntity
  8
0
100
AcDbLine
 62
7
  6
CONTINUOUS
 10
3.1709210607
 20
4.6015136359
 11
3.1681792866
 21
4.5902664266
  0
LINE
  5
22C
100
AcDbEntity
  8
0
100
AcDbLine
 62
7
  6
CONTINUOUS
 10
6.7612221255
 20
1.9694562415
 11
7.3237221255
 21
1.9694562415
  0
LINE
  5
22D
100
AcDbEntity
  8
0
100
AcDbLine
 62
7
  6
CONTINUOUS
 10
6.7746797366
 20
1.9829138526
 11
7.3102645144
 21
1.9829138526
  0
LINE
  5
22E
100
AcDbEntity
  8
0
100
AcDbLine
 62
7
  6
CONTINUOUS
 10
3.188240786
 20
4.5988633455
 11
3.187493723
 21
4.5873109025
  0
LINE
  5
22F
100
AcDbEntity
  8
0
100
AcDbLine
 62
7
  6
CONTINUOUS
 10
3.2499659969
 20
4.589418061
 11
3.249218934
 21
4.5778656179
  0
LINE
  5
230
100
AcDbEntity
  8
0
100
AcDbLine
 62
7
  6
CONTINUOUS
 10
3.3002848499
 20
4.5817181945
 11
3.2995377869
 21
4.5701657514
  0
LINE
  5
231
100
AcDbEntity
  8
0
100
AcDbLine
 62
7
  6
CONTINUOUS
 10
3.5865218198
 20
5.7943747188
 11
3.5861814829
 21
5.7921506076
  0
LINE
  5
232
100
AcDbEntity
  8
0
100
AcDbLine
 62
7
  6
CONTINUOUS
 10
3.6170966293
 20
5.7874199254
 11
3.615394945
 21
5.7762993692
  0
LINE
  5
233
100
AcDbEntity
  8
0
100
AcDbLine
 62
7
  6
CONTINUOUS
 10
3.6393737338
 20
5.909201505
 11
3.6209955441
 21
5.7890994977
  0
LINE
  5
234
100
AcDbEntity
  8
0
100
AcDbLine
 62
7
  6
CONTINUOUS
 10
3.6404522207
 20
5.6782499463
 11
3.6303753869
 21
5.6123975423
  0
LINE
  5
235
100
AcDbEntity
  8
0
100
AcDbLine
 62
7
  6
CONTINUOUS
 10
3.2366076582
 20
4.591462174
 11
3.2338658841
 21
4.5802149647
  0
LINE
  5
236
100
AcDbEntity
  8
0
100
AcDbLine
 62
7
  6
CONTINUOUS
 10
3.2983328691
 20
4.5820168895
 11
3.295591095
 21
4.5707696802
  0
LINE
  5
237
100
AcDbEntity
  8
0
100
AcDbLine
 62
7
  6
CONTINUOUS
 10
3.3486517221
 20
4.574317023
 11
3.345909948
 21
4.5630698136
  0
LINE
  5
238
100
AcDbEntity
  8
0
100
AcDbLine
 62
7
  6
CONTINUOUS
 10
3.3814950208
 20
4.5692912921
 11
3.3787532467
 21
4.5580440827
  0
LINE
  5
239
100
AcDbEntity
  8
0
100
AcDbLine
 62
7
  6
CONTINUOUS
 10
3.3901596047
 20
4.5562986647
 11
3.3929013788
 21
4.567545874
  0
LINE
  5
23A
100
AcDbEntity
  8
0
100
AcDbLine
 62
7
  6
CONTINUOUS
 10
3.7386144316
 20
5.0778412193
 11
3.7366373261
 21
5.0758451716
  0
LINE
  5
23B
100
AcDbEntity
  8
0
100
AcDbLine
 62
7
  6
CONTINUOUS
 10
6.7611373477
 20
1.9964562415
 11
7.3238069033
 21
1.9964562415
  0
LINE
  5
23C
100
AcDbEntity
  8
0
100
AcDbLine
 62
7
  6
CONTINUOUS
 10
3.55385541
 20
4.9002882769
 11
3.5356967322
 21
4.5507017342
  0
LINE
  5
23D
100
AcDbEntity
  8
0
100
AcDbLine
 62
9
  6
CONTINUOUS
 10
3.710449059
 20
5.0433486487
 11
3.7083700098
 21
5.4794301252
  0
LINE
  5
23E
100
AcDbEntity
  8
0
100
AcDbLine
 62
7
  6
CONTINUOUS
 10
3.7367793659
 20
5.0460522706
 11
3.7347248815
 21
5.4769812636
  0
LINE
  5
23F
100
AcDbEntity
  8
0
100
AcDbLine
 62
9
  6
CONTINUOUS
 10
3.7383799823
 20
5.1270170684
 11
3.7386144316
 21
5.0778412193
  0
LINE
  5
240
100
AcDbEntity
  8
0
100
AcDbLine
 62
7
  6
CONTINUOUS
 10
3.7401534814
 20
5.0815487263
 11
3.7399543129
 21
5.1233244046
  0
LINE
  5
241
100
AcDbEntity
  8
0
100
AcDbLine
 62
7
  6
CONTINUOUS
 10
7.3636133546
 20
2.6174562415
 11
7.2821652813
 21
2.6174562415
  0
LINE
  5
242
100
AcDbEntity
  8
0
100
AcDbLine
 62
7
  6
CONTINUOUS
 10
7.2816939718
 20
2.6174562415
 11
6.8032502793
 21
2.6174562415
  0
LINE
  5
243
100
AcDbEntity
  8
0
100
AcDbLine
 62
7
  6
CONTINUOUS
 10
6.7227834011
 20
2.6174562415
 11
6.7213308964
 21
2.6174562415
  0
LINE
  5
244
100
AcDbEntity
  8
0
100
AcDbLine
 62
7
  6
CONTINUOUS
 10
6.7260537759
 20
2.6174562415
 11
6.7234609515
 21
2.6174562415
  0
LINE
  5
245
100
AcDbEntity
  8
0
100
AcDbLine
 62
7
  6
CONTINUOUS
 10
6.8027789698
 20
2.6174562415
 11
6.7271112401
 21
2.6174562415
  0
LINE
  5
246
100
AcDbEntity
  8
0
100
AcDbLine
 62
7
  6
CONTINUOUS
 10
7.3636133546
 20
2.6624562415
 11
7.3622388084
 21
2.6624562415
  0
LINE
  5
247
100
AcDbEntity
  8
0
100
AcDbLine
 62
7
  6
CONTINUOUS
 10
7.3614832996
 20
2.6624562415
 11
7.3590159946
 21
2.6624562415
  0
LINE
  5
248
100
AcDbEntity
  8
0
100
AcDbLine
 62
7
  6
CONTINUOUS
 10
6.7213308964
 20
2.6624562415
 11
6.8027789698
 21
2.6624562415
  0
LINE
  5
249
100
AcDbEntity
  8
0
100
AcDbLine
 62
7
  6
CONTINUOUS
 10
6.8032502793
 20
2.6624562415
 11
7.2816939718
 21
2.6624562415
  0
LINE
  5
24A
100
AcDbEntity
  8
0
100
AcDbLine
 62
7
  6
CONTINUOUS
 10
7.2821652813
 20
2.6624562415
 11
7.357833011
 21
2.6624562415
  0
LINE
  5
24B
100
AcDbEntity
  8
0
100
AcDbLine
 62
9
  6
CONTINUOUS
 10
6.8250243436
 20
2.7146883844
 11
7.2599199074
 21
2.7146883844
  0
LINE
  5
24C
100
AcDbEntity
  8
0
100
AcDbLine
 62
7
  6
CONTINUOUS
 10
7.2485205167
 20
2.7209562415
 11
6.8364237344
 21
2.7209562415
  0
LINE
  5
24D
100
AcDbEntity
  8
0
100
AcDbLine
 62
9
  6
CONTINUOUS
 10
7.2224721255
 20
2.7344562415
 11
6.8624721255
 21
2.7344562415
  0
LINE
  5
24E
100
AcDbEntity
  8
0
100
AcDbLine
 62
9
  6
CONTINUOUS
 10
6.8624721255
 20
2.7749562415
 11
7.2224721255
 21
2.7749562415
  0
LINE
  5
24F
100
AcDbEntity
  8
0
100
AcDbLine
 62
7
  6
CONTINUOUS
 10
6.8759721255
 20
2.7884562415
 11
7.2089721255
 21
2.7884562415
  0
LINE
  5
250
100
AcDbEntity
  8
0
100
AcDbLine
 62
9
  6
CONTINUOUS
 10
7.1763471255
 20
2.8836885988
 11
6.9085971255
 21
2.8836885988
  0
LINE
  5
251
100
AcDbEntity
  8
0
100
AcDbLine
 62
9
  6
CONTINUOUS
 10
7.1842221255
 20
2.8926180095
 11
6.9007221255
 21
2.8926180095
  0
LINE
  5
252
100
AcDbEntity
  8
0
100
AcDbLine
 62
7
  6
CONTINUOUS
 10
7.1808471255
 20
2.9464062415
 11
6.9040971255
 21
2.9464062415
  0
LINE
  5
253
100
AcDbEntity
  8
0
100
AcDbLine
 62
9
  6
CONTINUOUS
 10
6.9547221255
 20
2.9554062415
 11
7.0091415468
 21
2.9554062415
  0
LINE
  5
254
100
AcDbEntity
  8
0
100
AcDbLine
 62
9
  6
CONTINUOUS
 10
7.0758027042
 20
2.9554062415
 11
7.1302221255
 21
2.9554062415
  0
LINE
  5
255
100
AcDbEntity
  8
0
100
AcDbLine
 62
9
  6
CONTINUOUS
 10
6.9547221255
 20
2.9666562415
 11
6.9733382673
 21
2.9666562415
  0
LINE
  5
256
100
AcDbEntity
  8
0
100
AcDbLine
 62
9
  6
CONTINUOUS
 10
7.1116059838
 20
2.9666562415
 11
7.1302221255
 21
2.9666562415
  0
LINE
  5
257
100
AcDbEntity
  8
0
100
AcDbLine
 62
7
  6
CONTINUOUS
 10
7.3462221255
 20
3.0944562415
 11
7.2119090681
 21
3.0944562415
  0
LINE
  5
258
100
AcDbEntity
  8
0
100
AcDbLine
 62
7
  6
CONTINUOUS
 10
6.873035183
 20
3.0944562415
 11
6.7387221255
 21
3.0944562415
  0
LINE
  5
259
100
AcDbEntity
  8
0
100
AcDbLine
 62
7
  6
CONTINUOUS
 10
6.7162221255
 20
3.1169562415
 11
6.8706165305
 21
3.1169562415
  0
LINE
  5
25A
100
AcDbEntity
  8
0
100
AcDbLine
 62
7
  6
CONTINUOUS
 10
7.2143277205
 20
3.1169562415
 11
7.3687221255
 21
3.1169562415
  0
LINE
  5
25B
100
AcDbEntity
  8
0
100
AcDbLine
 62
7
  6
CONTINUOUS
 10
7.3912221255
 20
3.1394562415
 11
7.2138412359
 21
3.1394562415
  0
LINE
  5
25C
100
AcDbEntity
  8
0
100
AcDbLine
 62
7
  6
CONTINUOUS
 10
6.6937221255
 20
3.1394562415
 11
6.8711030152
 21
3.1394562415
  0
LINE
  5
25D
100
AcDbEntity
  8
0
100
AcDbLine
 62
7
  6
CONTINUOUS
 10
7.4643471255
 20
0.2729562415
 11
7.4418471255
 21
0.2954562415
  0
LINE
  5
25E
100
AcDbEntity
  8
0
100
AcDbLine
 62
7
  6
CONTINUOUS
 10
7.3912221255
 20
3.2294562415
 11
7.1785343557
 21
3.2294562415
  0
LINE
  5
25F
100
AcDbEntity
  8
0
100
AcDbLine
 62
7
  6
CONTINUOUS
 10
6.6937221255
 20
3.2294562415
 11
6.9064098954
 21
3.2294562415
  0
LINE
  5
260
100
AcDbEntity
  8
0
100
AcDbLine
 62
7
  6
CONTINUOUS
 10
7.3687221255
 20
3.2519562415
 11
7.1576603789
 21
3.2519562415
  0
LINE
  5
261
100
AcDbEntity
  8
0
100
AcDbLine
 62
7
  6
CONTINUOUS
 10
6.7162221255
 20
3.2519562415
 11
6.9272838722
 21
3.2519562415
  0
LINE
  5
262
100
AcDbEntity
  8
0
100
AcDbLine
 62
7
  6
CONTINUOUS
 10
6.7612221255
 20
3.2969562415
 11
7.3237221255
 21
3.2969562415
  0
LINE
  5
263
100
AcDbEntity
  8
0
100
AcDbLine
 62
7
  6
CONTINUOUS
 10
6.7859721255
 20
3.3059562415
 11
7.2989721255
 21
3.3059562415
  0
LINE
  5
264
100
AcDbEntity
  8
0
100
AcDbLine
 62
7
  6
CONTINUOUS
 10
6.7746797366
 20
1.9829138526
 11
6.7611373477
 21
1.9964562415
  0
LINE
  5
265
100
AcDbEntity
  8
0
100
AcDbLine
 62
7
  6
CONTINUOUS
 10
3.7363839345
 20
5.1289941738
 11
3.7383799823
 21
5.1270170684
  0
LINE
  5
266
100
AcDbEntity
  8
0
100
AcDbLine
 62
7
  6
CONTINUOUS
 10
3.2894698203
 20
4.5667981612
 11
3.2537188709
 21
4.5722688252
  0
LINE
  5
267
100
AcDbEntity
  8
0
100
AcDbLine
 62
7
  6
CONTINUOUS
 10
3.162211596
 20
4.5862714059
 11
3.1263070625
 21
4.5917655716
  0
LINE
  5
268
100
AcDbEntity
  8
0
100
AcDbLine
 62
7
  6
CONTINUOUS
 10
3.1004863851
 20
4.5957166904
 11
3.0645818516
 21
4.6012108561
  0
LINE
  5
269
100
AcDbEntity
  8
0
100
AcDbLine
 62
7
  6
CONTINUOUS
 10
2.9700133419
 20
4.6156818716
 11
3.0501675321
 21
4.603416557
  0
LINE
  5
26A
100
AcDbEntity
  8
0
100
AcDbLine
 62
7
  6
CONTINUOUS
 10
3.1920033329
 20
4.5817126295
 11
3.2278298797
 21
4.5762303975
  0
LINE
  5
26B
100
AcDbEntity
  8
0
100
AcDbLine
 62
7
  6
CONTINUOUS
 10
3.3040428235
 20
4.5645681783
 11
3.3727172423
 21
4.5540595155
  0
LINE
  5
26C
100
AcDbEntity
  8
0
100
AcDbLine
 62
7
  6
CONTINUOUS
 10
3.3789477342
 20
4.5531061163
 11
3.3840213715
 21
4.5523297407
  0
LINE
  5
26D
100
AcDbEntity
  8
0
100
AcDbLine
 62
9
  6
CONTINUOUS
 10
2.965513405
 20
4.6212786644
 11
3.055978447
 21
4.6074355677
  0
LINE
  5
26E
100
AcDbEntity
  8
0
100
AcDbLine
 62
9
  6
CONTINUOUS
 10
3.0600819147
 20
4.6068076489
 11
3.1064540757
 21
4.5997117111
  0
LINE
  5
26F
100
AcDbEntity
  8
0
100
AcDbLine
 62
9
  6
CONTINUOUS
 10
3.1218071256
 20
4.5973623644
 11
3.1681792866
 21
4.5902664266
  0
LINE
  5
270
100
AcDbEntity
  8
0
100
AcDbLine
 62
9
  6
CONTINUOUS
 10
3.187493723
 20
4.5873109025
 11
3.2337091079
 21
4.5802389548
  0
LINE
  5
271
100
AcDbEntity
  8
0
100
AcDbLine
 62
9
  6
CONTINUOUS
 10
3.249218934
 20
4.5778656179
 11
3.2954343187
 21
4.5707936703
  0
LINE
  5
272
100
AcDbEntity
  8
0
100
AcDbLine
 62
9
  6
CONTINUOUS
 10
3.2995377869
 20
4.5701657514
 11
3.3901596047
 21
4.5562986647
  0
LINE
  5
273
100
AcDbEntity
  8
0
100
AcDbLine
 62
7
  6
CONTINUOUS
 10
3.530522117
 20
4.5464869418
 11
2.8286397298
 21
4.6538900396
  0
LINE
  5
274
100
AcDbEntity
  8
0
100
AcDbLine
 62
9
  6
CONTINUOUS
 10
3.5356967322
 20
4.5507017342
 11
2.8249622981
 21
4.6594593855
  0
LINE
  5
275
100
AcDbEntity
  8
0
100
AcDbLine
 62
7
  6
CONTINUOUS
 10
7.3102645144
 20
1.9829138526
 11
7.3237221255
 21
1.9694562415
  0
LINE
  5
276
100
AcDbEntity
  8
0
100
AcDbLine
 62
9
  6
CONTINUOUS
 10
3.55385541
 20
4.9002882769
 11
3.5498082548
 21
4.9009075786
  0
LINE
  5
277
100
AcDbEntity
  8
0
100
AcDbLine
 62
7
  6
CONTINUOUS
 10
6.7162221255
 20
3.1169562415
 11
6.7387221255
 21
3.0944562415
  0
LINE
  5
278
100
AcDbEntity
  8
0
100
AcDbLine
 62
9
  6
CONTINUOUS
 10
3.5875215476
 20
5.006996361
 11
3.5630903323
 21
5.0107348622
  0
LINE
  5
279
100
AcDbEntity
  8
0
100
AcDbLine
 62
7
  6
CONTINUOUS
 10
3.6111127273
 20
5.0004465256
 11
3.6930861928
 21
5.0015527575
  0
LINE
  5
27A
100
AcDbEntity
  8
0
100
AcDbLine
 62
9
  6
CONTINUOUS
 10
2.9897229016
 20
5.2999277628
 11
3.5226091587
 21
5.2183847469
  0
LINE
  5
27B
100
AcDbEntity
  8
0
100
AcDbLine
 62
9
  6
CONTINUOUS
 10
2.9860749395
 20
5.3158115534
 11
3.529869821
 21
5.2325992027
  0
LINE
  5
27C
100
AcDbEntity
  8
0
100
AcDbLine
 62
9
  6
CONTINUOUS
 10
3.5392012322
 20
5.3004555413
 11
2.9970924973
 21
5.3834098407
  0
LINE
  5
27D
100
AcDbEntity
  8
0
100
AcDbLine
 62
9
  6
CONTINUOUS
 10
3.5360096935
 20
5.3147059963
 11
3.0054364387
 21
5.395895147
  0
LINE
  5
27E
100
AcDbEntity
  8
0
100
AcDbLine
 62
7
  6
CONTINUOUS
 10
3.6622154372
 20
5.5024705249
 11
3.6936459086
 21
5.4970158227
  0
LINE
  5
27F
100
AcDbEntity
  8
0
100
AcDbLine
 62
7
  6
CONTINUOUS
 10
6.6205971255
 20
0.2369562415
 11
6.6205971255
 21
0.2729562415
  0
LINE
  5
280
100
AcDbEntity
  8
0
100
AcDbLine
 62
7
  6
CONTINUOUS
 10
6.6208290299
 20
0.3404562415
 11
6.6208290299
 21
0.3764562415
  0
LINE
  5
281
100
AcDbEntity
  8
0
100
AcDbLine
 62
7
  6
CONTINUOUS
 10
6.6216768724
 20
0.3404562415
 11
6.6216768724
 21
0.3764562415
  0
LINE
  5
282
100
AcDbEntity
  8
0
100
AcDbLine
 62
7
  6
CONTINUOUS
 10
6.6221388615
 20
0.3404562415
 11
6.6221388615
 21
0.3764562415
  0
LINE
  5
283
100
AcDbEntity
  8
0
100
AcDbLine
 62
7
  6
CONTINUOUS
 10
6.6238322226
 20
0.3404562415
 11
6.6238322226
 21
0.3764562415
  0
LINE
  5
284
100
AcDbEntity
  8
0
100
AcDbLine
 62
7
  6
CONTINUOUS
 10
6.6246007974
 20
0.3404562415
 11
6.6246007974
 21
0.3764562415
  0
LINE
  5
285
100
AcDbEntity
  8
0
100
AcDbLine
 62
7
  6
CONTINUOUS
 10
6.6271350357
 20
0.3404562415
 11
6.6271350357
 21
0.3764562415
  0
LINE
  5
286
100
AcDbEntity
  8
0
100
AcDbLine
 62
7
  6
CONTINUOUS
 10
6.6282080896
 20
0.3404562415
 11
6.6282080896
 21
0.3764562415
  0
LINE
  5
287
100
AcDbEntity
  8
0
100
AcDbLine
 62
7
  6
CONTINUOUS
 10
6.6315762589
 20
0.3404562415
 11
6.6315762589
 21
0.3764562415
  0
LINE
  5
288
100
AcDbEntity
  8
0
100
AcDbLine
 62
7
  6
CONTINUOUS
 10
6.6329508506
 20
0.3404562415
 11
6.6329508506
 21
0.3764562415
  0
LINE
  5
289
100
AcDbEntity
  8
0
100
AcDbLine
 62
7
  6
CONTINUOUS
 10
6.6371437192
 20
0.3404562415
 11
6.6371437192
 21
0.3764562415
  0
LINE
  5
28A
100
AcDbEntity
  8
0
100
AcDbLine
 62
7
  6
CONTINUOUS
 10
6.638816081
 20
0.3404562415
 11
6.638816081
 21
0.3764562415
  0
LINE
  5
28B
100
AcDbEntity
  8
0
100
AcDbLine
 62
7
  6
CONTINUOUS
 10
6.6430971255
 20
0.2954562415
 11
6.6430971255
 21
0.3404562415
  0
LINE
  5
28C
100
AcDbEntity
  8
0
100
AcDbLine
 62
7
  6
CONTINUOUS
 10
6.6438221564
 20
0.3404562415
 11
6.6438221564
 21
0.3764562415
  0
LINE
  5
28D
100
AcDbEntity
  8
0
100
AcDbLine
 62
7
  6
CONTINUOUS
 10
6.6457877046
 20
0.3404562415
 11
6.6457877046
 21
0.3764562415
  0
LINE
  5
28E
100
AcDbEntity
  8
0
100
AcDbLine
 62
7
  6
CONTINUOUS
 10
6.6515932654
 20
0.3404562415
 11
6.6515932654
 21
0.3764562415
  0
LINE
  5
28F
100
AcDbEntity
  8
0
100
AcDbLine
 62
7
  6
CONTINUOUS
 10
6.6538466126
 20
0.3404562415
 11
6.6538466126
 21
0.3764562415
  0
LINE
  5
290
100
AcDbEntity
  8
0
100
AcDbLine
 62
7
  6
CONTINUOUS
 10
6.6604357463
 20
0.3404562415
 11
6.6604357463
 21
0.3764562415
  0
LINE
  5
291
100
AcDbEntity
  8
0
100
AcDbLine
 62
7
  6
CONTINUOUS
 10
6.6629707162
 20
0.3404562415
 11
6.6629707162
 21
0.3764562415
  0
LINE
  5
292
100
AcDbEntity
  8
0
100
AcDbLine
 62
9
  6
CONTINUOUS
 10
3.7349911253
 20
5.421136523
 11
3.7385343921
 21
5.4211534158
  0
LINE
  5
293
100
AcDbEntity
  8
0
100
AcDbLine
 62
9
  6
CONTINUOUS
 10
3.6388447325
 20
5.5037842187
 11
3.6142548685
 21
5.5075469966
  0
LINE
  5
294
100
AcDbEntity
  8
0
100
AcDbLine
 62
9
  6
CONTINUOUS
 10
3.6260017838
 20
5.6130667976
 11
3.6303753869
 21
5.6123975423
  0
LINE
  5
295
100
AcDbEntity
  8
0
100
AcDbLine
 62
9
  6
CONTINUOUS
 10
3.062183297
 20
5.7667375262
 11
3.6404522207
 21
5.6782499463
  0
LINE
  5
296
100
AcDbEntity
  8
0
100
AcDbLine
 62
9
  6
CONTINUOUS
 10
3.0579547874
 20
5.7811466878
 11
3.6487961622
 21
5.6907352527
  0
LINE
  5
297
100
AcDbEntity
  8
0
100
AcDbLine
 62
7
  6
CONTINUOUS
 10
3.0985114916
 20
5.8553936521
 11
3.6322981905
 21
5.7737128092
  0
LINE
  5
298
100
AcDbEntity
  8
0
100
AcDbLine
 62
7
  6
CONTINUOUS
 10
3.6170966293
 20
5.7874199254
 11
3.1171164213
 21
5.8639276483
  0
LINE
  5
299
100
AcDbEntity
  8
0
100
AcDbLine
 62
7
  6
CONTINUOUS
 10
3.6209955441
 20
5.7890994977
 11
3.1138981802
 21
5.8666962985
  0
LINE
  5
29A
100
AcDbEntity
  8
0
100
AcDbLine
 62
7
  6
CONTINUOUS
 10
3.6979166092
 20
5.520426405
 11
3.6695864665
 21
5.5252826252
  0
LINE
  5
29B
100
AcDbEntity
  8
0
100
AcDbLine
 62
7
  6
CONTINUOUS
 10
6.6703253623
 20
0.3404562415
 11
6.6703253623
 21
0.3764562415
  0
LINE
  5
29C
100
AcDbEntity
  8
0
100
AcDbLine
 62
7
  6
CONTINUOUS
 10
6.6731350067
 20
0.3404562415
 11
6.6731350067
 21
0.3764562415
  0
LINE
  5
29D
100
AcDbEntity
  8
0
100
AcDbLine
 62
7
  6
CONTINUOUS
 10
6.6812350067
 20
0.3404562415
 11
6.6812350067
 21
0.3764562415
  0
LINE
  5
29E
100
AcDbEntity
  8
0
100
AcDbLine
 62
7
  6
CONTINUOUS
 10
6.6843116245
 20
0.3404562415
 11
6.6843116245
 21
0.3764562415
  0
LINE
  5
29F
100
AcDbEntity
  8
0
100
AcDbLine
 62
7
  6
CONTINUOUS
 10
6.6931347769
 20
0.3404562415
 11
6.6931347769
 21
0.3764562415
  0
LINE
  5
2A0
100
AcDbEntity
  8
0
100
AcDbLine
 62
7
  6
CONTINUOUS
 10
6.6937221255
 20
3.1394562415
 11
6.6937221255
 21
3.2294562415
  0
LINE
  5
2A1
100
AcDbEntity
  8
0
100
AcDbLine
 62
7
  6
CONTINUOUS
 10
6.6964699355
 20
0.3404562415
 11
6.6964699355
 21
0.3764562415
  0
LINE
  5
2A2
100
AcDbEntity
  8
0
100
AcDbLine
 62
7
  6
CONTINUOUS
 10
6.7059920565
 20
0.3404562415
 11
6.7059920565
 21
0.3764562415
  0
LINE
  5
2A3
100
AcDbEntity
  8
0
100
AcDbLine
 62
7
  6
CONTINUOUS
 10
6.7095766143
 20
0.3404562415
 11
6.7095766143
 21
0.3764562415
  0
LINE
  5
2A4
100
AcDbEntity
  8
0
100
AcDbLine
 62
7
  6
CONTINUOUS
 10
6.7162221255
 20
3.1169562415
 11
6.7162221255
 21
3.1394562415
  0
LINE
  5
2A5
100
AcDbEntity
  8
0
100
AcDbLine
 62
7
  6
CONTINUOUS
 10
6.7162221255
 20
3.2294562415
 11
6.7162221255
 21
3.2519562415
  0
LINE
  5
2A6
100
AcDbEntity
  8
0
100
AcDbLine
 62
7
  6
CONTINUOUS
 10
6.7197716047
 20
0.3404562415
 11
6.7197716047
 21
0.3764562415
  0
LINE
  5
2A7
100
AcDbEntity
  8
0
100
AcDbLine
 62
7
  6
CONTINUOUS
 10
6.7207312256
 20
2.6624562415
 11
6.7207312256
 21
2.6174562415
  0
LINE
  5
2A8
100
AcDbEntity
  8
0
100
AcDbLine
 62
7
  6
CONTINUOUS
 10
6.7213308964
 20
2.6624562415
 11
6.7213308964
 21
2.6174562415
  0
LINE
  5
2A9
100
AcDbEntity
  8
0
100
AcDbLine
 62
7
  6
CONTINUOUS
 10
6.7227054427
 20
2.6624562415
 11
6.7227054427
 21
2.6174562415
  0
LINE
  5
2AA
100
AcDbEntity
  8
0
100
AcDbLine
 62
7
  6
CONTINUOUS
 10
6.7234609515
 20
2.6624562415
 11
6.7234609515
 21
2.6174562415
  0
LINE
  5
2AB
100
AcDbEntity
  8
0
100
AcDbLine
 62
7
  6
CONTINUOUS
 10
6.7235957367
 20
0.3404562415
 11
6.7235957367
 21
0.3764562415
  0
LINE
  5
2AC
100
AcDbEntity
  8
0
100
AcDbLine
 62
7
  6
CONTINUOUS
 10
6.7259282565
 20
2.6624562415
 11
6.7259282565
 21
2.6174562415
  0
LINE
  5
2AD
100
AcDbEntity
  8
0
100
AcDbLine
 62
7
  6
CONTINUOUS
 10
6.7271112401
 20
2.6624562415
 11
6.7271112401
 21
2.6174562415
  0
LINE
  5
2AE
100
AcDbEntity
  8
0
100
AcDbLine
 62
7
  6
CONTINUOUS
 10
6.730659546
 20
2.6624562415
 11
6.730659546
 21
2.6174562415
  0
LINE
  5
2AF
100
AcDbEntity
  8
0
100
AcDbLine
 62
7
  6
CONTINUOUS
 10
6.7322643669
 20
2.6624562415
 11
6.7322643669
 21
2.6174562415
  0
LINE
  5
2B0
100
AcDbEntity
  8
0
100
AcDbLine
 62
7
  6
CONTINUOUS
 10
6.7336397147
 20
0.3764562415
 11
6.7336397147
 21
0.3404562415
  0
LINE
  5
2B1
100
AcDbEntity
  8
0
100
AcDbLine
 62
7
  6
CONTINUOUS
 10
6.7344356525
 20
0.3404562415
 11
6.7344356525
 21
0.3764562415
  0
LINE
  5
2B2
100
AcDbEntity
  8
0
100
AcDbLine
 62
7
  6
CONTINUOUS
 10
6.7368767644
 20
2.6624562415
 11
6.7368767644
 21
2.6174562415
  0
LINE
  5
2B3
100
AcDbEntity
  8
0
100
AcDbLine
 62
7
  6
CONTINUOUS
 10
6.738488877
 20
0.3404562415
 11
6.738488877
 21
0.3764562415
  0
LINE
  5
2B4
100
AcDbEntity
  8
0
100
AcDbLine
 62
7
  6
CONTINUOUS
 10
6.7388957749
 20
2.6624562415
 11
6.7388957749
 21
2.6174562415
  0
LINE
  5
2B5
100
AcDbEntity
  8
0
100
AcDbLine
 62
7
  6
CONTINUOUS
 10
6.7445502839
 20
2.6624562415
 11
6.7445502839
 21
2.6174562415
  0
LINE
  5
2B6
100
AcDbEntity
  8
0
100
AcDbLine
 62
7
  6
CONTINUOUS
 10
6.7469738625
 20
2.6624562415
 11
6.7469738625
 21
2.6174562415
  0
LINE
  5
2B7
100
AcDbEntity
  8
0
100
AcDbLine
 62
7
  6
CONTINUOUS
 10
6.748616225
 20
0.3764562415
 11
6.748616225
 21
0.3404562415
  0
LINE
  5
2B8
100
AcDbEntity
  8
0
100
AcDbLine
 62
7
  6
CONTINUOUS
 10
6.7499440068
 20
0.3404562415
 11
6.7499440068
 21
0.3764562415
  0
LINE
  5
2B9
100
AcDbEntity
  8
0
100
AcDbLine
 62
7
  6
CONTINUOUS
 10
6.7536435366
 20
2.6624562415
 11
6.7536435366
 21
2.6174562415
  0
LINE
  5
2BA
100
AcDbEntity
  8
0
100
AcDbLine
 62
7
  6
CONTINUOUS
 10
6.7542152143
 20
0.3404562415
 11
6.7542152143
 21
0.3764562415
  0
LINE
  5
2BB
100
AcDbEntity
  8
0
100
AcDbLine
 62
7
  6
CONTINUOUS
 10
6.7564601339
 20
2.6624562415
 11
6.7564601339
 21
2.6174562415
  0
LINE
  5
2BC
100
AcDbEntity
  8
0
100
AcDbLine
 62
7
  6
CONTINUOUS
 10
6.7612221255
 20
0.4079562415
 11
6.7611373477
 21
2.6174562415
  0
LINE
  5
2BD
100
AcDbEntity
  8
0
100
AcDbLine
 62
7
  6
CONTINUOUS
 10
6.7612221255
 20
2.6669613019
 11
6.7612221255
 21
3.0944562415
  0
LINE
  5
2BE
100
AcDbEntity
  8
0
100
AcDbLine
 62
7
  6
CONTINUOUS
 10
6.7641131891
 20
2.6624562415
 11
6.7641131891
 21
2.6174562415
  0
LINE
  5
2BF
100
AcDbEntity
  8
0
100
AcDbLine
 62
7
  6
CONTINUOUS
 10
6.7643981738
 20
0.3764562415
 11
6.7643981738
 21
0.3404562415
  0
LINE
  5
2C0
100
AcDbEntity
  8
0
100
AcDbLine
 62
7
  6
CONTINUOUS
 10
6.7662541605
 20
0.3404562415
 11
6.7662541605
 21
0.3764562415
  0
LINE
  5
2C1
100
AcDbEntity
  8
0
100
AcDbLine
 62
7
  6
CONTINUOUS
 10
6.7673093827
 20
2.6624562415
 11
6.7673093827
 21
2.6174562415
  0
LINE
  5
2C2
100
AcDbEntity
  8
0
100
AcDbLine
 62
7
  6
CONTINUOUS
 10
6.7707316437
 20
0.3404562415
 11
6.7707316437
 21
0.3764562415
  0
LINE
  5
2C3
100
AcDbEntity
  8
0
100
AcDbLine
 62
7
  6
CONTINUOUS
 10
6.7759093487
 20
2.6624562415
 11
6.7759093487
 21
2.6174562415
  0
LINE
  5
2C4
100
AcDbEntity
  8
0
100
AcDbLine
 62
7
  6
CONTINUOUS
 10
6.7794699073
 20
2.6624562415
 11
6.7794699073
 21
2.6174562415
  0
LINE
  5
2C5
100
AcDbEntity
  8
0
100
AcDbLine
 62
7
  6
CONTINUOUS
 10
6.780942304
 20
0.3764562415
 11
6.780942304
 21
0.3404562415
  0
LINE
  5
2C6
100
AcDbEntity
  8
0
100
AcDbLine
 62
7
  6
CONTINUOUS
 10
6.7833214083
 20
0.3404562415
 11
6.7833214083
 21
0.3764562415
  0
LINE
  5
2C7
100
AcDbEntity
  8
0
100
AcDbLine
 62
7
  6
CONTINUOUS
 10
6.7859721255
 20
3.3059562415
 11
6.7859721255
 21
5.7170959521
  0
LINE
  5
2C8
100
AcDbEntity
  8
0
100
AcDbLine
 62
7
  6
CONTINUOUS
 10
6.787992895
 20
0.3404562415
 11
6.787992895
 21
0.3764562415
  0
LINE
  5
2C9
100
AcDbEntity
  8
0
100
AcDbLine
 62
7
  6
CONTINUOUS
 10
6.7889758013
 20
2.6624562415
 11
6.7889758013
 21
2.6174562415
  0
LINE
  5
2CA
100
AcDbEntity
  8
0
100
AcDbLine
 62
7
  6
CONTINUOUS
 10
6.7928837572
 20
2.6624562415
 11
6.7928837572
 21
2.6174562415
  0
LINE
  5
2CB
100
AcDbEntity
  8
0
100
AcDbLine
 62
7
  6
CONTINUOUS
 10
6.7982032693
 20
0.3764562415
 11
6.7982032693
 21
0.3404562415
  0
LINE
  5
2CC
100
AcDbEntity
  8
0
100
AcDbLine
 62
7
  6
CONTINUOUS
 10
6.8010989703
 20
0.3404562415
 11
6.8010989703
 21
0.3764562415
  0
LINE
  5
2CD
100
AcDbEntity
  8
0
100
AcDbLine
 62
7
  6
CONTINUOUS
 10
6.8027789698
 20
2.6624562415
 11
6.8027789698
 21
2.6174562415
  0
LINE
  5
2CE
100
AcDbEntity
  8
0
100
AcDbLine
 62
7
  6
CONTINUOUS
 10
6.8032502793
 20
2.6624562415
 11
6.8032502793
 21
2.6174562415
  0
LINE
  5
2CF
100
AcDbEntity
  8
0
100
AcDbLine
 62
7
  6
CONTINUOUS
 10
6.8059516561
 20
0.3404562415
 11
6.8059516561
 21
0.3764562415
  0
LINE
  5
2D0
100
AcDbEntity
  8
0
100
AcDbLine
 62
7
  6
CONTINUOUS
 10
6.8074870093
 20
2.6624562415
 11
6.8074870093
 21
2.6174562415
  0
LINE
  5
2D1
100
AcDbEntity
  8
0
100
AcDbLine
 62
7
  6
CONTINUOUS
 10
6.8161337586
 20
0.3764562415
 11
6.8161337586
 21
0.3404562415
  0
LINE
  5
2D2
100
AcDbEntity
  8
0
100
AcDbLine
 62
7
  6
CONTINUOUS
 10
6.8174984754
 20
2.6624562415
 11
6.8174984754
 21
2.6174562415
  0
LINE
  5
2D3
100
AcDbEntity
  8
0
100
AcDbLine
 62
7
  6
CONTINUOUS
 10
6.8186647584
 20
2.6624562415
 11
6.8186647584
 21
2.6174562415
  0
LINE
  5
2D4
100
AcDbEntity
  8
0
100
AcDbLine
 62
7
  6
CONTINUOUS
 10
6.8195381193
 20
0.3404562415
 11
6.8195381193
 21
0.3764562415
  0
LINE
  5
2D5
100
AcDbEntity
  8
0
100
AcDbLine
 62
7
  6
CONTINUOUS
 10
6.8232100725
 20
2.6624562415
 11
6.8232100725
 21
2.6174562415
  0
LINE
  5
2D6
100
AcDbEntity
  8
0
100
AcDbLine
 62
7
  6
CONTINUOUS
 10
6.8245587034
 20
0.3404562415
 11
6.8245587034
 21
0.3764562415
  0
LINE
  5
2D7
100
AcDbEntity
  8
0
100
AcDbLine
 62
7
  6
CONTINUOUS
 10
6.833290083
 20
2.6624562415
 11
6.833290083
 21
2.6174562415
  0
LINE
  5
2D8
100
AcDbEntity
  8
0
100
AcDbLine
 62
7
  6
CONTINUOUS
 10
6.8346846255
 20
0.3764562415
 11
6.8346846255
 21
0.3404562415
  0
LINE
  5
2D9
100
AcDbEntity
  8
0
100
AcDbLine
 62
7
  6
CONTINUOUS
 10
6.8351457815
 20
2.6624562415
 11
6.8351457815
 21
2.6174562415
  0
LINE
  5
2DA
100
AcDbEntity
  8
0
100
AcDbLine
 62
7
  6
CONTINUOUS
 10
6.8385883149
 20
0.3404562415
 11
6.8385883149
 21
0.3764562415
  0
LINE
  5
2DB
100
AcDbEntity
  8
0
100
AcDbLine
 62
7
  6
CONTINUOUS
 10
6.8399780193
 20
2.6624562415
 11
6.8399780193
 21
2.6174562415
  0
LINE
  5
2DC
100
AcDbEntity
  8
0
100
AcDbLine
 62
7
  6
CONTINUOUS
 10
6.8437630362
 20
0.3404562415
 11
6.8437630362
 21
0.3764562415
  0
LINE
  5
2DD
100
AcDbEntity
  8
0
100
AcDbLine
 62
7
  6
CONTINUOUS
 10
6.8500785383
 20
2.6624562415
 11
6.8500785383
 21
2.6174562415
  0
LINE
  5
2DE
100
AcDbEntity
  8
0
100
AcDbLine
 62
7
  6
CONTINUOUS
 10
6.852614809
 20
2.6624562415
 11
6.852614809
 21
2.6174562415
  0
LINE
  5
2DF
100
AcDbEntity
  8
0
100
AcDbLine
 62
7
  6
CONTINUOUS
 10
6.8538050236
 20
0.3764562415
 11
6.8538050236
 21
0.3404562415
  0
LINE
  5
2E0
100
AcDbEntity
  8
0
100
AcDbLine
 62
7
  6
CONTINUOUS
 10
6.8577109427
 20
2.6624562415
 11
6.8577109427
 21
2.6174562415
  0
LINE
  5
2E1
100
AcDbEntity
  8
0
100
AcDbLine
 62
7
  6
CONTINUOUS
 10
6.8581973419
 20
0.3404562415
 11
6.8581973419
 21
0.3764562415
  0
LINE
  5
2E2
100
AcDbEntity
  8
0
100
AcDbLine
 62
7
  6
CONTINUOUS
 10
6.8624721255
 20
2.7749562415
 11
6.8624721255
 21
2.7344562415
  0
LINE
  5
2E3
100
AcDbEntity
  8
0
100
AcDbLine
 62
7
  6
CONTINUOUS
 10
6.8635120168
 20
0.3404562415
 11
6.8635120168
 21
0.3764562415
  0
LINE
  5
2E4
100
AcDbEntity
  8
0
100
AcDbLine
 62
7
  6
CONTINUOUS
 10
6.8677838366
 20
2.6624562415
 11
6.8677838366
 21
2.6174562415
  0
LINE
  5
2E5
100
AcDbEntity
  8
0
100
AcDbLine
 62
7
  6
CONTINUOUS
 10
6.8709885931
 20
2.6624562415
 11
6.8709885931
 21
2.6174562415
  0
LINE
  5
2E6
100
AcDbEntity
  8
0
100
AcDbLine
 62
7
  6
CONTINUOUS
 10
6.8734425451
 20
0.3764562415
 11
6.8734425451
 21
0.3404562415
  0
LINE
  5
2E7
100
AcDbEntity
  8
0
100
AcDbLine
 62
7
  6
CONTINUOUS
 10
6.8763243373
 20
2.6624562415
 11
6.8763243373
 21
2.6174562415
  0
LINE
  5
2E8
100
AcDbEntity
  8
0
100
AcDbLine
 62
7
  6
CONTINUOUS
 10
6.8783114532
 20
0.3404562415
 11
6.8783114532
 21
0.3764562415
  0
LINE
  5
2E9
100
AcDbEntity
  8
0
100
AcDbLine
 62
7
  6
CONTINUOUS
 10
6.8837515146
 20
0.3404562415
 11
6.8837515146
 21
0.3764562415
  0
LINE
  5
2EA
100
AcDbEntity
  8
0
100
AcDbLine
 62
7
  6
CONTINUOUS
 10
6.8863216041
 20
2.6624562415
 11
6.8863216041
 21
2.6174562415
  0
LINE
  5
2EB
100
AcDbEntity
  8
0
100
AcDbLine
 62
7
  6
CONTINUOUS
 10
6.8901795744
 20
2.6624562415
 11
6.8901795744
 21
2.6174562415
  0
LINE
  5
2EC
100
AcDbEntity
  8
0
100
AcDbLine
 62
7
  6
CONTINUOUS
 10
6.8935433649
 20
0.3764562415
 11
6.8935433649
 21
0.3404562415
  0
LINE
  5
2ED
100
AcDbEntity
  8
0
100
AcDbLine
 62
7
  6
CONTINUOUS
 10
6.8957295017
 20
2.6624562415
 11
6.8957295017
 21
2.6174562415
  0
LINE
  5
2EE
100
AcDbEntity
  8
0
100
AcDbLine
 62
7
  6
CONTINUOUS
 10
6.8988755175
 20
0.3404562415
 11
6.8988755175
 21
0.3764562415
  0
LINE
  5
2EF
100
AcDbEntity
  8
0
100
AcDbLine
 62
7
  6
CONTINUOUS
 10
6.9044260546
 20
0.3404562415
 11
6.9044260546
 21
0.3764562415
  0
LINE
  5
2F0
100
AcDbEntity
  8
0
100
AcDbLine
 62
7
  6
CONTINUOUS
 10
6.9056035
 20
2.6624562415
 11
6.9056035
 21
2.6174562415
  0
LINE
  5
2F1
100
AcDbEntity
  8
0
100
AcDbLine
 62
7
  6
CONTINUOUS
 10
6.9085971255
 20
2.8836885988
 11
6.9085971255
 21
2.7884562415
  0
LINE
  5
2F2
100
AcDbEntity
  8
0
100
AcDbLine
 62
7
  6
CONTINUOUS
 10
6.910096299
 20
2.6624562415
 11
6.910096299
 21
2.6174562415
  0
LINE
  5
2F3
100
AcDbEntity
  8
0
100
AcDbLine
 62
7
  6
CONTINUOUS
 10
6.9140523881
 20
0.3764562415
 11
6.9140523881
 21
0.3404562415
  0
LINE
  5
2F4
100
AcDbEntity
  8
0
100
AcDbLine
 62
7
  6
CONTINUOUS
 10
6.9158339616
 20
2.6624562415
 11
6.9158339616
 21
2.6174562415
  0
LINE
  5
2F5
100
AcDbEntity
  8
0
100
AcDbLine
 62
7
  6
CONTINUOUS
 10
6.9198331702
 20
0.3404562415
 11
6.9198331702
 21
0.3764562415
  0
LINE
  5
2F6
100
AcDbEntity
  8
0
100
AcDbLine
 62
7
  6
CONTINUOUS
 10
6.9254789693
 20
0.3404562415
 11
6.9254789693
 21
0.3764562415
  0
LINE
  5
2F7
100
AcDbEntity
  8
0
100
AcDbLine
 62
7
  6
CONTINUOUS
 10
6.9255376373
 20
2.6624562415
 11
6.9255376373
 21
2.6174562415
  0
LINE
  5
2F8
100
AcDbEntity
  8
0
100
AcDbLine
 62
7
  6
CONTINUOUS
 10
6.9306438547
 20
2.6624562415
 11
6.9306438547
 21
2.6174562415
  0
LINE
  5
2F9
100
AcDbEntity
  8
0
100
AcDbLine
 62
7
  6
CONTINUOUS
 10
6.9349134009
 20
0.3764562415
 11
6.9349134009
 21
0.3404562415
  0
LINE
  5
2FA
100
AcDbEntity
  8
0
100
AcDbLine
 62
7
  6
CONTINUOUS
 10
6.93654191
 20
2.6624562415
 11
6.93654191
 21
2.6174562415
  0
LINE
  5
2FB
100
AcDbEntity
  8
0
100
AcDbLine
 62
7
  6
CONTINUOUS
 10
6.9411269677
 20
0.3404562415
 11
6.9411269677
 21
0.3764562415
  0
LINE
  5
2FC
100
AcDbEntity
  8
0
100
AcDbLine
 62
7
  6
CONTINUOUS
 10
6.9460290206
 20
2.6624562415
 11
6.9460290206
 21
2.6174562415
  0
LINE
  5
2FD
100
AcDbEntity
  8
0
100
AcDbLine
 62
7
  6
CONTINUOUS
 10
6.9468525541
 20
0.3404562415
 11
6.9468525541
 21
0.3764562415
  0
LINE
  5
2FE
100
AcDbEntity
  8
0
100
AcDbLine
 62
7
  6
CONTINUOUS
 10
6.951724323
 20
2.6624562415
 11
6.951724323
 21
2.6174562415
  0
LINE
  5
2FF
100
AcDbEntity
  8
0
100
AcDbLine
 62
7
  6
CONTINUOUS
 10
6.9547221255
 20
2.9554062415
 11
6.9547221255
 21
2.9761519454
  0
LINE
  5
300
100
AcDbEntity
  8
0
100
AcDbLine
 62
7
  6
CONTINUOUS
 10
6.9560692246
 20
0.3764562415
 11
6.9560692246
 21
0.3404562415
  0
LINE
  5
301
100
AcDbEntity
  8
0
100
AcDbLine
 62
7
  6
CONTINUOUS
 10
6.9577546641
 20
2.6624562415
 11
6.9577546641
 21
2.6174562415
  0
LINE
  5
302
100
AcDbEntity
  8
0
100
AcDbLine
 62
9
  6
CONTINUOUS
 10
6.7859721255
 20
5.7170959521
 11
7.2989721255
 21
5.7170959521
  0
LINE
  5
303
100
AcDbEntity
  8
0
100
AcDbLine
 62
9
  6
CONTINUOUS
 10
3.6421023271
 20
5.9565839636
 11
3.1394234436
 21
6.0335046419
  0
LINE
  5
304
100
AcDbEntity
  8
0
100
AcDbLine
 62
7
  6
CONTINUOUS
 10
6.9626985452
 20
0.3404562415
 11
6.9626985452
 21
0.3764562415
  0
LINE
  5
305
100
AcDbEntity
  8
0
100
AcDbLine
 62
7
  6
CONTINUOUS
 10
6.9669799992
 20
2.6624562415
 11
6.9669799992
 21
2.6174562415
  0
LINE
  5
306
100
AcDbEntity
  8
0
100
AcDbLine
 62
7
  6
CONTINUOUS
 10
6.9684882255
 20
0.3404562415
 11
6.9684882255
 21
0.3764562415
  0
LINE
  5
307
100
AcDbEntity
  8
0
100
AcDbLine
 62
7
  6
CONTINUOUS
 10
6.973237246
 20
2.6624562415
 11
6.973237246
 21
2.6174562415
  0
LINE
  5
308
100
AcDbEntity
  8
0
100
AcDbLine
 62
7
  6
CONTINUOUS
 10
6.9774618727
 20
0.3764562415
 11
6.9774618727
 21
0.3404562415
  0
LINE
  5
309
100
AcDbEntity
  8
0
100
AcDbLine
 62
7
  6
CONTINUOUS
 10
6.9793711355
 20
2.6624562415
 11
6.9793711355
 21
2.6174562415
  0
LINE
  5
30A
100
AcDbEntity
  8
0
100
AcDbLine
 62
7
  6
CONTINUOUS
 10
6.9844887766
 20
0.3404562415
 11
6.9844887766
 21
0.3764562415
  0
LINE
  5
30B
100
AcDbEntity
  8
0
100
AcDbLine
 62
7
  6
CONTINUOUS
 10
6.9882907322
 20
2.6624562415
 11
6.9882907322
 21
2.6174562415
  0
LINE
  5
30C
100
AcDbEntity
  8
0
100
AcDbLine
 62
7
  6
CONTINUOUS
 10
6.9903266816
 20
0.3404562415
 11
6.9903266816
 21
0.3764562415
  0
LINE
  5
30D
100
AcDbEntity
  8
0
100
AcDbLine
 62
7
  6
CONTINUOUS
 10
6.9950801046
 20
2.6624562415
 11
6.9950801046
 21
2.6174562415
  0
LINE
  5
30E
100
AcDbEntity
  8
0
100
AcDbLine
 62
7
  6
CONTINUOUS
 10
6.9990327094
 20
0.3764562415
 11
6.9990327094
 21
0.3404562415
  0
LINE
  5
30F
100
AcDbEntity
  8
0
100
AcDbLine
 62
7
  6
CONTINUOUS
 10
7.0012883119
 20
2.6624562415
 11
7.0012883119
 21
2.6174562415
  0
LINE
  5
310
100
AcDbEntity
  8
0
100
AcDbLine
 62
7
  6
CONTINUOUS
 10
7.0064379363
 20
0.3404562415
 11
7.0064379363
 21
0.3764562415
  0
LINE
  5
311
100
AcDbEntity
  8
0
100
AcDbLine
 62
7
  6
CONTINUOUS
 10
7.0098596643
 20
2.6624562415
 11
7.0098596643
 21
2.6174562415
  0
LINE
  5
312
100
AcDbEntity
  8
0
100
AcDbLine
 62
7
  6
CONTINUOUS
 10
7.0123080648
 20
0.3404562415
 11
7.0123080648
 21
0.3764562415
  0
LINE
  5
313
100
AcDbEntity
  8
0
100
AcDbLine
 62
7
  6
CONTINUOUS
 10
7.0171488079
 20
2.6624562415
 11
7.0171488079
 21
2.6174562415
  0
LINE
  5
314
100
AcDbEntity
  8
0
100
AcDbLine
 62
7
  6
CONTINUOUS
 10
7.0207226105
 20
0.3764562415
 11
7.0207226105
 21
0.3404562415
  0
LINE
  5
315
100
AcDbEntity
  8
0
100
AcDbLine
 62
7
  6
CONTINUOUS
 10
7.0234017478
 20
2.6624562415
 11
7.0234017478
 21
2.6174562415
  0
LINE
  5
316
100
AcDbEntity
  8
0
100
AcDbLine
 62
7
  6
CONTINUOUS
 10
7.0284858633
 20
0.3404562415
 11
7.0284858633
 21
0.3764562415
  0
LINE
  5
317
100
AcDbEntity
  8
0
100
AcDbLine
 62
7
  6
CONTINUOUS
 10
7.0315840095
 20
2.6624562415
 11
7.0315840095
 21
2.6174562415
  0
LINE
  5
318
100
AcDbEntity
  8
0
100
AcDbLine
 62
7
  6
CONTINUOUS
 10
7.0343721255
 20
0.3404562415
 11
7.0343721255
 21
0.3764562415
  0
LINE
  5
319
100
AcDbEntity
  8
0
100
AcDbLine
 62
7
  6
CONTINUOUS
 10
7.0393381882
 20
2.6624562415
 11
7.0393381882
 21
2.6174562415
  0
LINE
  5
31A
100
AcDbEntity
  8
0
100
AcDbLine
 62
7
  6
CONTINUOUS
 10
7.0424721255
 20
0.3764562415
 11
7.0424721255
 21
0.3404562415
  0
LINE
  5
31B
100
AcDbEntity
  8
0
100
AcDbLine
 62
7
  6
CONTINUOUS
 10
7.0456060628
 20
2.6624562415
 11
7.0456060628
 21
2.6174562415
  0
LINE
  5
31C
100
AcDbEntity
  8
0
100
AcDbLine
 62
7
  6
CONTINUOUS
 10
7.0505721255
 20
0.3404562415
 11
7.0505721255
 21
0.3764562415
  0
LINE
  5
31D
100
AcDbEntity
  8
0
100
AcDbLine
 62
7
  6
CONTINUOUS
 10
7.0533602416
 20
2.6624562415
 11
7.0533602416
 21
2.6174562415
  0
LINE
  5
31E
100
AcDbEntity
  8
0
100
AcDbLine
 62
7
  6
CONTINUOUS
 10
7.0564583878
 20
0.3404562415
 11
7.0564583878
 21
0.3764562415
  0
LINE
  5
31F
100
AcDbEntity
  8
0
100
AcDbLine
 62
7
  6
CONTINUOUS
 10
7.0615425033
 20
2.6624562415
 11
7.0615425033
 21
2.6174562415
  0
LINE
  5
320
100
AcDbEntity
  8
0
100
AcDbLine
 62
7
  6
CONTINUOUS
 10
7.0642216406
 20
0.3764562415
 11
7.0642216406
 21
0.3404562415
  0
LINE
  5
321
100
AcDbEntity
  8
0
100
AcDbLine
 62
7
  6
CONTINUOUS
 10
7.0677954432
 20
2.6624562415
 11
7.0677954432
 21
2.6174562415
  0
LINE
  5
322
100
AcDbEntity
  8
0
100
AcDbLine
 62
7
  6
CONTINUOUS
 10
7.0726361863
 20
0.3404562415
 11
7.0726361863
 21
0.3764562415
  0
LINE
  5
323
100
AcDbEntity
  8
0
100
AcDbLine
 62
7
  6
CONTINUOUS
 10
7.0750845868
 20
2.6624562415
 11
7.0750845868
 21
2.6174562415
  0
LINE
  5
324
100
AcDbEntity
  8
0
100
AcDbLine
 62
7
  6
CONTINUOUS
 10
7.0785063147
 20
0.3404562415
 11
7.0785063147
 21
0.3764562415
  0
LINE
  5
325
100
AcDbEntity
  8
0
100
AcDbLine
 62
7
  6
CONTINUOUS
 10
7.0836559392
 20
2.6624562415
 11
7.0836559392
 21
2.6174562415
  0
LINE
  5
326
100
AcDbEntity
  8
0
100
AcDbLine
 62
7
  6
CONTINUOUS
 10
7.0859115417
 20
0.3764562415
 11
7.0859115417
 21
0.3404562415
  0
LINE
  5
327
100
AcDbEntity
  8
0
100
AcDbLine
 62
7
  6
CONTINUOUS
 10
7.0898641465
 20
2.6624562415
 11
7.0898641465
 21
2.6174562415
  0
LINE
  5
328
100
AcDbEntity
  8
0
100
AcDbLine
 62
7
  6
CONTINUOUS
 10
7.0946175695
 20
0.3404562415
 11
7.0946175695
 21
0.3764562415
  0
LINE
  5
329
100
AcDbEntity
  8
0
100
AcDbLine
 62
7
  6
CONTINUOUS
 10
7.0966535188
 20
2.6624562415
 11
7.0966535188
 21
2.6174562415
  0
LINE
  5
32A
100
AcDbEntity
  8
0
100
AcDbLine
 62
7
  6
CONTINUOUS
 10
7.1004554745
 20
0.3404562415
 11
7.1004554745
 21
0.3764562415
  0
LINE
  5
32B
100
AcDbEntity
  8
0
100
AcDbLine
 62
7
  6
CONTINUOUS
 10
7.1055731156
 20
2.6624562415
 11
7.1055731156
 21
2.6174562415
  0
LINE
  5
32C
100
AcDbEntity
  8
0
100
AcDbLine
 62
7
  6
CONTINUOUS
 10
7.1074823784
 20
0.3764562415
 11
7.1074823784
 21
0.3404562415
  0
LINE
  5
32D
100
AcDbEntity
  8
0
100
AcDbLine
 62
7
  6
CONTINUOUS
 10
7.1117070051
 20
2.6624562415
 11
7.1117070051
 21
2.6174562415
  0
LINE
  5
32E
100
AcDbEntity
  8
0
100
AcDbLine
 62
7
  6
CONTINUOUS
 10
7.1164560256
 20
0.3404562415
 11
7.1164560256
 21
0.3764562415
  0
LINE
  5
32F
100
AcDbEntity
  8
0
100
AcDbLine
 62
7
  6
CONTINUOUS
 10
7.1179642518
 20
2.6624562415
 11
7.1179642518
 21
2.6174562415
  0
LINE
  5
330
100
AcDbEntity
  8
0
100
AcDbLine
 62
7
  6
CONTINUOUS
 10
7.1222457058
 20
0.3404562415
 11
7.1222457058
 21
0.3764562415
  0
LINE
  5
331
100
AcDbEntity
  8
0
100
AcDbLine
 62
7
  6
CONTINUOUS
 10
7.127189587
 20
2.6624562415
 11
7.127189587
 21
2.6174562415
  0
LINE
  5
332
100
AcDbEntity
  8
0
100
AcDbLine
 62
7
  6
CONTINUOUS
 10
7.1288750265
 20
0.3764562415
 11
7.1288750265
 21
0.3404562415
  0
LINE
  5
333
100
AcDbEntity
  8
0
100
AcDbLine
 62
7
  6
CONTINUOUS
 10
7.1302221255
 20
2.9554062415
 11
7.1302221255
 21
2.9761519454
  0
LINE
  5
334
100
AcDbEntity
  8
0
100
AcDbLine
 62
7
  6
CONTINUOUS
 10
7.1332199281
 20
2.6624562415
 11
7.1332199281
 21
2.6174562415
  0
LINE
  5
335
100
AcDbEntity
  8
0
100
AcDbLine
 62
7
  6
CONTINUOUS
 10
7.138091697
 20
0.3404562415
 11
7.138091697
 21
0.3764562415
  0
LINE
  5
336
100
AcDbEntity
  8
0
100
AcDbLine
 62
7
  6
CONTINUOUS
 10
7.1389152305
 20
2.6624562415
 11
7.1389152305
 21
2.6174562415
  0
LINE
  5
337
100
AcDbEntity
  8
0
100
AcDbLine
 62
7
  6
CONTINUOUS
 10
7.1438172834
 20
0.3404562415
 11
7.1438172834
 21
0.3764562415
  0
LINE
  5
338
100
AcDbEntity
  8
0
100
AcDbLine
 62
7
  6
CONTINUOUS
 10
7.1484023411
 20
2.6624562415
 11
7.1484023411
 21
2.6174562415
  0
LINE
  5
339
100
AcDbEntity
  8
0
100
AcDbLine
 62
7
  6
CONTINUOUS
 10
7.1500308502
 20
0.3764562415
 11
7.1500308502
 21
0.3404562415
  0
LINE
  5
33A
100
AcDbEntity
  8
0
100
AcDbLine
 62
7
  6
CONTINUOUS
 10
7.1543003964
 20
2.6624562415
 11
7.1543003964
 21
2.6174562415
  0
LINE
  5
33B
100
AcDbEntity
  8
0
100
AcDbLine
 62
7
  6
CONTINUOUS
 10
7.1594066138
 20
2.6624562415
 11
7.1594066138
 21
2.6174562415
  0
LINE
  5
33C
100
AcDbEntity
  8
0
100
AcDbLine
 62
7
  6
CONTINUOUS
 10
7.1594652818
 20
0.3404562415
 11
7.1594652818
 21
0.3764562415
  0
LINE
  5
33D
100
AcDbEntity
  8
0
100
AcDbLine
 62
7
  6
CONTINUOUS
 10
7.1651110809
 20
0.3404562415
 11
7.1651110809
 21
0.3764562415
  0
LINE
  5
33E
100
AcDbEntity
  8
0
100
AcDbLine
 62
7
  6
CONTINUOUS
 10
7.1691102895
 20
2.6624562415
 11
7.1691102895
 21
2.6174562415
  0
LINE
  5
33F
100
AcDbEntity
  8
0
100
AcDbLine
 62
7
  6
CONTINUOUS
 10
7.170891863
 20
0.3764562415
 11
7.170891863
 21
0.3404562415
  0
LINE
  5
340
100
AcDbEntity
  8
0
100
AcDbLine
 62
7
  6
CONTINUOUS
 10
7.1748479521
 20
2.6624562415
 11
7.1748479521
 21
2.6174562415
  0
LINE
  5
341
100
AcDbEntity
  8
0
100
AcDbLine
 62
7
  6
CONTINUOUS
 10
7.1763471255
 20
2.8836885988
 11
7.1763471255
 21
2.7884562415
  0
LINE
  5
342
100
AcDbEntity
  8
0
100
AcDbLine
 62
7
  6
CONTINUOUS
 10
7.179340751
 20
2.6624562415
 11
7.179340751
 21
2.6174562415
  0
LINE
  5
343
100
AcDbEntity
  8
0
100
AcDbLine
 62
7
  6
CONTINUOUS
 10
7.1805181964
 20
0.3404562415
 11
7.1805181964
 21
0.3764562415
  0
LINE
  5
344
100
AcDbEntity
  8
0
100
AcDbLine
 62
7
  6
CONTINUOUS
 10
7.1860687335
 20
0.3404562415
 11
7.1860687335
 21
0.3764562415
  0
LINE
  5
345
100
AcDbEntity
  8
0
100
AcDbLine
 62
7
  6
CONTINUOUS
 10
7.1892147494
 20
2.6624562415
 11
7.1892147494
 21
2.6174562415
  0
LINE
  5
346
100
AcDbEntity
  8
0
100
AcDbLine
 62
7
  6
CONTINUOUS
 10
7.1914008862
 20
0.3764562415
 11
7.1914008862
 21
0.3404562415
  0
LINE
  5
347
100
AcDbEntity
  8
0
100
AcDbLine
 62
7
  6
CONTINUOUS
 10
7.1947646767
 20
2.6624562415
 11
7.1947646767
 21
2.6174562415
  0
LINE
  5
348
100
AcDbEntity
  8
0
100
AcDbLine
 62
7
  6
CONTINUOUS
 10
7.198622647
 20
2.6624562415
 11
7.198622647
 21
2.6174562415
  0
LINE
  5
349
100
AcDbEntity
  8
0
100
AcDbLine
 62
7
  6
CONTINUOUS
 10
7.2011927365
 20
0.3404562415
 11
7.2011927365
 21
0.3764562415
  0
LINE
  5
34A
100
AcDbEntity
  8
0
100
AcDbLine
 62
7
  6
CONTINUOUS
 10
7.2066327979
 20
0.3404562415
 11
7.2066327979
 21
0.3764562415
  0
LINE
  5
34B
100
AcDbEntity
  8
0
100
AcDbLine
 62
7
  6
CONTINUOUS
 10
7.2086199138
 20
2.6624562415
 11
7.2086199138
 21
2.6174562415
  0
LINE
  5
34C
100
AcDbEntity
  8
0
100
AcDbLine
 62
7
  6
CONTINUOUS
 10
7.211501706
 20
0.3764562415
 11
7.211501706
 21
0.3404562415
  0
LINE
  5
34D
100
AcDbEntity
  8
0
100
AcDbLine
 62
7
  6
CONTINUOUS
 10
7.2139556579
 20
2.6624562415
 11
7.2139556579
 21
2.6174562415
  0
LINE
  5
34E
100
AcDbEntity
  8
0
100
AcDbLine
 62
7
  6
CONTINUOUS
 10
7.2171604145
 20
2.6624562415
 11
7.2171604145
 21
2.6174562415
  0
LINE
  5
34F
100
AcDbEntity
  8
0
100
AcDbLine
 62
7
  6
CONTINUOUS
 10
7.2214322343
 20
0.3404562415
 11
7.2214322343
 21
0.3764562415
  0
LINE
  5
350
100
AcDbEntity
  8
0
100
AcDbLine
 62
7
  6
CONTINUOUS
 10
7.2224721255
 20
2.7749562415
 11
7.2224721255
 21
2.7344562415
  0
LINE
  5
351
100
AcDbEntity
  8
0
100
AcDbLine
 62
7
  6
CONTINUOUS
 10
7.2267469092
 20
0.3404562415
 11
7.2267469092
 21
0.3764562415
  0
LINE
  5
352
100
AcDbEntity
  8
0
100
AcDbLine
 62
7
  6
CONTINUOUS
 10
7.2272333084
 20
2.6624562415
 11
7.2272333084
 21
2.6174562415
  0
LINE
  5
353
100
AcDbEntity
  8
0
100
AcDbLine
 62
7
  6
CONTINUOUS
 10
7.2311392275
 20
0.3764562415
 11
7.2311392275
 21
0.3404562415
  0
LINE
  5
354
100
AcDbEntity
  8
0
100
AcDbLine
 62
7
  6
CONTINUOUS
 10
7.2323294421
 20
2.6624562415
 11
7.2323294421
 21
2.6174562415
  0
LINE
  5
355
100
AcDbEntity
  8
0
100
AcDbLine
 62
7
  6
CONTINUOUS
 10
7.2348657128
 20
2.6624562415
 11
7.2348657128
 21
2.6174562415
  0
LINE
  5
356
100
AcDbEntity
  8
0
100
AcDbLine
 62
7
  6
CONTINUOUS
 10
7.2411812149
 20
0.3404562415
 11
7.2411812149
 21
0.3764562415
  0
LINE
  5
357
100
AcDbEntity
  8
0
100
AcDbLine
 62
7
  6
CONTINUOUS
 10
7.2449662318
 20
2.6624562415
 11
7.2449662318
 21
2.6174562415
  0
LINE
  5
358
100
AcDbEntity
  8
0
100
AcDbLine
 62
7
  6
CONTINUOUS
 10
7.2463559362
 20
0.3404562415
 11
7.2463559362
 21
0.3764562415
  0
LINE
  5
359
100
AcDbEntity
  8
0
100
AcDbLine
 62
7
  6
CONTINUOUS
 10
7.2497984696
 20
2.6624562415
 11
7.2497984696
 21
2.6174562415
  0
LINE
  5
35A
100
AcDbEntity
  8
0
100
AcDbLine
 62
7
  6
CONTINUOUS
 10
7.2502596255
 20
0.3764562415
 11
7.2502596255
 21
0.3404562415
  0
LINE
  5
35B
100
AcDbEntity
  8
0
100
AcDbLine
 62
7
  6
CONTINUOUS
 10
7.2516541681
 20
2.6624562415
 11
7.2516541681
 21
2.6174562415
  0
LINE
  5
35C
100
AcDbEntity
  8
0
100
AcDbLine
 62
7
  6
CONTINUOUS
 10
7.2603855477
 20
0.3404562415
 11
7.2603855477
 21
0.3764562415
  0
LINE
  5
35D
100
AcDbEntity
  8
0
100
AcDbLine
 62
7
  6
CONTINUOUS
 10
7.2617341785
 20
2.6624562415
 11
7.2617341785
 21
2.6174562415
  0
LINE
  5
35E
100
AcDbEntity
  8
0
100
AcDbLine
 62
7
  6
CONTINUOUS
 10
7.2654061318
 20
0.3404562415
 11
7.2654061318
 21
0.3764562415
  0
LINE
  5
35F
100
AcDbEntity
  8
0
100
AcDbLine
 62
7
  6
CONTINUOUS
 10
7.2662794927
 20
2.6624562415
 11
7.2662794927
 21
2.6174562415
  0
LINE
  5
360
100
AcDbEntity
  8
0
100
AcDbLine
 62
7
  6
CONTINUOUS
 10
7.2674457756
 20
2.6624562415
 11
7.2674457756
 21
2.6174562415
  0
LINE
  5
361
100
AcDbEntity
  8
0
100
AcDbLine
 62
7
  6
CONTINUOUS
 10
7.2688104925
 20
0.3764562415
 11
7.2688104925
 21
0.3404562415
  0
LINE
  5
362
100
AcDbEntity
  8
0
100
AcDbLine
 62
7
  6
CONTINUOUS
 10
7.2774572418
 20
2.6624562415
 11
7.2774572418
 21
2.6174562415
  0
LINE
  5
363
100
AcDbEntity
  8
0
100
AcDbLine
 62
7
  6
CONTINUOUS
 10
7.278992595
 20
0.3404562415
 11
7.278992595
 21
0.3764562415
  0
LINE
  5
364
100
AcDbEntity
  8
0
100
AcDbLine
 62
7
  6
CONTINUOUS
 10
7.2816939718
 20
2.6624562415
 11
7.2816939718
 21
2.6174562415
  0
LINE
  5
365
100
AcDbEntity
  8
0
100
AcDbLine
 62
7
  6
CONTINUOUS
 10
7.2821652813
 20
2.6624562415
 11
7.2821652813
 21
2.6174562415
  0
LINE
  5
366
100
AcDbEntity
  8
0
100
AcDbLine
 62
7
  6
CONTINUOUS
 10
7.2838452808
 20
0.3404562415
 11
7.2838452808
 21
0.3764562415
  0
LINE
  5
367
100
AcDbEntity
  8
0
100
AcDbLine
 62
7
  6
CONTINUOUS
 10
7.2867409818
 20
0.3764562415
 11
7.2867409818
 21
0.3404562415
  0
LINE
  5
368
100
AcDbEntity
  8
0
100
AcDbLine
 62
7
  6
CONTINUOUS
 10
7.2920604939
 20
2.6624562415
 11
7.2920604939
 21
2.6174562415
  0
LINE
  5
369
100
AcDbEntity
  8
0
100
AcDbLine
 62
7
  6
CONTINUOUS
 10
7.2959684498
 20
2.6624562415
 11
7.2959684498
 21
2.6174562415
  0
LINE
  5
36A
100
AcDbEntity
  8
0
100
AcDbLine
 62
7
  6
CONTINUOUS
 10
7.2969513561
 20
0.3404562415
 11
7.2969513561
 21
0.3764562415
  0
LINE
  5
36B
100
AcDbEntity
  8
0
100
AcDbLine
 62
7
  6
CONTINUOUS
 10
7.2989721255
 20
3.3059562415
 11
7.2989721255
 21
5.7170959521
  0
LINE
  5
36C
100
AcDbEntity
  8
0
100
AcDbLine
 62
7
  6
CONTINUOUS
 10
7.3016228428
 20
0.3404562415
 11
7.3016228428
 21
0.3764562415
  0
LINE
  5
36D
100
AcDbEntity
  8
0
100
AcDbLine
 62
7
  6
CONTINUOUS
 10
7.3040019471
 20
0.3764562415
 11
7.3040019471
 21
0.3404562415
  0
LINE
  5
36E
100
AcDbEntity
  8
0
100
AcDbLine
 62
7
  6
CONTINUOUS
 10
7.3054743438
 20
2.6624562415
 11
7.3054743438
 21
2.6174562415
  0
LINE
  5
36F
100
AcDbEntity
  8
0
100
AcDbLine
 62
7
  6
CONTINUOUS
 10
7.3090349024
 20
2.6624562415
 11
7.3090349024
 21
2.6174562415
  0
LINE
  5
370
100
AcDbEntity
  8
0
100
AcDbLine
 62
7
  6
CONTINUOUS
 10
7.3142126073
 20
0.3404562415
 11
7.3142126073
 21
0.3764562415
  0
LINE
  5
371
100
AcDbEntity
  8
0
100
AcDbLine
 62
7
  6
CONTINUOUS
 10
7.3176348684
 20
2.6624562415
 11
7.3176348684
 21
2.6174562415
  0
LINE
  5
372
100
AcDbEntity
  8
0
100
AcDbLine
 62
7
  6
CONTINUOUS
 10
7.3186900906
 20
0.3404562415
 11
7.3186900906
 21
0.3764562415
  0
LINE
  5
373
100
AcDbEntity
  8
0
100
AcDbLine
 62
7
  6
CONTINUOUS
 10
7.3205460773
 20
0.3764562415
 11
7.3205460773
 21
0.3404562415
  0
LINE
  5
374
100
AcDbEntity
  8
0
100
AcDbLine
 62
7
  6
CONTINUOUS
 10
7.320831062
 20
2.6624562415
 11
7.320831062
 21
2.6174562415
  0
LINE
  5
375
100
AcDbEntity
  8
0
100
AcDbLine
 62
7
  6
CONTINUOUS
 10
7.3237221255
 20
2.6669613019
 11
7.3237221255
 21
3.0944562415
  0
LINE
  5
376
100
AcDbEntity
  8
0
100
AcDbLine
 62
7
  6
CONTINUOUS
 10
7.3238069033
 20
2.6174562415
 11
7.3237221255
 21
0.4079562415
  0
LINE
  5
377
100
AcDbEntity
  8
0
100
AcDbLine
 62
7
  6
CONTINUOUS
 10
7.3284841172
 20
2.6624562415
 11
7.3284841172
 21
2.6174562415
  0
LINE
  5
378
100
AcDbEntity
  8
0
100
AcDbLine
 62
7
  6
CONTINUOUS
 10
7.3307290368
 20
0.3404562415
 11
7.3307290368
 21
0.3764562415
  0
LINE
  5
379
100
AcDbEntity
  8
0
100
AcDbLine
 62
7
  6
CONTINUOUS
 10
7.3313007145
 20
2.6624562415
 11
7.3313007145
 21
2.6174562415
  0
LINE
  5
37A
100
AcDbEntity
  8
0
100
AcDbLine
 62
7
  6
CONTINUOUS
 10
7.3350002442
 20
0.3404562415
 11
7.3350002442
 21
0.3764562415
  0
LINE
  5
37B
100
AcDbEntity
  8
0
100
AcDbLine
 62
7
  6
CONTINUOUS
 10
7.3363280261
 20
0.3764562415
 11
7.3363280261
 21
0.3404562415
  0
LINE
  5
37C
100
AcDbEntity
  8
0
100
AcDbLine
 62
7
  6
CONTINUOUS
 10
7.3379703886
 20
2.6624562415
 11
7.3379703886
 21
2.6174562415
  0
LINE
  5
37D
100
AcDbEntity
  8
0
100
AcDbLine
 62
7
  6
CONTINUOUS
 10
7.3403939672
 20
2.6624562415
 11
7.3403939672
 21
2.6174562415
  0
LINE
  5
37E
100
AcDbEntity
  8
0
100
AcDbLine
 62
7
  6
CONTINUOUS
 10
7.3460484762
 20
2.6624562415
 11
7.3460484762
 21
2.6174562415
  0
LINE
  5
37F
100
AcDbEntity
  8
0
100
AcDbLine
 62
7
  6
CONTINUOUS
 10
7.3464553741
 20
0.3404562415
 11
7.3464553741
 21
0.3764562415
  0
LINE
  5
380
100
AcDbEntity
  8
0
100
AcDbLine
 62
7
  6
CONTINUOUS
 10
7.3480674867
 20
2.6624562415
 11
7.3480674867
 21
2.6174562415
  0
LINE
  5
381
100
AcDbEntity
  8
0
100
AcDbLine
 62
7
  6
CONTINUOUS
 10
7.3505085986
 20
0.3404562415
 11
7.3505085986
 21
0.3764562415
  0
LINE
  5
382
100
AcDbEntity
  8
0
100
AcDbLine
 62
7
  6
CONTINUOUS
 10
7.3513045364
 20
0.3764562415
 11
7.3513045364
 21
0.3404562415
  0
LINE
  5
383
100
AcDbEntity
  8
0
100
AcDbLine
 62
7
  6
CONTINUOUS
 10
7.3526798842
 20
2.6624562415
 11
7.3526798842
 21
2.6174562415
  0
LINE
  5
384
100
AcDbEntity
  8
0
100
AcDbLine
 62
7
  6
CONTINUOUS
 10
7.3542847051
 20
2.6624562415
 11
7.3542847051
 21
2.6174562415
  0
LINE
  5
385
100
AcDbEntity
  8
0
100
AcDbLine
 62
7
  6
CONTINUOUS
 10
7.357833011
 20
2.6624562415
 11
7.357833011
 21
2.6174562415
  0
LINE
  5
386
100
AcDbEntity
  8
0
100
AcDbLine
 62
7
  6
CONTINUOUS
 10
7.3590159946
 20
2.6624562415
 11
7.3590159946
 21
2.6174562415
  0
LINE
  5
387
100
AcDbEntity
  8
0
100
AcDbLine
 62
7
  6
CONTINUOUS
 10
7.3613485144
 20
0.3404562415
 11
7.3613485144
 21
0.3764562415
  0
LINE
  5
388
100
AcDbEntity
  8
0
100
AcDbLine
 62
7
  6
CONTINUOUS
 10
7.3614832996
 20
2.6624562415
 11
7.3614832996
 21
2.6174562415
  0
LINE
  5
389
100
AcDbEntity
  8
0
100
AcDbLine
 62
7
  6
CONTINUOUS
 10
7.3622388084
 20
2.6624562415
 11
7.3622388084
 21
2.6174562415
  0
LINE
  5
38A
100
AcDbEntity
  8
0
100
AcDbLine
 62
7
  6
CONTINUOUS
 10
7.3636133546
 20
2.6624562415
 11
7.3636133546
 21
2.6174562415
  0
LINE
  5
38B
100
AcDbEntity
  8
0
100
AcDbLine
 62
7
  6
CONTINUOUS
 10
7.3642130255
 20
2.6624562415
 11
7.3642130255
 21
2.6174562415
  0
LINE
  5
38C
100
AcDbEntity
  8
0
100
AcDbLine
 62
7
  6
CONTINUOUS
 10
7.3651726464
 20
0.3404562415
 11
7.3651726464
 21
0.3764562415
  0
LINE
  5
38D
100
AcDbEntity
  8
0
100
AcDbLine
 62
7
  6
CONTINUOUS
 10
7.3687221255
 20
3.1169562415
 11
7.3687221255
 21
3.1394562415
  0
LINE
  5
38E
100
AcDbEntity
  8
0
100
AcDbLine
 62
7
  6
CONTINUOUS
 10
7.3687221255
 20
3.2294562415
 11
7.3687221255
 21
3.2519562415
  0
LINE
  5
38F
100
AcDbEntity
  8
0
100
AcDbLine
 62
7
  6
CONTINUOUS
 10
7.3753676368
 20
0.3404562415
 11
7.3753676368
 21
0.3764562415
  0
LINE
  5
390
100
AcDbEntity
  8
0
100
AcDbLine
 62
7
  6
CONTINUOUS
 10
7.3789521945
 20
0.3404562415
 11
7.3789521945
 21
0.3764562415
  0
LINE
  5
391
100
AcDbEntity
  8
0
100
AcDbLine
 62
7
  6
CONTINUOUS
 10
7.3884743156
 20
0.3404562415
 11
7.3884743156
 21
0.3764562415
  0
LINE
  5
392
100
AcDbEntity
  8
0
100
AcDbLine
 62
7
  6
CONTINUOUS
 10
7.3912221255
 20
3.1394562415
 11
7.3912221255
 21
3.2294562415
  0
LINE
  5
393
100
AcDbEntity
  8
0
100
AcDbLine
 62
7
  6
CONTINUOUS
 10
7.3918094742
 20
0.3404562415
 11
7.3918094742
 21
0.3764562415
  0
LINE
  5
394
100
AcDbEntity
  8
0
100
AcDbLine
 62
7
  6
CONTINUOUS
 10
7.4006326265
 20
0.3404562415
 11
7.4006326265
 21
0.3764562415
  0
LINE
  5
395
100
AcDbEntity
  8
0
100
AcDbLine
 62
7
  6
CONTINUOUS
 10
7.4037092444
 20
0.3404562415
 11
7.4037092444
 21
0.3764562415
  0
LINE
  5
396
100
AcDbEntity
  8
0
100
AcDbLine
 62
7
  6
CONTINUOUS
 10
7.4118092444
 20
0.3404562415
 11
7.4118092444
 21
0.3764562415
  0
LINE
  5
397
100
AcDbEntity
  8
0
100
AcDbLine
 62
7
  6
CONTINUOUS
 10
7.4146188888
 20
0.3404562415
 11
7.4146188888
 21
0.3764562415
  0
LINE
  5
398
100
AcDbEntity
  8
0
100
AcDbLine
 62
7
  6
CONTINUOUS
 10
7.4219735349
 20
0.3404562415
 11
7.4219735349
 21
0.3764562415
  0
LINE
  5
399
100
AcDbEntity
  8
0
100
AcDbLine
 62
7
  6
CONTINUOUS
 10
7.4245085048
 20
0.3404562415
 11
7.4245085048
 21
0.3764562415
  0
LINE
  5
39A
100
AcDbEntity
  8
0
100
AcDbLine
 62
7
  6
CONTINUOUS
 10
7.4310976385
 20
0.3404562415
 11
7.4310976385
 21
0.3764562415
  0
LINE
  5
39B
100
AcDbEntity
  8
0
100
AcDbLine
 62
7
  6
CONTINUOUS
 10
7.4333509857
 20
0.3404562415
 11
7.4333509857
 21
0.3764562415
  0
LINE
  5
39C
100
AcDbEntity
  8
0
100
AcDbLine
 62
7
  6
CONTINUOUS
 10
7.4391565465
 20
0.3404562415
 11
7.4391565465
 21
0.3764562415
  0
LINE
  5
39D
100
AcDbEntity
  8
0
100
AcDbLine
 62
7
  6
CONTINUOUS
 10
7.4411220947
 20
0.3404562415
 11
7.4411220947
 21
0.3764562415
  0
LINE
  5
39E
100
AcDbEntity
  8
0
100
AcDbLine
 62
7
  6
CONTINUOUS
 10
7.4418471255
 20
0.2954562415
 11
7.4418471255
 21
0.3404562415
  0
LINE
  5
39F
100
AcDbEntity
  8
0
100
AcDbLine
 62
7
  6
CONTINUOUS
 10
7.44612817
 20
0.3404562415
 11
7.44612817
 21
0.3764562415
  0
LINE
  5
3A0
100
AcDbEntity
  8
0
100
AcDbLine
 62
7
  6
CONTINUOUS
 10
7.4478005319
 20
0.3404562415
 11
7.4478005319
 21
0.3764562415
  0
LINE
  5
3A1
100
AcDbEntity
  8
0
100
AcDbLine
 62
7
  6
CONTINUOUS
 10
7.4519934005
 20
0.3404562415
 11
7.4519934005
 21
0.3764562415
  0
LINE
  5
3A2
100
AcDbEntity
  8
0
100
AcDbLine
 62
7
  6
CONTINUOUS
 10
7.4533679921
 20
0.3404562415
 11
7.4533679921
 21
0.3764562415
  0
LINE
  5
3A3
100
AcDbEntity
  8
0
100
AcDbLine
 62
7
  6
CONTINUOUS
 10
7.4567361615
 20
0.3404562415
 11
7.4567361615
 21
0.3764562415
  0
LINE
  5
3A4
100
AcDbEntity
  8
0
100
AcDbLine
 62
7
  6
CONTINUOUS
 10
7.4578092153
 20
0.3404562415
 11
7.4578092153
 21
0.3764562415
  0
LINE
  5
3A5
100
AcDbEntity
  8
0
100
AcDbLine
 62
7
  6
CONTINUOUS
 10
7.4603434537
 20
0.3404562415
 11
7.4603434537
 21
0.3764562415
  0
LINE
  5
3A6
100
AcDbEntity
  8
0
100
AcDbLine
 62
7
  6
CONTINUOUS
 10
7.4611120284
 20
0.3404562415
 11
7.4611120284
 21
0.3764562415
  0
LINE
  5
3A7
100
AcDbEntity
  8
0
100
AcDbLine
 62
7
  6
CONTINUOUS
 10
7.4628053896
 20
0.3404562415
 11
7.4628053896
 21
0.3764562415
  0
LINE
  5
3A8
100
AcDbEntity
  8
0
100
AcDbLine
 62
7
  6
CONTINUOUS
 10
7.4632673787
 20
0.3404562415
 11
7.4632673787
 21
0.3764562415
  0
LINE
  5
3A9
100
AcDbEntity
  8
0
100
AcDbLine
 62
7
  6
CONTINUOUS
 10
7.4641152212
 20
0.3404562415
 11
7.4641152212
 21
0.3764562415
  0
LINE
  5
3AA
100
AcDbEntity
  8
0
100
AcDbLine
 62
7
  6
CONTINUOUS
 10
7.4643471255
 20
0.2369562415
 11
7.4643471255
 21
0.2729562415
  0
LINE
  5
3AB
100
AcDbEntity
  8
0
100
AcDbLine
 62
7
  6
CONTINUOUS
 10
7.3687221255
 20
3.1169562415
 11
7.3462221255
 21
3.0944562415
  0
LINE
  5
3AC
100
AcDbEntity
  8
0
100
AcDbLine
 62
7
  6
CONTINUOUS
 10
6.7746797366
 20
1.9829138526
 11
6.7612221255
 21
1.9694562415
  0
LINE
  5
3AD
100
AcDbEntity
  8
0
100
AcDbLine
 62
7
  6
CONTINUOUS
 10
7.3102645144
 20
1.9829138526
 11
7.3238069033
 21
1.9964562415
  0
LINE
  5
3AE
100
AcDbEntity
  8
0
100
AcDbLine
 62
7
  6
CONTINUOUS
 10
6.6205971255
 20
0.2729562415
 11
6.6430971255
 21
0.2954562415
  0
ARC
  5
3AF
100
AcDbEntity
  8
0
100
AcDbCircle
 62
9
  6
CONTINUOUS
 10
-54.8943108656
 20
16.3840721915
 40
59.4718704464
100
AcDbArc
 50
349.2731847981
 51
349.4707031366
  0
ARC
  5
3B0
100
AcDbEntity
  8
0
100
AcDbCircle
 62
9
  6
CONTINUOUS
 10
-47.157650825
 20
15.2025989096
 40
51.6892681254
100
AcDbArc
 50
348.9742072901
 51
349.1893371627
  0
ARC
  5
3B1
100
AcDbEntity
  8
0
100
AcDbCircle
 62
9
  6
CONTINUOUS
 10
-19.5523691301
 20
5.3009213778
 40
23.0771047105
100
AcDbArc
 50
359.2762808171
 51
359.7935454071
  0
ARC
  5
3B2
100
AcDbEntity
  8
0
100
AcDbCircle
 62
9
  6
CONTINUOUS
 10
-14.3476741669
 20
5.110627841
 40
17.9110430615
100
AcDbArc
 50
359.6804498914
 51
0.3082392181
  0
ARC
  5
3B3
100
AcDbEntity
  8
0
100
AcDbCircle
 62
7
  6
CONTINUOUS
 10
6.6734721255
 20
0.4079562415
 40
0.0315
100
AcDbArc
 50
282.0903994794
 51
342.5423968763
  0
ARC
  5
3B4
100
AcDbEntity
  8
0
100
AcDbCircle
 62
7
  6
CONTINUOUS
 10
6.7163993896
 20
0.3944562415
 40
0.0135
100
AcDbArc
 50
90.0
 51
162.5423968763
  0
ARC
  5
3B5
100
AcDbEntity
  8
0
100
AcDbCircle
 62
7
  6
CONTINUOUS
 10
6.7300294206
 20
2.7749562415
 40
0.1125
100
AcDbArc
 50
275.31232806
 51
327.6076345142
  0
ARC
  5
3B6
100
AcDbEntity
  8
0
100
AcDbCircle
 62
7
  6
CONTINUOUS
 10
6.9040971255
 20
2.9194062415
 40
0.027
100
AcDbArc
 50
90.0
 51
262.8192442185
  0
ARC
  5
3B7
100
AcDbEntity
  8
0
100
AcDbCircle
 62
7
  6
CONTINUOUS
 10
6.8759721255
 20
2.7749562415
 40
0.0135
100
AcDbArc
 50
90.0
 51
180.0
  0
ARC
  5
3B8
100
AcDbEntity
  8
0
100
AcDbCircle
 62
7
  6
CONTINUOUS
 10
6.8489721255
 20
2.7344562415
 40
0.0135
100
AcDbArc
 50
270.0
 51
360.0
  0
ARC
  5
3B9
100
AcDbEntity
  8
0
100
AcDbCircle
 62
7
  6
CONTINUOUS
 10
6.8364237344
 20
2.7074562415
 40
0.0135
100
AcDbArc
 50
90.0
 51
147.6076345142
  0
ARC
  5
3BA
100
AcDbEntity
  8
0
100
AcDbCircle
 62
7
  6
CONTINUOUS
 10
6.9457221255
 20
2.9554062415
 40
0.009
100
AcDbArc
 50
270.0
 51
360.0
  0
ARC
  5
3BB
100
AcDbEntity
  8
0
100
AcDbCircle
 62
7
  6
CONTINUOUS
 10
6.8995971255
 20
2.8836885988
 40
0.009
100
AcDbArc
 50
0.0
 51
82.8192442185
  0
ARC
  5
3BC
100
AcDbEntity
  8
0
100
AcDbCircle
 62
7
  6
CONTINUOUS
 10
7.4114721255
 20
0.4079562415
 40
0.0315
100
AcDbArc
 50
197.4576031237
 51
257.9096005206
  0
ARC
  5
3BD
100
AcDbEntity
  8
0
100
AcDbCircle
 62
7
  6
CONTINUOUS
 10
7.3685448615
 20
0.3944562415
 40
0.0135
100
AcDbArc
 50
17.4576031237
 51
90.0
  0
CIRCLE
  5
3BE
100
AcDbEntity
  8
0
100
AcDbCircle
 62
7
  6
CONTINUOUS
 10
7.0424721255
 20
3.1241562415
 40
0.172125
  0
CIRCLE
  5
3BF
100
AcDbEntity
  8
0
100
AcDbCircle
 62
9
  6
CONTINUOUS
 10
7.0424721255
 20
3.1241562415
 40
0.145125
  0
ARC
  5
3C0
100
AcDbEntity
  8
0
100
AcDbCircle
 62
7
  6
CONTINUOUS
 10
7.3549148304
 20
2.7749562415
 40
0.1125
100
AcDbArc
 50
212.3923654858
 51
264.68767194
  0
ARC
  5
3C1
100
AcDbEntity
  8
0
100
AcDbCircle
 62
7
  6
CONTINUOUS
 10
7.1808471255
 20
2.9194062415
 40
0.027
100
AcDbArc
 50
277.1807557815
 51
90.0
  0
ARC
  5
3C2
100
AcDbEntity
  8
0
100
AcDbCircle
 62
7
  6
CONTINUOUS
 10
7.2089721255
 20
2.7749562415
 40
0.0135
100
AcDbArc
 50
0.0
 51
90.0
  0
ARC
  5
3C3
100
AcDbEntity
  8
0
100
AcDbCircle
 62
7
  6
CONTINUOUS
 10
7.2359721255
 20
2.7344562415
 40
0.0135
100
AcDbArc
 50
180.0
 51
270.0
  0
ARC
  5
3C4
100
AcDbEntity
  8
0
100
AcDbCircle
 62
7
  6
CONTINUOUS
 10
7.2485205167
 20
2.7074562415
 40
0.0135
100
AcDbArc
 50
32.3923654858
 51
90.0
  0
ARC
  5
3C5
100
AcDbEntity
  8
0
100
AcDbCircle
 62
7
  6
CONTINUOUS
 10
7.1392221255
 20
2.9554062415
 40
0.009
100
AcDbArc
 50
180.0
 51
270.0
  0
ARC
  5
3C6
100
AcDbEntity
  8
0
100
AcDbCircle
 62
7
  6
CONTINUOUS
 10
7.1853471255
 20
2.8836885988
 40
0.009
100
AcDbArc
 50
97.1807557815
 51
180.0
  0
ARC
  5
3C7
100
AcDbEntity
  8
0
100
AcDbCircle
 62
7
  6
CONTINUOUS
 10
3.2287021388
 20
4.5814737501
 40
0.0053149606
100
AcDbArc
 50
261.3
 51
346.3
  0
ARC
  5
3C8
100
AcDbEntity
  8
0
100
AcDbCircle
 62
7
  6
CONTINUOUS
 10
3.1927976053
 20
4.5869679158
 40
0.0053149606
100
AcDbArc
 50
176.3
 51
261.3
  0
ARC
  5
3C9
100
AcDbEntity
  8
0
100
AcDbCircle
 62
7
  6
CONTINUOUS
 10
3.2904273497
 20
4.5720284656
 40
0.0053149606
100
AcDbArc
 50
261.3
 51
346.3
  0
ARC
  5
3CA
100
AcDbEntity
  8
0
100
AcDbCircle
 62
7
  6
CONTINUOUS
 10
3.2545228162
 20
4.5775226313
 40
0.0053149606
100
AcDbArc
 50
176.3
 51
261.3
  0
ARC
  5
3CB
100
AcDbEntity
  8
0
100
AcDbCircle
 62
7
  6
CONTINUOUS
 10
3.3407462027
 20
4.5643285991
 40
0.0053149606
100
AcDbArc
 50
261.3
 51
346.3
  0
ARC
  5
3CC
100
AcDbEntity
  8
0
100
AcDbCircle
 62
7
  6
CONTINUOUS
 10
3.3048416691
 20
4.5698227647
 40
0.0053149606
100
AcDbArc
 50
176.3
 51
261.3
  0
ARC
  5
3CD
100
AcDbEntity
  8
0
100
AcDbCircle
 62
7
  6
CONTINUOUS
 10
3.3735895014
 20
4.5593028681
 40
0.0053149606
100
AcDbArc
 50
261.3
 51
346.3
  0
ARC
  5
3CE
100
AcDbEntity
  8
0
100
AcDbCircle
 62
7
  6
CONTINUOUS
 10
3.0509714774
 20
4.608670363
 40
0.0053149606
100
AcDbArc
 50
261.3
 51
346.3
  0
ARC
  5
3CF
100
AcDbEntity
  8
0
100
AcDbCircle
 62
7
  6
CONTINUOUS
 10
3.0653857969
 20
4.6064646622
 40
0.0053149606
100
AcDbArc
 50
176.3
 51
261.3
  0
ARC
  5
3D0
100
AcDbEntity
  8
0
100
AcDbCircle
 62
7
  6
CONTINUOUS
 10
3.1012903304
 20
4.6009704965
 40
0.0053149606
100
AcDbArc
 50
261.3
 51
346.3
  0
ARC
  5
3D1
100
AcDbEntity
  8
0
100
AcDbCircle
 62
7
  6
CONTINUOUS
 10
3.1271110078
 20
4.5970193777
 40
0.0053149606
100
AcDbArc
 50
176.3
 51
261.3
  0
ARC
  5
3D2
100
AcDbEntity
  8
0
100
AcDbCircle
 62
7
  6
CONTINUOUS
 10
3.1630155413
 20
4.591525212
 40
0.0053149606
100
AcDbArc
 50
261.3
 51
346.3
  0
ARC
  5
3D3
100
AcDbEntity
  8
0
100
AcDbCircle
 62
7
  6
CONTINUOUS
 10
3.3849958593
 20
4.5575574501
 40
0.0053149606
100
AcDbArc
 50
261.3
 51
346.2999999955
  0
ARC
  5
3D4
100
AcDbEntity
  8
0
100
AcDbCircle
 62
7
  6
CONTINUOUS
 10
3.5312027907
 20
4.5509351643
 40
0.0045
100
AcDbArc
 50
261.3
 51
357.0265405951
  0
ARC
  5
3D5
100
AcDbEntity
  8
0
100
AcDbCircle
 62
7
  6
CONTINUOUS
 10
3.5987948252
 20
4.8979539754
 40
0.045
100
AcDbArc
 50
95.3693682386
 51
177.0265405947
  0
ARC
  5
3D6
100
AcDbEntity
  8
0
100
AcDbCircle
 62
7
  6
CONTINUOUS
 10
3.6924885356
 20
5.0458400636
 40
0.0442913386
100
AcDbArc
 50
270.7731604613
 51
0.2731595949
  0
ARC
  5
3D7
100
AcDbEntity
  8
0
100
AcDbCircle
 62
7
  6
CONTINUOUS
 10
3.592478435
 20
4.9651578716
 40
0.0225
100
AcDbArc
 50
275.3693649326
 51
7.2244126854
  0
ARC
  5
3D8
100
AcDbEntity
  8
0
100
AcDbCircle
 62
9
  6
CONTINUOUS
 10
3.5923621576
 20
4.9661125578
 40
0.0224958262
100
AcDbArc
 50
271.5447520721
 51
7.1673805761
  0
ARC
  5
3D9
100
AcDbEntity
  8
0
100
AcDbCircle
 62
9
  6
CONTINUOUS
 10
3.5215846967
 20
5.2116302538
 40
0.006831742
100
AcDbArc
 50
63.9418493397
 51
81.3756122034
  0
ARC
  5
3DA
100
AcDbEntity
  8
0
100
AcDbCircle
 62
7
  6
CONTINUOUS
 10
2.9822236452
 20
4.6191902597
 40
0.0053149606
100
AcDbArc
 50
176.3
 51
261.3
  0
ARC
  5
3DB
100
AcDbEntity
  8
0
100
AcDbCircle
 62
7
  6
CONTINUOUS
 10
3.0150669439
 20
4.6141645287
 40
0.0053149606
100
AcDbArc
 50
176.3
 51
261.3
  0
ARC
  5
3DC
100
AcDbEntity
  8
0
100
AcDbCircle
 62
7
  6
CONTINUOUS
 10
3.7348383041
 20
5.0815814958
 40
0.0053149606
100
AcDbArc
 50
315.2732823001
 51
0.2732794932
  0
ARC
  5
3DD
100
AcDbEntity
  8
0
100
AcDbCircle
 62
7
  6
CONTINUOUS
 10
3.7346396897
 20
5.1232409569
 40
0.0053149606
100
AcDbArc
 50
0.2730396967
 51
45.2730368898
  0
ARC
  5
3DE
100
AcDbEntity
  8
0
100
AcDbCircle
 62
7
  6
CONTINUOUS
 10
2.9708172872
 20
4.6209356777
 40
0.0053149606
100
AcDbArc
 50
176.3000000044
 51
261.3
  0
ARC
  5
3DF
100
AcDbEntity
  8
0
100
AcDbCircle
 62
7
  6
CONTINUOUS
 10
2.8293204035
 20
4.6583382621
 40
0.0045
100
AcDbArc
 50
165.5734594049
 51
261.3
  0
ARC
  5
3E0
100
AcDbEntity
  8
0
100
AcDbCircle
 62
7
  6
CONTINUOUS
 10
3.0203972059
 20
5.3449145091
 40
0.045
100
AcDbArc
 50
121.1903148561
 51
220.2956855483
  0
ARC
  5
3E1
100
AcDbEntity
  8
0
100
AcDbCircle
 62
7
  6
CONTINUOUS
 10
2.9725519665
 20
5.3043449889
 40
0.01773
100
AcDbArc
 50
345.5734594053
 51
40.2956855483
  0
ARC
  5
3E2
100
AcDbEntity
  8
0
100
AcDbCircle
 62
7
  6
CONTINUOUS
 10
2.9879104421
 20
5.3985770014
 40
0.01773
100
AcDbArc
 50
301.1903148561
 51
351.3
  0
ARC
  5
3E3
100
AcDbEntity
  8
0
100
AcDbCircle
 62
7
  6
CONTINUOUS
 10
3.0917047547
 20
5.8109114272
 40
0.045
100
AcDbArc
 50
81.3
 51
221.4096851439
  0
ARC
  5
3E4
100
AcDbEntity
  8
0
100
AcDbCircle
 62
7
  6
CONTINUOUS
 10
3.0446573004
 20
5.7694193805
 40
0.01773
100
AcDbArc
 50
351.3
 51
41.4096851446
  0
ARC
  5
3E5
100
AcDbEntity
  8
0
100
AcDbCircle
 62
9
  6
CONTINUOUS
 10
3.5148542482
 20
5.2698209069
 40
0.0791065796
100
AcDbArc
 50
320.5234396835
 51
335.8052590136
  0
ARC
  5
3E6
100
AcDbEntity
  8
0
100
AcDbCircle
 62
7
  6
CONTINUOUS
 10
3.6904340387
 20
5.4767716938
 40
0.0442913386
100
AcDbArc
 50
0.2731595949
 51
80.2744520849
  0
ARC
  5
3E7
100
AcDbEntity
  8
0
100
AcDbCircle
 62
7
  6
CONTINUOUS
 10
3.7174241036
 20
5.3897337092
 40
0.0212598425
100
AcDbArc
 50
326.715849833
 51
33.8304693569
  0
ARC
  5
3E8
100
AcDbEntity
  8
0
100
AcDbCircle
 62
7
  6
CONTINUOUS
 10
3.7172747912
 20
5.4210520591
 40
0.0212598425
100
AcDbArc
 50
326.715849833
 51
33.8304693569
  0
ARC
  5
3E9
100
AcDbEntity
  8
0
100
AcDbCircle
 62
7
  6
CONTINUOUS
 10
3.7171254787
 20
5.4523704091
 40
0.0212598425
100
AcDbArc
 50
326.715849833
 51
33.8304693569
  0
ARC
  5
3EA
100
AcDbEntity
  8
0
100
AcDbCircle
 62
7
  6
CONTINUOUS
 10
3.7174859508
 20
5.3767612239
 40
0.0212598425
100
AcDbArc
 50
326.715849833
 51
18.0744227344
  0
ARC
  5
3EB
100
AcDbEntity
  8
0
100
AcDbCircle
 62
7
  6
CONTINUOUS
 10
3.7170636315
 20
5.4653428944
 40
0.0212598425
100
AcDbArc
 50
342.4718964556
 51
33.8326021211
  0
ARC
  5
3EC
100
AcDbEntity
  8
0
100
AcDbCircle
 62
9
  6
CONTINUOUS
 10
3.7280458568
 20
5.3897858509
 40
0.0106379615
100
AcDbArc
 50
354.9923164683
 51
0.2650712768
  0
ARC
  5
3ED
100
AcDbEntity
  8
0
100
AcDbCircle
 62
7
  6
CONTINUOUS
 10
3.6748576118
 20
5.6055908054
 40
0.045
100
AcDbArc
 50
171.3
 51
249.8162741105
  0
ARC
  5
3EE
100
AcDbEntity
  8
0
100
AcDbCircle
 62
7
  6
CONTINUOUS
 10
3.6254914536
 20
5.7292305843
 40
0.045
100
AcDbArc
 50
301.1903148561
 51
81.3
  0
ARC
  5
3EF
100
AcDbEntity
  8
0
100
AcDbCircle
 62
7
  6
CONTINUOUS
 10
3.6515679535
 20
5.5422358439
 40
0.0225
100
AcDbArc
 50
341.0826292131
 51
69.8162752785
  0
ARC
  5
3F0
100
AcDbEntity
  8
0
100
AcDbCircle
 62
9
  6
CONTINUOUS
 10
3.6513042755
 20
5.5414611148
 40
0.022499867
100
AcDbArc
 50
341.1624316734
 51
74.0864852729
  0
ARC
  5
3F1
100
AcDbEntity
  8
0
100
AcDbCircle
 62
7
  6
CONTINUOUS
 10
3.6579782174
 20
5.675568092
 40
0.01773
100
AcDbArc
 50
121.1903148554
 51
171.3
  0
ARC
  5
3F2
100
AcDbEntity
  8
0
100
AcDbCircle
 62
9
  6
CONTINUOUS
 10
4.8650145771
 20
5.1278639855
 40
1.2825008809
100
AcDbArc
 50
162.9554616988
 51
172.9847517158
  0
ARC
  5
3F3
100
AcDbEntity
  8
0
100
AcDbCircle
 62
9
  6
CONTINUOUS
 10
4.8645709998
 20
5.1250233605
 40
1.282491979
100
AcDbArc
 50
174.9730909779
 51
185.2803692207
  0
ARC
  5
3F4
100
AcDbEntity
  8
0
100
AcDbCircle
 62
7
  6
CONTINUOUS
 10
4.8647964234
 20
5.1264439124
 40
1.26
100
AcDbArc
 50
161.0838911434
 51
187.2235215981
  0
ARC
  5
3F5
100
AcDbEntity
  8
0
100
AcDbCircle
 62
7
  6
CONTINUOUS
 10
3.8950617638
 20
5.9183334222
 40
0.2558505112
100
AcDbArc
 50
174.657504292
 51
180.0004451773
  0
ARC
  5
3F6
100
AcDbEntity
  8
0
100
AcDbCircle
 62
7
  6
CONTINUOUS
 10
3.8929317416
 20
5.9183265983
 40
0.2537306561
100
AcDbArc
 50
171.6131806867
 51
173.5336334944
  0
ARC
  5
3F7
100
AcDbEntity
  8
0
100
AcDbCircle
 62
7
  6
CONTINUOUS
 10
3.8885938271
 20
5.9187872756
 40
0.2493684593
100
AcDbArc
 50
173.5265592457
 51
174.6229612158
  0
ARC
  5
3F8
100
AcDbEntity
  8
0
100
AcDbCircle
 62
7
  6
CONTINUOUS
 10
3.880654278
 20
5.9200824168
 40
0.241328399
100
AcDbArc
 50
171.3004767043
 51
171.6004329118
  0
ARC
  5
3F9
100
AcDbEntity
  8
0
100
AcDbCircle
 62
7
  6
CONTINUOUS
 10
3.8621518798
 20
5.9223108631
 40
0.2227241195
100
AcDbArc
 50
158.8954859502
 51
168.020202514
  0
ARC
  5
3FA
100
AcDbEntity
  8
0
100
AcDbCircle
 62
7
  6
CONTINUOUS
 10
3.8583293916
 20
5.9234003815
 40
0.2187591762
100
AcDbArc
 50
169.1424287632
 51
170.2061809816
  0
ARC
  5
3FB
100
AcDbEntity
  8
0
100
AcDbCircle
 62
7
  6
CONTINUOUS
 10
3.8561671189
 20
5.923820701
 40
0.2165564367
100
AcDbArc
 50
168.0823032626
 51
169.1438817383
  0
ARC
  5
3FC
100
AcDbEntity
  8
0
100
AcDbCircle
 62
7
  6
CONTINUOUS
 10
3.8535231364
 20
5.9242183577
 40
0.213883826
100
AcDbArc
 50
170.2030992181
 51
171.2963785976
  0
ARC
  5
3FD
100
AcDbEntity
  8
0
100
AcDbCircle
 62
7
  6
CONTINUOUS
 10
7.3687221255
 20
3.2969562415
 40
0.045
100
AcDbArc
 50
180.0
 51
270.0
  0
ARC
  5
3FE
100
AcDbEntity
  8
0
100
AcDbCircle
 62
7
  6
CONTINUOUS
 10
6.7162221255
 20
3.2969562415
 40
0.045
100
AcDbArc
 50
270.0
 51
360.0
  0
ARC
  5
3FF
100
AcDbEntity
  8
0
100
AcDbCircle
 62
9
  6
CONTINUOUS
 10
6.473515455
 20
4.7870945636
 40
2.9238676725
100
AcDbArc
 50
164.6873495632
 51
165.8112521796
  0
ARC
  5
400
100
AcDbEntity
  8
0
100
AcDbCircle
 62
9
  6
CONTINUOUS
 10
6.40626197
 20
5.0346636787
 40
2.8188762033
100
AcDbArc
 50
180.5623680763
 51
181.6606175109
  0
ARC
  5
401
100
AcDbEntity
  8
0
100
AcDbCircle
 62
7
  6
CONTINUOUS
 10
5.2071633993
 20
5.7170947456
 40
2.0918087262
100
AcDbArc
 50
0.0000330468
 51
171.2999669532
  0
ARC
  5
402
100
AcDbEntity
  8
0
100
AcDbCircle
 62
7
  6
CONTINUOUS
 10
5.2071633781
 20
5.717094712
 40
1.5788087475
100
AcDbArc
 50
0.0000450043
 51
169.5849720567
  0
LINE
  5
403
100
AcDbEntity
  8
0
100
AcDbLine
 62
7
  6
CONTINUOUS
 10
3.6393737338
 20
5.909201505
 11
3.6392112526
 21
5.9183314343
  0
SPLINE
  5
404
100
AcDbEntity
  8
0
100
AcDbSpline
 62
9
  6
CONTINUOUS
 70
0
 71
3
 72
10
 73
6
 74
0
 42
0.0000001
 43
0.0000001
 44
0.0000000001
 40
0.0
 40
0.0
 40
0.0
 40
0.0
 40
0.516861582
 40
0.7609446689
 40
1.0
 40
1.0
 40
1.0
 40
1.0
 10
3.7348021958
 20
5.4607645702
 30
0.0
 10
3.7358948071
 20
5.4596109148
 30
0.0
 10
3.7372666042
 20
5.4576360797
 30
0.0
 10
3.7382177483
 20
5.454695925
 30
0.0
 10
3.738381576
 20
5.4532066617
 30
0.0
 10
3.7383850796
 20
5.4524717657
 30
0.0
  0
SPLINE
  5
405
100
AcDbEntity
  8
0
100
AcDbSpline
 62
9
  6
CONTINUOUS
 70
0
 71
3
 72
10
 73
6
 74
0
 42
0.0000001
 43
0.0000001
 44
0.0000000001
 40
0.0
 40
0.0
 40
0.0
 40
0.0
 40
0.5164740241
 40
0.7610542841
 40
1.0
 40
1.0
 40
1.0
 40
1.0
 10
3.7351800548
 20
5.3815084758
 30
0.0
 10
3.7361472477
 20
5.3825494083
 30
0.0
 10
3.7373791978
 20
5.384297785
 30
0.0
 10
3.7383465995
 20
5.3868846603
 30
0.0
 10
3.7385858912
 20
5.3882023901
 30
0.0
 10
3.7386432133
 20
5.3888572703
 30
0.0
  0
LINE
  5
406
100
AcDbEntity
  8
0
100
AcDbLine
 62
9
  6
CONTINUOUS
 10
3.6979171641
 20
5.5204262253
 11
3.693645911
 21
5.4970158542
  0
SPLINE
  5
407
100
AcDbEntity
  8
0
100
AcDbSpline
 62
9
  6
CONTINUOUS
 70
0
 71
3
 72
20
 73
16
 74
0
 42
0.0000001
 43
0.0000001
 44
0.0000000001
 40
0.0
 40
0.0
 40
0.0
 40
0.0
 40
0.0095277809
 40
0.0163051487
 40
0.0248795456
 40
0.0481583596
 40
0.0804726749
 40
0.1223959968
 40
0.1736445437
 40
0.2336933273
 40
0.3019944288
 40
0.4598596799
 40
0.6364446292
 40
0.8199654409
 40
1.0
 40
1.0
 40
1.0
 40
1.0
 10
3.7367793147
 20
5.0460512225
 30
0.0
 10
3.7367797229
 20
5.045966308
 30
0.0
 10
3.7366962692
 20
5.0458267157
 30
0.0
 10
3.7365253886
 20
5.0456888187
 30
0.0
 10
3.7362279258
 20
5.0455112298
 30
0.0
 10
3.7356932525
 20
5.0453029599
 30
0.0
 10
3.7348561387
 20
5.0450671079
 30
0.0
 10
3.73376139
 20
5.0448353925
 30
0.0
 10
3.7324146967
 20
5.0446078743
 30
0.0
 10
3.7308286909
 20
5.0443901819
 30
0.0
 10
3.7282935735
 20
5.0441054026
 30
0.0
 10
3.7247150351
 20
5.0438156658
 30
0.0
 10
3.7201053096
 20
5.0435616741
 30
0.0
 10
3.7152935749
 20
5.0434045258
 30
0.0
 10
3.7120535756
 20
5.0433576571
 30
0.0
 10
3.710449059
 20
5.0433486494
 30
0.0
  0
SPLINE
  5
408
100
AcDbEntity
  8
0
100
AcDbSpline
 62
9
  6
CONTINUOUS
 70
0
 71
3
 72
20
 73
16
 74
0
 42
0.0000001
 43
0.0000001
 44
0.0000000001
 40
0.0
 40
0.0
 40
0.0
 40
0.0
 40
0.1800419335
 40
0.363569962
 40
0.5401612336
 40
0.6980315785
 40
0.7663342082
 40
0.826383488
 40
0.8776317281
 40
0.9195540952
 40
0.9518660827
 40
0.9751402667
 40
0.9837112529
 40
0.9904842702
 40
1.0
 40
1.0
 40
1.0
 40
1.0
 10
3.7083700098
 20
5.4794301249
 30
0.0
 10
3.7099745403
 20
5.4794364188
 30
0.0
 10
3.713214838
 20
5.4794204954
 30
0.0
 10
3.7180278482
 20
5.4793094495
 30
0.0
 10
3.7226397814
 20
5.4790997929
 30
0.0
 10
3.7262209187
 20
5.4788446274
 30
0.0
 10
3.7287586407
 20
5.4785844706
 30
0.0
 10
3.7303466425
 20
5.4783822469
 30
0.0
 10
3.7316954368
 20
5.4781679323
 30
0.0
 10
3.7327923377
 20
5.4779470323
 30
0.0
 10
3.7336316544
 20
5.4777195475
 30
0.0
 10
3.7341682849
 20
5.4775167273
 30
0.0
 10
3.7344674445
 20
5.4773422526
 30
0.0
 10
3.7346395893
 20
5.4772062557
 30
0.0
 10
3.7347244263
 20
5.4770676574
 30
0.0
 10
3.7347248306
 20
5.4769828537
 30
0.0
  0
LINE
  5
409
100
AcDbEntity
  8
0
100
AcDbLine
 62
9
  6
CONTINUOUS
 10
3.6930861924
 20
5.0015528656
 11
3.6929729136
 21
5.0253284605
  0
LINE
  5
40A
100
AcDbEntity
  8
0
100
AcDbLine
 62
7
  6
CONTINUOUS
 10
3.6929729139
 20
5.0253284592
 11
3.6090144783
 21
5.0241966243
  0
SPLINE
  5
40B
100
AcDbEntity
  8
0
100
AcDbSpline
 62
9
  6
CONTINUOUS
 70
0
 71
3
 72
11
 73
7
 74
0
 42
0.0000001
 43
0.0000001
 44
0.0000000001
 40
0.0
 40
0.0
 40
0.0
 40
0.0
 40
0.2511347498
 40
0.5014356353
 40
0.7509125968
 40
1.0
 40
1.0
 40
1.0
 40
1.0
 10
3.710448598
 20
5.0433486462
 30
0.0
 10
3.7104593461
 20
5.0410341732
 30
0.0
 10
3.7095422985
 20
5.0363710228
 30
0.0
 10
3.7057303787
 20
5.0303895865
 30
0.0
 10
3.6998877766
 20
5.0263973408
 30
0.0
 10
3.6952682029
 20
5.0253697444
 30
0.0
 10
3.69297279
 20
5.0253382261
 30
0.0
  0
SPLINE
  5
40C
100
AcDbEntity
  8
0
100
AcDbSpline
 62
9
  6
CONTINUOUS
 70
0
 71
3
 72
11
 73
7
 74
0
 42
0.0000001
 43
0.0000001
 44
0.0000000001
 40
0.0
 40
0.0
 40
0.0
 40
0.0
 40
0.2490865372
 40
0.4987008277
 40
0.749040651
 40
1.0
 40
1.0
 40
1.0
 40
1.0
 10
3.6936458572
 20
5.4970155469
 30
0.0
 10
3.6956720294
 20
5.4966637721
 30
0.0
 10
3.6996268576
 20
5.4952029607
 30
0.0
 10
3.7044690913
 20
5.4911603244
 30
0.0
 10
3.7075958074
 20
5.4856657194
 30
0.0
 10
3.7083596446
 20
5.4815020439
 30
0.0
 10
3.7083697139
 20
5.479430124
 30
0.0
  0
LINE
  5
40D
100
AcDbEntity
  8
0
100
AcDbLine
 62
9
  6
CONTINUOUS
 10
3.5945834963
 20
4.9427577112
 11
3.5929687918
 21
4.9436238222
  0
SPLINE
  5
40E
100
AcDbEntity
  8
0
100
AcDbSpline
 62
9
  6
CONTINUOUS
 70
0
 71
3
 72
9
 73
5
 74
0
 42
0.0000001
 43
0.0000001
 44
0.0000000001
 40
0.0
 40
0.0
 40
0.0
 40
0.0
 40
0.5036839472
 40
1.0
 40
1.0
 40
1.0
 40
1.0
 10
3.5245857871
 20
5.217767644
 30
0.0
 10
3.524990473
 20
5.220343275
 30
0.0
 10
3.5267794167
 20
5.2253391016
 30
0.0
 10
3.5302320418
 20
5.2293826182
 30
0.0
 10
3.5322579557
 20
5.2309624605
 30
0.0
  0
SPLINE
  5
40F
100
AcDbEntity
  8
0
100
AcDbSpline
 62
9
  6
CONTINUOUS
 70
0
 71
3
 72
11
 73
7
 74
0
 42
0.0000001
 43
0.0000001
 44
0.0000000001
 40
0.0
 40
0.0
 40
0.0
 40
0.0
 40
0.2572539662
 40
0.5122087651
 40
0.7607402313
 40
1.0
 40
1.0
 40
1.0
 40
1.0
 10
3.5226091587
 20
5.2183847469
 30
0.0
 10
3.5227049935
 20
5.2197885743
 30
0.0
 10
3.5231781054
 20
5.2225719496
 30
0.0
 10
3.5246806002
 20
5.2264819789
 30
0.0
 10
3.526905627
 20
5.2299161601
 30
0.0
 10
3.5288302086
 20
5.2318043256
 30
0.0
 10
3.529869821
 20
5.2325992027
 30
0.0
  0
SPLINE
  5
410
100
AcDbEntity
  8
0
100
AcDbSpline
 62
9
  6
CONTINUOUS
 70
0
 71
3
 72
9
 73
5
 74
0
 42
0.0000001
 43
0.0000001
 44
0.0000000001
 40
0.0
 40
0.0
 40
0.0
 40
0.0
 40
0.5032173191
 40
1.0
 40
1.0
 40
1.0
 40
1.0
 10
3.5383358915
 20
5.3147828126
 30
0.0
 10
3.5382321777
 20
5.3124270394
 30
0.0
 10
3.5388289376
 20
5.307681977
 30
0.0
 10
3.5409314028
 20
5.3033788958
 30
0.0
 10
3.5423111759
 20
5.3015039673
 30
0.0
  0
SPLINE
  5
411
100
AcDbEntity
  8
0
100
AcDbSpline
 62
9
  6
CONTINUOUS
 70
0
 71
3
 72
9
 73
5
 74
0
 42
0.0000001
 43
0.0000001
 44
0.0000000001
 40
0.0
 40
0.0
 40
0.0
 40
0.0
 40
0.5131386848
 40
1.0
 40
1.0
 40
1.0
 40
1.0
 10
3.5360096986
 20
5.3147060294
 30
0.0
 10
3.5356246567
 20
5.3121897736
 30
0.0
 10
3.5357460723
 20
5.3071072161
 30
0.0
 10
3.5377723425
 20
5.3024026976
 30
0.0
 10
3.5392012322
 20
5.3004555413
 30
0.0
  0
SPLINE
  5
412
100
AcDbEntity
  8
0
100
AcDbSpline
 62
9
  6
CONTINUOUS
 70
0
 71
3
 72
20
 73
16
 74
0
 42
0.0000001
 43
0.0000001
 44
0.0000000001
 40
0.0
 40
0.0
 40
0.0
 40
0.0
 40
0.1933566374
 40
0.3797967432
 40
0.5515491628
 40
0.702250508
 40
0.8262326179
 40
0.8766414718
 40
0.9187301055
 40
0.9521178403
 40
0.9654603805
 40
0.9765623057
 40
0.9854450518
 40
0.9921708168
 40
1.0
 40
1.0
 40
1.0
 40
1.0
 10
3.587011961
 20
5.2373998983
 30
0.0
 10
3.5884725966
 20
5.2372710498
 30
0.0
 10
3.5913432291
 20
5.237035807
 30
0.0
 10
3.595516007
 20
5.2367471801
 30
0.0
 10
3.5993695753
 20
5.2365360298
 30
0.0
 10
3.6027529051
 20
5.2364103389
 30
0.0
 10
3.6052184449
 20
5.2363752248
 30
0.0
 10
3.6068600082
 20
5.2364012721
 30
0.0
 10
3.6078139878
 20
5.2364421716
 30
0.0
 10
3.6084854424
 20
5.2364964488
 30
0.0
 10
3.608920575
 20
5.2365557255
 30
0.0
 10
3.6091682767
 20
5.2366011708
 30
0.0
 10
3.6093671567
 20
5.2366535296
 30
0.0
 10
3.6095265039
 20
5.2367125295
 30
0.0
 10
3.6096376485
 20
5.2367897533
 30
0.0
 10
3.6096428508
 20
5.2368488971
 30
0.0
  0
SPLINE
  5
413
100
AcDbEntity
  8
0
100
AcDbSpline
 62
9
  6
CONTINUOUS
 70
0
 71
3
 72
20
 73
16
 74
0
 42
0.0000001
 43
0.0000001
 44
0.0000000001
 40
0.0
 40
0.0
 40
0.0
 40
0.0
 40
0.1928306345
 40
0.3790932578
 40
0.5509124977
 40
0.701826317
 40
0.8260714727
 40
0.8766023061
 40
0.9187938467
 40
0.9522550267
 40
0.9656193433
 40
0.9767309294
 40
0.9856086157
 40
0.992310088
 40
1.0
 40
1.0
 40
1.0
 40
1.0
 10
3.5875215476
 20
5.006996361
 30
0.0
 10
3.58899361
 20
5.0071309905
 30
0.0
 10
3.5918860131
 20
5.0074133269
 30
0.0
 10
3.5960839295
 20
5.0078757094
 30
0.0
 10
3.5999561922
 20
5.008356923
 30
0.0
 10
3.6033489108
 20
5.0088375544
 30
0.0
 10
3.605812982
 20
5.0092425717
 30
0.0
 10
3.6074457325
 20
5.0095600598
 30
0.0
 10
3.6083903204
 20
5.0097694691
 30
0.0
 10
3.6090507296
 20
5.0099414433
 30
0.0
 10
3.609474588
 20
5.0100761808
 30
0.0
 10
3.6097136177
 20
5.0101640972
 30
0.0
 10
3.6099029579
 20
5.010250043
 30
0.0
 10
3.6100502953
 20
5.01033473
 30
0.0
 10
3.6101488611
 20
5.0104288361
 30
0.0
 10
3.6101434361
 20
5.0104875355
 30
0.0
  0
SPLINE
  5
414
100
AcDbEntity
  8
0
100
AcDbSpline
 62
9
  6
CONTINUOUS
 70
0
 71
3
 72
14
 73
10
 74
0
 42
0.0000001
 43
0.0000001
 44
0.0000000001
 40
0.0
 40
0.0
 40
0.0
 40
0.0
 40
0.2631700995
 40
0.3939152465
 40
0.5218644831
 40
0.646203413
 40
0.7667729778
 40
0.8844031923
 40
1.0
 40
1.0
 40
1.0
 40
1.0
 10
3.5885696636
 20
4.952974922
 30
0.0
 10
3.5919208524
 20
4.9526762681
 30
0.0
 10
3.5970989384
 20
4.9532458657
 30
0.0
 10
3.6032557873
 20
4.9558973757
 30
0.0
 10
3.6072960942
 20
4.9587318623
 30
0.0
 10
3.6105492678
 20
4.9622687708
 30
0.0
 10
3.6128440782
 20
4.9663476655
 30
0.0
 10
3.6140448324
 20
4.9707555089
 30
0.0
 10
3.6140787215
 20
4.973776253
 30
0.0
 10
3.6139013807
 20
4.9752434091
 30
0.0
  0
SPLINE
  5
415
100
AcDbEntity
  8
0
100
AcDbSpline
 62
9
  6
CONTINUOUS
 70
0
 71
3
 72
15
 73
11
 74
0
 42
0.0000001
 43
0.0000001
 44
0.0000000001
 40
0.0
 40
0.0
 40
0.0
 40
0.0
 40
0.1285405633
 40
0.2571849395
 40
0.3847673685
 40
0.5109242938
 40
0.6353533721
 40
0.7580522847
 40
0.8795402308
 40
1.0
 40
1.0
 40
1.0
 40
1.0
 10
3.653447725
 20
5.5592471194
 30
0.0
 10
3.6550449001
 20
5.5589677921
 30
0.0
 10
3.6581917174
 20
5.5580774574
 30
0.0
 10
3.6625322131
 20
5.5558356777
 30
0.0
 10
3.6663039385
 20
5.5527730638
 30
0.0
 10
3.6693250004
 20
5.549036029
 30
0.0
 10
3.6714626281
 20
5.5447993546
 30
0.0
 10
3.672606198
 20
5.5402513354
 30
0.0
 10
3.6726941983
 20
5.535614299
 30
0.0
 10
3.6720512091
 20
5.5325980241
 30
0.0
 10
3.6715631466
 20
5.5311590556
 30
0.0
  0
SPLINE
  5
416
100
AcDbEntity
  8
0
100
AcDbSpline
 62
9
  6
CONTINUOUS
 70
0
 71
3
 72
20
 73
16
 74
0
 42
0.0000001
 43
0.0000001
 44
0.0000000001
 40
0.0
 40
0.0
 40
0.0
 40
0.0
 40
0.1931076776
 40
0.3794581518
 40
0.5512333719
 40
0.7020256433
 40
0.826124245
 40
0.8765882937
 40
0.9187245579
 40
0.9521479999
 40
0.9655023744
 40
0.9766113325
 40
0.9854954016
 40
0.9922152426
 40
1.0
 40
1.0
 40
1.0
 40
1.0
 10
3.6388447325
 20
5.5037842187
 30
0.0
 10
3.6402520976
 20
5.5033536493
 30
0.0
 10
3.643012375
 20
5.5024904405
 30
0.0
 10
3.6470060269
 20
5.5011859794
 30
0.0
 10
3.6506757074
 20
5.4999293839
 30
0.0
 10
3.6538767628
 20
5.4987704944
 30
0.0
 10
3.6561890476
 20
5.497873601
 30
0.0
 10
3.657710455
 20
5.4972307129
 30
0.0
 10
3.6585850944
 20
5.4968332901
 30
0.0
 10
3.6591911983
 20
5.4965300503
 30
0.0
 10
3.6595750069
 20
5.4963112836
 30
0.0
 10
3.6597890583
 20
5.4961759937
 30
0.0
 10
3.6599550488
 20
5.4960527011
 30
0.0
 10
3.6600812683
 20
5.4959384951
 30
0.0
 10
3.6601564904
 20
5.4958253349
 30
0.0
 10
3.6601390996
 20
5.4957686099
 30
0.0
  0
LINE
  5
417
100
AcDbEntity
  8
0
100
AcDbLine
 62
7
  6
CONTINUOUS
 10
3.5904730522
 20
5.2588227191
 11
3.6115462416
 21
5.2566901343
  0
SPLINE
  5
418
100
AcDbEntity
  8
0
100
AcDbSpline
 62
9
  6
CONTINUOUS
 70
0
 71
3
 72
20
 73
16
 74
0
 42
0.0000001
 43
0.0000001
 44
0.0000000001
 40
0.0
 40
0.0
 40
0.0
 40
0.0
 40
0.1936607347
 40
0.3802209735
 40
0.5519622443
 40
0.7025707262
 40
0.8264255934
 40
0.8767717482
 40
0.9188041317
 40
0.95214633
 40
0.9654714511
 40
0.9765600555
 40
0.9854340862
 40
0.9921565185
 40
1.0
 40
1.0
 40
1.0
 40
1.0
 10
3.5921148974
 20
5.2845002462
 30
0.0
 10
3.5935639254
 20
5.2843217548
 30
0.0
 10
3.5964067134
 20
5.2839536583
 30
0.0
 10
3.6005264099
 20
5.283366899
 30
0.0
 10
3.6043167082
 20
5.2827714697
 30
0.0
 10
3.6076302336
 20
5.2821908148
 30
0.0
 10
3.6100322866
 20
5.2817127479
 30
0.0
 10
3.6116208368
 20
5.2813463198
 30
0.0
 10
3.6125384659
 20
5.2811082791
 30
0.0
 10
3.6131789842
 20
5.2809158716
 30
0.0
 10
3.6135890144
 20
5.2807676763
 30
0.0
 10
3.6138200136
 20
5.2806718859
 30
0.0
 10
3.6140021443
 20
5.2805794982
 30
0.0
 10
3.6141447323
 20
5.2804887264
 30
0.0
 10
3.6142363395
 20
5.2803902668
 30
0.0
 10
3.6142291177
 20
5.2803315786
 30
0.0
  0
SPLINE
  5
419
100
AcDbEntity
  8
0
100
AcDbSpline
 62
9
  6
CONTINUOUS
 70
0
 71
3
 72
15
 73
11
 74
0
 42
0.0000001
 43
0.0000001
 44
0.0000000001
 40
0.0
 40
0.0
 40
0.0
 40
0.0
 40
0.1239671225
 40
0.2483252279
 40
0.3728438708
 40
0.4977054604
 40
0.6229046862
 40
0.7483949233
 40
0.8742354478
 40
1.0
 40
1.0
 40
1.0
 40
1.0
 10
3.6574734326
 20
5.5630988099
 30
0.0
 10
3.6549172536
 20
5.5638384282
 30
0.0
 10
3.6499220899
 20
5.5657972049
 30
0.0
 10
3.6430859465
 20
5.5700395511
 30
0.0
 10
3.6371168657
 20
5.5754669706
 30
0.0
 10
3.6322146607
 20
5.5818950334
 30
0.0
 10
3.6285271801
 20
5.5891120895
 30
0.0
 10
3.6261802784
 20
5.5968922839
 30
0.0
 10
3.6252534455
 20
5.6049745596
 30
0.0
 10
3.625593438
 20
5.6103982457
 30
0.0
 10
3.6260017838
 20
5.6130667976
 30
0.0
  0
LINE
  5
41A
100
AcDbEntity
  8
0
100
AcDbLine
 62
9
  6
CONTINUOUS
 10
3.6574734326
 20
5.5630988099
 11
3.6593303515
 21
5.5633528329
  0
SPLINE
  5
41B
100
AcDbEntity
  8
0
100
AcDbSpline
 62
9
  6
CONTINUOUS
 70
0
 71
3
 72
12
 73
8
 74
0
 42
0.0000001
 43
0.0000001
 44
0.0000000001
 40
0.0
 40
0.0
 40
0.0
 40
0.0
 40
0.298459715
 40
0.5767741688
 40
0.8160133551
 40
0.9158421896
 40
1.0
 40
1.0
 40
1.0
 40
1.0
 10
3.6142548685
 20
5.5075469966
 30
0.0
 10
3.6104329215
 20
5.5082762997
 30
0.0
 10
3.6030582279
 20
5.5097456427
 30
0.0
 10
3.5926626414
 20
5.5120060536
 30
0.0
 10
3.5848338502
 20
5.5138790712
 30
0.0
 10
3.5795014732
 20
5.5152969674
 30
0.0
 10
3.5771968097
 20
5.5159628058
 30
0.0
 10
3.5761482671
 20
5.5162857005
 30
0.0
  0
SPLINE
  5
41C
100
AcDbEntity
  8
0
100
AcDbSpline
 62
9
  6
CONTINUOUS
 70
0
 71
3
 72
13
 73
9
 74
0
 42
0.0000001
 43
0.0000001
 44
0.0000000001
 40
0.0
 40
0.0
 40
0.0
 40
0.0
 40
0.3705474265
 40
0.6597954491
 40
0.7734263063
 40
0.8667867465
 40
0.9411989467
 40
1.0
 40
1.0
 40
1.0
 40
1.0
 10
3.6534477782
 20
5.559247189
 30
0.0
 10
3.6538565823
 20
5.5598192007
 30
0.0
 10
3.6546097728
 20
5.560819744
 30
0.0
 10
3.6555836241
 20
5.5619225745
 30
0.0
 10
3.6562849634
 20
5.5625524779
 30
0.0
 10
3.656719994
 20
5.5628649381
 30
0.0
 10
3.657106916
 20
5.5630573361
 30
0.0
 10
3.657361905
 20
5.5631049945
 30
0.0
 10
3.6574733048
 20
5.5630988469
 30
0.0
  0
SPLINE
  5
41D
100
AcDbEntity
  8
0
100
AcDbSpline
 62
9
  6
CONTINUOUS
 70
0
 71
3
 72
12
 73
8
 74
0
 42
0.0000001
 43
0.0000001
 44
0.0000000001
 40
0.0
 40
0.0
 40
0.0
 40
0.0
 40
0.2930685802
 40
0.5681989494
 40
0.8090129894
 40
0.9117202675
 40
1.0
 40
1.0
 40
1.0
 40
1.0
 10
3.5774948295
 20
5.3169813483
 30
0.0
 10
3.5736722613
 20
5.3167175355
 30
0.0
 10
3.5662586874
 20
5.3162413374
 30
0.0
 10
3.5557018732
 20
5.3155845538
 30
0.0
 10
3.5476258334
 20
5.3151333164
 30
0.0
 10
3.5419858094
 20
5.3148838714
 30
0.0
 10
3.5394898685
 20
5.3148052166
 30
0.0
 10
3.538335892
 20
5.3147828125
 30
0.0
  0
SPLINE
  5
41E
100
AcDbEntity
  8
0
100
AcDbSpline
 62
9
  6
CONTINUOUS
 70
0
 71
3
 72
9
 73
5
 74
0
 42
0.0000001
 43
0.0000001
 44
0.0000000001
 40
0.0
 40
0.0
 40
0.0
 40
0.0
 40
0.5000174034
 40
1.0
 40
1.0
 40
1.0
 40
1.0
 10
3.5904731151
 20
5.2588227735
 30
0.0
 10
3.5909637056
 20
5.2630843958
 30
0.0
 10
3.5917163421
 20
5.2716353424
 30
0.0
 10
3.5920330114
 20
5.2802117006
 30
0.0
 10
3.5921148668
 20
5.2845003882
 30
0.0
  0
SPLINE
  5
41F
100
AcDbEntity
  8
0
100
AcDbSpline
 62
9
  6
CONTINUOUS
 70
0
 71
3
 72
11
 73
7
 74
0
 42
0.0000001
 43
0.0000001
 44
0.0000000001
 40
0.0
 40
0.0
 40
0.0
 40
0.0
 40
0.2966609653
 40
0.5734840946
 40
0.8132612611
 40
1.0
 40
1.0
 40
1.0
 40
1.0
 10
3.5774945688
 20
5.3169812589
 30
0.0
 10
3.5739551644
 20
5.3155929944
 30
0.0
 10
3.5671421623
 20
5.3128341803
 30
0.0
 10
3.5575763218
 20
5.3086933528
 30
0.0
 10
3.5493942435
 20
5.3049097269
 30
0.0
 10
3.5444711322
 20
5.302534487
 30
0.0
 10
3.5423111769
 20
5.3015039662
 30
0.0
  0
SPLINE
  5
420
100
AcDbEntity
  8
0
100
AcDbSpline
 62
9
  6
CONTINUOUS
 70
0
 71
3
 72
9
 73
5
 74
0
 42
0.0000001
 43
0.0000001
 44
0.0000000001
 40
0.0
 40
0.0
 40
0.0
 40
0.0
 40
0.2697536067
 40
1.0
 40
1.0
 40
1.0
 40
1.0
 10
3.5423111769
 20
5.3015039662
 30
0.0
 10
3.5420443737
 20
5.3013767949
 30
0.0
 10
3.5410430979
 20
5.3009325873
 30
0.0
 10
3.5399879873
 20
5.3006008343
 30
0.0
 10
3.5392011842
 20
5.3004555165
 30
0.0
  0
LINE
  5
421
100
AcDbEntity
  8
0
100
AcDbLine
 62
9
  6
CONTINUOUS
 10
3.529869516
 20
5.2325991601
 11
3.53225792
 21
5.2309626385
  0
SPLINE
  5
422
100
AcDbEntity
  8
0
100
AcDbSpline
 62
9
  6
CONTINUOUS
 70
0
 71
3
 72
11
 73
7
 74
0
 42
0.0000001
 43
0.0000001
 44
0.0000000001
 40
0.0
 40
0.0
 40
0.0
 40
0.0
 40
0.1859183759
 40
0.4257915688
 40
0.7030134255
 40
1.0
 40
1.0
 40
1.0
 40
1.0
 10
3.53225792
 20
5.2309626385
 30
0.0
 10
3.5341127066
 20
5.2294044901
 30
0.0
 10
3.5383459939
 20
5.2258186569
 30
0.0
 10
3.5454549317
 20
5.2200405561
 30
0.0
 10
3.5538780185
 20
5.2135914361
 30
0.0
 10
3.5599426186
 20
5.2092083301
 30
0.0
 10
3.5631096668
 20
5.2069849741
 30
0.0
  0
LINE
  5
423
100
AcDbEntity
  8
0
100
AcDbLine
 62
7
  6
CONTINUOUS
 10
3.5904111076
 20
5.2588319912
 11
3.5546696281
 21
5.2637517275
  0
SPLINE
  5
424
100
AcDbEntity
  8
0
100
AcDbSpline
 62
9
  6
CONTINUOUS
 70
0
 71
3
 72
9
 73
5
 74
0
 42
0.0000001
 43
0.0000001
 44
0.0000000001
 40
0.0
 40
0.0
 40
0.0
 40
0.0
 40
0.5000030061
 40
1.0
 40
1.0
 40
1.0
 40
1.0
 10
3.5870119251
 20
5.2373998964
 30
0.0
 10
3.5877106956
 20
5.2409491721
 30
0.0
 10
3.5889987571
 20
5.2480700582
 30
0.0
 10
3.5899947726
 20
5.2552386656
 30
0.0
 10
3.5904111076
 20
5.2588319912
 30
0.0
  0
SPLINE
  5
425
100
AcDbEntity
  8
0
100
AcDbSpline
 62
9
  6
CONTINUOUS
 70
0
 71
3
 72
12
 73
8
 74
0
 42
0.0000001
 43
0.0000001
 44
0.0000000001
 40
0.0
 40
0.0
 40
0.0
 40
0.0
 40
0.3022567847
 40
0.5829454494
 40
0.8213526354
 40
0.9191314509
 40
1.0
 40
1.0
 40
1.0
 40
1.0
 10
3.5630903323
 20
5.0107348623
 30
0.0
 10
3.5590368384
 20
5.0107587853
 30
0.0
 10
3.551218469
 20
5.0107396473
 30
0.0
 10
3.5402051624
 20
5.0105143992
 30
0.0
 10
3.5319381885
 20
5.0101671534
 30
0.0
 10
3.5263581751
 20
5.0097806706
 30
0.0
 10
3.5239721923
 20
5.0095584789
 30
0.0
 10
3.522894637
 20
5.009435698
 30
0.0
  0
SPLINE
  5
426
100
AcDbEntity
  8
0
100
AcDbSpline
 62
9
  6
CONTINUOUS
 70
0
 71
3
 72
12
 73
8
 74
0
 42
0.0000001
 43
0.0000001
 44
0.0000000001
 40
0.0
 40
0.0
 40
0.0
 40
0.0
 40
0.0881135445
 40
0.1908480382
 40
0.4318975632
 40
0.7071375458
 40
1.0
 40
1.0
 40
1.0
 40
1.0
 10
3.5245857744
 20
5.2177675358
 30
0.0
 10
3.5257274975
 20
5.217489759
 30
0.0
 10
3.5281930389
 20
5.2168579906
 30
0.0
 10
3.5337542732
 20
5.2153595794
 30
0.0
 10
3.5417015916
 20
5.2131264768
 30
0.0
 10
3.5520759715
 20
5.2101595175
 30
0.0
 10
3.5593601028
 20
5.2080772051
 30
0.0
 10
3.563109696
 20
5.2069849739
 30
0.0
  0
SPLINE
  5
427
100
AcDbEntity
  8
0
100
AcDbSpline
 62
9
  6
CONTINUOUS
 70
0
 71
3
 72
15
 73
11
 74
0
 42
0.0000001
 43
0.0000001
 44
0.0000000001
 40
0.0
 40
0.0
 40
0.0
 40
0.0
 40
0.1240849616
 40
0.248572049
 40
0.3731910512
 40
0.4981126619
 40
0.6233149517
 40
0.7487394943
 40
0.8744484371
 40
1.0
 40
1.0
 40
1.0
 40
1.0
 10
3.5929687918
 20
4.9436238222
 30
0.0
 10
3.5902159671
 20
4.9435366964
 30
0.0
 10
3.5847045743
 20
4.9428361848
 30
0.0
 10
3.5767805433
 20
4.9402685616
 30
0.0
 10
3.5694563697
 20
4.9362556253
 30
0.0
 10
3.5629939688
 20
4.9309434126
 30
0.0
 10
3.5576052402
 20
4.924521748
 30
0.0
 10
3.5534813341
 20
4.9172017772
 30
0.0
 10
3.5507707149
 20
4.9092450184
 30
0.0
 10
3.5499562981
 20
4.9036903995
 30
0.0
 10
3.5498082548
 20
4.9009075786
 30
0.0
  0
SPLINE
  5
428
100
AcDbEntity
  8
0
100
AcDbSpline
 62
9
  6
CONTINUOUS
 70
0
 71
3
 72
13
 73
9
 74
0
 42
0.0000001
 43
0.0000001
 44
0.0000000001
 40
0.0
 40
0.0
 40
0.0
 40
0.0
 40
0.0466337737
 40
0.1144102845
 40
0.2056407014
 40
0.320471428
 40
0.6181652517
 40
1.0
 40
1.0
 40
1.0
 40
1.0
 10
3.5929686353
 20
4.9436238172
 30
0.0
 10
3.5928119894
 20
4.9436683545
 30
0.0
 10
3.5924758452
 20
4.9439141512
 30
0.0
 10
3.59202774
 20
4.9444737564
 30
0.0
 10
3.5915297199
 20
4.9452940929
 30
0.0
 10
3.5907453595
 20
4.9468691759
 30
0.0
 10
3.5897197364
 20
4.9494512325
 30
0.0
 10
3.5889683385
 20
4.9517024701
 30
0.0
 10
3.5885697499
 20
4.9529749459
 30
0.0
  0
SPLINE
  5
429
100
AcDbEntity
  8
0
100
AcDbSpline
 62
9
  6
CONTINUOUS
 70
0
 71
3
 72
13
 73
9
 74
0
 42
0.0000001
 43
0.0000001
 44
0.0000000001
 40
0.0
 40
0.0
 40
0.0
 40
0.0
 40
0.0982954361
 40
0.2067804734
 40
0.4479372984
 40
0.714811329
 40
0.8559477228
 40
1.0
 40
1.0
 40
1.0
 40
1.0
 10
3.5885696518
 20
4.9529749421
 30
0.0
 10
3.587202339
 20
4.9545654483
 30
0.0
 10
3.5844512671
 20
4.9580202786
 30
0.0
 10
3.5789753476
 20
4.9658600348
 30
0.0
 10
3.5724461985
 20
4.9773197813
 30
0.0
 10
3.5672375427
 20
4.9902219928
 30
0.0
 10
3.5642918089
 20
5.0016433254
 30
0.0
 10
3.5633734923
 20
5.0076741274
 30
0.0
 10
3.5630903323
 20
5.0107348622
 30
0.0
  0
SPLINE
  5
42A
100
AcDbEntity
  8
0
100
AcDbSpline
 62
9
  6
CONTINUOUS
 70
0
 71
3
 72
9
 73
5
 74
0
 42
0.0000001
 43
0.0000001
 44
0.0000000001
 40
0.0
 40
0.0
 40
0.0
 40
0.0
 40
0.2501279578
 40
1.0
 40
1.0
 40
1.0
 40
1.0
 10
3.5759154097
 20
5.2195279104
 30
0.0
 10
3.5749655253
 20
5.2183720019
 30
0.0
 10
3.5710392462
 20
5.2138576442
 30
0.0
 10
3.5666256855
 20
5.2097699797
 30
0.0
 10
3.5631097034
 20
5.2069850129
 30
0.0
  0
SPLINE
  5
42B
100
AcDbEntity
  8
0
100
AcDbSpline
 62
9
  6
CONTINUOUS
 70
0
 71
3
 72
9
 73
5
 74
0
 42
0.0000001
 43
0.0000001
 44
0.0000000001
 40
0.0
 40
0.0
 40
0.0
 40
0.0
 40
0.2502166435
 40
1.0
 40
1.0
 40
1.0
 40
1.0
 10
3.5774948145
 20
5.3169812616
 30
0.0
 10
3.5783988881
 20
5.3157549691
 30
0.0
 10
3.5818839238
 20
5.310761291
 30
0.0
 10
3.584849504
 20
5.3054017192
 30
0.0
 10
3.5867162839
 20
5.3012355207
 30
0.0
  0
SPLINE
  5
42C
100
AcDbEntity
  8
0
100
AcDbSpline
 62
9
  6
CONTINUOUS
 70
0
 71
3
 72
9
 73
5
 74
0
 42
0.0000001
 43
0.0000001
 44
0.0000000001
 40
0.0
 40
0.0
 40
0.0
 40
0.0
 40
0.2502193524
 40
1.0
 40
1.0
 40
1.0
 40
1.0
 10
3.5867162839
 20
5.3012355207
 30
0.0
 10
3.5873165467
 20
5.299895524
 30
0.0
 10
3.5895693584
 20
5.2944761968
 30
0.0
 10
3.5912360802
 20
5.2888113812
 30
0.0
 10
3.5921149043
 20
5.2845002916
 30
0.0
  0
SPLINE
  5
42D
100
AcDbEntity
  8
0
100
AcDbSpline
 62
9
  6
CONTINUOUS
 70
0
 71
3
 72
15
 73
11
 74
0
 42
0.0000001
 43
0.0000001
 44
0.0000000001
 40
0.0
 40
0.0
 40
0.0
 40
0.0
 40
0.151801908
 40
0.2990642384
 40
0.4395809675
 40
0.5721226683
 40
0.6957263271
 40
0.8092476197
 40
0.9113390507
 40
1.0
 40
1.0
 40
1.0
 40
1.0
 10
3.6142548685
 20
5.5075469966
 30
0.0
 10
3.6149716021
 20
5.510844944
 30
0.0
 10
3.616882819
 20
5.5172435848
 30
0.0
 10
3.6209762633
 20
5.5261478706
 30
0.0
 10
3.6259174107
 20
5.5341046265
 30
0.0
 10
3.6313544774
 20
5.5410662245
 30
0.0
 10
3.6370035581
 20
5.5470505405
 30
0.0
 10
3.6426440785
 20
5.552070851
 30
0.0
 10
3.6480682309
 20
5.5561258104
 30
0.0
 10
3.6516990862
 20
5.5583371214
 30
0.0
 10
3.6534476171
 20
5.5592471106
 30
0.0
  0
SPLINE
  5
42E
100
AcDbEntity
  8
0
100
AcDbSpline
 62
9
  6
CONTINUOUS
 70
0
 71
3
 72
9
 73
5
 74
0
 42
0.0000001
 43
0.0000001
 44
0.0000000001
 40
0.0
 40
0.0
 40
0.0
 40
0.0
 40
0.5034285118
 40
1.0
 40
1.0
 40
1.0
 40
1.0
 10
3.5383358915
 20
5.3147828126
 30
0.0
 10
3.5379534924
 20
5.3146950207
 30
0.0
 10
3.5371746613
 20
5.3145952473
 30
0.0
 10
3.5363922433
 20
5.3146474535
 30
0.0
 10
3.5360096935
 20
5.3147059963
 30
0.0
  0
SPLINE
  5
42F
100
AcDbEntity
  8
0
100
AcDbSpline
 62
9
  6
CONTINUOUS
 70
0
 71
3
 72
22
 73
18
 74
0
 42
0.0000001
 43
0.0000001
 44
0.0000000001
 40
0.0
 40
0.0
 40
0.0
 40
0.0
 40
0.1759009459
 40
0.2620746967
 40
0.3462256306
 40
0.5065190749
 40
0.6527689967
 40
0.71921541
 40
0.7803478293
 40
0.8354482168
 40
0.8838061994
 40
0.9247214858
 40
0.9422025354
 40
0.9576251149
 40
0.9709932524
 40
0.9823835711
 40
1.0
 40
1.0
 40
1.0
 40
1.0
 10
3.5761482671
 20
5.5162857008
 30
0.0
 10
3.5773460898
 20
5.5227302398
 30
0.0
 10
3.5795661197
 20
5.532258034
 30
0.0
 10
3.5833046725
 20
5.5446093972
 30
0.0
 10
3.5873819233
 20
5.5562392629
 30
0.0
 10
3.5930322199
 20
5.569675169
 30
0.0
 10
3.599420811
 20
5.5820371699
 30
0.0
 10
3.6046599554
 20
5.5907966908
 30
0.0
 10
3.6084024292
 20
5.5964858771
 30
0.0
 10
3.612013703
 20
5.6014469519
 30
0.0
 10
3.6154200155
 20
5.6056150534
 30
0.0
 10
3.6181538357
 20
5.6085130799
 30
0.0
 10
3.6202023816
 20
5.6103520517
 30
0.0
 10
3.6215616081
 20
5.6114141357
 30
0.0
 10
3.622824814
 20
5.6122290994
 30
0.0
 10
3.6242379256
 20
5.6129176191
 30
0.0
 10
3.6253528382
 20
5.6131659224
 30
0.0
 10
3.6260017838
 20
5.6130667976
 30
0.0
  0
SPLINE
  5
430
100
AcDbEntity
  8
0
100
AcDbSpline
 62
9
  6
CONTINUOUS
 70
0
 71
3
 72
9
 73
5
 74
0
 42
0.0000001
 43
0.0000001
 44
0.0000000001
 40
0.0
 40
0.0
 40
0.0
 40
0.0
 40
0.5021322739
 40
1.0
 40
1.0
 40
1.0
 40
1.0
 10
3.5453092375
 20
5.2429474628
 30
0.0
 10
3.5431547767
 20
5.2406801689
 30
0.0
 10
3.5382876589
 20
5.2366915866
 30
0.0
 10
3.5327302475
 20
5.2337969583
 30
0.0
 10
3.5298697818
 20
5.2325992086
 30
0.0
  0
SPLINE
  5
431
100
AcDbEntity
  8
0
100
AcDbSpline
 62
9
  6
CONTINUOUS
 70
0
 71
3
 72
11
 73
7
 74
0
 42
0.0000001
 43
0.0000001
 44
0.0000000001
 40
0.0
 40
0.0
 40
0.0
 40
0.0
 40
0.2493252333
 40
0.4995853426
 40
0.7500567755
 40
1.0
 40
1.0
 40
1.0
 40
1.0
 10
3.5546696409
 20
5.2637517257
 30
0.0
 10
3.5545402596
 20
5.2618233609
 30
0.0
 10
3.553931918
 20
5.2579736596
 30
0.0
 10
3.5519930387
 20
5.2524596914
 30
0.0
 10
3.5491059717
 20
5.2473743672
 30
0.0
 10
3.5466438856
 20
5.2443519503
 30
0.0
 10
3.5453092375
 20
5.2429474628
 30
0.0
  0
SPLINE
  5
432
100
AcDbEntity
  8
0
100
AcDbSpline
 62
9
  6
CONTINUOUS
 70
0
 71
3
 72
11
 73
7
 74
0
 42
0.0000001
 43
0.0000001
 44
0.0000000001
 40
0.0
 40
0.0
 40
0.0
 40
0.0
 40
0.2497125765
 40
0.5001214072
 40
0.7504730946
 40
1.0
 40
1.0
 40
1.0
 40
1.0
 10
3.5509713508
 20
5.2866689974
 30
0.0
 10
3.5519118338
 20
5.2849376582
 30
0.0
 10
3.5535371907
 20
5.2813207653
 30
0.0
 10
3.5550407228
 20
5.2755630446
 30
0.0
 10
3.555492134
 20
5.2696282629
 30
0.0
 10
3.5550617038
 20
5.2656811193
 30
0.0
 10
3.5546696409
 20
5.2637517257
 30
0.0
  0
SPLINE
  5
433
100
AcDbEntity
  8
0
100
AcDbSpline
 62
9
  6
CONTINUOUS
 70
0
 71
3
 72
9
 73
5
 74
0
 42
0.0000001
 43
0.0000001
 44
0.0000000001
 40
0.0
 40
0.0
 40
0.0
 40
0.0
 40
0.497862223
 40
1.0
 40
1.0
 40
1.0
 40
1.0
 10
3.5392012285
 20
5.3004555419
 30
0.0
 10
3.5415513928
 20
5.2985544667
 30
0.0
 10
3.5459766045
 20
5.2943498096
 30
0.0
 10
3.5495157944
 20
5.2893478646
 30
0.0
 10
3.5509713508
 20
5.2866689974
 30
0.0
  0
SPLINE
  5
434
100
AcDbEntity
  8
0
100
AcDbSpline
 62
9
  6
CONTINUOUS
 70
0
 71
3
 72
22
 73
18
 74
0
 42
0.0000001
 43
0.0000001
 44
0.0000000001
 40
0.0
 40
0.0
 40
0.0
 40
0.0
 40
0.0075740484
 40
0.0167754506
 40
0.0279376324
 40
0.0412026667
 40
0.0566165573
 40
0.0741579871
 40
0.115335407
 40
0.1640574147
 40
0.2195556174
 40
0.2810689781
 40
0.3478343586
 40
0.4944810148
 40
0.6547647732
 40
0.8246984296
 40
1.0
 40
1.0
 40
1.0
 40
1.0
 10
3.5498082548
 20
4.9009075786
 30
0.0
 10
3.5495234924
 20
4.9009512374
 30
0.0
 10
3.5489125377
 20
4.9011747005
 30
0.0
 10
3.5480315284
 20
4.9017786909
 30
0.0
 10
3.5471025594
 20
4.9026637573
 30
0.0
 10
3.5461273401
 20
4.9038263848
 30
0.0
 10
3.5451083652
 20
4.9052607757
 30
0.0
 10
3.5436176853
 20
4.9076557781
 30
0.0
 10
3.5417147522
 20
4.9112777885
 30
0.0
 10
3.5394492439
 20
4.9163252073
 30
0.0
 10
3.5371484596
 20
4.9221965974
 30
0.0
 10
3.5348644955
 20
4.9288049527
 30
0.0
 10
3.5318118613
 20
4.938808665
 30
0.0
 10
3.5283853192
 20
4.9526157247
 30
0.0
 10
3.5252007021
 20
4.9704865586
 30
0.0
 10
3.5231868758
 20
4.9896256766
 30
0.0
 10
3.5228108961
 20
5.0027683791
 30
0.0
 10
3.522894637
 20
5.0094356978
 30
0.0
  0
ENDSEC
  0
SECTION
  2
OBJECTS
  0
DICTIONARY
  5
C
100
AcDbDictionary
280
0
281
1
  3
ACAD_GROUP
350
D
  3
ACAD_MLINESTYLE
350
17
  3
ACAD_LAYOUT
350
1A
  3
ACAD_PLOTSETTINGS
350
19
  3
ACAD_PLOTSTYLENAME
350
E
  0
DICTIONARY
  5
D
102
{ACAD_REACTORS
330
C
102
}
100
AcDbDictionary
280
0
281
1
  0
ACDBDICTIONARYWDFLT
  5
E
102
{ACAD_REACTORS
330
C
102
}
100
AcDbDictionary
281
1
  3
Normal
350
F
100
AcDbDictionaryWithDefault
340
F
  0
DICTIONARY
  5
17
102
{ACAD_REACTORS
330
C
102
}
100
AcDbDictionary
280
0
281
1
  3
Standard
350
18
  0
DICTIONARY
  5
19
102
{ACAD_REACTORS
330
C
102
}
100
AcDbDictionary
281
1
  0
DICTIONARY
  5
1A
102
{ACAD_REACTORS
330
C
102
}
100
AcDbDictionary
281
1
  3
Model
350
435
  3
Layout1
350
436
  0
ACDBPLACEHOLDER
  5
F
102
{ACAD_REACTORS
330
E
102
}
  0
MLINESTYLE
  5
18
102
{ACAD_REACTORS
330
17
102
}
100
AcDbMlineStyle
  2
STANDARD
 70
0
  3

 62
256
 51
90.0
 52
90.0
 71
2
 49
0.5
 62
256
  6
BYLAYER
 49
-0.5
 62
256
  6
BYLAYER
  0
LAYOUT
  5
435
102
{ACAD_REACTORS
330
1A
102
}
100
AcDbPlotSettings
  1

  2
none_device
  4
ANSI_A_(11.00_x_8.50_Inches)
  6

 40
0.0
 41
0.0
 42
0.0
 43
0.0
 44
279.4
 45
215.9
 46
0.0
 47
0.0
 48
0.0
 49
0.0
140
0.0
141
0.0
142
1.0
143
1.0
 70
1024
 72
0
 73
0
 74
0
  7

 75
0
147
1.0
148
0.0
149
0.0
100
AcDbLayout
  1
Model
 70
0
 71
0
 10
0.0
 20
0.0
 11
11.0
 21
8.5
 12
0.0
 22
0.0
 32
0.0
 14
0.0
 24
0.0
 34
0.0
 15
0.0
 25
0.0
 35
0.0
146
0.0
 13
0.0
 23
0.0
 33
0.0
 16
1.0
 26
0.0
 36
0.0
 17
0.0
 27
1.0
 37
0.0
 76
0
330
202
345
0
346
0
  0
LAYOUT
  5
436
102
{ACAD_REACTORS
330
1A
102
}
100
AcDbPlotSettings
  1

  2
none_device
  4
ANSI_A_(11.00_x_8.50_Inches)
  6

 40
0.0
 41
0.0
 42
0.0
 43
0.0
 44
279.4
 45
215.9
 46
0.0
 47
0.0
 48
0.0
 49
0.0
140
0.0
141
0.0
142
1.0
143
1.0
 70
0
 72
0
 73
0
 74
0
  7

 75
0
147
1.0
148
0.0
149
0.0
100
AcDbLayout
  1
Layout1
 70
0
 71
1
 10
0.0
 20
0.0
 11
11.0
 21
8.5
 12
0.0
 22
0.0
 32
0.0
 14
0.0
 24
0.0
 34
0.0
 15
0.0
 25
0.0
 35
0.0
146
0.0
 13
0.0
 23
0.0
 33
0.0
 16
1.0
 26
0.0
 36
0.0
 17
0.0
 27
1.0
 37
0.0
 76
0
330
203
345
0
346
0
  0
ENDSEC
  0
EOF
