999
DXF file: 2940-5463_top.dxf
999
Pro/ENGINEER 2018400 by Parametric Technology Corporation
  0
SECTION
  2
HEADER
  9
$ACADVER
  1
AC1027
  9
$DWGCODEPAGE
  3
ANSI_1252
  9
$EXTMAX
 10
11.0
 20
8.5
 30
0.0
  9
$EXTMIN
 10
0.0
 20
0.0
 30
0.0
  9
$LIMMIN
 10
0.0
 20
0.0
  9
$LIMMAX
 10
11.0
 20
8.5
  9
$VIEWCTR
 10
5.5
 20
4.25
  9
$VIEWSIZE
 40
8.5
  9
$CLAYER
  8
0
  9
$LTSCALE
 40
0.605
  9
$CELTYPE
  6
BYLAYER
  9
$DIMSCALE
 40
1.0
  9
$DIMASZ
 40
0.1
  9
$DIMEXO
 40
0.0625
  9
$DIMDLI
 40
0.418
  9
$DIMEXE
 40
0.125
  9
$DIMCEN
 40
0.099
  9
$DIMLFAC
 40
1.0
  9
$DIMBLK
  1
_FILLED
  9
$DIMALT
 70
1
  9
$DIMALTD
 70
2
  9
$DIMALTTD
 70
2
  9
$DIMALTF
 40
25.4
  9
$DIMTXT
 40
0.08
  9
$DIMTOL
 70
1
  9
$DIMLIM
 70
0
  9
$DIMTFAC
 40
1.0
  9
$DIMTP
 40
0.001
  9
$DIMTM
 40
0.001
  9
$DIMGAP
 40
0.09
  9
$DIMDSEP
 70
46
  9
$AUNITS
 70
0
  9
$PDMODE
 70
3
  9
$PDSIZE
 40
0.06
  9
$HANDSEED
  5
65A
  9
$TILEMODE
 70
1
  9
$MEASUREMENT
 70
0
  9
$INSUNITS
 70
1
  0
ENDSEC
  0
SECTION
  2
CLASSES
  0
CLASS
  1
ACDBDICTIONARYWDFLT
  2
AcDbDictionaryWithDefault
  3
AutoCAD 2000
 90
0
 91
1
280
0
281
0
  0
CLASS
  1
ACDBPLACEHOLDER
  2
AcDbPlaceHolder
  3
AutoCAD 2000
 90
0
 91
1
280
0
281
0
  0
CLASS
  1
LAYOUT
  2
AcDbLayout
  3
AutoCAD 2000
 90
0
 91
0
280
0
281
0
  0
ENDSEC
  0
SECTION
  2
TABLES
  0
TABLE
  2
VPORT
  5
8
100
AcDbSymbolTable
 70
2
  0
VPORT
  5
1F4
100
AcDbSymbolTableRecord
100
AcDbViewportTableRecord
  2
*ACTIVE
 70
0
 10
0.0
 20
0.0
 11
1.0
 21
1.0
 12
5.5
 22
4.25
 13
0.0
 23
0.0
 14
1.0
 24
1.0
 15
0.0
 25
0.0
 16
0.0
 26
0.0
 36
1.0
 17
0.0
 27
0.0
 37
0.0
 40
8.5
 41
1.2941176471
 42
50.0
 43
0.0
 44
0.0
 50
0.0
 51
0.0
 71
0
 72
100
 73
1
 74
1
 75
0
 76
0
 77
0
 78
0
  0
ENDTAB
  0
TABLE
  2
LTYPE
  5
5
100
AcDbSymbolTable
 70
6
  0
LTYPE
  5
14
100
AcDbSymbolTableRecord
100
AcDbLinetypeTableRecord
  2
BYBLOCK
 70
0
  3

 72
65
 73
0
 40
0.0
  0
LTYPE
  5
15
100
AcDbSymbolTableRecord
100
AcDbLinetypeTableRecord
  2
BYLAYER
 70
0
  3

 72
65
 73
0
 40
0.0
  0
LTYPE
  5
16
100
AcDbSymbolTableRecord
100
AcDbLinetypeTableRecord
  2
CONTINUOUS
 70
64
  3
Solid line
 72
65
 73
0
 40
0.0
  0
LTYPE
  5
1F5
100
AcDbSymbolTableRecord
100
AcDbLinetypeTableRecord
  2
CENTER
 70
64
  3
____ _ ____ _ ____ _ ____ _ ____ _ ____ _ ____
 72
65
 73
4
 40
0.6
 49
0.375
 74
0
 49
-0.075
 74
0
 49
0.075
 74
0
 49
-0.075
 74
0
  0
LTYPE
  5
1F6
100
AcDbSymbolTableRecord
100
AcDbLinetypeTableRecord
  2
HIDDEN
 70
64
  3
- - - - - - - - - - - - - - - - - - - -
 72
65
 73
2
 40
0.2
 49
0.1
 74
0
 49
-0.1
 74
0
  0
LTYPE
  5
1F7
100
AcDbSymbolTableRecord
100
AcDbLinetypeTableRecord
  2
PHANTOM
 70
64
  3
_____ _ _ _____ _ _ _____ _ _ _____
 72
65
 73
6
 40
0.8
 49
0.45
 74
0
 49
-0.05
 74
0
 49
0.1
 74
0
 49
-0.05
 74
0
 49
0.1
 74
0
 49
-0.05
 74
0
  0
LTYPE
  5
1F8
100
AcDbSymbolTableRecord
100
AcDbLinetypeTableRecord
  2
DOT
 70
64
  3
. . . . . . . . . . . . . . . . . . . .
 72
65
 73
2
 40
0.2
 49
0.1
 74
0
 49
-0.1
 74
0
  0
LTYPE
  5
1F9
100
AcDbSymbolTableRecord
100
AcDbLinetypeTableRecord
  2
DASHED
 70
64
  3
- - - - - - - - - - - - - - - - - - - -
 72
65
 73
2
 40
0.2
 49
0.1
 74
0
 49
-0.1
 74
0
  0
ENDTAB
  0
TABLE
  2
LAYER
  5
2
100
AcDbSymbolTable
 70
36
  0
LAYER
  5
10
100
AcDbSymbolTableRecord
100
AcDbLayerTableRecord
  2
0
 70
0
 62
7
  6
CONTINUOUS
370
-3
390
F
  0
LAYER
  5
1FA
100
AcDbSymbolTableRecord
100
AcDbLayerTableRecord
  2
DEFAULT_1
 70
0
 62
7
  6
CENTER
370
-3
390
F
  0
LAYER
  5
1FB
100
AcDbSymbolTableRecord
100
AcDbLayerTableRecord
  2
DEFAULT_2
 70
0
 62
8
  6
HIDDEN
370
-3
390
F
  0
LAYER
  5
1FC
100
AcDbSymbolTableRecord
100
AcDbLayerTableRecord
  2
DEFAULT_3
 70
0
 62
7
  6
PHANTOM
370
-3
390
F
  0
LAYER
  5
1FD
100
AcDbSymbolTableRecord
100
AcDbLayerTableRecord
  2
DEFAULT_COORDINATE_SYSTEM
 70
0
 62
7
  6
CONTINUOUS
370
-3
390
F
  0
LAYER
  5
1FE
100
AcDbSymbolTableRecord
100
AcDbLayerTableRecord
  2
DEFAULT_DATUM_AXES
 70
0
 62
7
  6
CONTINUOUS
370
-3
390
F
  0
LAYER
  5
1FF
100
AcDbSymbolTableRecord
100
AcDbLayerTableRecord
  2
DEFAULT_DATUM_PLANES
 70
0
 62
7
  6
CONTINUOUS
370
-3
390
F
  0
ENDTAB
  0
TABLE
  2
STYLE
  5
3
100
AcDbSymbolTable
 70
1
  0
STYLE
  5
11
100
AcDbSymbolTableRecord
100
AcDbTextStyleTableRecord
  2
STANDARD
 70
0
 40
0.0
 41
0.8
 50
0.0
 71
0
 42
0.2
  3
txt
  4

  0
STYLE
  5
200
100
AcDbSymbolTableRecord
100
AcDbTextStyleTableRecord
  2
TEXTSTYLE_1
 70
0
 40
0.0
 41
0.8
 50
0.0
 71
0
 42
0.2
  3
gdt
  4

  0
ENDTAB
  0
TABLE
  2
VIEW
  5
6
100
AcDbSymbolTable
 70
0
  0
ENDTAB
  0
TABLE
  2
UCS
  5
7
100
AcDbSymbolTable
 70
0
  0
ENDTAB
  0
TABLE
  2
APPID
  5
9
100
AcDbSymbolTable
 70
1
  0
APPID
  5
201
100
AcDbSymbolTableRecord
100
AcDbRegAppTableRecord
  2
ACAD
 70
0
  0
ENDTAB
  0
TABLE
  2
BLOCK_RECORD
  5
1
100
AcDbSymbolTable
 70
0
  0
BLOCK_RECORD
  5
202
100
AcDbSymbolTableRecord
100
AcDbBlockTableRecord
  2
*Model_Space
  0
BLOCK_RECORD
  5
203
100
AcDbSymbolTableRecord
100
AcDbBlockTableRecord
  2
*Paper_Space
  0
BLOCK_RECORD
  5
204
100
AcDbSymbolTableRecord
100
AcDbBlockTableRecord
  2
_FILLED
  0
ENDTAB
  0
TABLE
  2
DIMSTYLE
  5
A
100
AcDbSymbolTable
 70
1
100
AcDbDimStyleTable
 71
0
  0
DIMSTYLE
105
205
100
AcDbSymbolTableRecord
100
AcDbDimStyleTableRecord
  2
STANDARD
 70
0
  3

  4

 40
1.0
 41
0.1
 42
0.0625
 43
0.38
 44
0.125
 45
0.0
 46
0.0
 47
0.001
 48
0.001
140
0.08
141
0.09
142
0.0
143
25.4
144
1.0
145
0.0
146
1.0
147
0.09
 71
1.0
 72
0.0
 73
1
 74
1
 75
0
 76
0
 77
0
 78
4
 79
1
170
1
171
2
172
0
173
0
174
0
175
0
176
0
177
0
178
0
270
2
179
3
271
3
272
3
273
2
274
2
275
0
280
0
281
0
282
0
283
1
284
4
285
0
286
0
287
3
288
0
340
11
278
46
341
204
342
204
343
204
344
204
  0
ENDTAB
  0
ENDSEC
  0
SECTION
  2
BLOCKS
  0
BLOCK
  5
20
100
AcDbEntity
  8
0
100
AcDbBlockBegin
  2
*Model_Space
 70
0
 10
0.0
 20
0.0
 30
0.0
  3
*Model_Space
  1

  0
ENDBLK
  5
21
100
AcDbEntity
  8
0
100
AcDbBlockEnd
  0
BLOCK
  5
1C
100
AcDbEntity
  8
0
100
AcDbBlockBegin
  2
*Paper_Space
 70
0
 10
0.0
 20
0.0
 30
0.0
  3
*Paper_Space
  1

  0
ENDBLK
  5
1D
100
AcDbEntity
  8
0
100
AcDbBlockEnd
  0
BLOCK
  5
206
100
AcDbEntity
  8
0
100
AcDbBlockBegin
  2
_FILLED
 70
64
 10
0.0
 20
0.0
  3
_FILLED
  1

  0
SOLID
  5
207
100
AcDbEntity
  8
0
  6
BYBLOCK
 62
0
100
AcDbTrace
 10
0.0
 20
0.0
 11
-1.0
 21
0.2
 12
-1.0
 22
-0.2
 13
-1.0
 23
-0.2
  0
ENDBLK
  5
208
100
AcDbEntity
  8
0
  6
BYBLOCK
 62
0
100
AcDbBlockEnd
  0
ENDSEC
  0
SECTION
  2
ENTITIES
  0
MTEXT
  5
209
100
AcDbEntity
  8
0
100
AcDbMText
 62
2
  6
CONTINUOUS
  7
STANDARD
 71
3
 72
1
 10
5.4161198442
 20
1.17947284
 30
0.0
 11
1.0
 21
0.0
 31
0.0
 73
2
 44
0.9
  1
SCALE  .450
 40
0.08
 41
0.704
  0
LINE
  5
20A
100
AcDbEntity
  8
0
100
AcDbLine
 62
7
  6
CONTINUOUS
 10
0.0
 20
0.0
 11
0.0
 21
8.5
  0
LINE
  5
20B
100
AcDbEntity
  8
0
100
AcDbLine
 62
7
  6
CONTINUOUS
 10
0.0
 20
0.0
 11
11.0
 21
0.0
  0
LINE
  5
20C
100
AcDbEntity
  8
0
100
AcDbLine
 62
7
  6
CONTINUOUS
 10
0.0
 20
8.5
 11
11.0
 21
8.5
  0
LINE
  5
20D
100
AcDbEntity
  8
0
100
AcDbLine
 62
7
  6
CONTINUOUS
 10
11.0
 20
0.0
 11
11.0
 21
8.5
  0
LINE
  5
20E
100
AcDbEntity
  8
0
100
AcDbLine
 62
7
  6
CONTINUOUS
 10
1.9938698442
 20
5.3468692666
 11
1.9938698442
 21
5.6370960683
  0
LINE
  5
20F
100
AcDbEntity
  8
0
100
AcDbLine
 62
7
  6
CONTINUOUS
 10
2.0478698442
 20
5.3468692666
 11
2.0478698442
 21
5.6370960683
  0
LINE
  5
210
100
AcDbEntity
  8
0
100
AcDbLine
 62
7
  6
CONTINUOUS
 10
3.4274527423
 20
5.8622627038
 11
3.4318450605
 21
5.8714840769
  0
LINE
  5
211
100
AcDbEntity
  8
0
100
AcDbLine
 62
7
  6
CONTINUOUS
 10
3.4841772665
 20
5.7785133965
 11
3.4888255433
 21
5.7874809305
  0
LINE
  5
212
100
AcDbEntity
  8
0
100
AcDbLine
 62
7
  6
CONTINUOUS
 10
3.4470902638
 20
5.871629321
 11
3.4519591719
 21
5.8806081804
  0
LINE
  5
213
100
AcDbEntity
  8
0
100
AcDbLine
 62
7
  6
CONTINUOUS
 10
3.5042597326
 20
5.7869335412
 11
3.5095156143
 21
5.7955590181
  0
LINE
  5
214
100
AcDbEntity
  8
0
100
AcDbLine
 62
7
  6
CONTINUOUS
 10
3.4671910836
 20
5.8799553532
 11
3.4725232362
 21
5.8886670884
  0
LINE
  5
215
100
AcDbEntity
  8
0
100
AcDbLine
 62
7
  6
CONTINUOUS
 10
3.4877001068
 20
5.8872179792
 11
3.4934808889
 21
5.895638712
  0
LINE
  5
216
100
AcDbEntity
  8
0
100
AcDbLine
 62
7
  6
CONTINUOUS
 10
3.5248752631
 20
5.7939481107
 11
3.5307137029
 21
5.8021904262
  0
LINE
  5
217
100
AcDbEntity
  8
0
100
AcDbLine
 62
7
  6
CONTINUOUS
 10
3.5085611195
 20
5.8933972927
 11
3.5147746864
 21
5.9015039424
  0
LINE
  5
218
100
AcDbEntity
  8
0
100
AcDbLine
 62
7
  6
CONTINUOUS
 10
3.5459256156
 20
5.7995236774
 11
3.5523187908
 21
5.807343553
  0
LINE
  5
219
100
AcDbEntity
  8
0
100
AcDbLine
 62
7
  6
CONTINUOUS
 10
3.5297169433
 20
5.8984763567
 11
3.5363462639
 21
5.9062467035
  0
LINE
  5
21A
100
AcDbEntity
  8
0
100
AcDbLine
 62
7
  6
CONTINUOUS
 10
3.5673104755
 20
5.8036336711
 11
3.5742279197
 21
5.8109938415
  0
LINE
  5
21B
100
AcDbEntity
  8
0
100
AcDbLine
 62
7
  6
CONTINUOUS
 10
3.5511095914
 20
5.9024412496
 11
3.5581364953
 21
5.9098539956
  0
LINE
  5
21C
100
AcDbEntity
  8
0
100
AcDbLine
 62
7
  6
CONTINUOUS
 10
3.5726804281
 20
5.9052811042
 11
3.580085655
 21
5.9123159315
  0
LINE
  5
21D
100
AcDbEntity
  8
0
100
AcDbLine
 62
7
  6
CONTINUOUS
 10
3.5889279344
 20
5.8062585058
 11
3.5963366828
 21
5.8131238966
  0
LINE
  5
21E
100
AcDbEntity
  8
0
100
AcDbLine
 62
7
  6
CONTINUOUS
 10
3.5943703292
 20
5.9069881364
 11
3.6021335819
 21
5.9136257631
  0
LINE
  5
21F
100
AcDbEntity
  8
0
100
AcDbLine
 62
7
  6
CONTINUOUS
 10
3.610674975
 20
5.807385673
 11
3.6185397215
 21
5.8137235674
  0
LINE
  5
220
100
AcDbEntity
  8
0
100
AcDbLine
 62
7
  6
CONTINUOUS
 10
3.6161198442
 20
5.9075576675
 11
3.6242198442
 21
5.9137799003
  0
LINE
  5
221
100
AcDbEntity
  8
0
100
AcDbLine
 62
7
  6
CONTINUOUS
 10
3.632447963
 20
5.8070098013
 11
3.6407312285
 21
5.8127899964
  0
LINE
  5
222
100
AcDbEntity
  8
0
100
AcDbLine
 62
7
  6
CONTINUOUS
 10
3.6378693592
 20
5.9069881364
 11
3.646283905
 21
5.9127779206
  0
LINE
  5
223
100
AcDbEntity
  8
0
100
AcDbLine
 62
7
  6
CONTINUOUS
 10
3.3074324638
 20
5.58273047
 11
3.3157743265
 21
5.5884257724
  0
LINE
  5
224
100
AcDbEntity
  8
0
100
AcDbLine
 62
7
  6
CONTINUOUS
 10
3.6595592603
 20
5.9052811042
 11
3.6682652881
 21
5.9106225704
  0
LINE
  5
225
100
AcDbEntity
  8
0
100
AcDbLine
 62
7
  6
CONTINUOUS
 10
3.65414314
 20
5.8051326818
 11
3.6628054511
 21
5.8103276323
  0
LINE
  5
226
100
AcDbEntity
  8
0
100
AcDbLine
 62
7
  6
CONTINUOUS
 10
3.3144287765
 20
5.6038109384
 11
3.3231436883
 21
5.6089171558
  0
LINE
  5
227
100
AcDbEntity
  8
0
100
AcDbLine
 62
7
  6
CONTINUOUS
 10
3.681130097
 20
5.9024412496
 11
3.6901037442
 21
5.9073197573
  0
LINE
  5
228
100
AcDbEntity
  8
0
100
AcDbLine
 62
7
  6
CONTINUOUS
 10
3.2274943313
 20
5.6561433398
 11
3.2364731906
 21
5.6610122479
  0
LINE
  5
229
100
AcDbEntity
  8
0
100
AcDbLine
 62
7
  6
CONTINUOUS
 10
3.6756571187
 20
5.8017632599
 11
3.6846571954
 21
5.8063482095
  0
LINE
  5
22A
100
AcDbEntity
  8
0
100
AcDbLine
 62
7
  6
CONTINUOUS
 10
3.3228627845
 20
5.6243584941
 11
3.3319092148
 21
5.628851293
  0
LINE
  5
22B
100
AcDbEntity
  8
0
100
AcDbLine
 62
7
  6
CONTINUOUS
 10
3.7025227451
 20
5.8984763567
 11
3.7117394156
 21
5.9028785341
  0
LINE
  5
22C
100
AcDbEntity
  8
0
100
AcDbLine
 62
7
  6
CONTINUOUS
 10
3.2366184348
 20
5.6762574512
 11
3.2458398079
 21
5.6806497694
  0
LINE
  5
22D
100
AcDbEntity
  8
0
100
AcDbLine
 62
7
  6
CONTINUOUS
 10
3.7236785689
 20
5.8933972927
 11
3.7331130004
 21
5.8973110739
  0
LINE
  5
22E
100
AcDbEntity
  8
0
100
AcDbLine
 62
7
  6
CONTINUOUS
 10
3.2467827253
 20
5.6958664781
 11
3.256221337
 21
5.6997701675
  0
LINE
  5
22F
100
AcDbEntity
  8
0
100
AcDbLine
 62
7
  6
CONTINUOUS
 10
3.7445395816
 20
5.8872179792
 11
3.7541659151
 21
5.8906326367
  0
LINE
  5
230
100
AcDbEntity
  8
0
100
AcDbLine
 62
7
  6
CONTINUOUS
 10
3.3380458925
 20
5.8008150783
 11
3.3399018791
 21
5.8108590564
  0
LINE
  5
231
100
AcDbEntity
  8
0
100
AcDbLine
 62
7
  6
CONTINUOUS
 10
3.2439730809
 20
5.2932735781
 11
3.2458398079
 21
5.3033155656
  0
LINE
  5
232
100
AcDbEntity
  8
0
100
AcDbLine
 62
7
  6
CONTINUOUS
 10
3.3545900227
 20
5.8149451004
 11
3.356969127
 21
5.8248781787
  0
LINE
  5
233
100
AcDbEntity
  8
0
100
AcDbLine
 62
7
  6
CONTINUOUS
 10
3.2340834649
 20
5.3130225587
 11
3.2364731906
 21
5.322953087
  0
LINE
  5
234
100
AcDbEntity
  8
0
100
AcDbLine
 62
7
  6
CONTINUOUS
 10
3.4280698517
 20
5.7452530819
 11
3.4307745025
 21
5.7549848858
  0
LINE
  5
235
100
AcDbEntity
  8
0
100
AcDbLine
 62
7
  6
CONTINUOUS
 10
3.3203397943
 20
5.3653445035
 11
3.3231436883
 21
5.3750481792
  0
LINE
  5
236
100
AcDbEntity
  8
0
100
AcDbLine
 62
7
  6
CONTINUOUS
 10
3.371850988
 20
5.8281899049
 11
3.3747466889
 21
5.8379848576
  0
LINE
  5
237
100
AcDbEntity
  8
0
100
AcDbLine
 62
7
  6
CONTINUOUS
 10
3.3897814772
 20
5.8405131888
 11
3.3931858379
 21
5.8501431685
  0
LINE
  5
238
100
AcDbEntity
  8
0
100
AcDbLine
 62
7
  6
CONTINUOUS
 10
3.4459913393
 20
5.7576233916
 11
3.449360954
 21
5.7671454103
  0
LINE
  5
239
100
AcDbEntity
  8
0
100
AcDbLine
 62
7
  6
CONTINUOUS
 10
3.3123076457
 20
5.3860524519
 11
3.3157743265
 21
5.3955395625
  0
LINE
  5
23A
100
AcDbEntity
  8
0
100
AcDbLine
 62
7
  6
CONTINUOUS
 10
3.4083323442
 20
5.8518811747
 11
3.4122360336
 21
5.8613197864
  0
LINE
  5
23B
100
AcDbEntity
  8
0
100
AcDbLine
 62
7
  6
CONTINUOUS
 10
3.4647235668
 20
5.7687278024
 11
3.4687420876
 21
5.7779946591
  0
LINE
  5
23C
100
AcDbEntity
  8
0
100
AcDbLine
 62
7
  6
CONTINUOUS
 10
3.6968873752
 20
5.7969175924
 11
3.7061823281
 21
5.8008706917
  0
LINE
  5
23D
100
AcDbEntity
  8
0
100
AcDbLine
 62
7
  6
CONTINUOUS
 10
3.332694296
 20
5.6442752187
 11
3.3420291345
 21
5.6481331889
  0
LINE
  5
23E
100
AcDbEntity
  8
0
100
AcDbLine
 62
7
  6
CONTINUOUS
 10
3.2579593432
 20
5.7149166738
 11
3.2675893229
 21
5.7183210345
  0
LINE
  5
23F
100
AcDbEntity
  8
0
100
AcDbLine
 62
7
  6
CONTINUOUS
 10
3.7177327376
 20
5.7906187711
 11
3.727278272
 21
5.7939211818
  0
LINE
  5
240
100
AcDbEntity
  8
0
100
AcDbLine
 62
7
  6
CONTINUOUS
 10
3.3438764593
 20
5.6634661999
 11
3.3534552212
 21
5.6666709565
  0
LINE
  5
241
100
AcDbEntity
  8
0
100
AcDbLine
 62
7
  6
CONTINUOUS
 10
3.7650486048
 20
5.8799553532
 11
3.7748404551
 21
5.8828615276
  0
LINE
  5
242
100
AcDbEntity
  8
0
100
AcDbLine
 62
7
  6
CONTINUOUS
 10
3.2701176541
 20
5.7333558228
 11
3.2799126068
 21
5.7362515237
  0
LINE
  5
243
100
AcDbEntity
  8
0
100
AcDbLine
 62
7
  6
CONTINUOUS
 10
3.2088698442
 20
5.3569826675
 11
3.2088698442
 21
5.6269826675
  0
LINE
  5
244
100
AcDbEntity
  8
0
100
AcDbLine
 62
7
  6
CONTINUOUS
 10
3.2931574113
 20
5.753512489
 11
3.2934193233
 21
5.7637231493
  0
LINE
  5
245
100
AcDbEntity
  8
0
100
AcDbLine
 62
7
  6
CONTINUOUS
 10
3.2796397752
 20
5.2375034369
 11
3.2799126068
 21
5.2477138113
  0
LINE
  5
246
100
AcDbEntity
  8
0
100
AcDbLine
 62
7
  6
CONTINUOUS
 10
3.3527069216
 20
5.3072214846
 11
3.3534552212
 21
5.3172943785
  0
LINE
  5
247
100
AcDbEntity
  8
0
100
AcDbLine
 62
7
  6
CONTINUOUS
 10
3.3072874334
 20
5.7700566192
 11
3.3080833711
 21
5.7802395787
  0
LINE
  5
248
100
AcDbEntity
  8
0
100
AcDbLine
 62
7
  6
CONTINUOUS
 10
3.2667824956
 20
5.255462198
 11
3.2675893229
 21
5.2656443005
  0
LINE
  5
249
100
AcDbEntity
  8
0
100
AcDbLine
 62
7
  6
CONTINUOUS
 10
3.3222639436
 20
5.7858385681
 11
3.3235917255
 21
5.795965916
  0
LINE
  5
24A
100
AcDbEntity
  8
0
100
AcDbLine
 62
7
  6
CONTINUOUS
 10
3.2548827253
 20
5.2740692453
 11
3.256221337
 21
5.2841951675
  0
LINE
  5
24B
100
AcDbEntity
  8
0
100
AcDbLine
 62
7
  6
CONTINUOUS
 10
3.3949964414
 20
5.7169563176
 11
3.3963357282
 21
5.7269677837
  0
LINE
  5
24C
100
AcDbEntity
  8
0
100
AcDbLine
 62
7
  6
CONTINUOUS
 10
3.3405876774
 20
5.3258348792
 11
3.3420291345
 21
5.3358321461
  0
LINE
  5
24D
100
AcDbEntity
  8
0
100
AcDbLine
 62
7
  6
CONTINUOUS
 10
3.4110445079
 20
5.7316758233
 11
3.413071306
 21
5.7415710359
  0
LINE
  5
24E
100
AcDbEntity
  8
0
100
AcDbLine
 62
7
  6
CONTINUOUS
 10
3.3297814695
 20
5.3452400437
 11
3.3319092148
 21
5.355114042
  0
LINE
  5
24F
100
AcDbEntity
  8
0
100
AcDbLine
 62
7
  6
CONTINUOUS
 10
3.7578737372
 20
5.2101768189
 11
3.7535377548
 21
5.2010541877
  0
LINE
  5
250
100
AcDbEntity
  8
0
100
AcDbLine
 62
7
  6
CONTINUOUS
 10
3.9292555547
 20
5.565935959
 11
3.9248266353
 21
5.5568580839
  0
LINE
  5
251
100
AcDbEntity
  8
0
100
AcDbLine
 62
7
  6
CONTINUOUS
 10
3.7380938683
 20
5.2010685222
 11
3.7331388365
 21
5.1922667721
  0
LINE
  5
252
100
AcDbEntity
  8
0
100
AcDbLine
 62
7
  6
CONTINUOUS
 10
3.9336115598
 20
5.5441561574
 11
3.9285669003
 21
5.5354054687
  0
LINE
  5
253
100
AcDbEntity
  8
0
100
AcDbLine
 62
7
  6
CONTINUOUS
 10
3.7650486048
 20
5.1040099817
 11
3.7597164522
 21
5.0952982466
  0
LINE
  5
254
100
AcDbEntity
  8
0
100
AcDbLine
 62
7
  6
CONTINUOUS
 10
3.7177327376
 20
5.1933465638
 11
3.7121822695
 21
5.1849076393
  0
LINE
  5
255
100
AcDbEntity
  8
0
100
AcDbLine
 62
7
  6
CONTINUOUS
 10
3.9364545722
 20
5.5221277254
 11
3.9308182128
 21
5.513745924
  0
LINE
  5
256
100
AcDbEntity
  8
0
100
AcDbLine
 62
7
  6
CONTINUOUS
 10
3.7445395816
 20
5.0967473557
 11
3.7387587996
 21
5.088326623
  0
LINE
  5
257
100
AcDbEntity
  8
0
100
AcDbLine
 62
7
  6
CONTINUOUS
 10
3.6968873752
 20
5.1870477426
 11
3.6907679213
 21
5.1790118588
  0
LINE
  5
258
100
AcDbEntity
  8
0
100
AcDbLine
 62
7
  6
CONTINUOUS
 10
3.7236785689
 20
5.0905680422
 11
3.717465002
 21
5.0824613926
  0
LINE
  5
259
100
AcDbEntity
  8
0
100
AcDbLine
 62
7
  6
CONTINUOUS
 10
3.9377710439
 20
5.4999556385
 11
3.9315698442
 21
5.4919826675
  0
LINE
  5
25A
100
AcDbEntity
  8
0
100
AcDbLine
 62
7
  6
CONTINUOUS
 10
3.7025227451
 20
5.0854889783
 11
3.6958934245
 21
5.0777186315
  0
LINE
  5
25B
100
AcDbEntity
  8
0
100
AcDbLine
 62
7
  6
CONTINUOUS
 10
3.6756571187
 20
5.1822020751
 11
3.668997841
 21
5.1746075268
  0
LINE
  5
25C
100
AcDbEntity
  8
0
100
AcDbLine
 62
7
  6
CONTINUOUS
 10
3.937554701
 20
5.4777455567
 11
3.9308182128
 21
5.470219411
  0
LINE
  5
25D
100
AcDbEntity
  8
0
100
AcDbLine
 62
7
  6
CONTINUOUS
 10
3.681130097
 20
5.0815240853
 11
3.6741031931
 21
5.0741113394
  0
LINE
  5
25E
100
AcDbEntity
  8
0
100
AcDbLine
 62
7
  6
CONTINUOUS
 10
3.65414314
 20
5.1788326532
 11
3.646975773
 21
5.1717156318
  0
LINE
  5
25F
100
AcDbEntity
  8
0
100
AcDbLine
 62
7
  6
CONTINUOUS
 10
3.9358065747
 20
5.4556033212
 11
3.9285669003
 21
5.4485598663
  0
LINE
  5
260
100
AcDbEntity
  8
0
100
AcDbLine
 62
7
  6
CONTINUOUS
 10
3.6595592603
 20
5.0786842308
 11
3.6521540334
 21
5.0716494035
  0
LINE
  5
261
100
AcDbEntity
  8
0
100
AcDbLine
 62
7
  6
CONTINUOUS
 10
3.632447963
 20
5.1769555337
 11
3.6248066624
 21
5.1703499551
  0
LINE
  5
262
100
AcDbEntity
  8
0
100
AcDbLine
 62
7
  6
CONTINUOUS
 10
3.6378693592
 20
5.0769771986
 11
3.6301061065
 21
5.0703395719
  0
LINE
  5
263
100
AcDbEntity
  8
0
100
AcDbLine
 62
7
  6
CONTINUOUS
 10
3.9325349956
 20
5.4336344499
 11
3.9248266353
 21
5.4271072511
  0
LINE
  5
264
100
AcDbEntity
  8
0
100
AcDbLine
 62
7
  6
CONTINUOUS
 10
3.6161198442
 20
5.0764076675
 11
3.6080198442
 21
5.0701854347
  0
LINE
  5
265
100
AcDbEntity
  8
0
100
AcDbLine
 62
7
  6
CONTINUOUS
 10
3.610674975
 20
5.176579662
 11
3.6025961552
 21
5.1705170047
  0
LINE
  5
266
100
AcDbEntity
  8
0
100
AcDbLine
 62
7
  6
CONTINUOUS
 10
3.9277555541
 20
5.4119436344
 11
3.9196152418
 21
5.4059637967
  0
LINE
  5
267
100
AcDbEntity
  8
0
100
AcDbLine
 62
7
  6
CONTINUOUS
 10
3.5943703292
 20
5.0769771986
 11
3.5859557835
 21
5.0711874144
  0
LINE
  5
268
100
AcDbEntity
  8
0
100
AcDbLine
 62
7
  6
CONTINUOUS
 10
3.5889279344
 20
5.1777068292
 11
3.5804500945
 21
5.1722159847
  0
LINE
  5
269
100
AcDbEntity
  8
0
100
AcDbLine
 62
7
  6
CONTINUOUS
 10
3.9214910266
 20
5.3906342414
 11
3.9129575546
 21
5.3852302615
  0
LINE
  5
26A
100
AcDbEntity
  8
0
100
AcDbLine
 62
7
  6
CONTINUOUS
 10
3.5726804281
 20
5.0786842308
 11
3.5639744003
 21
5.0733427646
  0
LINE
  5
26B
100
AcDbEntity
  8
0
100
AcDbLine
 62
7
  6
CONTINUOUS
 10
3.5673104755
 20
5.1803316639
 11
3.5584740164
 21
5.1754387984
  0
LINE
  5
26C
100
AcDbEntity
  8
0
100
AcDbLine
 62
7
  6
CONTINUOUS
 10
3.5511095914
 20
5.0815240853
 11
3.5421359442
 21
5.0766455777
  0
LINE
  5
26D
100
AcDbEntity
  8
0
100
AcDbLine
 62
7
  6
CONTINUOUS
 10
3.9137712663
 20
5.3698078197
 11
3.9048853005
 21
5.36500545
  0
LINE
  5
26E
100
AcDbEntity
  8
0
100
AcDbLine
 62
7
  6
CONTINUOUS
 10
3.5459256156
 20
5.1844416576
 11
3.5367726469
 21
5.1801700879
  0
LINE
  5
26F
100
AcDbEntity
  8
0
100
AcDbLine
 62
7
  6
CONTINUOUS
 10
3.9046330615
 20
5.3495636169
 11
3.8954369475
 21
5.3453857429
  0
LINE
  5
270
100
AcDbEntity
  8
0
100
AcDbLine
 62
7
  6
CONTINUOUS
 10
3.5248752631
 20
5.1900172242
 11
3.515449403
 21
5.1863873063
  0
LINE
  5
271
100
AcDbEntity
  8
0
100
AcDbLine
 62
7
  6
CONTINUOUS
 10
3.2675893229
 20
5.7183210345
 11
3.2667824956
 21
5.728503137
  0
LINE
  5
272
100
AcDbEntity
  8
0
100
AcDbLine
 62
7
  6
CONTINUOUS
 10
3.3080833711
 20
5.2037257562
 11
3.3072874334
 21
5.2139087158
  0
LINE
  5
273
100
AcDbEntity
  8
0
100
AcDbLine
 62
7
  6
CONTINUOUS
 10
3.3534552212
 20
5.6666709565
 11
3.3527069216
 21
5.6767438503
  0
LINE
  5
274
100
AcDbEntity
  8
0
100
AcDbLine
 62
7
  6
CONTINUOUS
 10
3.3806475218
 20
5.2727206145
 11
3.3800021287
 21
5.2828006249
  0
LINE
  5
275
100
AcDbEntity
  8
0
100
AcDbLine
 62
7
  6
CONTINUOUS
 10
3.2799126068
 20
5.7362515237
 11
3.2796397752
 21
5.7464618981
  0
LINE
  5
276
100
AcDbEntity
  8
0
100
AcDbLine
 62
7
  6
CONTINUOUS
 10
3.2934193233
 20
5.2202421857
 11
3.2931574113
 21
5.230452846
  0
LINE
  5
277
100
AcDbEntity
  8
0
100
AcDbLine
 62
7
  6
CONTINUOUS
 10
3.3661330244
 20
5.6843762548
 11
3.3660814483
 21
5.6944767737
  0
LINE
  5
278
100
AcDbEntity
  8
0
100
AcDbLine
 62
7
  6
CONTINUOUS
 10
3.2651198442
 20
5.3569826675
 11
3.2651198442
 21
5.6269826675
  0
LINE
  5
279
100
AcDbEntity
  8
0
100
AcDbLine
 62
7
  6
CONTINUOUS
 10
3.2988698442
 20
5.3866826675
 11
3.2988698442
 21
5.5972826675
  0
LINE
  5
27A
100
AcDbEntity
  8
0
100
AcDbLine
 62
9
  6
CONTINUOUS
 10
3.4586198442
 20
5.4042326675
 11
3.4586198442
 21
5.5797326675
  0
LINE
  5
27B
100
AcDbEntity
  8
0
100
AcDbLine
 62
7
  6
CONTINUOUS
 10
3.3660814483
 20
5.2894885612
 11
3.3661330244
 21
5.2995890802
  0
LINE
  5
27C
100
AcDbEntity
  8
0
100
AcDbLine
 62
7
  6
CONTINUOUS
 10
3.3800021287
 20
5.70116471
 11
3.3806475218
 21
5.7112447205
  0
LINE
  5
27D
100
AcDbEntity
  8
0
100
AcDbLine
 62
7
  6
CONTINUOUS
 10
3.8127997022
 20
5.2453539263
 11
3.8104325672
 21
5.2355345671
  0
LINE
  5
27E
100
AcDbEntity
  8
0
100
AcDbLine
 62
7
  6
CONTINUOUS
 10
3.9073525903
 20
5.6287545582
 11
3.9048853005
 21
5.6189598849
  0
LINE
  5
27F
100
AcDbEntity
  8
0
100
AcDbLine
 62
7
  6
CONTINUOUS
 10
3.8603887004
 20
5.1557754301
 11
3.8574929995
 21
5.1459804774
  0
LINE
  5
280
100
AcDbEntity
  8
0
100
AcDbLine
 62
7
  6
CONTINUOUS
 10
3.7953158686
 20
5.232372407
 11
3.792276925
 21
5.222739756
  0
LINE
  5
281
100
AcDbEntity
  8
0
100
AcDbLine
 62
7
  6
CONTINUOUS
 10
3.9160947113
 20
5.6083361876
 11
3.9129575546
 21
5.5987350735
  0
LINE
  5
282
100
AcDbEntity
  8
0
100
AcDbLine
 62
7
  6
CONTINUOUS
 10
3.8424582112
 20
5.1434521462
 11
3.8390538505
 21
5.1338221665
  0
LINE
  5
283
100
AcDbEntity
  8
0
100
AcDbLine
 62
7
  6
CONTINUOUS
 10
3.7769780843
 20
5.2206280488
 11
3.7732818141
 21
5.2112280099
  0
LINE
  5
284
100
AcDbEntity
  8
0
100
AcDbLine
 62
7
  6
CONTINUOUS
 10
3.9234073153
 20
5.5873633395
 11
3.9196152418
 21
5.5780015383
  0
LINE
  5
285
100
AcDbEntity
  8
0
100
AcDbLine
 62
7
  6
CONTINUOUS
 10
3.8239073442
 20
5.1320841603
 11
3.8200036549
 21
5.1226455486
  0
LINE
  5
286
100
AcDbEntity
  8
0
100
AcDbLine
 62
7
  6
CONTINUOUS
 10
3.8047869461
 20
5.1217026312
 11
3.8003946279
 21
5.1124812581
  0
LINE
  5
287
100
AcDbEntity
  8
0
100
AcDbLine
 62
7
  6
CONTINUOUS
 10
3.7851494247
 20
5.1123360139
 11
3.7802805165
 21
5.1033571546
  0
LINE
  5
288
100
AcDbEntity
  8
0
100
AcDbLine
 62
7
  6
CONTINUOUS
 10
5.4378693592
 20
5.9069881364
 11
5.446283905
 21
5.9127779206
  0
LINE
  5
289
100
AcDbEntity
  8
0
100
AcDbLine
 62
7
  6
CONTINUOUS
 10
5.4595592603
 20
5.9052811042
 11
5.4682652881
 21
5.9106225704
  0
LINE
  5
28A
100
AcDbEntity
  8
0
100
AcDbLine
 62
7
  6
CONTINUOUS
 10
5.481130097
 20
5.9024412496
 11
5.4901037442
 21
5.9073197573
  0
LINE
  5
28B
100
AcDbEntity
  8
0
100
AcDbLine
 62
7
  6
CONTINUOUS
 10
3.5297169433
 20
5.0854889783
 11
3.5205002728
 21
5.0810868009
  0
LINE
  5
28C
100
AcDbEntity
  8
0
100
AcDbLine
 62
7
  6
CONTINUOUS
 10
5.5025227451
 20
5.8984763567
 11
5.5117394156
 21
5.9028785341
  0
LINE
  5
28D
100
AcDbEntity
  8
0
100
AcDbLine
 62
7
  6
CONTINUOUS
 10
3.5085611195
 20
5.0905680422
 11
3.499126688
 21
5.0866542611
  0
LINE
  5
28E
100
AcDbEntity
  8
0
100
AcDbLine
 62
7
  6
CONTINUOUS
 10
5.5236785689
 20
5.8933972927
 11
5.5331130004
 21
5.8973110739
  0
LINE
  5
28F
100
AcDbEntity
  8
0
100
AcDbLine
 62
7
  6
CONTINUOUS
 10
3.8941199597
 20
5.3299981057
 11
3.8846575213
 21
5.3264646368
  0
LINE
  5
290
100
AcDbEntity
  8
0
100
AcDbLine
 62
7
  6
CONTINUOUS
 10
5.5445395816
 20
5.8872179792
 11
5.5541659151
 21
5.8906326367
  0
LINE
  5
291
100
AcDbEntity
  8
0
100
AcDbLine
 62
7
  6
CONTINUOUS
 10
3.4877001068
 20
5.0967473557
 11
3.4780737733
 21
5.0933326983
  0
LINE
  5
292
100
AcDbEntity
  8
0
100
AcDbLine
 62
7
  6
CONTINUOUS
 10
5.0638034589
 20
5.7169826675
 11
5.0675893229
 21
5.7183210345
  0
LINE
  5
293
100
AcDbEntity
  8
0
100
AcDbLine
 62
7
  6
CONTINUOUS
 10
3.9684362295
 20
5.2669826675
 11
3.9646503655
 21
5.2656443005
  0
LINE
  5
294
100
AcDbEntity
  8
0
100
AcDbLine
 62
7
  6
CONTINUOUS
 10
3.5042597326
 20
5.1970317937
 11
3.4946058995
 21
5.1940608258
  0
LINE
  5
295
100
AcDbEntity
  8
0
100
AcDbLine
 62
7
  6
CONTINUOUS
 10
5.5650486048
 20
5.8799553532
 11
5.5748404551
 21
5.8828615276
  0
LINE
  5
296
100
AcDbEntity
  8
0
100
AcDbLine
 62
7
  6
CONTINUOUS
 10
3.4671910836
 20
5.1040099817
 11
3.4573992333
 21
5.1011038074
  0
LINE
  5
297
100
AcDbEntity
  8
0
100
AcDbLine
 62
7
  6
CONTINUOUS
 10
3.8822820609
 20
5.3112045247
 11
3.8725983908
 21
5.3083322996
  0
LINE
  5
298
100
AcDbEntity
  8
0
100
AcDbLine
 62
7
  6
CONTINUOUS
 10
5.0701176541
 20
5.7333558228
 11
5.0799126068
 21
5.7362515237
  0
LINE
  5
299
100
AcDbEntity
  8
0
100
AcDbLine
 62
7
  6
CONTINUOUS
 10
3.9621220343
 20
5.2506095122
 11
3.9523270816
 21
5.2477138113
  0
LINE
  5
29A
100
AcDbEntity
  8
0
100
AcDbLine
 62
7
  6
CONTINUOUS
 10
3.8729985671
 20
5.6857257557
 11
3.8725983908
 21
5.6756330354
  0
LINE
  5
29B
100
AcDbEntity
  8
0
100
AcDbLine
 62
7
  6
CONTINUOUS
 10
3.8448767103
 20
5.2747753962
 11
3.8438837787
 21
5.2647236684
  0
LINE
  5
29C
100
AcDbEntity
  8
0
100
AcDbLine
 62
7
  6
CONTINUOUS
 10
3.8857530524
 20
5.6675417616
 11
3.8846575213
 21
5.6575006982
  0
LINE
  5
29D
100
AcDbEntity
  8
0
100
AcDbLine
 62
7
  6
CONTINUOUS
 10
3.9099757448
 20
5.1981267669
 11
3.9086479629
 21
5.1879994189
  0
LINE
  5
29E
100
AcDbEntity
  8
0
100
AcDbLine
 62
7
  6
CONTINUOUS
 10
3.8293462668
 20
5.259510744
 11
3.8276622208
 21
5.2495514703
  0
LINE
  5
29F
100
AcDbEntity
  8
0
100
AcDbLine
 62
7
  6
CONTINUOUS
 10
3.8972226127
 20
5.6485211485
 11
3.8954369475
 21
5.6385795921
  0
LINE
  5
2A0
100
AcDbEntity
  8
0
100
AcDbLine
 62
7
  6
CONTINUOUS
 10
3.8941937959
 20
5.1831502566
 11
3.8923378093
 21
5.1731062786
  0
LINE
  5
2A1
100
AcDbEntity
  8
0
100
AcDbLine
 62
7
  6
CONTINUOUS
 10
3.8776496657
 20
5.1690202346
 11
3.8752705614
 21
5.1590871563
  0
LINE
  5
2A2
100
AcDbEntity
  8
0
100
AcDbLine
 62
7
  6
CONTINUOUS
 10
5.3511095914
 20
5.9024412496
 11
5.3581364953
 21
5.9098539956
  0
LINE
  5
2A3
100
AcDbEntity
  8
0
100
AcDbLine
 62
7
  6
CONTINUOUS
 10
5.3726804281
 20
5.9052811042
 11
5.380085655
 21
5.9123159315
  0
LINE
  5
2A4
100
AcDbEntity
  8
0
100
AcDbLine
 62
7
  6
CONTINUOUS
 10
5.3943703292
 20
5.9069881364
 11
5.4021335819
 21
5.9136257631
  0
LINE
  5
2A5
100
AcDbEntity
  8
0
100
AcDbLine
 62
7
  6
CONTINUOUS
 10
5.4161198442
 20
5.9075576675
 11
5.4242198442
 21
5.9137799003
  0
LINE
  5
2A6
100
AcDbEntity
  8
0
100
AcDbLine
 62
7
  6
CONTINUOUS
 10
7.3650486048
 20
5.8799553532
 11
7.3748404551
 21
5.8828615276
  0
LINE
  5
2A7
100
AcDbEntity
  8
0
100
AcDbLine
 62
7
  6
CONTINUOUS
 10
6.8701176541
 20
5.7333558228
 11
6.8799126068
 21
5.7362515237
  0
LINE
  5
2A8
100
AcDbEntity
  8
0
100
AcDbLine
 62
7
  6
CONTINUOUS
 10
3.2364731906
 20
5.6610122479
 11
3.2340834649
 21
5.6709427762
  0
LINE
  5
2A9
100
AcDbEntity
  8
0
100
AcDbLine
 62
7
  6
CONTINUOUS
 10
3.356969127
 20
5.1590871563
 11
3.3545900227
 21
5.1690202346
  0
LINE
  5
2AA
100
AcDbEntity
  8
0
100
AcDbLine
 62
7
  6
CONTINUOUS
 10
3.413071306
 20
5.2423942991
 11
3.4110445079
 21
5.2522895117
  0
LINE
  5
2AB
100
AcDbEntity
  8
0
100
AcDbLine
 62
7
  6
CONTINUOUS
 10
3.2458398079
 20
5.6806497694
 11
3.2439730809
 21
5.6906917569
  0
LINE
  5
2AC
100
AcDbEntity
  8
0
100
AcDbLine
 62
7
  6
CONTINUOUS
 10
3.3399018791
 20
5.1731062786
 11
3.3380458925
 21
5.1831502566
  0
LINE
  5
2AD
100
AcDbEntity
  8
0
100
AcDbLine
 62
7
  6
CONTINUOUS
 10
3.3420291345
 20
5.6481331889
 11
3.3405876774
 21
5.6581304558
  0
LINE
  5
2AE
100
AcDbEntity
  8
0
100
AcDbLine
 62
7
  6
CONTINUOUS
 10
3.3963357282
 20
5.2569975513
 11
3.3949964414
 21
5.2670090174
  0
LINE
  5
2AF
100
AcDbEntity
  8
0
100
AcDbLine
 62
7
  6
CONTINUOUS
 10
3.256221337
 20
5.6997701675
 11
3.2548827253
 21
5.7098960897
  0
LINE
  5
2B0
100
AcDbEntity
  8
0
100
AcDbLine
 62
7
  6
CONTINUOUS
 10
3.3235917255
 20
5.1879994189
 11
3.3222639436
 21
5.1981267669
  0
LINE
  5
2B1
100
AcDbEntity
  8
0
100
AcDbLine
 62
7
  6
CONTINUOUS
 10
3.8438837787
 20
5.7192416665
 11
3.8448767103
 21
5.7091899388
  0
LINE
  5
2B2
100
AcDbEntity
  8
0
100
AcDbLine
 62
7
  6
CONTINUOUS
 10
3.8725983908
 20
5.3083322996
 11
3.8729985671
 21
5.2982395793
  0
LINE
  5
2B3
100
AcDbEntity
  8
0
100
AcDbLine
 62
7
  6
CONTINUOUS
 10
3.8590199377
 20
5.7029864757
 11
3.8593170232
 21
5.6928901951
  0
LINE
  5
2B4
100
AcDbEntity
  8
0
100
AcDbLine
 62
7
  6
CONTINUOUS
 10
3.9523270816
 20
5.2477138113
 11
3.9525999132
 21
5.2375034369
  0
LINE
  5
2B5
100
AcDbEntity
  8
0
100
AcDbLine
 62
7
  6
CONTINUOUS
 10
3.9388203651
 20
5.7637231493
 11
3.9390822771
 21
5.753512489
  0
LINE
  5
2B6
100
AcDbEntity
  8
0
100
AcDbLine
 62
7
  6
CONTINUOUS
 10
3.9390822771
 20
5.230452846
 11
3.9388203651
 21
5.2202421857
  0
LINE
  5
2B7
100
AcDbEntity
  8
0
100
AcDbLine
 62
7
  6
CONTINUOUS
 10
3.9525999132
 20
5.7464618981
 11
3.9523270816
 21
5.7362515237
  0
LINE
  5
2B8
100
AcDbEntity
  8
0
100
AcDbLine
 62
7
  6
CONTINUOUS
 10
3.8593170232
 20
5.2910751399
 11
3.8590199377
 21
5.2809788593
  0
LINE
  5
2B9
100
AcDbEntity
  8
0
100
AcDbLine
 62
7
  6
CONTINUOUS
 10
3.9249522551
 20
5.2139087158
 11
3.9241563173
 21
5.2037257562
  0
LINE
  5
2BA
100
AcDbEntity
  8
0
100
AcDbLine
 62
7
  6
CONTINUOUS
 10
3.9654571928
 20
5.728503137
 11
3.9646503655
 21
5.7183210345
  0
LINE
  5
2BB
100
AcDbEntity
  8
0
100
AcDbLine
 62
7
  6
CONTINUOUS
 10
5.2877001068
 20
5.8872179792
 11
5.2934808889
 21
5.895638712
  0
LINE
  5
2BC
100
AcDbEntity
  8
0
100
AcDbLine
 62
7
  6
CONTINUOUS
 10
5.3085611195
 20
5.8933972927
 11
5.3147746864
 21
5.9015039424
  0
LINE
  5
2BD
100
AcDbEntity
  8
0
100
AcDbLine
 62
7
  6
CONTINUOUS
 10
5.3297169433
 20
5.8984763567
 11
5.3363462639
 21
5.9062467035
  0
LINE
  5
2BE
100
AcDbEntity
  8
0
100
AcDbLine
 62
7
  6
CONTINUOUS
 10
7.3236785689
 20
5.8933972927
 11
7.3331130004
 21
5.8973110739
  0
LINE
  5
2BF
100
AcDbEntity
  8
0
100
AcDbLine
 62
7
  6
CONTINUOUS
 10
7.3073644253
 20
5.7939481107
 11
7.3167902854
 21
5.7975780286
  0
LINE
  5
2C0
100
AcDbEntity
  8
0
100
AcDbLine
 62
7
  6
CONTINUOUS
 10
6.9381197287
 20
5.6539672293
 11
6.9475821671
 21
5.6575006982
  0
LINE
  5
2C1
100
AcDbEntity
  8
0
100
AcDbLine
 62
7
  6
CONTINUOUS
 10
7.3445395816
 20
5.8872179792
 11
7.3541659151
 21
5.8906326367
  0
LINE
  5
2C2
100
AcDbEntity
  8
0
100
AcDbLine
 62
7
  6
CONTINUOUS
 10
6.8638034589
 20
5.7169826675
 11
6.8675893229
 21
5.7183210345
  0
LINE
  5
2C3
100
AcDbEntity
  8
0
100
AcDbLine
 62
7
  6
CONTINUOUS
 10
5.7684362295
 20
5.2669826675
 11
5.7646503655
 21
5.2656443005
  0
LINE
  5
2C4
100
AcDbEntity
  8
0
100
AcDbLine
 62
7
  6
CONTINUOUS
 10
7.3279799558
 20
5.7869335412
 11
7.3376337889
 21
5.7899045092
  0
LINE
  5
2C5
100
AcDbEntity
  8
0
100
AcDbLine
 62
7
  6
CONTINUOUS
 10
6.9499576276
 20
5.6727608103
 11
6.9596412976
 21
5.6756330354
  0
LINE
  5
2C6
100
AcDbEntity
  8
0
100
AcDbLine
 62
7
  6
CONTINUOUS
 10
5.7621220343
 20
5.2506095122
 11
5.7523270816
 21
5.2477138113
  0
LINE
  5
2C7
100
AcDbEntity
  8
0
100
AcDbLine
 62
7
  6
CONTINUOUS
 10
3.3931858379
 20
5.1338221665
 11
3.3897814772
 21
5.1434521462
  0
LINE
  5
2C8
100
AcDbEntity
  8
0
100
AcDbLine
 62
7
  6
CONTINUOUS
 10
3.3747466889
 20
5.1459804774
 11
3.371850988
 21
5.1557754301
  0
LINE
  5
2C9
100
AcDbEntity
  8
0
100
AcDbLine
 62
7
  6
CONTINUOUS
 10
3.3231436883
 20
5.6089171558
 11
3.3203397943
 21
5.6186208314
  0
LINE
  5
2CA
100
AcDbEntity
  8
0
100
AcDbLine
 62
7
  6
CONTINUOUS
 10
3.4307745025
 20
5.2289804492
 11
3.4280698517
 21
5.2387122531
  0
LINE
  5
2CB
100
AcDbEntity
  8
0
100
AcDbLine
 62
7
  6
CONTINUOUS
 10
3.3319092148
 20
5.628851293
 11
3.3297814695
 21
5.6387252913
  0
LINE
  5
2CC
100
AcDbEntity
  8
0
100
AcDbLine
 62
7
  6
CONTINUOUS
 10
3.8846575213
 20
5.3264646368
 11
3.8857530524
 21
5.3164235734
  0
LINE
  5
2CD
100
AcDbEntity
  8
0
100
AcDbLine
 62
7
  6
CONTINUOUS
 10
3.9646503655
 20
5.2656443005
 11
3.9654571928
 21
5.255462198
  0
LINE
  5
2CE
100
AcDbEntity
  8
0
100
AcDbLine
 62
7
  6
CONTINUOUS
 10
3.9241563173
 20
5.7802395787
 11
3.9249522551
 21
5.7700566192
  0
LINE
  5
2CF
100
AcDbEntity
  8
0
100
AcDbLine
 62
7
  6
CONTINUOUS
 10
5.2274527423
 20
5.8622627038
 11
5.2318450605
 21
5.8714840769
  0
LINE
  5
2D0
100
AcDbEntity
  8
0
100
AcDbLine
 62
7
  6
CONTINUOUS
 10
5.2470902638
 20
5.871629321
 11
5.2519591719
 21
5.8806081804
  0
LINE
  5
2D1
100
AcDbEntity
  8
0
100
AcDbLine
 62
7
  6
CONTINUOUS
 10
5.2671910836
 20
5.8799553532
 11
5.2725232362
 21
5.8886670884
  0
LINE
  5
2D2
100
AcDbEntity
  8
0
100
AcDbLine
 62
7
  6
CONTINUOUS
 10
7.281130097
 20
5.9024412496
 11
7.2901037442
 21
5.9073197573
  0
LINE
  5
2D3
100
AcDbEntity
  8
0
100
AcDbLine
 62
7
  6
CONTINUOUS
 10
7.3025227451
 20
5.8984763567
 11
7.3117394156
 21
5.9028785341
  0
LINE
  5
2D4
100
AcDbEntity
  8
0
100
AcDbLine
 62
7
  6
CONTINUOUS
 10
7.2863140728
 20
5.7995236774
 11
7.2954670415
 21
5.8037952471
  0
LINE
  5
2D5
100
AcDbEntity
  8
0
100
AcDbLine
 62
7
  6
CONTINUOUS
 10
6.927606627
 20
5.6344017181
 11
6.9368027409
 21
5.6385795921
  0
LINE
  5
2D6
100
AcDbEntity
  8
0
100
AcDbLine
 62
7
  6
CONTINUOUS
 10
3.4318450605
 20
5.1124812581
 11
3.4274527423
 21
5.1217026312
  0
LINE
  5
2D7
100
AcDbEntity
  8
0
100
AcDbLine
 62
7
  6
CONTINUOUS
 10
3.4687420876
 20
5.2059706759
 11
3.4647235668
 21
5.2152375326
  0
LINE
  5
2D8
100
AcDbEntity
  8
0
100
AcDbLine
 62
7
  6
CONTINUOUS
 10
3.4122360336
 20
5.1226455486
 11
3.4083323442
 21
5.1320841603
  0
LINE
  5
2D9
100
AcDbEntity
  8
0
100
AcDbLine
 62
7
  6
CONTINUOUS
 10
3.3157743265
 20
5.5884257724
 11
3.3123076457
 21
5.597912883
  0
LINE
  5
2DA
100
AcDbEntity
  8
0
100
AcDbLine
 62
7
  6
CONTINUOUS
 10
3.449360954
 20
5.2168199246
 11
3.4459913393
 21
5.2263419433
  0
LINE
  5
2DB
100
AcDbEntity
  8
0
100
AcDbLine
 62
7
  6
CONTINUOUS
 10
3.8923378093
 20
5.8108590564
 11
3.8941937959
 21
5.8008150783
  0
LINE
  5
2DC
100
AcDbEntity
  8
0
100
AcDbLine
 62
7
  6
CONTINUOUS
 10
3.8954369475
 20
5.3453857429
 11
3.8972226127
 21
5.3354441865
  0
LINE
  5
2DD
100
AcDbEntity
  8
0
100
AcDbLine
 62
7
  6
CONTINUOUS
 10
3.8276622208
 20
5.7344138647
 11
3.8293462668
 21
5.724454591
  0
LINE
  5
2DE
100
AcDbEntity
  8
0
100
AcDbLine
 62
7
  6
CONTINUOUS
 10
3.9086479629
 20
5.795965916
 11
3.9099757448
 21
5.7858385681
  0
LINE
  5
2DF
100
AcDbEntity
  8
0
100
AcDbLine
 62
7
  6
CONTINUOUS
 10
5.171850988
 20
5.8281899049
 11
5.1747466889
 21
5.8379848576
  0
LINE
  5
2E0
100
AcDbEntity
  8
0
100
AcDbLine
 62
7
  6
CONTINUOUS
 10
5.1897814772
 20
5.8405131888
 11
5.1931858379
 21
5.8501431685
  0
LINE
  5
2E1
100
AcDbEntity
  8
0
100
AcDbLine
 62
7
  6
CONTINUOUS
 10
5.2083323442
 20
5.8518811747
 11
5.2122360336
 21
5.8613197864
  0
LINE
  5
2E2
100
AcDbEntity
  8
0
100
AcDbLine
 62
7
  6
CONTINUOUS
 10
7.2378693592
 20
5.9069881364
 11
7.246283905
 21
5.9127779206
  0
LINE
  5
2E3
100
AcDbEntity
  8
0
100
AcDbLine
 62
7
  6
CONTINUOUS
 10
7.243311754
 20
5.8062585058
 11
7.2517895939
 21
5.8117493503
  0
LINE
  5
2E4
100
AcDbEntity
  8
0
100
AcDbLine
 62
7
  6
CONTINUOUS
 10
6.9107486618
 20
5.5933310936
 11
6.9192821338
 21
5.5987350735
  0
LINE
  5
2E5
100
AcDbEntity
  8
0
100
AcDbLine
 62
7
  6
CONTINUOUS
 10
7.2595592603
 20
5.9052811042
 11
7.2682652881
 21
5.9106225704
  0
LINE
  5
2E6
100
AcDbEntity
  8
0
100
AcDbLine
 62
7
  6
CONTINUOUS
 10
7.2649292129
 20
5.8036336711
 11
7.273765672
 21
5.8085265365
  0
LINE
  5
2E7
100
AcDbEntity
  8
0
100
AcDbLine
 62
7
  6
CONTINUOUS
 10
6.9184684221
 20
5.6141575152
 11
6.9273543879
 21
5.6189598849
  0
LINE
  5
2E8
100
AcDbEntity
  8
0
100
AcDbLine
 62
7
  6
CONTINUOUS
 10
7.1353523133
 20
5.1870477426
 11
7.1260573604
 21
5.1830946433
  0
LINE
  5
2E9
100
AcDbEntity
  8
0
100
AcDbLine
 62
7
  6
CONTINUOUS
 10
7.4995453924
 20
5.3396901163
 11
7.4902105539
 21
5.3358321461
  0
LINE
  5
2EA
100
AcDbEntity
  8
0
100
AcDbLine
 62
7
  6
CONTINUOUS
 10
7.0877001068
 20
5.0967473557
 11
7.0780737733
 21
5.0933326983
  0
LINE
  5
2EB
100
AcDbEntity
  8
0
100
AcDbLine
 62
7
  6
CONTINUOUS
 10
7.5742803452
 20
5.2690486612
 11
7.5646503655
 21
5.2656443005
  0
LINE
  5
2EC
100
AcDbEntity
  8
0
100
AcDbLine
 62
7
  6
CONTINUOUS
 10
7.1145069508
 20
5.1933465638
 11
7.1049614164
 21
5.1900441532
  0
LINE
  5
2ED
100
AcDbEntity
  8
0
100
AcDbLine
 62
7
  6
CONTINUOUS
 10
7.4883632291
 20
5.3204991351
 11
7.4787844672
 21
5.3172943785
  0
LINE
  5
2EE
100
AcDbEntity
  8
0
100
AcDbLine
 62
7
  6
CONTINUOUS
 10
7.0671910836
 20
5.1040099817
 11
7.0573992333
 21
5.1011038074
  0
LINE
  5
2EF
100
AcDbEntity
  8
0
100
AcDbLine
 62
7
  6
CONTINUOUS
 10
7.5621220343
 20
5.2506095122
 11
7.5523270816
 21
5.2477138113
  0
LINE
  5
2F0
100
AcDbEntity
  8
0
100
AcDbLine
 62
7
  6
CONTINUOUS
 10
3.4725232362
 20
5.0952982466
 11
3.4671910836
 21
5.1040099817
  0
LINE
  5
2F1
100
AcDbEntity
  8
0
100
AcDbLine
 62
7
  6
CONTINUOUS
 10
3.5095156143
 20
5.1884063169
 11
3.5042597326
 21
5.1970317937
  0
LINE
  5
2F2
100
AcDbEntity
  8
0
100
AcDbLine
 62
7
  6
CONTINUOUS
 10
3.4519591719
 20
5.1033571546
 11
3.4470902638
 21
5.1123360139
  0
LINE
  5
2F3
100
AcDbEntity
  8
0
100
AcDbLine
 62
7
  6
CONTINUOUS
 10
3.4888255433
 20
5.1964844045
 11
3.4841772665
 21
5.2054519385
  0
LINE
  5
2F4
100
AcDbEntity
  8
0
100
AcDbLine
 62
7
  6
CONTINUOUS
 10
3.9129575546
 20
5.3852302615
 11
3.9160947113
 21
5.3756291474
  0
LINE
  5
2F5
100
AcDbEntity
  8
0
100
AcDbLine
 62
7
  6
CONTINUOUS
 10
3.792276925
 20
5.761225579
 11
3.7953158686
 21
5.751592928
  0
LINE
  5
2F6
100
AcDbEntity
  8
0
100
AcDbLine
 62
7
  6
CONTINUOUS
 10
3.8574929995
 20
5.8379848576
 11
3.8603887004
 21
5.8281899049
  0
LINE
  5
2F7
100
AcDbEntity
  8
0
100
AcDbLine
 62
7
  6
CONTINUOUS
 10
3.9048853005
 20
5.36500545
 11
3.9073525903
 21
5.3552107768
  0
LINE
  5
2F8
100
AcDbEntity
  8
0
100
AcDbLine
 62
7
  6
CONTINUOUS
 10
3.8104325672
 20
5.7484307678
 11
3.8127997022
 21
5.7386114086
  0
LINE
  5
2F9
100
AcDbEntity
  8
0
100
AcDbLine
 62
7
  6
CONTINUOUS
 10
3.8752705614
 20
5.8248781787
 11
3.8776496657
 21
5.8149451004
  0
LINE
  5
2FA
100
AcDbEntity
  8
0
100
AcDbLine
 62
7
  6
CONTINUOUS
 10
5.1222639436
 20
5.7858385681
 11
5.1235917255
 21
5.795965916
  0
LINE
  5
2FB
100
AcDbEntity
  8
0
100
AcDbLine
 62
7
  6
CONTINUOUS
 10
5.1380458925
 20
5.8008150783
 11
5.1399018791
 21
5.8108590564
  0
LINE
  5
2FC
100
AcDbEntity
  8
0
100
AcDbLine
 62
7
  6
CONTINUOUS
 10
5.1545900227
 20
5.8149451004
 11
5.156969127
 21
5.8248781787
  0
LINE
  5
2FD
100
AcDbEntity
  8
0
100
AcDbLine
 62
7
  6
CONTINUOUS
 10
7.1943703292
 20
5.9069881364
 11
7.2021335819
 21
5.9136257631
  0
LINE
  5
2FE
100
AcDbEntity
  8
0
100
AcDbLine
 62
7
  6
CONTINUOUS
 10
6.8997046929
 20
5.5503308851
 11
6.9074130532
 21
5.5568580839
  0
LINE
  5
2FF
100
AcDbEntity
  8
0
100
AcDbLine
 62
7
  6
CONTINUOUS
 10
7.2161198442
 20
5.9075576675
 11
7.2242198442
 21
5.9137799003
  0
LINE
  5
300
100
AcDbEntity
  8
0
100
AcDbLine
 62
7
  6
CONTINUOUS
 10
7.2215647134
 20
5.807385673
 11
7.2296435333
 21
5.8134483303
  0
LINE
  5
301
100
AcDbEntity
  8
0
100
AcDbLine
 62
7
  6
CONTINUOUS
 10
6.9044841343
 20
5.5720217006
 11
6.9126244466
 21
5.5780015383
  0
LINE
  5
302
100
AcDbEntity
  8
0
100
AcDbLine
 62
7
  6
CONTINUOUS
 10
7.1565825697
 20
5.1822020751
 11
7.147582493
 21
5.1776171255
  0
LINE
  5
303
100
AcDbEntity
  8
0
100
AcDbLine
 62
7
  6
CONTINUOUS
 10
7.5093769039
 20
5.3596068409
 11
7.5003304736
 21
5.355114042
  0
LINE
  5
304
100
AcDbEntity
  8
0
100
AcDbLine
 62
7
  6
CONTINUOUS
 10
7.1297169433
 20
5.0854889783
 11
7.1205002728
 21
5.0810868009
  0
LINE
  5
305
100
AcDbEntity
  8
0
100
AcDbLine
 62
7
  6
CONTINUOUS
 10
7.5956212536
 20
5.3077078838
 11
7.5863998805
 21
5.3033155656
  0
LINE
  5
306
100
AcDbEntity
  8
0
100
AcDbLine
 62
7
  6
CONTINUOUS
 10
7.1085611195
 20
5.0905680422
 11
7.099126688
 21
5.0866542611
  0
LINE
  5
307
100
AcDbEntity
  8
0
100
AcDbLine
 62
7
  6
CONTINUOUS
 10
7.5854569631
 20
5.2880988568
 11
7.5760183514
 21
5.2841951675
  0
LINE
  5
308
100
AcDbEntity
  8
0
100
AcDbLine
 62
7
  6
CONTINUOUS
 10
3.5147746864
 20
5.0824613926
 11
3.5085611195
 21
5.0905680422
  0
LINE
  5
309
100
AcDbEntity
  8
0
100
AcDbLine
 62
7
  6
CONTINUOUS
 10
3.5307137029
 20
5.1817749088
 11
3.5248752631
 21
5.1900172242
  0
LINE
  5
30A
100
AcDbEntity
  8
0
100
AcDbLine
 62
7
  6
CONTINUOUS
 10
3.4934808889
 20
5.088326623
 11
3.4877001068
 21
5.0967473557
  0
LINE
  5
30B
100
AcDbEntity
  8
0
100
AcDbLine
 62
7
  6
CONTINUOUS
 10
3.9248266353
 20
5.4271072511
 11
3.9292555547
 21
5.418029376
  0
LINE
  5
30C
100
AcDbEntity
  8
0
100
AcDbLine
 62
7
  6
CONTINUOUS
 10
3.7535377548
 20
5.7829111473
 11
3.7578737372
 21
5.7737885161
  0
LINE
  5
30D
100
AcDbEntity
  8
0
100
AcDbLine
 62
7
  6
CONTINUOUS
 10
3.8200036549
 20
5.8613197864
 11
3.8239073442
 21
5.8518811747
  0
LINE
  5
30E
100
AcDbEntity
  8
0
100
AcDbLine
 62
7
  6
CONTINUOUS
 10
3.9196152418
 20
5.4059637967
 11
3.9234073153
 21
5.3966019955
  0
LINE
  5
30F
100
AcDbEntity
  8
0
100
AcDbLine
 62
7
  6
CONTINUOUS
 10
3.7732818141
 20
5.772737325
 11
3.7769780843
 21
5.7633372862
  0
LINE
  5
310
100
AcDbEntity
  8
0
100
AcDbLine
 62
7
  6
CONTINUOUS
 10
3.8390538505
 20
5.8501431685
 11
3.8424582112
 21
5.8405131888
  0
LINE
  5
311
100
AcDbEntity
  8
0
100
AcDbLine
 62
7
  6
CONTINUOUS
 10
5.0799126068
 20
5.7362515237
 11
5.0796397752
 21
5.7464618981
  0
LINE
  5
312
100
AcDbEntity
  8
0
100
AcDbLine
 62
7
  6
CONTINUOUS
 10
5.0934193233
 20
5.2202421857
 11
5.0931574113
 21
5.230452846
  0
LINE
  5
313
100
AcDbEntity
  8
0
100
AcDbLine
 62
7
  6
CONTINUOUS
 10
5.1597345657
 20
5.4919826675
 11
5.1597345657
 21
1.8169574041
  0
LINE
  5
314
100
AcDbEntity
  8
0
100
AcDbLine
 62
7
  6
CONTINUOUS
 10
5.0931574113
 20
5.753512489
 11
5.0934193233
 21
5.7637231493
  0
LINE
  5
315
100
AcDbEntity
  8
0
100
AcDbLine
 62
7
  6
CONTINUOUS
 10
5.0796397752
 20
5.2375034369
 11
5.0799126068
 21
5.2477138113
  0
LINE
  5
316
100
AcDbEntity
  8
0
100
AcDbLine
 62
7
  6
CONTINUOUS
 10
5.1072874334
 20
5.7700566192
 11
5.1080833711
 21
5.7802395787
  0
LINE
  5
317
100
AcDbEntity
  8
0
100
AcDbLine
 62
7
  6
CONTINUOUS
 10
5.0667824956
 20
5.255462198
 11
5.0675893229
 21
5.2656443005
  0
LINE
  5
318
100
AcDbEntity
  8
0
100
AcDbLine
 62
7
  6
CONTINUOUS
 10
7.1511095914
 20
5.9024412496
 11
7.1581364953
 21
5.9098539956
  0
LINE
  5
319
100
AcDbEntity
  8
0
100
AcDbLine
 62
7
  6
CONTINUOUS
 10
7.1780965484
 20
5.8051326818
 11
7.1852639154
 21
5.8122497032
  0
LINE
  5
31A
100
AcDbEntity
  8
0
100
AcDbLine
 62
7
  6
CONTINUOUS
 10
6.8964331137
 20
5.5283620138
 11
6.9036727882
 21
5.5354054687
  0
LINE
  5
31B
100
AcDbEntity
  8
0
100
AcDbLine
 62
7
  6
CONTINUOUS
 10
7.1726804281
 20
5.9052811042
 11
7.180085655
 21
5.9123159315
  0
LINE
  5
31C
100
AcDbEntity
  8
0
100
AcDbLine
 62
7
  6
CONTINUOUS
 10
7.1997917254
 20
5.8070098013
 11
7.207433026
 21
5.8136153799
  0
LINE
  5
31D
100
AcDbEntity
  8
0
100
AcDbLine
 62
7
  6
CONTINUOUS
 10
7.1997917254
 20
5.1769555337
 11
7.1915084599
 21
5.1711753386
  0
LINE
  5
31E
100
AcDbEntity
  8
0
100
AcDbLine
 62
7
  6
CONTINUOUS
 10
7.5248072246
 20
5.401234865
 11
7.5164653619
 21
5.3955395625
  0
LINE
  5
31F
100
AcDbEntity
  8
0
100
AcDbLine
 62
7
  6
CONTINUOUS
 10
7.1726804281
 20
5.0786842308
 11
7.1639744003
 21
5.0733427646
  0
LINE
  5
320
100
AcDbEntity
  8
0
100
AcDbLine
 62
7
  6
CONTINUOUS
 10
7.1780965484
 20
5.1788326532
 11
7.1694342374
 21
5.1736377027
  0
LINE
  5
321
100
AcDbEntity
  8
0
100
AcDbLine
 62
7
  6
CONTINUOUS
 10
7.5178109119
 20
5.3801543966
 11
7.5090960002
 21
5.3750481792
  0
LINE
  5
322
100
AcDbEntity
  8
0
100
AcDbLine
 62
7
  6
CONTINUOUS
 10
7.1511095914
 20
5.0815240853
 11
7.1421359442
 21
5.0766455777
  0
LINE
  5
323
100
AcDbEntity
  8
0
100
AcDbLine
 62
7
  6
CONTINUOUS
 10
7.6047453571
 20
5.3278219952
 11
7.5957664978
 21
5.322953087
  0
LINE
  5
324
100
AcDbEntity
  8
0
100
AcDbLine
 62
7
  6
CONTINUOUS
 10
3.5581364953
 20
5.0741113394
 11
3.5511095914
 21
5.0815240853
  0
LINE
  5
325
100
AcDbEntity
  8
0
100
AcDbLine
 62
7
  6
CONTINUOUS
 10
3.5742279197
 20
5.1729714934
 11
3.5673104755
 21
5.1803316639
  0
LINE
  5
326
100
AcDbEntity
  8
0
100
AcDbLine
 62
7
  6
CONTINUOUS
 10
3.5363462639
 20
5.0777186315
 11
3.5297169433
 21
5.0854889783
  0
LINE
  5
327
100
AcDbEntity
  8
0
100
AcDbLine
 62
7
  6
CONTINUOUS
 10
3.5523187908
 20
5.176621782
 11
3.5459256156
 21
5.1844416576
  0
LINE
  5
328
100
AcDbEntity
  8
0
100
AcDbLine
 62
7
  6
CONTINUOUS
 10
3.9285669003
 20
5.4485598663
 11
3.9336115598
 21
5.4398091776
  0
LINE
  5
329
100
AcDbEntity
  8
0
100
AcDbLine
 62
7
  6
CONTINUOUS
 10
3.7331388365
 20
5.7916985629
 11
3.7380938683
 21
5.7828968128
  0
LINE
  5
32A
100
AcDbEntity
  8
0
100
AcDbLine
 62
7
  6
CONTINUOUS
 10
3.7802805165
 20
5.8806081804
 11
3.7851494247
 21
5.871629321
  0
LINE
  5
32B
100
AcDbEntity
  8
0
100
AcDbLine
 62
7
  6
CONTINUOUS
 10
3.8003946279
 20
5.8714840769
 11
3.8047869461
 21
5.8622627038
  0
LINE
  5
32C
100
AcDbEntity
  8
0
100
AcDbLine
 62
7
  6
CONTINUOUS
 10
5.0675893229
 20
5.7183210345
 11
5.0667824956
 21
5.728503137
  0
LINE
  5
32D
100
AcDbEntity
  8
0
100
AcDbLine
 62
7
  6
CONTINUOUS
 10
5.1080833711
 20
5.2037257562
 11
5.1072874334
 21
5.2139087158
  0
LINE
  5
32E
100
AcDbEntity
  8
0
100
AcDbLine
 62
7
  6
CONTINUOUS
 10
5.6941937959
 20
5.1831502566
 11
5.6923378093
 21
5.1731062786
  0
LINE
  5
32F
100
AcDbEntity
  8
0
100
AcDbLine
 62
7
  6
CONTINUOUS
 10
5.6776496657
 20
5.1690202346
 11
5.6752705614
 21
5.1590871563
  0
LINE
  5
330
100
AcDbEntity
  8
0
100
AcDbLine
 62
7
  6
CONTINUOUS
 10
7.1353523133
 20
5.7969175924
 11
7.1414717671
 21
5.8049534762
  0
LINE
  5
331
100
AcDbEntity
  8
0
100
AcDbLine
 62
7
  6
CONTINUOUS
 10
7.1085611195
 20
5.8933972927
 11
7.1147746864
 21
5.9015039424
  0
LINE
  5
332
100
AcDbEntity
  8
0
100
AcDbLine
 62
7
  6
CONTINUOUS
 10
6.8944686446
 20
5.4840096965
 11
6.9006698442
 21
5.4919826675
  0
LINE
  5
333
100
AcDbEntity
  8
0
100
AcDbLine
 62
7
  6
CONTINUOUS
 10
7.1297169433
 20
5.8984763567
 11
7.1363462639
 21
5.9062467035
  0
LINE
  5
334
100
AcDbEntity
  8
0
100
AcDbLine
 62
7
  6
CONTINUOUS
 10
7.1565825697
 20
5.8017632599
 11
7.1632418474
 21
5.8093578082
  0
LINE
  5
335
100
AcDbEntity
  8
0
100
AcDbLine
 62
7
  6
CONTINUOUS
 10
6.8946849874
 20
5.5062197783
 11
6.9014214757
 21
5.513745924
  0
LINE
  5
336
100
AcDbEntity
  8
0
100
AcDbLine
 62
7
  6
CONTINUOUS
 10
7.2215647134
 20
5.176579662
 11
7.2136999669
 21
5.1702417675
  0
LINE
  5
337
100
AcDbEntity
  8
0
100
AcDbLine
 62
7
  6
CONTINUOUS
 10
7.2161198442
 20
5.0764076675
 11
7.2080198442
 21
5.0701854347
  0
LINE
  5
338
100
AcDbEntity
  8
0
100
AcDbLine
 62
7
  6
CONTINUOUS
 10
7.1943703292
 20
5.0769771986
 11
7.1859557835
 21
5.0711874144
  0
LINE
  5
339
100
AcDbEntity
  8
0
100
AcDbLine
 62
7
  6
CONTINUOUS
 10
3.6021335819
 20
5.0703395719
 11
3.5943703292
 21
5.0769771986
  0
LINE
  5
33A
100
AcDbEntity
  8
0
100
AcDbLine
 62
7
  6
CONTINUOUS
 10
3.5963366828
 20
5.1708414384
 11
3.5889279344
 21
5.1777068292
  0
LINE
  5
33B
100
AcDbEntity
  8
0
100
AcDbLine
 62
7
  6
CONTINUOUS
 10
3.580085655
 20
5.0716494035
 11
3.5726804281
 21
5.0786842308
  0
LINE
  5
33C
100
AcDbEntity
  8
0
100
AcDbLine
 62
7
  6
CONTINUOUS
 10
3.9315698442
 20
5.4919826675
 11
3.9377710439
 21
5.4840096965
  0
LINE
  5
33D
100
AcDbEntity
  8
0
100
AcDbLine
 62
7
  6
CONTINUOUS
 10
3.6907679213
 20
5.8049534762
 11
3.6968873752
 21
5.7969175924
  0
LINE
  5
33E
100
AcDbEntity
  8
0
100
AcDbLine
 62
7
  6
CONTINUOUS
 10
3.7387587996
 20
5.895638712
 11
3.7445395816
 21
5.8872179792
  0
LINE
  5
33F
100
AcDbEntity
  8
0
100
AcDbLine
 62
7
  6
CONTINUOUS
 10
3.9308182128
 20
5.470219411
 11
3.9364545722
 21
5.4618376096
  0
LINE
  5
340
100
AcDbEntity
  8
0
100
AcDbLine
 62
7
  6
CONTINUOUS
 10
3.7121822695
 20
5.7990576957
 11
3.7177327376
 21
5.7906187711
  0
LINE
  5
341
100
AcDbEntity
  8
0
100
AcDbLine
 62
7
  6
CONTINUOUS
 10
3.7597164522
 20
5.8886670884
 11
3.7650486048
 21
5.8799553532
  0
LINE
  5
342
100
AcDbEntity
  8
0
100
AcDbLine
 62
7
  6
CONTINUOUS
 10
5.1399018791
 20
5.1731062786
 11
5.1380458925
 21
5.1831502566
  0
LINE
  5
343
100
AcDbEntity
  8
0
100
AcDbLine
 62
7
  6
CONTINUOUS
 10
5.1235917255
 20
5.1879994189
 11
5.1222639436
 21
5.1981267669
  0
LINE
  5
344
100
AcDbEntity
  8
0
100
AcDbLine
 62
7
  6
CONTINUOUS
 10
5.6725051227
 20
1.8169574041
 11
5.6725051227
 21
5.4919826675
  0
LINE
  5
345
100
AcDbEntity
  8
0
100
AcDbLine
 62
7
  6
CONTINUOUS
 10
5.7390822771
 20
5.230452846
 11
5.7388203651
 21
5.2202421857
  0
LINE
  5
346
100
AcDbEntity
  8
0
100
AcDbLine
 62
7
  6
CONTINUOUS
 10
5.7525999132
 20
5.7464618981
 11
5.7523270816
 21
5.7362515237
  0
LINE
  5
347
100
AcDbEntity
  8
0
100
AcDbLine
 62
7
  6
CONTINUOUS
 10
5.7249522551
 20
5.2139087158
 11
5.7241563173
 21
5.2037257562
  0
LINE
  5
348
100
AcDbEntity
  8
0
100
AcDbLine
 62
7
  6
CONTINUOUS
 10
5.7654571928
 20
5.728503137
 11
5.7646503655
 21
5.7183210345
  0
LINE
  5
349
100
AcDbEntity
  8
0
100
AcDbLine
 62
7
  6
CONTINUOUS
 10
5.7099757448
 20
5.1981267669
 11
5.7086479629
 21
5.1879994189
  0
LINE
  5
34A
100
AcDbEntity
  8
0
100
AcDbLine
 62
7
  6
CONTINUOUS
 10
7.0671910836
 20
5.8799553532
 11
7.0725232362
 21
5.8886670884
  0
LINE
  5
34B
100
AcDbEntity
  8
0
100
AcDbLine
 62
7
  6
CONTINUOUS
 10
7.1145069508
 20
5.7906187711
 11
7.1200574189
 21
5.7990576957
  0
LINE
  5
34C
100
AcDbEntity
  8
0
100
AcDbLine
 62
7
  6
CONTINUOUS
 10
6.8957851162
 20
5.4618376096
 11
6.9014214757
 21
5.470219411
  0
LINE
  5
34D
100
AcDbEntity
  8
0
100
AcDbLine
 62
7
  6
CONTINUOUS
 10
7.0877001068
 20
5.8872179792
 11
7.0934808889
 21
5.895638712
  0
LINE
  5
34E
100
AcDbEntity
  8
0
100
AcDbLine
 62
7
  6
CONTINUOUS
 10
7.2649292129
 20
5.1803316639
 11
7.2580117687
 21
5.1729714934
  0
LINE
  5
34F
100
AcDbEntity
  8
0
100
AcDbLine
 62
7
  6
CONTINUOUS
 10
7.2595592603
 20
5.0786842308
 11
7.2521540334
 21
5.0716494035
  0
LINE
  5
350
100
AcDbEntity
  8
0
100
AcDbLine
 62
7
  6
CONTINUOUS
 10
7.243311754
 20
5.1777068292
 11
7.2359030057
 21
5.1708414384
  0
LINE
  5
351
100
AcDbEntity
  8
0
100
AcDbLine
 62
7
  6
CONTINUOUS
 10
7.2378693592
 20
5.0769771986
 11
7.2301061065
 21
5.0703395719
  0
LINE
  5
352
100
AcDbEntity
  8
0
100
AcDbLine
 62
7
  6
CONTINUOUS
 10
3.3157743265
 20
5.3955395625
 11
3.3074324638
 21
5.401234865
  0
LINE
  5
353
100
AcDbEntity
  8
0
100
AcDbLine
 62
7
  6
CONTINUOUS
 10
3.646283905
 20
5.0711874144
 11
3.6378693592
 21
5.0769771986
  0
LINE
  5
354
100
AcDbEntity
  8
0
100
AcDbLine
 62
7
  6
CONTINUOUS
 10
3.6407312285
 20
5.1711753386
 11
3.632447963
 21
5.1769555337
  0
LINE
  5
355
100
AcDbEntity
  8
0
100
AcDbLine
 62
7
  6
CONTINUOUS
 10
3.6242198442
 20
5.0701854347
 11
3.6161198442
 21
5.0764076675
  0
LINE
  5
356
100
AcDbEntity
  8
0
100
AcDbLine
 62
7
  6
CONTINUOUS
 10
3.6185397215
 20
5.1702417675
 11
3.610674975
 21
5.176579662
  0
LINE
  5
357
100
AcDbEntity
  8
0
100
AcDbLine
 62
7
  6
CONTINUOUS
 10
3.9308182128
 20
5.513745924
 11
3.937554701
 21
5.5062197783
  0
LINE
  5
358
100
AcDbEntity
  8
0
100
AcDbLine
 62
7
  6
CONTINUOUS
 10
3.668997841
 20
5.8093578082
 11
3.6756571187
 21
5.8017632599
  0
LINE
  5
359
100
AcDbEntity
  8
0
100
AcDbLine
 62
7
  6
CONTINUOUS
 10
3.6958934245
 20
5.9062467035
 11
3.7025227451
 21
5.8984763567
  0
LINE
  5
35A
100
AcDbEntity
  8
0
100
AcDbLine
 62
7
  6
CONTINUOUS
 10
3.717465002
 20
5.9015039424
 11
3.7236785689
 21
5.8933972927
  0
LINE
  5
35B
100
AcDbEntity
  8
0
100
AcDbLine
 62
7
  6
CONTINUOUS
 10
5.156969127
 20
5.1590871563
 11
5.1545900227
 21
5.1690202346
  0
LINE
  5
35C
100
AcDbEntity
  8
0
100
AcDbLine
 62
7
  6
CONTINUOUS
 10
5.7646503655
 20
5.2656443005
 11
5.7654571928
 21
5.255462198
  0
LINE
  5
35D
100
AcDbEntity
  8
0
100
AcDbLine
 62
7
  6
CONTINUOUS
 10
5.7241563173
 20
5.7802395787
 11
5.7249522551
 21
5.7700566192
  0
LINE
  5
35E
100
AcDbEntity
  8
0
100
AcDbLine
 62
7
  6
CONTINUOUS
 10
5.7523270816
 20
5.2477138113
 11
5.7525999132
 21
5.2375034369
  0
LINE
  5
35F
100
AcDbEntity
  8
0
100
AcDbLine
 62
7
  6
CONTINUOUS
 10
5.7388203651
 20
5.7637231493
 11
5.7390822771
 21
5.753512489
  0
LINE
  5
360
100
AcDbEntity
  8
0
100
AcDbLine
 62
7
  6
CONTINUOUS
 10
7.0743659512
 20
5.7737885161
 11
7.0787019337
 21
5.7829111473
  0
LINE
  5
361
100
AcDbEntity
  8
0
100
AcDbLine
 62
7
  6
CONTINUOUS
 10
7.0274527423
 20
5.8622627038
 11
7.0318450605
 21
5.8714840769
  0
LINE
  5
362
100
AcDbEntity
  8
0
100
AcDbLine
 62
7
  6
CONTINUOUS
 10
6.9029841337
 20
5.418029376
 11
6.9074130532
 21
5.4271072511
  0
LINE
  5
363
100
AcDbEntity
  8
0
100
AcDbLine
 62
7
  6
CONTINUOUS
 10
7.0470902638
 20
5.871629321
 11
7.0519591719
 21
5.8806081804
  0
LINE
  5
364
100
AcDbEntity
  8
0
100
AcDbLine
 62
7
  6
CONTINUOUS
 10
7.0941458201
 20
5.7828968128
 11
7.0991008519
 21
5.7916985629
  0
LINE
  5
365
100
AcDbEntity
  8
0
100
AcDbLine
 62
7
  6
CONTINUOUS
 10
6.8986281287
 20
5.4398091776
 11
6.9036727882
 21
5.4485598663
  0
LINE
  5
366
100
AcDbEntity
  8
0
100
AcDbLine
 62
7
  6
CONTINUOUS
 10
7.2863140728
 20
5.1844416576
 11
7.2799208976
 21
5.176621782
  0
LINE
  5
367
100
AcDbEntity
  8
0
100
AcDbLine
 62
7
  6
CONTINUOUS
 10
7.3025227451
 20
5.0854889783
 11
7.2958934245
 21
5.0777186315
  0
LINE
  5
368
100
AcDbEntity
  8
0
100
AcDbLine
 62
7
  6
CONTINUOUS
 10
7.281130097
 20
5.0815240853
 11
7.2741031931
 21
5.0741113394
  0
LINE
  5
369
100
AcDbEntity
  8
0
100
AcDbLine
 62
7
  6
CONTINUOUS
 10
3.2364731906
 20
5.322953087
 11
3.2274943313
 21
5.3278219952
  0
LINE
  5
36A
100
AcDbEntity
  8
0
100
AcDbLine
 62
7
  6
CONTINUOUS
 10
3.6901037442
 20
5.0766455777
 11
3.681130097
 21
5.0815240853
  0
LINE
  5
36B
100
AcDbEntity
  8
0
100
AcDbLine
 62
7
  6
CONTINUOUS
 10
3.3231436883
 20
5.3750481792
 11
3.3144287765
 21
5.3801543966
  0
LINE
  5
36C
100
AcDbEntity
  8
0
100
AcDbLine
 62
7
  6
CONTINUOUS
 10
3.6628054511
 20
5.1736377027
 11
3.65414314
 21
5.1788326532
  0
LINE
  5
36D
100
AcDbEntity
  8
0
100
AcDbLine
 62
7
  6
CONTINUOUS
 10
3.6682652881
 20
5.0733427646
 11
3.6595592603
 21
5.0786842308
  0
LINE
  5
36E
100
AcDbEntity
  8
0
100
AcDbLine
 62
7
  6
CONTINUOUS
 10
3.9248266353
 20
5.5568580839
 11
3.9325349956
 21
5.5503308851
  0
LINE
  5
36F
100
AcDbEntity
  8
0
100
AcDbLine
 62
7
  6
CONTINUOUS
 10
3.6248066624
 20
5.8136153799
 11
3.632447963
 21
5.8070098013
  0
LINE
  5
370
100
AcDbEntity
  8
0
100
AcDbLine
 62
7
  6
CONTINUOUS
 10
3.6521540334
 20
5.9123159315
 11
3.6595592603
 21
5.9052811042
  0
LINE
  5
371
100
AcDbEntity
  8
0
100
AcDbLine
 62
7
  6
CONTINUOUS
 10
3.9285669003
 20
5.5354054687
 11
3.9358065747
 21
5.5283620138
  0
LINE
  5
372
100
AcDbEntity
  8
0
100
AcDbLine
 62
7
  6
CONTINUOUS
 10
3.646975773
 20
5.8122497032
 11
3.65414314
 21
5.8051326818
  0
LINE
  5
373
100
AcDbEntity
  8
0
100
AcDbLine
 62
7
  6
CONTINUOUS
 10
3.6741031931
 20
5.9098539956
 11
3.681130097
 21
5.9024412496
  0
LINE
  5
374
100
AcDbEntity
  8
0
100
AcDbLine
 62
7
  6
CONTINUOUS
 10
5.7086479629
 20
5.795965916
 11
5.7099757448
 21
5.7858385681
  0
LINE
  5
375
100
AcDbEntity
  8
0
100
AcDbLine
 62
7
  6
CONTINUOUS
 10
6.971850988
 20
5.8281899049
 11
6.9747466889
 21
5.8379848576
  0
LINE
  5
376
100
AcDbEntity
  8
0
100
AcDbLine
 62
7
  6
CONTINUOUS
 10
6.9897814772
 20
5.8405131888
 11
6.9931858379
 21
5.8501431685
  0
LINE
  5
377
100
AcDbEntity
  8
0
100
AcDbLine
 62
7
  6
CONTINUOUS
 10
7.0552616042
 20
5.7633372862
 11
7.0589578744
 21
5.772737325
  0
LINE
  5
378
100
AcDbEntity
  8
0
100
AcDbLine
 62
7
  6
CONTINUOUS
 10
6.9088323731
 20
5.3966019955
 11
6.9126244466
 21
5.4059637967
  0
LINE
  5
379
100
AcDbEntity
  8
0
100
AcDbLine
 62
7
  6
CONTINUOUS
 10
7.0083323442
 20
5.8518811747
 11
7.0122360336
 21
5.8613197864
  0
LINE
  5
37A
100
AcDbEntity
  8
0
100
AcDbLine
 62
7
  6
CONTINUOUS
 10
7.3279799558
 20
5.1970317937
 11
7.3227240742
 21
5.1884063169
  0
LINE
  5
37B
100
AcDbEntity
  8
0
100
AcDbLine
 62
7
  6
CONTINUOUS
 10
7.3445395816
 20
5.0967473557
 11
7.3387587996
 21
5.088326623
  0
LINE
  5
37C
100
AcDbEntity
  8
0
100
AcDbLine
 62
7
  6
CONTINUOUS
 10
7.3073644253
 20
5.1900172242
 11
7.3015259855
 21
5.1817749088
  0
LINE
  5
37D
100
AcDbEntity
  8
0
100
AcDbLine
 62
7
  6
CONTINUOUS
 10
7.3236785689
 20
5.0905680422
 11
7.317465002
 21
5.0824613926
  0
LINE
  5
37E
100
AcDbEntity
  8
0
100
AcDbLine
 62
7
  6
CONTINUOUS
 10
3.2675893229
 20
5.2656443005
 11
3.2579593432
 21
5.2690486612
  0
LINE
  5
37F
100
AcDbEntity
  8
0
100
AcDbLine
 62
7
  6
CONTINUOUS
 10
3.7541659151
 20
5.0933326983
 11
3.7445395816
 21
5.0967473557
  0
LINE
  5
380
100
AcDbEntity
  8
0
100
AcDbLine
 62
7
  6
CONTINUOUS
 10
3.3420291345
 20
5.3358321461
 11
3.332694296
 21
5.3396901163
  0
LINE
  5
381
100
AcDbEntity
  8
0
100
AcDbLine
 62
7
  6
CONTINUOUS
 10
3.256221337
 20
5.2841951675
 11
3.2467827253
 21
5.2880988568
  0
LINE
  5
382
100
AcDbEntity
  8
0
100
AcDbLine
 62
7
  6
CONTINUOUS
 10
3.7331130004
 20
5.0866542611
 11
3.7236785689
 21
5.0905680422
  0
LINE
  5
383
100
AcDbEntity
  8
0
100
AcDbLine
 62
7
  6
CONTINUOUS
 10
3.7061823281
 20
5.1830946433
 11
3.6968873752
 21
5.1870477426
  0
LINE
  5
384
100
AcDbEntity
  8
0
100
AcDbLine
 62
7
  6
CONTINUOUS
 10
3.2458398079
 20
5.3033155656
 11
3.2366184348
 21
5.3077078838
  0
LINE
  5
385
100
AcDbEntity
  8
0
100
AcDbLine
 62
7
  6
CONTINUOUS
 10
3.7117394156
 20
5.0810868009
 11
3.7025227451
 21
5.0854889783
  0
LINE
  5
386
100
AcDbEntity
  8
0
100
AcDbLine
 62
7
  6
CONTINUOUS
 10
3.3319092148
 20
5.355114042
 11
3.3228627845
 21
5.3596068409
  0
LINE
  5
387
100
AcDbEntity
  8
0
100
AcDbLine
 62
7
  6
CONTINUOUS
 10
3.6846571954
 20
5.1776171255
 11
3.6756571187
 21
5.1822020751
  0
LINE
  5
388
100
AcDbEntity
  8
0
100
AcDbLine
 62
7
  6
CONTINUOUS
 10
3.5804500945
 20
5.8117493503
 11
3.5889279344
 21
5.8062585058
  0
LINE
  5
389
100
AcDbEntity
  8
0
100
AcDbLine
 62
7
  6
CONTINUOUS
 10
3.9196152418
 20
5.5780015383
 11
3.9277555541
 21
5.5720217006
  0
LINE
  5
38A
100
AcDbEntity
  8
0
100
AcDbLine
 62
7
  6
CONTINUOUS
 10
3.6025961552
 20
5.8134483303
 11
3.610674975
 21
5.807385673
  0
LINE
  5
38B
100
AcDbEntity
  8
0
100
AcDbLine
 62
7
  6
CONTINUOUS
 10
3.6080198442
 20
5.9137799003
 11
3.6161198442
 21
5.9075576675
  0
LINE
  5
38C
100
AcDbEntity
  8
0
100
AcDbLine
 62
7
  6
CONTINUOUS
 10
3.6301061065
 20
5.9136257631
 11
3.6378693592
 21
5.9069881364
  0
LINE
  5
38D
100
AcDbEntity
  8
0
100
AcDbLine
 62
7
  6
CONTINUOUS
 10
5.6752705614
 20
5.8248781787
 11
5.6776496657
 21
5.8149451004
  0
LINE
  5
38E
100
AcDbEntity
  8
0
100
AcDbLine
 62
7
  6
CONTINUOUS
 10
5.6923378093
 20
5.8108590564
 11
5.6941937959
 21
5.8008150783
  0
LINE
  5
38F
100
AcDbEntity
  8
0
100
AcDbLine
 62
7
  6
CONTINUOUS
 10
6.9380458925
 20
5.8008150783
 11
6.9399018791
 21
5.8108590564
  0
LINE
  5
390
100
AcDbEntity
  8
0
100
AcDbLine
 62
7
  6
CONTINUOUS
 10
6.9545900227
 20
5.8149451004
 11
6.956969127
 21
5.8248781787
  0
LINE
  5
391
100
AcDbEntity
  8
0
100
AcDbLine
 62
7
  6
CONTINUOUS
 10
7.0194399862
 20
5.7386114086
 11
7.0218071212
 21
5.7484307678
  0
LINE
  5
392
100
AcDbEntity
  8
0
100
AcDbLine
 62
7
  6
CONTINUOUS
 10
6.9248870981
 20
5.3552107768
 11
6.9273543879
 21
5.36500545
  0
LINE
  5
393
100
AcDbEntity
  8
0
100
AcDbLine
 62
7
  6
CONTINUOUS
 10
7.0369238199
 20
5.751592928
 11
7.0399627634
 21
5.761225579
  0
LINE
  5
394
100
AcDbEntity
  8
0
100
AcDbLine
 62
7
  6
CONTINUOUS
 10
6.9161449772
 20
5.3756291474
 11
6.9192821338
 21
5.3852302615
  0
LINE
  5
395
100
AcDbEntity
  8
0
100
AcDbLine
 62
7
  6
CONTINUOUS
 10
7.4047869461
 20
5.1217026312
 11
7.4003946279
 21
5.1124812581
  0
LINE
  5
396
100
AcDbEntity
  8
0
100
AcDbLine
 62
7
  6
CONTINUOUS
 10
7.348062422
 20
5.2054519385
 11
7.3434141452
 21
5.1964844045
  0
LINE
  5
397
100
AcDbEntity
  8
0
100
AcDbLine
 62
7
  6
CONTINUOUS
 10
7.3851494247
 20
5.1123360139
 11
7.3802805165
 21
5.1033571546
  0
LINE
  5
398
100
AcDbEntity
  8
0
100
AcDbLine
 62
7
  6
CONTINUOUS
 10
7.3650486048
 20
5.1040099817
 11
7.3597164522
 21
5.0952982466
  0
LINE
  5
399
100
AcDbEntity
  8
0
100
AcDbLine
 62
7
  6
CONTINUOUS
 10
7.0941458201
 20
5.2010685222
 11
7.0843951931
 21
5.1984325376
  0
LINE
  5
39A
100
AcDbEntity
  8
0
100
AcDbLine
 62
7
  6
CONTINUOUS
 10
7.4758837021
 20
5.302125351
 11
7.466106664
 21
5.2995890802
  0
LINE
  5
39B
100
AcDbEntity
  8
0
100
AcDbLine
 62
7
  6
CONTINUOUS
 10
7.0470902638
 20
5.1123360139
 11
7.0371597355
 21
5.1099462882
  0
LINE
  5
39C
100
AcDbEntity
  8
0
100
AcDbLine
 62
7
  6
CONTINUOUS
 10
7.5490153554
 20
5.2328319503
 11
7.5390822771
 21
5.230452846
  0
LINE
  5
39D
100
AcDbEntity
  8
0
100
AcDbLine
 62
7
  6
CONTINUOUS
 10
3.2931574113
 20
5.230452846
 11
3.283224333
 21
5.2328319503
  0
LINE
  5
39E
100
AcDbEntity
  8
0
100
AcDbLine
 62
7
  6
CONTINUOUS
 10
3.795079953
 20
5.1099462882
 11
3.7851494247
 21
5.1123360139
  0
LINE
  5
39F
100
AcDbEntity
  8
0
100
AcDbLine
 62
7
  6
CONTINUOUS
 10
3.3661330244
 20
5.2995890802
 11
3.3563559863
 21
5.302125351
  0
LINE
  5
3A0
100
AcDbEntity
  8
0
100
AcDbLine
 62
7
  6
CONTINUOUS
 10
3.7478444953
 20
5.1984325376
 11
3.7380938683
 21
5.2010685222
  0
LINE
  5
3A1
100
AcDbEntity
  8
0
100
AcDbLine
 62
7
  6
CONTINUOUS
 10
3.2799126068
 20
5.2477138113
 11
3.2701176541
 21
5.2506095122
  0
LINE
  5
3A2
100
AcDbEntity
  8
0
100
AcDbLine
 62
7
  6
CONTINUOUS
 10
3.7748404551
 20
5.1011038074
 11
3.7650486048
 21
5.1040099817
  0
LINE
  5
3A3
100
AcDbEntity
  8
0
100
AcDbLine
 62
7
  6
CONTINUOUS
 10
3.3534552212
 20
5.3172943785
 11
3.3438764593
 21
5.3204991351
  0
LINE
  5
3A4
100
AcDbEntity
  8
0
100
AcDbLine
 62
7
  6
CONTINUOUS
 10
3.727278272
 20
5.1900441532
 11
3.7177327376
 21
5.1933465638
  0
LINE
  5
3A5
100
AcDbEntity
  8
0
100
AcDbLine
 62
7
  6
CONTINUOUS
 10
3.9048853005
 20
5.6189598849
 11
3.9137712663
 21
5.6141575152
  0
LINE
  5
3A6
100
AcDbEntity
  8
0
100
AcDbLine
 62
7
  6
CONTINUOUS
 10
3.5421359442
 20
5.9073197573
 11
3.5511095914
 21
5.9024412496
  0
LINE
  5
3A7
100
AcDbEntity
  8
0
100
AcDbLine
 62
7
  6
CONTINUOUS
 10
3.5584740164
 20
5.8085265365
 11
3.5673104755
 21
5.8036336711
  0
LINE
  5
3A8
100
AcDbEntity
  8
0
100
AcDbLine
 62
7
  6
CONTINUOUS
 10
3.5639744003
 20
5.9106225704
 11
3.5726804281
 21
5.9052811042
  0
LINE
  5
3A9
100
AcDbEntity
  8
0
100
AcDbLine
 62
7
  6
CONTINUOUS
 10
3.9129575546
 20
5.5987350735
 11
3.9214910266
 21
5.5933310936
  0
LINE
  5
3AA
100
AcDbEntity
  8
0
100
AcDbLine
 62
7
  6
CONTINUOUS
 10
3.5859557835
 20
5.9127779206
 11
3.5943703292
 21
5.9069881364
  0
LINE
  5
3AB
100
AcDbEntity
  8
0
100
AcDbLine
 62
7
  6
CONTINUOUS
 10
5.6200036549
 20
5.8613197864
 11
5.6239073442
 21
5.8518811747
  0
LINE
  5
3AC
100
AcDbEntity
  8
0
100
AcDbLine
 62
7
  6
CONTINUOUS
 10
5.6390538505
 20
5.8501431685
 11
5.6424582112
 21
5.8405131888
  0
LINE
  5
3AD
100
AcDbEntity
  8
0
100
AcDbLine
 62
7
  6
CONTINUOUS
 10
5.6574929995
 20
5.8379848576
 11
5.6603887004
 21
5.8281899049
  0
LINE
  5
3AE
100
AcDbEntity
  8
0
100
AcDbLine
 62
7
  6
CONTINUOUS
 10
6.9072874334
 20
5.7700566192
 11
6.9080833711
 21
5.7802395787
  0
LINE
  5
3AF
100
AcDbEntity
  8
0
100
AcDbLine
 62
7
  6
CONTINUOUS
 10
6.8667824956
 20
5.255462198
 11
6.8675893229
 21
5.2656443005
  0
LINE
  5
3B0
100
AcDbEntity
  8
0
100
AcDbLine
 62
7
  6
CONTINUOUS
 10
6.9873629781
 20
5.7091899388
 11
6.9883559097
 21
5.7192416665
  0
LINE
  5
3B1
100
AcDbEntity
  8
0
100
AcDbLine
 62
7
  6
CONTINUOUS
 10
6.946486636
 20
5.3164235734
 11
6.9475821671
 21
5.3264646368
  0
LINE
  5
3B2
100
AcDbEntity
  8
0
100
AcDbLine
 62
7
  6
CONTINUOUS
 10
6.9222639436
 20
5.7858385681
 11
6.9235917255
 21
5.795965916
  0
LINE
  5
3B3
100
AcDbEntity
  8
0
100
AcDbLine
 62
7
  6
CONTINUOUS
 10
7.0028934217
 20
5.724454591
 11
7.0045774676
 21
5.7344138647
  0
LINE
  5
3B4
100
AcDbEntity
  8
0
100
AcDbLine
 62
7
  6
CONTINUOUS
 10
6.9350170757
 20
5.3354441865
 11
6.9368027409
 21
5.3453857429
  0
LINE
  5
3B5
100
AcDbEntity
  8
0
100
AcDbLine
 62
7
  6
CONTINUOUS
 10
7.4424582112
 20
5.1434521462
 11
7.4390538505
 21
5.1338221665
  0
LINE
  5
3B6
100
AcDbEntity
  8
0
100
AcDbLine
 62
7
  6
CONTINUOUS
 10
7.3862483491
 20
5.2263419433
 11
7.3828787344
 21
5.2168199246
  0
LINE
  5
3B7
100
AcDbEntity
  8
0
100
AcDbLine
 62
7
  6
CONTINUOUS
 10
7.5199320427
 20
5.597912883
 11
7.5164653619
 21
5.5884257724
  0
LINE
  5
3B8
100
AcDbEntity
  8
0
100
AcDbLine
 62
7
  6
CONTINUOUS
 10
7.4239073442
 20
5.1320841603
 11
7.4200036549
 21
5.1226455486
  0
LINE
  5
3B9
100
AcDbEntity
  8
0
100
AcDbLine
 62
7
  6
CONTINUOUS
 10
7.3675161216
 20
5.2152375326
 11
7.3634976008
 21
5.2059706759
  0
LINE
  5
3BA
100
AcDbEntity
  8
0
100
AcDbLine
 62
7
  6
CONTINUOUS
 10
7.0743659512
 20
5.2101768189
 11
7.0644566976
 21
5.208219822
  0
LINE
  5
3BB
100
AcDbEntity
  8
0
100
AcDbLine
 62
7
  6
CONTINUOUS
 10
7.462166282
 20
5.2846563234
 11
7.4522375597
 21
5.2828006249
  0
LINE
  5
3BC
100
AcDbEntity
  8
0
100
AcDbLine
 62
7
  6
CONTINUOUS
 10
7.0274527423
 20
5.1217026312
 11
7.0174107548
 21
5.1198359042
  0
LINE
  5
3BD
100
AcDbEntity
  8
0
100
AcDbLine
 62
7
  6
CONTINUOUS
 10
7.5349962331
 20
5.2157647024
 11
7.5249522551
 21
5.2139087158
  0
LINE
  5
3BE
100
AcDbEntity
  8
0
100
AcDbLine
 62
7
  6
CONTINUOUS
 10
7.0083323442
 20
5.1320841603
 11
6.998206422
 21
5.1307455486
  0
LINE
  5
3BF
100
AcDbEntity
  8
0
100
AcDbLine
 62
7
  6
CONTINUOUS
 10
7.5201030928
 20
5.1994545488
 11
7.5099757448
 21
5.1981267669
  0
LINE
  5
3C0
100
AcDbEntity
  8
0
100
AcDbLine
 62
7
  6
CONTINUOUS
 10
7.0552616042
 20
5.2206280488
 11
7.0452409462
 21
5.2193593656
  0
LINE
  5
3C1
100
AcDbEntity
  8
0
100
AcDbLine
 62
7
  6
CONTINUOUS
 10
3.7869987422
 20
5.2193593656
 11
3.7769780843
 21
5.2206280488
  0
LINE
  5
3C2
100
AcDbEntity
  8
0
100
AcDbLine
 62
7
  6
CONTINUOUS
 10
3.3222639436
 20
5.1981267669
 11
3.3121365957
 21
5.1994545488
  0
LINE
  5
3C3
100
AcDbEntity
  8
0
100
AcDbLine
 62
7
  6
CONTINUOUS
 10
3.8340332664
 20
5.1307455486
 11
3.8239073442
 21
5.1320841603
  0
LINE
  5
3C4
100
AcDbEntity
  8
0
100
AcDbLine
 62
7
  6
CONTINUOUS
 10
3.3072874334
 20
5.2139087158
 11
3.2972434553
 21
5.2157647024
  0
LINE
  5
3C5
100
AcDbEntity
  8
0
100
AcDbLine
 62
7
  6
CONTINUOUS
 10
3.8148289336
 20
5.1198359042
 11
3.8047869461
 21
5.1217026312
  0
LINE
  5
3C6
100
AcDbEntity
  8
0
100
AcDbLine
 62
7
  6
CONTINUOUS
 10
3.3800021287
 20
5.2828006249
 11
3.3700734064
 21
5.2846563234
  0
LINE
  5
3C7
100
AcDbEntity
  8
0
100
AcDbLine
 62
7
  6
CONTINUOUS
 10
3.7677829908
 20
5.208219822
 11
3.7578737372
 21
5.2101768189
  0
LINE
  5
3C8
100
AcDbEntity
  8
0
100
AcDbLine
 62
7
  6
CONTINUOUS
 10
3.8846575213
 20
5.6575006982
 11
3.8941199597
 21
5.6539672293
  0
LINE
  5
3C9
100
AcDbEntity
  8
0
100
AcDbLine
 62
7
  6
CONTINUOUS
 10
3.515449403
 20
5.7975780286
 11
3.5248752631
 21
5.7939481107
  0
LINE
  5
3CA
100
AcDbEntity
  8
0
100
AcDbLine
 62
7
  6
CONTINUOUS
 10
3.499126688
 20
5.8973110739
 11
3.5085611195
 21
5.8933972927
  0
LINE
  5
3CB
100
AcDbEntity
  8
0
100
AcDbLine
 62
7
  6
CONTINUOUS
 10
3.8954369475
 20
5.6385795921
 11
3.9046330615
 21
5.6344017181
  0
LINE
  5
3CC
100
AcDbEntity
  8
0
100
AcDbLine
 62
7
  6
CONTINUOUS
 10
3.5367726469
 20
5.8037952471
 11
3.5459256156
 21
5.7995236774
  0
LINE
  5
3CD
100
AcDbEntity
  8
0
100
AcDbLine
 62
7
  6
CONTINUOUS
 10
3.5205002728
 20
5.9028785341
 11
3.5297169433
 21
5.8984763567
  0
LINE
  5
3CE
100
AcDbEntity
  8
0
100
AcDbLine
 62
7
  6
CONTINUOUS
 10
5.5387587996
 20
5.895638712
 11
5.5445395816
 21
5.8872179792
  0
LINE
  5
3CF
100
AcDbEntity
  8
0
100
AcDbLine
 62
7
  6
CONTINUOUS
 10
5.5597164522
 20
5.8886670884
 11
5.5650486048
 21
5.8799553532
  0
LINE
  5
3D0
100
AcDbEntity
  8
0
100
AcDbLine
 62
7
  6
CONTINUOUS
 10
5.5802805165
 20
5.8806081804
 11
5.5851494247
 21
5.871629321
  0
LINE
  5
3D1
100
AcDbEntity
  8
0
100
AcDbLine
 62
7
  6
CONTINUOUS
 10
5.6003946279
 20
5.8714840769
 11
5.6047869461
 21
5.8622627038
  0
LINE
  5
3D2
100
AcDbEntity
  8
0
100
AcDbLine
 62
7
  6
CONTINUOUS
 10
6.8675893229
 20
5.7183210345
 11
6.8667824956
 21
5.728503137
  0
LINE
  5
3D3
100
AcDbEntity
  8
0
100
AcDbLine
 62
7
  6
CONTINUOUS
 10
6.9080833711
 20
5.2037257562
 11
6.9072874334
 21
5.2139087158
  0
LINE
  5
3D4
100
AcDbEntity
  8
0
100
AcDbLine
 62
7
  6
CONTINUOUS
 10
6.9596412976
 20
5.6756330354
 11
6.9592411213
 21
5.6857257557
  0
LINE
  5
3D5
100
AcDbEntity
  8
0
100
AcDbLine
 62
7
  6
CONTINUOUS
 10
6.9732197507
 20
5.2809788593
 11
6.9729226652
 21
5.2910751399
  0
LINE
  5
3D6
100
AcDbEntity
  8
0
100
AcDbLine
 62
7
  6
CONTINUOUS
 10
6.8799126068
 20
5.7362515237
 11
6.8796397752
 21
5.7464618981
  0
LINE
  5
3D7
100
AcDbEntity
  8
0
100
AcDbLine
 62
7
  6
CONTINUOUS
 10
6.8934193233
 20
5.2202421857
 11
6.8931574113
 21
5.230452846
  0
LINE
  5
3D8
100
AcDbEntity
  8
0
100
AcDbLine
 62
7
  6
CONTINUOUS
 10
6.8931574113
 20
5.753512489
 11
6.8934193233
 21
5.7637231493
  0
LINE
  5
3D9
100
AcDbEntity
  8
0
100
AcDbLine
 62
7
  6
CONTINUOUS
 10
6.8796397752
 20
5.2375034369
 11
6.8799126068
 21
5.2477138113
  0
LINE
  5
3DA
100
AcDbEntity
  8
0
100
AcDbLine
 62
7
  6
CONTINUOUS
 10
6.9729226652
 20
5.6928901951
 11
6.9732197507
 21
5.7029864757
  0
LINE
  5
3DB
100
AcDbEntity
  8
0
100
AcDbLine
 62
7
  6
CONTINUOUS
 10
6.9592411213
 20
5.2982395793
 11
6.9596412976
 21
5.3083322996
  0
LINE
  5
3DC
100
AcDbEntity
  8
0
100
AcDbLine
 62
7
  6
CONTINUOUS
 10
7.4211951806
 20
5.2522895117
 11
7.4191683824
 21
5.2423942991
  0
LINE
  5
3DD
100
AcDbEntity
  8
0
100
AcDbLine
 62
7
  6
CONTINUOUS
 10
7.502458219
 20
5.6387252913
 11
7.5003304736
 21
5.628851293
  0
LINE
  5
3DE
100
AcDbEntity
  8
0
100
AcDbLine
 62
7
  6
CONTINUOUS
 10
7.4776496657
 20
5.1690202346
 11
7.4752705614
 21
5.1590871563
  0
LINE
  5
3DF
100
AcDbEntity
  8
0
100
AcDbLine
 62
7
  6
CONTINUOUS
 10
7.5981562235
 20
5.6709427762
 11
7.5957664978
 21
5.6610122479
  0
LINE
  5
3E0
100
AcDbEntity
  8
0
100
AcDbLine
 62
7
  6
CONTINUOUS
 10
7.4041698368
 20
5.2387122531
 11
7.4014651859
 21
5.2289804492
  0
LINE
  5
3E1
100
AcDbEntity
  8
0
100
AcDbLine
 62
7
  6
CONTINUOUS
 10
7.5118998941
 20
5.6186208314
 11
7.5090960002
 21
5.6089171558
  0
LINE
  5
3E2
100
AcDbEntity
  8
0
100
AcDbLine
 62
7
  6
CONTINUOUS
 10
7.4603887004
 20
5.1557754301
 11
7.4574929995
 21
5.1459804774
  0
LINE
  5
3E3
100
AcDbEntity
  8
0
100
AcDbLine
 62
7
  6
CONTINUOUS
 10
5.7490153554
 20
5.2328319503
 11
5.7390822771
 21
5.230452846
  0
LINE
  5
3E4
100
AcDbEntity
  8
0
100
AcDbLine
 62
7
  6
CONTINUOUS
 10
7.348062422
 20
5.7785133965
 11
7.357898223
 21
5.7808112564
  0
LINE
  5
3E5
100
AcDbEntity
  8
0
100
AcDbLine
 62
7
  6
CONTINUOUS
 10
5.7349962331
 20
5.2157647024
 11
5.7249522551
 21
5.2139087158
  0
LINE
  5
3E6
100
AcDbEntity
  8
0
100
AcDbLine
 62
7
  6
CONTINUOUS
 10
5.7201030928
 20
5.1994545488
 11
5.7099757448
 21
5.1981267669
  0
LINE
  5
3E7
100
AcDbEntity
  8
0
100
AcDbLine
 62
7
  6
CONTINUOUS
 10
7.4472763386
 20
5.2681753003
 11
7.437243247
 21
5.2670090174
  0
LINE
  5
3E8
100
AcDbEntity
  8
0
100
AcDbLine
 62
7
  6
CONTINUOUS
 10
6.9897814772
 20
5.1434521462
 11
6.9795993747
 21
5.1426453189
  0
LINE
  5
3E9
100
AcDbEntity
  8
0
100
AcDbLine
 62
7
  6
CONTINUOUS
 10
7.5043767555
 20
5.1839461944
 11
7.4941937959
 21
5.1831502566
  0
LINE
  5
3EA
100
AcDbEntity
  8
0
100
AcDbLine
 62
7
  6
CONTINUOUS
 10
5.7043767555
 20
5.1839461944
 11
5.6941937959
 21
5.1831502566
  0
LINE
  5
3EB
100
AcDbEntity
  8
0
100
AcDbLine
 62
7
  6
CONTINUOUS
 10
7.0369238199
 20
5.232372407
 11
7.0268395105
 21
5.2317980835
  0
LINE
  5
3EC
100
AcDbEntity
  8
0
100
AcDbLine
 62
7
  6
CONTINUOUS
 10
7.4312848292
 20
5.2527608213
 11
7.4211951806
 21
5.2522895117
  0
LINE
  5
3ED
100
AcDbEntity
  8
0
100
AcDbLine
 62
7
  6
CONTINUOUS
 10
6.971850988
 20
5.1557754301
 11
6.9616406136
 21
5.1555025985
  0
LINE
  5
3EE
100
AcDbEntity
  8
0
100
AcDbLine
 62
7
  6
CONTINUOUS
 10
3.371850988
 20
5.1557754301
 11
3.3616406136
 21
5.1555025985
  0
LINE
  5
3EF
100
AcDbEntity
  8
0
100
AcDbLine
 62
7
  6
CONTINUOUS
 10
7.487860326
 20
5.1692821466
 11
7.4776496657
 21
5.1690202346
  0
LINE
  5
3F0
100
AcDbEntity
  8
0
100
AcDbLine
 62
7
  6
CONTINUOUS
 10
5.687860326
 20
5.1692821466
 11
5.6776496657
 21
5.1690202346
  0
LINE
  5
3F1
100
AcDbEntity
  8
0
100
AcDbLine
 62
7
  6
CONTINUOUS
 10
3.887860326
 20
5.1692821466
 11
3.8776496657
 21
5.1690202346
  0
LINE
  5
3F2
100
AcDbEntity
  8
0
100
AcDbLine
 62
7
  6
CONTINUOUS
 10
3.4280698517
 20
5.2387122531
 11
3.4179717277
 21
5.2384863432
  0
LINE
  5
3F3
100
AcDbEntity
  8
0
100
AcDbLine
 62
7
  6
CONTINUOUS
 10
3.8228996067
 20
5.2454766993
 11
3.8127997022
 21
5.2453539263
  0
LINE
  5
3F4
100
AcDbEntity
  8
0
100
AcDbLine
 62
7
  6
CONTINUOUS
 10
3.8438837787
 20
5.2669826675
 11
5.1496745687
 21
5.2669826675
  0
LINE
  5
3F5
100
AcDbEntity
  8
0
100
AcDbLine
 62
7
  6
CONTINUOUS
 10
5.6825651197
 20
5.2669826675
 11
6.9883559097
 21
5.2669826675
  0
LINE
  5
3F6
100
AcDbEntity
  8
0
100
AcDbLine
 62
7
  6
CONTINUOUS
 10
7.0194399862
 20
5.2453539263
 11
7.0093400818
 21
5.2454766993
  0
LINE
  5
3F7
100
AcDbEntity
  8
0
100
AcDbLine
 62
7
  6
CONTINUOUS
 10
7.4142679607
 20
5.2384863432
 11
7.4041698368
 21
5.2387122531
  0
LINE
  5
3F8
100
AcDbEntity
  8
0
100
AcDbLine
 62
7
  6
CONTINUOUS
 10
3.3545900227
 20
5.1690202346
 11
3.3443793624
 21
5.1692821466
  0
LINE
  5
3F9
100
AcDbEntity
  8
0
100
AcDbLine
 62
7
  6
CONTINUOUS
 10
5.1545900227
 20
5.1690202346
 11
5.1443793624
 21
5.1692821466
  0
LINE
  5
3FA
100
AcDbEntity
  8
0
100
AcDbLine
 62
7
  6
CONTINUOUS
 10
6.9545900227
 20
5.1690202346
 11
6.9443793624
 21
5.1692821466
  0
LINE
  5
3FB
100
AcDbEntity
  8
0
100
AcDbLine
 62
7
  6
CONTINUOUS
 10
3.8705990748
 20
5.1555025985
 11
3.8603887004
 21
5.1557754301
  0
LINE
  5
3FC
100
AcDbEntity
  8
0
100
AcDbLine
 62
7
  6
CONTINUOUS
 10
7.4705990748
 20
5.1555025985
 11
7.4603887004
 21
5.1557754301
  0
LINE
  5
3FD
100
AcDbEntity
  8
0
100
AcDbLine
 62
7
  6
CONTINUOUS
 10
3.4110445079
 20
5.2522895117
 11
3.4009548592
 21
5.2527608213
  0
LINE
  5
3FE
100
AcDbEntity
  8
0
100
AcDbLine
 62
7
  6
CONTINUOUS
 10
3.8054001779
 20
5.2317980835
 11
3.7953158686
 21
5.232372407
  0
LINE
  5
3FF
100
AcDbEntity
  8
0
100
AcDbLine
 62
7
  6
CONTINUOUS
 10
3.3380458925
 20
5.1831502566
 11
3.327862933
 21
5.1839461944
  0
LINE
  5
400
100
AcDbEntity
  8
0
100
AcDbLine
 62
7
  6
CONTINUOUS
 10
5.1380458925
 20
5.1831502566
 11
5.127862933
 21
5.1839461944
  0
LINE
  5
401
100
AcDbEntity
  8
0
100
AcDbLine
 62
7
  6
CONTINUOUS
 10
3.8526403137
 20
5.1426453189
 11
3.8424582112
 21
5.1434521462
  0
LINE
  5
402
100
AcDbEntity
  8
0
100
AcDbLine
 62
7
  6
CONTINUOUS
 10
3.3949964414
 20
5.2670090174
 11
3.3849633498
 21
5.2681753003
  0
LINE
  5
403
100
AcDbEntity
  8
0
100
AcDbLine
 62
7
  6
CONTINUOUS
 10
5.1222639436
 20
5.1981267669
 11
5.1121365957
 21
5.1994545488
  0
LINE
  5
404
100
AcDbEntity
  8
0
100
AcDbLine
 62
7
  6
CONTINUOUS
 10
5.1072874334
 20
5.2139087158
 11
5.0972434553
 21
5.2157647024
  0
LINE
  5
405
100
AcDbEntity
  8
0
100
AcDbLine
 62
7
  6
CONTINUOUS
 10
3.4743414654
 20
5.7808112564
 11
3.4841772665
 21
5.7785133965
  0
LINE
  5
406
100
AcDbEntity
  8
0
100
AcDbLine
 62
7
  6
CONTINUOUS
 10
5.0931574113
 20
5.230452846
 11
5.083224333
 21
5.2328319503
  0
LINE
  5
407
100
AcDbEntity
  8
0
100
AcDbLine
 62
7
  6
CONTINUOUS
 10
5.0799126068
 20
5.2477138113
 11
5.0701176541
 21
5.2506095122
  0
LINE
  5
408
100
AcDbEntity
  8
0
100
AcDbLine
 62
7
  6
CONTINUOUS
 10
3.9523270816
 20
5.7362515237
 11
3.9621220343
 21
5.7333558228
  0
LINE
  5
409
100
AcDbEntity
  8
0
100
AcDbLine
 62
7
  6
CONTINUOUS
 10
3.8725983908
 20
5.6756330354
 11
3.8822820609
 21
5.6727608103
  0
LINE
  5
40A
100
AcDbEntity
  8
0
100
AcDbLine
 62
7
  6
CONTINUOUS
 10
3.4573992333
 20
5.8828615276
 11
3.4671910836
 21
5.8799553532
  0
LINE
  5
40B
100
AcDbEntity
  8
0
100
AcDbLine
 62
7
  6
CONTINUOUS
 10
3.4946058995
 20
5.7899045092
 11
3.5042597326
 21
5.7869335412
  0
LINE
  5
40C
100
AcDbEntity
  8
0
100
AcDbLine
 62
7
  6
CONTINUOUS
 10
5.0675893229
 20
5.2656443005
 11
5.0638034589
 21
5.2669826675
  0
LINE
  5
40D
100
AcDbEntity
  8
0
100
AcDbLine
 62
7
  6
CONTINUOUS
 10
3.9646503655
 20
5.7183210345
 11
3.9684362295
 21
5.7169826675
  0
LINE
  5
40E
100
AcDbEntity
  8
0
100
AcDbLine
 62
7
  6
CONTINUOUS
 10
3.4780737733
 20
5.8906326367
 11
3.4877001068
 21
5.8872179792
  0
LINE
  5
40F
100
AcDbEntity
  8
0
100
AcDbLine
 62
7
  6
CONTINUOUS
 10
5.4741031931
 20
5.9098539956
 11
5.481130097
 21
5.9024412496
  0
LINE
  5
410
100
AcDbEntity
  8
0
100
AcDbLine
 62
7
  6
CONTINUOUS
 10
5.4958934245
 20
5.9062467035
 11
5.5025227451
 21
5.8984763567
  0
LINE
  5
411
100
AcDbEntity
  8
0
100
AcDbLine
 62
7
  6
CONTINUOUS
 10
5.517465002
 20
5.9015039424
 11
5.5236785689
 21
5.8933972927
  0
LINE
  5
412
100
AcDbEntity
  8
0
100
AcDbLine
 62
7
  6
CONTINUOUS
 10
6.9475821671
 20
5.6575006982
 11
6.946486636
 21
5.6675417616
  0
LINE
  5
413
100
AcDbEntity
  8
0
100
AcDbLine
 62
7
  6
CONTINUOUS
 10
6.9883559097
 20
5.2647236684
 11
6.9873629781
 21
5.2747753962
  0
LINE
  5
414
100
AcDbEntity
  8
0
100
AcDbLine
 62
9
  6
CONTINUOUS
 10
7.3736198442
 20
5.5797326675
 11
7.3736198442
 21
5.4042326675
  0
LINE
  5
415
100
AcDbEntity
  8
0
100
AcDbLine
 62
7
  6
CONTINUOUS
 10
7.4522375597
 20
5.2828006249
 11
7.4515921666
 21
5.2727206145
  0
LINE
  5
416
100
AcDbEntity
  8
0
100
AcDbLine
 62
7
  6
CONTINUOUS
 10
7.4795327668
 20
5.6767438503
 11
7.4787844672
 21
5.6666709565
  0
LINE
  5
417
100
AcDbEntity
  8
0
100
AcDbLine
 62
7
  6
CONTINUOUS
 10
7.5099757448
 20
5.1981267669
 11
7.5086479629
 21
5.1879994189
  0
LINE
  5
418
100
AcDbEntity
  8
0
100
AcDbLine
 62
7
  6
CONTINUOUS
 10
7.5773569631
 20
5.7098960897
 11
7.5760183514
 21
5.6997701675
  0
LINE
  5
419
100
AcDbEntity
  8
0
100
AcDbLine
 62
7
  6
CONTINUOUS
 10
7.437243247
 20
5.2670090174
 11
7.4359039602
 21
5.2569975513
  0
LINE
  5
41A
100
AcDbEntity
  8
0
100
AcDbLine
 62
7
  6
CONTINUOUS
 10
7.491652011
 20
5.6581304558
 11
7.4902105539
 21
5.6481331889
  0
LINE
  5
41B
100
AcDbEntity
  8
0
100
AcDbLine
 62
7
  6
CONTINUOUS
 10
7.4941937959
 20
5.1831502566
 11
7.4923378093
 21
5.1731062786
  0
LINE
  5
41C
100
AcDbEntity
  8
0
100
AcDbLine
 62
7
  6
CONTINUOUS
 10
7.5882666075
 20
5.6906917569
 11
7.5863998805
 21
5.6806497694
  0
LINE
  5
41D
100
AcDbEntity
  8
0
100
AcDbLine
 62
7
  6
CONTINUOUS
 10
7.3851494247
 20
5.871629321
 11
7.395079953
 21
5.8740190468
  0
LINE
  5
41E
100
AcDbEntity
  8
0
100
AcDbLine
 62
7
  6
CONTINUOUS
 10
3.4470902638
 20
5.1123360139
 11
3.4371597355
 21
5.1099462882
  0
LINE
  5
41F
100
AcDbEntity
  8
0
100
AcDbLine
 62
7
  6
CONTINUOUS
 10
6.883224333
 20
5.7511333847
 11
6.8931574113
 21
5.753512489
  0
LINE
  5
420
100
AcDbEntity
  8
0
100
AcDbLine
 62
7
  6
CONTINUOUS
 10
3.9490153554
 20
5.2328319503
 11
3.9390822771
 21
5.230452846
  0
LINE
  5
421
100
AcDbEntity
  8
0
100
AcDbLine
 62
7
  6
CONTINUOUS
 10
6.9630639106
 20
5.6906929012
 11
6.9729226652
 21
5.6928901951
  0
LINE
  5
422
100
AcDbEntity
  8
0
100
AcDbLine
 62
7
  6
CONTINUOUS
 10
3.4274527423
 20
5.1217026312
 11
3.4174107548
 21
5.1198359042
  0
LINE
  5
423
100
AcDbEntity
  8
0
100
AcDbLine
 62
7
  6
CONTINUOUS
 10
7.4047869461
 20
5.8622627038
 11
7.4148289336
 21
5.8641294308
  0
LINE
  5
424
100
AcDbEntity
  8
0
100
AcDbLine
 62
7
  6
CONTINUOUS
 10
3.9349962331
 20
5.2157647024
 11
3.9249522551
 21
5.2139087158
  0
LINE
  5
425
100
AcDbEntity
  8
0
100
AcDbLine
 62
7
  6
CONTINUOUS
 10
6.8972434553
 20
5.7682006326
 11
6.9072874334
 21
5.7700566192
  0
LINE
  5
426
100
AcDbEntity
  8
0
100
AcDbLine
 62
7
  6
CONTINUOUS
 10
7.3675161216
 20
5.7687278024
 11
7.3774870187
 21
5.770341604
  0
LINE
  5
427
100
AcDbEntity
  8
0
100
AcDbLine
 62
7
  6
CONTINUOUS
 10
3.4647235668
 20
5.2152375326
 11
3.4547526698
 21
5.213623731
  0
LINE
  5
428
100
AcDbEntity
  8
0
100
AcDbLine
 62
7
  6
CONTINUOUS
 10
6.9773761204
 20
5.7076780472
 11
6.9873629781
 21
5.7091899388
  0
LINE
  5
429
100
AcDbEntity
  8
0
100
AcDbLine
 62
7
  6
CONTINUOUS
 10
3.854863568
 20
5.2762872877
 11
3.8448767103
 21
5.2747753962
  0
LINE
  5
42A
100
AcDbEntity
  8
0
100
AcDbLine
 62
7
  6
CONTINUOUS
 10
3.4083323442
 20
5.1320841603
 11
3.398206422
 21
5.1307455486
  0
LINE
  5
42B
100
AcDbEntity
  8
0
100
AcDbLine
 62
7
  6
CONTINUOUS
 10
3.9201030928
 20
5.1994545488
 11
3.9099757448
 21
5.1981267669
  0
LINE
  5
42C
100
AcDbEntity
  8
0
100
AcDbLine
 62
7
  6
CONTINUOUS
 10
3.4459913393
 20
5.2263419433
 11
3.4359328622
 21
5.2254198906
  0
LINE
  5
42D
100
AcDbEntity
  8
0
100
AcDbLine
 62
7
  6
CONTINUOUS
 10
3.8394136356
 20
5.2603300284
 11
3.8293462668
 21
5.259510744
  0
LINE
  5
42E
100
AcDbEntity
  8
0
100
AcDbLine
 62
7
  6
CONTINUOUS
 10
3.3897814772
 20
5.1434521462
 11
3.3795993747
 21
5.1426453189
  0
LINE
  5
42F
100
AcDbEntity
  8
0
100
AcDbLine
 62
7
  6
CONTINUOUS
 10
3.9043767555
 20
5.1839461944
 11
3.8941937959
 21
5.1831502566
  0
LINE
  5
430
100
AcDbEntity
  8
0
100
AcDbLine
 62
7
  6
CONTINUOUS
 10
3.2088698442
 20
5.3569826675
 11
2.0478698442
 21
5.3569826675
  0
LINE
  5
431
100
AcDbEntity
  8
0
100
AcDbLine
 62
7
  6
CONTINUOUS
 10
7.6233698442
 20
5.3569826675
 11
8.7843698442
 21
5.3569826675
  0
LINE
  5
432
100
AcDbEntity
  8
0
100
AcDbLine
 62
7
  6
CONTINUOUS
 10
3.6161198442
 20
5.4042326675
 11
3.2988698442
 21
5.4042326675
  0
LINE
  5
433
100
AcDbEntity
  8
0
100
AcDbLine
 62
7
  6
CONTINUOUS
 10
7.2161198442
 20
5.4042326675
 11
7.5333698442
 21
5.4042326675
  0
LINE
  5
434
100
AcDbEntity
  8
0
100
AcDbLine
 62
7
  6
CONTINUOUS
 10
6.9380458925
 20
5.1831502566
 11
6.927862933
 21
5.1839461944
  0
LINE
  5
435
100
AcDbEntity
  8
0
100
AcDbLine
 62
7
  6
CONTINUOUS
 10
7.4526403137
 20
5.1426453189
 11
7.4424582112
 21
5.1434521462
  0
LINE
  5
436
100
AcDbEntity
  8
0
100
AcDbLine
 62
7
  6
CONTINUOUS
 10
7.0028934217
 20
5.259510744
 11
6.9928260528
 21
5.2603300284
  0
LINE
  5
437
100
AcDbEntity
  8
0
100
AcDbLine
 62
7
  6
CONTINUOUS
 10
7.3963068262
 20
5.2254198906
 11
7.3862483491
 21
5.2263419433
  0
LINE
  5
438
100
AcDbEntity
  8
0
100
AcDbLine
 62
7
  6
CONTINUOUS
 10
6.9222639436
 20
5.1981267669
 11
6.9121365957
 21
5.1994545488
  0
LINE
  5
439
100
AcDbEntity
  8
0
100
AcDbLine
 62
7
  6
CONTINUOUS
 10
7.4340332664
 20
5.1307455486
 11
7.4239073442
 21
5.1320841603
  0
LINE
  5
43A
100
AcDbEntity
  8
0
100
AcDbLine
 62
7
  6
CONTINUOUS
 10
3.8448767103
 20
5.7091899388
 11
3.854863568
 21
5.7076780472
  0
LINE
  5
43B
100
AcDbEntity
  8
0
100
AcDbLine
 62
7
  6
CONTINUOUS
 10
6.9873629781
 20
5.2747753962
 11
6.9773761204
 21
5.2762872877
  0
LINE
  5
43C
100
AcDbEntity
  8
0
100
AcDbLine
 62
7
  6
CONTINUOUS
 10
3.4547526698
 20
5.770341604
 11
3.4647235668
 21
5.7687278024
  0
LINE
  5
43D
100
AcDbEntity
  8
0
100
AcDbLine
 62
7
  6
CONTINUOUS
 10
7.3774870187
 20
5.213623731
 11
7.3675161216
 21
5.2152375326
  0
LINE
  5
43E
100
AcDbEntity
  8
0
100
AcDbLine
 62
7
  6
CONTINUOUS
 10
6.9072874334
 20
5.2139087158
 11
6.8972434553
 21
5.2157647024
  0
LINE
  5
43F
100
AcDbEntity
  8
0
100
AcDbLine
 62
7
  6
CONTINUOUS
 10
3.9249522551
 20
5.7700566192
 11
3.9349962331
 21
5.7682006326
  0
LINE
  5
440
100
AcDbEntity
  8
0
100
AcDbLine
 62
7
  6
CONTINUOUS
 10
7.4148289336
 20
5.1198359042
 11
7.4047869461
 21
5.1217026312
  0
LINE
  5
441
100
AcDbEntity
  8
0
100
AcDbLine
 62
7
  6
CONTINUOUS
 10
3.4174107548
 20
5.8641294308
 11
3.4274527423
 21
5.8622627038
  0
LINE
  5
442
100
AcDbEntity
  8
0
100
AcDbLine
 62
7
  6
CONTINUOUS
 10
3.8593170232
 20
5.6928901951
 11
3.8691757778
 21
5.6906929012
  0
LINE
  5
443
100
AcDbEntity
  8
0
100
AcDbLine
 62
7
  6
CONTINUOUS
 10
3.9390822771
 20
5.753512489
 11
3.9490153554
 21
5.7511333847
  0
LINE
  5
444
100
AcDbEntity
  8
0
100
AcDbLine
 62
7
  6
CONTINUOUS
 10
6.8931574113
 20
5.230452846
 11
6.883224333
 21
5.2328319503
  0
LINE
  5
445
100
AcDbEntity
  8
0
100
AcDbLine
 62
7
  6
CONTINUOUS
 10
3.4371597355
 20
5.8740190468
 11
3.4470902638
 21
5.871629321
  0
LINE
  5
446
100
AcDbEntity
  8
0
100
AcDbLine
 62
7
  6
CONTINUOUS
 10
7.395079953
 20
5.1099462882
 11
7.3851494247
 21
5.1123360139
  0
LINE
  5
447
100
AcDbEntity
  8
0
100
AcDbLine
 62
7
  6
CONTINUOUS
 10
5.3639744003
 20
5.9106225704
 11
5.3726804281
 21
5.9052811042
  0
LINE
  5
448
100
AcDbEntity
  8
0
100
AcDbLine
 62
7
  6
CONTINUOUS
 10
5.3859557835
 20
5.9127779206
 11
5.3943703292
 21
5.9069881364
  0
LINE
  5
449
100
AcDbEntity
  8
0
100
AcDbLine
 62
7
  6
CONTINUOUS
 10
5.4080198442
 20
5.9137799003
 11
5.4161198442
 21
5.9075576675
  0
LINE
  5
44A
100
AcDbEntity
  8
0
100
AcDbLine
 62
7
  6
CONTINUOUS
 10
5.4301061065
 20
5.9136257631
 11
5.4378693592
 21
5.9069881364
  0
LINE
  5
44B
100
AcDbEntity
  8
0
100
AcDbLine
 62
7
  6
CONTINUOUS
 10
5.4521540334
 20
5.9123159315
 11
5.4595592603
 21
5.9052811042
  0
LINE
  5
44C
100
AcDbEntity
  8
0
100
AcDbLine
 62
7
  6
CONTINUOUS
 10
6.9747466889
 20
5.1459804774
 11
6.971850988
 21
5.1557754301
  0
LINE
  5
44D
100
AcDbEntity
  8
0
100
AcDbLine
 62
7
  6
CONTINUOUS
 10
6.9273543879
 20
5.6189598849
 11
6.9248870981
 21
5.6287545582
  0
LINE
  5
44E
100
AcDbEntity
  8
0
100
AcDbLine
 62
7
  6
CONTINUOUS
 10
7.0218071212
 20
5.2355345671
 11
7.0194399862
 21
5.2453539263
  0
LINE
  5
44F
100
AcDbEntity
  8
0
100
AcDbLine
 62
7
  6
CONTINUOUS
 10
6.956969127
 20
5.1590871563
 11
6.9545900227
 21
5.1690202346
  0
LINE
  5
450
100
AcDbEntity
  8
0
100
AcDbLine
 62
7
  6
CONTINUOUS
 10
6.9399018791
 20
5.1731062786
 11
6.9380458925
 21
5.1831502566
  0
LINE
  5
451
100
AcDbEntity
  8
0
100
AcDbLine
 62
7
  6
CONTINUOUS
 10
6.9368027409
 20
5.6385795921
 11
6.9350170757
 21
5.6485211485
  0
LINE
  5
452
100
AcDbEntity
  8
0
100
AcDbLine
 62
7
  6
CONTINUOUS
 10
7.0045774676
 20
5.2495514703
 11
7.0028934217
 21
5.259510744
  0
LINE
  5
453
100
AcDbEntity
  8
0
100
AcDbLine
 62
7
  6
CONTINUOUS
 10
6.9235917255
 20
5.1879994189
 11
6.9222639436
 21
5.1981267669
  0
LINE
  5
454
100
AcDbEntity
  8
0
100
AcDbLine
 62
7
  6
CONTINUOUS
 10
7.4787844672
 20
5.3172943785
 11
7.4795327668
 21
5.3072214846
  0
LINE
  5
455
100
AcDbEntity
  8
0
100
AcDbLine
 62
7
  6
CONTINUOUS
 10
7.4515921666
 20
5.7112447205
 11
7.4522375597
 21
5.70116471
  0
LINE
  5
456
100
AcDbEntity
  8
0
100
AcDbLine
 62
7
  6
CONTINUOUS
 10
7.5523270816
 20
5.2477138113
 11
7.5525999132
 21
5.2375034369
  0
LINE
  5
457
100
AcDbEntity
  8
0
100
AcDbLine
 62
7
  6
CONTINUOUS
 10
7.5388203651
 20
5.7637231493
 11
7.5390822771
 21
5.753512489
  0
LINE
  5
458
100
AcDbEntity
  8
0
100
AcDbLine
 62
7
  6
CONTINUOUS
 10
7.466106664
 20
5.2995890802
 11
7.4661582401
 21
5.2894885612
  0
LINE
  5
459
100
AcDbEntity
  8
0
100
AcDbLine
 62
7
  6
CONTINUOUS
 10
7.5333698442
 20
5.3866983164
 11
7.5333698442
 21
5.5972670186
  0
LINE
  5
45A
100
AcDbEntity
  8
0
100
AcDbLine
 62
7
  6
CONTINUOUS
 10
7.5671198442
 20
5.6269826675
 11
7.5671198442
 21
5.3569826675
  0
LINE
  5
45B
100
AcDbEntity
  8
0
100
AcDbLine
 62
7
  6
CONTINUOUS
 10
7.6233698442
 20
5.6269826675
 11
7.6233698442
 21
5.3569826675
  0
LINE
  5
45C
100
AcDbEntity
  8
0
100
AcDbLine
 62
7
  6
CONTINUOUS
 10
7.4661582401
 20
5.6944767737
 11
7.466106664
 21
5.6843762548
  0
LINE
  5
45D
100
AcDbEntity
  8
0
100
AcDbLine
 62
7
  6
CONTINUOUS
 10
7.5390822771
 20
5.230452846
 11
7.5388203651
 21
5.2202421857
  0
LINE
  5
45E
100
AcDbEntity
  8
0
100
AcDbLine
 62
7
  6
CONTINUOUS
 10
7.5525999132
 20
5.7464618981
 11
7.5523270816
 21
5.7362515237
  0
LINE
  5
45F
100
AcDbEntity
  8
0
100
AcDbLine
 62
7
  6
CONTINUOUS
 10
7.5249522551
 20
5.2139087158
 11
7.5241563173
 21
5.2037257562
  0
LINE
  5
460
100
AcDbEntity
  8
0
100
AcDbLine
 62
7
  6
CONTINUOUS
 10
7.5654571928
 20
5.728503137
 11
7.5646503655
 21
5.7183210345
  0
LINE
  5
461
100
AcDbEntity
  8
0
100
AcDbLine
 62
7
  6
CONTINUOUS
 10
5.5851494247
 20
5.871629321
 11
5.595079953
 21
5.8740190468
  0
LINE
  5
462
100
AcDbEntity
  8
0
100
AcDbLine
 62
7
  6
CONTINUOUS
 10
5.083224333
 20
5.7511333847
 11
5.0931574113
 21
5.753512489
  0
LINE
  5
463
100
AcDbEntity
  8
0
100
AcDbLine
 62
7
  6
CONTINUOUS
 10
3.4841772665
 20
5.2054519385
 11
3.4743414654
 21
5.2031540785
  0
LINE
  5
464
100
AcDbEntity
  8
0
100
AcDbLine
 62
7
  6
CONTINUOUS
 10
3.8691757778
 20
5.2932724338
 11
3.8593170232
 21
5.2910751399
  0
LINE
  5
465
100
AcDbEntity
  8
0
100
AcDbLine
 62
7
  6
CONTINUOUS
 10
5.6047869461
 20
5.8622627038
 11
5.6148289336
 21
5.8641294308
  0
LINE
  5
466
100
AcDbEntity
  8
0
100
AcDbLine
 62
7
  6
CONTINUOUS
 10
5.0972434553
 20
5.7682006326
 11
5.1072874334
 21
5.7700566192
  0
LINE
  5
467
100
AcDbEntity
  8
0
100
AcDbLine
 62
7
  6
CONTINUOUS
 10
7.4239073442
 20
5.8518811747
 11
7.4340332664
 21
5.8532197864
  0
LINE
  5
468
100
AcDbEntity
  8
0
100
AcDbLine
 62
7
  6
CONTINUOUS
 10
5.6239073442
 20
5.8518811747
 11
5.6340332664
 21
5.8532197864
  0
LINE
  5
469
100
AcDbEntity
  8
0
100
AcDbLine
 62
7
  6
CONTINUOUS
 10
6.9121365957
 20
5.7845107862
 11
6.9222639436
 21
5.7858385681
  0
LINE
  5
46A
100
AcDbEntity
  8
0
100
AcDbLine
 62
7
  6
CONTINUOUS
 10
5.1121365957
 20
5.7845107862
 11
5.1222639436
 21
5.7858385681
  0
LINE
  5
46B
100
AcDbEntity
  8
0
100
AcDbLine
 62
7
  6
CONTINUOUS
 10
7.3862483491
 20
5.7576233916
 11
7.3963068262
 21
5.7585454444
  0
LINE
  5
46C
100
AcDbEntity
  8
0
100
AcDbLine
 62
7
  6
CONTINUOUS
 10
6.9928260528
 20
5.7236353066
 11
7.0028934217
 21
5.724454591
  0
LINE
  5
46D
100
AcDbEntity
  8
0
100
AcDbLine
 62
7
  6
CONTINUOUS
 10
7.4424582112
 20
5.8405131888
 11
7.4526403137
 21
5.8413200161
  0
LINE
  5
46E
100
AcDbEntity
  8
0
100
AcDbLine
 62
7
  6
CONTINUOUS
 10
5.6424582112
 20
5.8405131888
 11
5.6526403137
 21
5.8413200161
  0
LINE
  5
46F
100
AcDbEntity
  8
0
100
AcDbLine
 62
7
  6
CONTINUOUS
 10
6.927862933
 20
5.8000191406
 11
6.9380458925
 21
5.8008150783
  0
LINE
  5
470
100
AcDbEntity
  8
0
100
AcDbLine
 62
7
  6
CONTINUOUS
 10
5.127862933
 20
5.8000191406
 11
5.1380458925
 21
5.8008150783
  0
LINE
  5
471
100
AcDbEntity
  8
0
100
AcDbLine
 62
7
  6
CONTINUOUS
 10
3.4009548592
 20
5.7312045137
 11
3.4110445079
 21
5.7316758233
  0
LINE
  5
472
100
AcDbEntity
  8
0
100
AcDbLine
 62
7
  6
CONTINUOUS
 10
7.4603887004
 20
5.8281899049
 11
7.4705990748
 21
5.8284627365
  0
LINE
  5
473
100
AcDbEntity
  8
0
100
AcDbLine
 62
7
  6
CONTINUOUS
 10
5.6603887004
 20
5.8281899049
 11
5.6705990748
 21
5.8284627365
  0
LINE
  5
474
100
AcDbEntity
  8
0
100
AcDbLine
 62
7
  6
CONTINUOUS
 10
6.9443793624
 20
5.8146831884
 11
6.9545900227
 21
5.8149451004
  0
LINE
  5
475
100
AcDbEntity
  8
0
100
AcDbLine
 62
7
  6
CONTINUOUS
 10
5.1443793624
 20
5.8146831884
 11
5.1545900227
 21
5.8149451004
  0
LINE
  5
476
100
AcDbEntity
  8
0
100
AcDbLine
 62
7
  6
CONTINUOUS
 10
7.4041698368
 20
5.7452530819
 11
7.4142679607
 21
5.7454789918
  0
LINE
  5
477
100
AcDbEntity
  8
0
100
AcDbLine
 62
7
  6
CONTINUOUS
 10
7.0093400818
 20
5.7384886357
 11
7.0194399862
 21
5.7386114086
  0
LINE
  5
478
100
AcDbEntity
  8
0
100
AcDbLine
 62
7
  6
CONTINUOUS
 10
3.6161198442
 20
5.5797326675
 11
3.2988698442
 21
5.5797326675
  0
LINE
  5
479
100
AcDbEntity
  8
0
100
AcDbLine
 62
7
  6
CONTINUOUS
 10
7.2161198442
 20
5.5797326675
 11
7.5333698442
 21
5.5797326675
  0
LINE
  5
47A
100
AcDbEntity
  8
0
100
AcDbLine
 62
7
  6
CONTINUOUS
 10
3.2088698442
 20
5.6269826675
 11
2.0478698442
 21
5.6269826675
  0
LINE
  5
47B
100
AcDbEntity
  8
0
100
AcDbLine
 62
7
  6
CONTINUOUS
 10
7.6233698442
 20
5.6269826675
 11
8.7843698442
 21
5.6269826675
  0
LINE
  5
47C
100
AcDbEntity
  8
0
100
AcDbLine
 62
7
  6
CONTINUOUS
 10
3.8438837787
 20
5.7169826675
 11
5.1496745687
 21
5.7169826675
  0
LINE
  5
47D
100
AcDbEntity
  8
0
100
AcDbLine
 62
7
  6
CONTINUOUS
 10
5.6825651197
 20
5.7169826675
 11
6.9883559097
 21
5.7169826675
  0
LINE
  5
47E
100
AcDbEntity
  8
0
100
AcDbLine
 62
7
  6
CONTINUOUS
 10
3.8127997022
 20
5.7386114086
 11
3.8228996067
 21
5.7384886357
  0
LINE
  5
47F
100
AcDbEntity
  8
0
100
AcDbLine
 62
7
  6
CONTINUOUS
 10
3.4179717277
 20
5.7454789918
 11
3.4280698517
 21
5.7452530819
  0
LINE
  5
480
100
AcDbEntity
  8
0
100
AcDbLine
 62
7
  6
CONTINUOUS
 10
3.8776496657
 20
5.8149451004
 11
3.887860326
 21
5.8146831884
  0
LINE
  5
481
100
AcDbEntity
  8
0
100
AcDbLine
 62
7
  6
CONTINUOUS
 10
5.6776496657
 20
5.8149451004
 11
5.687860326
 21
5.8146831884
  0
LINE
  5
482
100
AcDbEntity
  8
0
100
AcDbLine
 62
7
  6
CONTINUOUS
 10
3.3616406136
 20
5.8284627365
 11
3.371850988
 21
5.8281899049
  0
LINE
  5
483
100
AcDbEntity
  8
0
100
AcDbLine
 62
7
  6
CONTINUOUS
 10
5.1616406136
 20
5.8284627365
 11
5.171850988
 21
5.8281899049
  0
LINE
  5
484
100
AcDbEntity
  8
0
100
AcDbLine
 62
7
  6
CONTINUOUS
 10
7.4211951806
 20
5.7316758233
 11
7.4312848292
 21
5.7312045137
  0
LINE
  5
485
100
AcDbEntity
  8
0
100
AcDbLine
 62
7
  6
CONTINUOUS
 10
3.8941937959
 20
5.8008150783
 11
3.9043767555
 21
5.8000191406
  0
LINE
  5
486
100
AcDbEntity
  8
0
100
AcDbLine
 62
7
  6
CONTINUOUS
 10
5.6941937959
 20
5.8008150783
 11
5.7043767555
 21
5.8000191406
  0
LINE
  5
487
100
AcDbEntity
  8
0
100
AcDbLine
 62
7
  6
CONTINUOUS
 10
3.3795993747
 20
5.8413200161
 11
3.3897814772
 21
5.8405131888
  0
LINE
  5
488
100
AcDbEntity
  8
0
100
AcDbLine
 62
7
  6
CONTINUOUS
 10
5.1795993747
 20
5.8413200161
 11
5.1897814772
 21
5.8405131888
  0
LINE
  5
489
100
AcDbEntity
  8
0
100
AcDbLine
 62
7
  6
CONTINUOUS
 10
3.8293462668
 20
5.724454591
 11
3.8394136356
 21
5.7236353066
  0
LINE
  5
48A
100
AcDbEntity
  8
0
100
AcDbLine
 62
7
  6
CONTINUOUS
 10
3.4359328622
 20
5.7585454444
 11
3.4459913393
 21
5.7576233916
  0
LINE
  5
48B
100
AcDbEntity
  8
0
100
AcDbLine
 62
7
  6
CONTINUOUS
 10
3.9099757448
 20
5.7858385681
 11
3.9201030928
 21
5.7845107862
  0
LINE
  5
48C
100
AcDbEntity
  8
0
100
AcDbLine
 62
7
  6
CONTINUOUS
 10
5.7099757448
 20
5.7858385681
 11
5.7201030928
 21
5.7845107862
  0
LINE
  5
48D
100
AcDbEntity
  8
0
100
AcDbLine
 62
7
  6
CONTINUOUS
 10
3.398206422
 20
5.8532197864
 11
3.4083323442
 21
5.8518811747
  0
LINE
  5
48E
100
AcDbEntity
  8
0
100
AcDbLine
 62
7
  6
CONTINUOUS
 10
5.198206422
 20
5.8532197864
 11
5.2083323442
 21
5.8518811747
  0
LINE
  5
48F
100
AcDbEntity
  8
0
100
AcDbLine
 62
7
  6
CONTINUOUS
 10
5.7249522551
 20
5.7700566192
 11
5.7349962331
 21
5.7682006326
  0
LINE
  5
490
100
AcDbEntity
  8
0
100
AcDbLine
 62
7
  6
CONTINUOUS
 10
5.2174107548
 20
5.8641294308
 11
5.2274527423
 21
5.8622627038
  0
LINE
  5
491
100
AcDbEntity
  8
0
100
AcDbLine
 62
7
  6
CONTINUOUS
 10
6.9729226652
 20
5.2910751399
 11
6.9630639106
 21
5.2932724338
  0
LINE
  5
492
100
AcDbEntity
  8
0
100
AcDbLine
 62
7
  6
CONTINUOUS
 10
7.357898223
 20
5.2031540785
 11
7.348062422
 21
5.2054519385
  0
LINE
  5
493
100
AcDbEntity
  8
0
100
AcDbLine
 62
7
  6
CONTINUOUS
 10
5.7390822771
 20
5.753512489
 11
5.7490153554
 21
5.7511333847
  0
LINE
  5
494
100
AcDbEntity
  8
0
100
AcDbLine
 62
7
  6
CONTINUOUS
 10
5.2371597355
 20
5.8740190468
 11
5.2470902638
 21
5.871629321
  0
LINE
  5
495
100
AcDbEntity
  8
0
100
AcDbLine
 62
7
  6
CONTINUOUS
 10
6.8799126068
 20
5.2477138113
 11
6.8701176541
 21
5.2506095122
  0
LINE
  5
496
100
AcDbEntity
  8
0
100
AcDbLine
 62
7
  6
CONTINUOUS
 10
5.7523270816
 20
5.7362515237
 11
5.7621220343
 21
5.7333558228
  0
LINE
  5
497
100
AcDbEntity
  8
0
100
AcDbLine
 62
7
  6
CONTINUOUS
 10
6.9596412976
 20
5.3083322996
 11
6.9499576276
 21
5.3112045247
  0
LINE
  5
498
100
AcDbEntity
  8
0
100
AcDbLine
 62
7
  6
CONTINUOUS
 10
7.3748404551
 20
5.1011038074
 11
7.3650486048
 21
5.1040099817
  0
LINE
  5
499
100
AcDbEntity
  8
0
100
AcDbLine
 62
7
  6
CONTINUOUS
 10
5.2573992333
 20
5.8828615276
 11
5.2671910836
 21
5.8799553532
  0
LINE
  5
49A
100
AcDbEntity
  8
0
100
AcDbLine
 62
7
  6
CONTINUOUS
 10
7.3376337889
 20
5.1940608258
 11
7.3279799558
 21
5.1970317937
  0
LINE
  5
49B
100
AcDbEntity
  8
0
100
AcDbLine
 62
7
  6
CONTINUOUS
 10
6.8675893229
 20
5.2656443005
 11
6.8638034589
 21
5.2669826675
  0
LINE
  5
49C
100
AcDbEntity
  8
0
100
AcDbLine
 62
7
  6
CONTINUOUS
 10
5.7646503655
 20
5.7183210345
 11
5.7684362295
 21
5.7169826675
  0
LINE
  5
49D
100
AcDbEntity
  8
0
100
AcDbLine
 62
7
  6
CONTINUOUS
 10
7.3541659151
 20
5.0933326983
 11
7.3445395816
 21
5.0967473557
  0
LINE
  5
49E
100
AcDbEntity
  8
0
100
AcDbLine
 62
7
  6
CONTINUOUS
 10
5.2780737733
 20
5.8906326367
 11
5.2877001068
 21
5.8872179792
  0
LINE
  5
49F
100
AcDbEntity
  8
0
100
AcDbLine
 62
7
  6
CONTINUOUS
 10
6.9475821671
 20
5.3264646368
 11
6.9381197287
 21
5.3299981057
  0
LINE
  5
4A0
100
AcDbEntity
  8
0
100
AcDbLine
 62
7
  6
CONTINUOUS
 10
7.3167902854
 20
5.1863873063
 11
7.3073644253
 21
5.1900172242
  0
LINE
  5
4A1
100
AcDbEntity
  8
0
100
AcDbLine
 62
7
  6
CONTINUOUS
 10
5.299126688
 20
5.8973110739
 11
5.3085611195
 21
5.8933972927
  0
LINE
  5
4A2
100
AcDbEntity
  8
0
100
AcDbLine
 62
7
  6
CONTINUOUS
 10
7.3331130004
 20
5.0866542611
 11
7.3236785689
 21
5.0905680422
  0
LINE
  5
4A3
100
AcDbEntity
  8
0
100
AcDbLine
 62
7
  6
CONTINUOUS
 10
6.9368027409
 20
5.3453857429
 11
6.927606627
 21
5.3495636169
  0
LINE
  5
4A4
100
AcDbEntity
  8
0
100
AcDbLine
 62
7
  6
CONTINUOUS
 10
7.2954670415
 20
5.1801700879
 11
7.2863140728
 21
5.1844416576
  0
LINE
  5
4A5
100
AcDbEntity
  8
0
100
AcDbLine
 62
7
  6
CONTINUOUS
 10
5.3205002728
 20
5.9028785341
 11
5.3297169433
 21
5.8984763567
  0
LINE
  5
4A6
100
AcDbEntity
  8
0
100
AcDbLine
 62
7
  6
CONTINUOUS
 10
7.3117394156
 20
5.0810868009
 11
7.3025227451
 21
5.0854889783
  0
LINE
  5
4A7
100
AcDbEntity
  8
0
100
AcDbLine
 62
7
  6
CONTINUOUS
 10
5.3421359442
 20
5.9073197573
 11
5.3511095914
 21
5.9024412496
  0
LINE
  5
4A8
100
AcDbEntity
  8
0
100
AcDbLine
 62
7
  6
CONTINUOUS
 10
7.2901037442
 20
5.0766455777
 11
7.281130097
 21
5.0815240853
  0
LINE
  5
4A9
100
AcDbEntity
  8
0
100
AcDbLine
 62
7
  6
CONTINUOUS
 10
7.2682652881
 20
5.0733427646
 11
7.2595592603
 21
5.0786842308
  0
LINE
  5
4AA
100
AcDbEntity
  8
0
100
AcDbLine
 62
7
  6
CONTINUOUS
 10
7.0934808889
 20
5.088326623
 11
7.0877001068
 21
5.0967473557
  0
LINE
  5
4AB
100
AcDbEntity
  8
0
100
AcDbLine
 62
7
  6
CONTINUOUS
 10
7.0725232362
 20
5.0952982466
 11
7.0671910836
 21
5.1040099817
  0
LINE
  5
4AC
100
AcDbEntity
  8
0
100
AcDbLine
 62
7
  6
CONTINUOUS
 10
7.0519591719
 20
5.1033571546
 11
7.0470902638
 21
5.1123360139
  0
LINE
  5
4AD
100
AcDbEntity
  8
0
100
AcDbLine
 62
7
  6
CONTINUOUS
 10
6.9074130532
 20
5.5568580839
 11
6.9029841337
 21
5.565935959
  0
LINE
  5
4AE
100
AcDbEntity
  8
0
100
AcDbLine
 62
7
  6
CONTINUOUS
 10
7.0318450605
 20
5.1124812581
 11
7.0274527423
 21
5.1217026312
  0
LINE
  5
4AF
100
AcDbEntity
  8
0
100
AcDbLine
 62
7
  6
CONTINUOUS
 10
7.0787019337
 20
5.2010541877
 11
7.0743659512
 21
5.2101768189
  0
LINE
  5
4B0
100
AcDbEntity
  8
0
100
AcDbLine
 62
7
  6
CONTINUOUS
 10
7.0122360336
 20
5.1226455486
 11
7.0083323442
 21
5.1320841603
  0
LINE
  5
4B1
100
AcDbEntity
  8
0
100
AcDbLine
 62
7
  6
CONTINUOUS
 10
6.9126244466
 20
5.5780015383
 11
6.9088323731
 21
5.5873633395
  0
LINE
  5
4B2
100
AcDbEntity
  8
0
100
AcDbLine
 62
7
  6
CONTINUOUS
 10
7.0589578744
 20
5.2112280099
 11
7.0552616042
 21
5.2206280488
  0
LINE
  5
4B3
100
AcDbEntity
  8
0
100
AcDbLine
 62
7
  6
CONTINUOUS
 10
6.9931858379
 20
5.1338221665
 11
6.9897814772
 21
5.1434521462
  0
LINE
  5
4B4
100
AcDbEntity
  8
0
100
AcDbLine
 62
7
  6
CONTINUOUS
 10
6.9192821338
 20
5.5987350735
 11
6.9161449772
 21
5.6083361876
  0
LINE
  5
4B5
100
AcDbEntity
  8
0
100
AcDbLine
 62
7
  6
CONTINUOUS
 10
7.0399627634
 20
5.222739756
 11
7.0369238199
 21
5.232372407
  0
LINE
  5
4B6
100
AcDbEntity
  8
0
100
AcDbLine
 62
7
  6
CONTINUOUS
 10
7.5646503655
 20
5.2656443005
 11
7.5654571928
 21
5.255462198
  0
LINE
  5
4B7
100
AcDbEntity
  8
0
100
AcDbLine
 62
7
  6
CONTINUOUS
 10
7.5241563173
 20
5.7802395787
 11
7.5249522551
 21
5.7700566192
  0
LINE
  5
4B8
100
AcDbEntity
  8
0
100
AcDbLine
 62
7
  6
CONTINUOUS
 10
3.7578737372
 20
5.7737885161
 11
3.7677829908
 21
5.775745513
  0
LINE
  5
4B9
100
AcDbEntity
  8
0
100
AcDbLine
 62
7
  6
CONTINUOUS
 10
3.3700734064
 20
5.6993090116
 11
3.3800021287
 21
5.70116471
  0
LINE
  5
4BA
100
AcDbEntity
  8
0
100
AcDbLine
 62
7
  6
CONTINUOUS
 10
3.8239073442
 20
5.8518811747
 11
3.8340332664
 21
5.8532197864
  0
LINE
  5
4BB
100
AcDbEntity
  8
0
100
AcDbLine
 62
7
  6
CONTINUOUS
 10
3.3121365957
 20
5.7845107862
 11
3.3222639436
 21
5.7858385681
  0
LINE
  5
4BC
100
AcDbEntity
  8
0
100
AcDbLine
 62
7
  6
CONTINUOUS
 10
3.7769780843
 20
5.7633372862
 11
3.7869987422
 21
5.7646059693
  0
LINE
  5
4BD
100
AcDbEntity
  8
0
100
AcDbLine
 62
7
  6
CONTINUOUS
 10
3.3849633498
 20
5.7157900347
 11
3.3949964414
 21
5.7169563176
  0
LINE
  5
4BE
100
AcDbEntity
  8
0
100
AcDbLine
 62
7
  6
CONTINUOUS
 10
3.8424582112
 20
5.8405131888
 11
3.8526403137
 21
5.8413200161
  0
LINE
  5
4BF
100
AcDbEntity
  8
0
100
AcDbLine
 62
7
  6
CONTINUOUS
 10
3.327862933
 20
5.8000191406
 11
3.3380458925
 21
5.8008150783
  0
LINE
  5
4C0
100
AcDbEntity
  8
0
100
AcDbLine
 62
7
  6
CONTINUOUS
 10
3.7953158686
 20
5.751592928
 11
3.8054001779
 21
5.7521672515
  0
LINE
  5
4C1
100
AcDbEntity
  8
0
100
AcDbLine
 62
7
  6
CONTINUOUS
 10
3.8603887004
 20
5.8281899049
 11
3.8705990748
 21
5.8284627365
  0
LINE
  5
4C2
100
AcDbEntity
  8
0
100
AcDbLine
 62
7
  6
CONTINUOUS
 10
3.3443793624
 20
5.8146831884
 11
3.3545900227
 21
5.8149451004
  0
LINE
  5
4C3
100
AcDbEntity
  8
0
100
AcDbLine
 62
7
  6
CONTINUOUS
 10
7.4776496657
 20
5.8149451004
 11
7.487860326
 21
5.8146831884
  0
LINE
  5
4C4
100
AcDbEntity
  8
0
100
AcDbLine
 62
7
  6
CONTINUOUS
 10
6.9616406136
 20
5.8284627365
 11
6.971850988
 21
5.8281899049
  0
LINE
  5
4C5
100
AcDbEntity
  8
0
100
AcDbLine
 62
7
  6
CONTINUOUS
 10
7.0268395105
 20
5.7521672515
 11
7.0369238199
 21
5.751592928
  0
LINE
  5
4C6
100
AcDbEntity
  8
0
100
AcDbLine
 62
7
  6
CONTINUOUS
 10
7.4941937959
 20
5.8008150783
 11
7.5043767555
 21
5.8000191406
  0
LINE
  5
4C7
100
AcDbEntity
  8
0
100
AcDbLine
 62
7
  6
CONTINUOUS
 10
6.9795993747
 20
5.8413200161
 11
6.9897814772
 21
5.8405131888
  0
LINE
  5
4C8
100
AcDbEntity
  8
0
100
AcDbLine
 62
7
  6
CONTINUOUS
 10
7.437243247
 20
5.7169563176
 11
7.4472763386
 21
5.7157900347
  0
LINE
  5
4C9
100
AcDbEntity
  8
0
100
AcDbLine
 62
7
  6
CONTINUOUS
 10
7.0452409462
 20
5.7646059693
 11
7.0552616042
 21
5.7633372862
  0
LINE
  5
4CA
100
AcDbEntity
  8
0
100
AcDbLine
 62
7
  6
CONTINUOUS
 10
7.5099757448
 20
5.7858385681
 11
7.5201030928
 21
5.7845107862
  0
LINE
  5
4CB
100
AcDbEntity
  8
0
100
AcDbLine
 62
7
  6
CONTINUOUS
 10
6.998206422
 20
5.8532197864
 11
7.0083323442
 21
5.8518811747
  0
LINE
  5
4CC
100
AcDbEntity
  8
0
100
AcDbLine
 62
7
  6
CONTINUOUS
 10
7.4522375597
 20
5.70116471
 11
7.462166282
 21
5.6993090116
  0
LINE
  5
4CD
100
AcDbEntity
  8
0
100
AcDbLine
 62
7
  6
CONTINUOUS
 10
7.0644566976
 20
5.775745513
 11
7.0743659512
 21
5.7737885161
  0
LINE
  5
4CE
100
AcDbEntity
  8
0
100
AcDbLine
 62
7
  6
CONTINUOUS
 10
6.9273543879
 20
5.36500545
 11
6.9184684221
 21
5.3698078197
  0
LINE
  5
4CF
100
AcDbEntity
  8
0
100
AcDbLine
 62
7
  6
CONTINUOUS
 10
7.273765672
 20
5.1754387984
 11
7.2649292129
 21
5.1803316639
  0
LINE
  5
4D0
100
AcDbEntity
  8
0
100
AcDbLine
 62
7
  6
CONTINUOUS
 10
6.9192821338
 20
5.3852302615
 11
6.9107486618
 21
5.3906342414
  0
LINE
  5
4D1
100
AcDbEntity
  8
0
100
AcDbLine
 62
7
  6
CONTINUOUS
 10
7.2517895939
 20
5.1722159847
 11
7.243311754
 21
5.1777068292
  0
LINE
  5
4D2
100
AcDbEntity
  8
0
100
AcDbLine
 62
7
  6
CONTINUOUS
 10
7.246283905
 20
5.0711874144
 11
7.2378693592
 21
5.0769771986
  0
LINE
  5
4D3
100
AcDbEntity
  8
0
100
AcDbLine
 62
7
  6
CONTINUOUS
 10
6.9126244466
 20
5.4059637967
 11
6.9044841343
 21
5.4119436344
  0
LINE
  5
4D4
100
AcDbEntity
  8
0
100
AcDbLine
 62
7
  6
CONTINUOUS
 10
7.2296435333
 20
5.1705170047
 11
7.2215647134
 21
5.176579662
  0
LINE
  5
4D5
100
AcDbEntity
  8
0
100
AcDbLine
 62
7
  6
CONTINUOUS
 10
7.2242198442
 20
5.0701854347
 11
7.2161198442
 21
5.0764076675
  0
LINE
  5
4D6
100
AcDbEntity
  8
0
100
AcDbLine
 62
7
  6
CONTINUOUS
 10
6.9074130532
 20
5.4271072511
 11
6.8997046929
 21
5.4336344499
  0
LINE
  5
4D7
100
AcDbEntity
  8
0
100
AcDbLine
 62
7
  6
CONTINUOUS
 10
7.2021335819
 20
5.0703395719
 11
7.1943703292
 21
5.0769771986
  0
LINE
  5
4D8
100
AcDbEntity
  8
0
100
AcDbLine
 62
7
  6
CONTINUOUS
 10
7.207433026
 20
5.1703499551
 11
7.1997917254
 21
5.1769555337
  0
LINE
  5
4D9
100
AcDbEntity
  8
0
100
AcDbLine
 62
7
  6
CONTINUOUS
 10
7.180085655
 20
5.0716494035
 11
7.1726804281
 21
5.0786842308
  0
LINE
  5
4DA
100
AcDbEntity
  8
0
100
AcDbLine
 62
7
  6
CONTINUOUS
 10
6.9036727882
 20
5.4485598663
 11
6.8964331137
 21
5.4556033212
  0
LINE
  5
4DB
100
AcDbEntity
  8
0
100
AcDbLine
 62
7
  6
CONTINUOUS
 10
7.1852639154
 20
5.1717156318
 11
7.1780965484
 21
5.1788326532
  0
LINE
  5
4DC
100
AcDbEntity
  8
0
100
AcDbLine
 62
7
  6
CONTINUOUS
 10
7.1581364953
 20
5.0741113394
 11
7.1511095914
 21
5.0815240853
  0
LINE
  5
4DD
100
AcDbEntity
  8
0
100
AcDbLine
 62
7
  6
CONTINUOUS
 10
6.9014214757
 20
5.470219411
 11
6.8946849874
 21
5.4777455567
  0
LINE
  5
4DE
100
AcDbEntity
  8
0
100
AcDbLine
 62
7
  6
CONTINUOUS
 10
7.1632418474
 20
5.1746075268
 11
7.1565825697
 21
5.1822020751
  0
LINE
  5
4DF
100
AcDbEntity
  8
0
100
AcDbLine
 62
7
  6
CONTINUOUS
 10
7.1363462639
 20
5.0777186315
 11
7.1297169433
 21
5.0854889783
  0
LINE
  5
4E0
100
AcDbEntity
  8
0
100
AcDbLine
 62
7
  6
CONTINUOUS
 10
6.9006698442
 20
5.4919826675
 11
6.8944686446
 21
5.4999556385
  0
LINE
  5
4E1
100
AcDbEntity
  8
0
100
AcDbLine
 62
7
  6
CONTINUOUS
 10
7.1147746864
 20
5.0824613926
 11
7.1085611195
 21
5.0905680422
  0
LINE
  5
4E2
100
AcDbEntity
  8
0
100
AcDbLine
 62
7
  6
CONTINUOUS
 10
7.1414717671
 20
5.1790118588
 11
7.1353523133
 21
5.1870477426
  0
LINE
  5
4E3
100
AcDbEntity
  8
0
100
AcDbLine
 62
7
  6
CONTINUOUS
 10
6.9014214757
 20
5.513745924
 11
6.8957851162
 21
5.5221277254
  0
LINE
  5
4E4
100
AcDbEntity
  8
0
100
AcDbLine
 62
7
  6
CONTINUOUS
 10
7.1200574189
 20
5.1849076393
 11
7.1145069508
 21
5.1933465638
  0
LINE
  5
4E5
100
AcDbEntity
  8
0
100
AcDbLine
 62
7
  6
CONTINUOUS
 10
6.9036727882
 20
5.5354054687
 11
6.8986281287
 21
5.5441561574
  0
LINE
  5
4E6
100
AcDbEntity
  8
0
100
AcDbLine
 62
7
  6
CONTINUOUS
 10
7.0991008519
 20
5.1922667721
 11
7.0941458201
 21
5.2010685222
  0
LINE
  5
4E7
100
AcDbEntity
  8
0
100
AcDbLine
 62
7
  6
CONTINUOUS
 10
7.5090960002
 20
5.3750481792
 11
7.5118998941
 21
5.3653445035
  0
LINE
  5
4E8
100
AcDbEntity
  8
0
100
AcDbLine
 62
7
  6
CONTINUOUS
 10
7.4014651859
 20
5.7549848858
 11
7.4041698368
 21
5.7452530819
  0
LINE
  5
4E9
100
AcDbEntity
  8
0
100
AcDbLine
 62
7
  6
CONTINUOUS
 10
7.5003304736
 20
5.355114042
 11
7.502458219
 21
5.3452400437
  0
LINE
  5
4EA
100
AcDbEntity
  8
0
100
AcDbLine
 62
7
  6
CONTINUOUS
 10
7.4191683824
 20
5.7415710359
 11
7.4211951806
 21
5.7316758233
  0
LINE
  5
4EB
100
AcDbEntity
  8
0
100
AcDbLine
 62
7
  6
CONTINUOUS
 10
7.5863998805
 20
5.3033155656
 11
7.5882666075
 21
5.2932735781
  0
LINE
  5
4EC
100
AcDbEntity
  8
0
100
AcDbLine
 62
7
  6
CONTINUOUS
 10
7.4923378093
 20
5.8108590564
 11
7.4941937959
 21
5.8008150783
  0
LINE
  5
4ED
100
AcDbEntity
  8
0
100
AcDbLine
 62
7
  6
CONTINUOUS
 10
7.4902105539
 20
5.3358321461
 11
7.491652011
 21
5.3258348792
  0
LINE
  5
4EE
100
AcDbEntity
  8
0
100
AcDbLine
 62
7
  6
CONTINUOUS
 10
7.4359039602
 20
5.7269677837
 11
7.437243247
 21
5.7169563176
  0
LINE
  5
4EF
100
AcDbEntity
  8
0
100
AcDbLine
 62
7
  6
CONTINUOUS
 10
7.5760183514
 20
5.2841951675
 11
7.5773569631
 21
5.2740692453
  0
LINE
  5
4F0
100
AcDbEntity
  8
0
100
AcDbLine
 62
7
  6
CONTINUOUS
 10
7.5086479629
 20
5.795965916
 11
7.5099757448
 21
5.7858385681
  0
LINE
  5
4F1
100
AcDbEntity
  8
0
100
AcDbLine
 62
7
  6
CONTINUOUS
 10
3.7380938683
 20
5.7828968128
 11
3.7478444953
 21
5.7855327974
  0
LINE
  5
4F2
100
AcDbEntity
  8
0
100
AcDbLine
 62
7
  6
CONTINUOUS
 10
3.3563559863
 20
5.681839984
 11
3.3661330244
 21
5.6843762548
  0
LINE
  5
4F3
100
AcDbEntity
  8
0
100
AcDbLine
 62
7
  6
CONTINUOUS
 10
3.7851494247
 20
5.871629321
 11
3.795079953
 21
5.8740190468
  0
LINE
  5
4F4
100
AcDbEntity
  8
0
100
AcDbLine
 62
7
  6
CONTINUOUS
 10
3.283224333
 20
5.7511333847
 11
3.2931574113
 21
5.753512489
  0
LINE
  5
4F5
100
AcDbEntity
  8
0
100
AcDbLine
 62
7
  6
CONTINUOUS
 10
3.8047869461
 20
5.8622627038
 11
3.8148289336
 21
5.8641294308
  0
LINE
  5
4F6
100
AcDbEntity
  8
0
100
AcDbLine
 62
7
  6
CONTINUOUS
 10
3.2972434553
 20
5.7682006326
 11
3.3072874334
 21
5.7700566192
  0
LINE
  5
4F7
100
AcDbEntity
  8
0
100
AcDbLine
 62
7
  6
CONTINUOUS
 10
7.5249522551
 20
5.7700566192
 11
7.5349962331
 21
5.7682006326
  0
LINE
  5
4F8
100
AcDbEntity
  8
0
100
AcDbLine
 62
7
  6
CONTINUOUS
 10
7.0174107548
 20
5.8641294308
 11
7.0274527423
 21
5.8622627038
  0
LINE
  5
4F9
100
AcDbEntity
  8
0
100
AcDbLine
 62
7
  6
CONTINUOUS
 10
7.5390822771
 20
5.753512489
 11
7.5490153554
 21
5.7511333847
  0
LINE
  5
4FA
100
AcDbEntity
  8
0
100
AcDbLine
 62
7
  6
CONTINUOUS
 10
7.0371597355
 20
5.8740190468
 11
7.0470902638
 21
5.871629321
  0
LINE
  5
4FB
100
AcDbEntity
  8
0
100
AcDbLine
 62
7
  6
CONTINUOUS
 10
7.466106664
 20
5.6843762548
 11
7.4758837021
 21
5.681839984
  0
LINE
  5
4FC
100
AcDbEntity
  8
0
100
AcDbLine
 62
7
  6
CONTINUOUS
 10
7.0843951931
 20
5.7855327974
 11
7.0941458201
 21
5.7828968128
  0
LINE
  5
4FD
100
AcDbEntity
  8
0
100
AcDbLine
 62
7
  6
CONTINUOUS
 10
7.5523270816
 20
5.7362515237
 11
7.5621220343
 21
5.7333558228
  0
LINE
  5
4FE
100
AcDbEntity
  8
0
100
AcDbLine
 62
7
  6
CONTINUOUS
 10
7.0573992333
 20
5.8828615276
 11
7.0671910836
 21
5.8799553532
  0
LINE
  5
4FF
100
AcDbEntity
  8
0
100
AcDbLine
 62
7
  6
CONTINUOUS
 10
7.4787844672
 20
5.6666709565
 11
7.4883632291
 21
5.6634661999
  0
LINE
  5
500
100
AcDbEntity
  8
0
100
AcDbLine
 62
7
  6
CONTINUOUS
 10
7.1049614164
 20
5.7939211818
 11
7.1145069508
 21
5.7906187711
  0
LINE
  5
501
100
AcDbEntity
  8
0
100
AcDbLine
 62
7
  6
CONTINUOUS
 10
7.5646503655
 20
5.7183210345
 11
7.5742803452
 21
5.7149166738
  0
LINE
  5
502
100
AcDbEntity
  8
0
100
AcDbLine
 62
7
  6
CONTINUOUS
 10
7.0780737733
 20
5.8906326367
 11
7.0877001068
 21
5.8872179792
  0
LINE
  5
503
100
AcDbEntity
  8
0
100
AcDbLine
 62
7
  6
CONTINUOUS
 10
7.4902105539
 20
5.6481331889
 11
7.4995453924
 21
5.6442752187
  0
LINE
  5
504
100
AcDbEntity
  8
0
100
AcDbLine
 62
7
  6
CONTINUOUS
 10
7.5760183514
 20
5.6997701675
 11
7.5854569631
 21
5.6958664781
  0
LINE
  5
505
100
AcDbEntity
  8
0
100
AcDbLine
 62
7
  6
CONTINUOUS
 10
7.099126688
 20
5.8973110739
 11
7.1085611195
 21
5.8933972927
  0
LINE
  5
506
100
AcDbEntity
  8
0
100
AcDbLine
 62
7
  6
CONTINUOUS
 10
7.1260573604
 20
5.8008706917
 11
7.1353523133
 21
5.7969175924
  0
LINE
  5
507
100
AcDbEntity
  8
0
100
AcDbLine
 62
7
  6
CONTINUOUS
 10
7.5003304736
 20
5.628851293
 11
7.5093769039
 21
5.6243584941
  0
LINE
  5
508
100
AcDbEntity
  8
0
100
AcDbLine
 62
7
  6
CONTINUOUS
 10
7.147582493
 20
5.8063482095
 11
7.1565825697
 21
5.8017632599
  0
LINE
  5
509
100
AcDbEntity
  8
0
100
AcDbLine
 62
7
  6
CONTINUOUS
 10
7.3227240742
 20
5.7955590181
 11
7.3279799558
 21
5.7869335412
  0
LINE
  5
50A
100
AcDbEntity
  8
0
100
AcDbLine
 62
7
  6
CONTINUOUS
 10
7.3434141452
 20
5.7874809305
 11
7.348062422
 21
5.7785133965
  0
LINE
  5
50B
100
AcDbEntity
  8
0
100
AcDbLine
 62
7
  6
CONTINUOUS
 10
7.4003946279
 20
5.8714840769
 11
7.4047869461
 21
5.8622627038
  0
LINE
  5
50C
100
AcDbEntity
  8
0
100
AcDbLine
 62
7
  6
CONTINUOUS
 10
7.3634976008
 20
5.7779946591
 11
7.3675161216
 21
5.7687278024
  0
LINE
  5
50D
100
AcDbEntity
  8
0
100
AcDbLine
 62
7
  6
CONTINUOUS
 10
7.4200036549
 20
5.8613197864
 11
7.4239073442
 21
5.8518811747
  0
LINE
  5
50E
100
AcDbEntity
  8
0
100
AcDbLine
 62
7
  6
CONTINUOUS
 10
7.5164653619
 20
5.3955395625
 11
7.5199320427
 21
5.3860524519
  0
LINE
  5
50F
100
AcDbEntity
  8
0
100
AcDbLine
 62
7
  6
CONTINUOUS
 10
7.3828787344
 20
5.7671454103
 11
7.3862483491
 21
5.7576233916
  0
LINE
  5
510
100
AcDbEntity
  8
0
100
AcDbLine
 62
7
  6
CONTINUOUS
 10
7.4390538505
 20
5.8501431685
 11
7.4424582112
 21
5.8405131888
  0
LINE
  5
511
100
AcDbEntity
  8
0
100
AcDbLine
 62
7
  6
CONTINUOUS
 10
7.4574929995
 20
5.8379848576
 11
7.4603887004
 21
5.8281899049
  0
LINE
  5
512
100
AcDbEntity
  8
0
100
AcDbLine
 62
7
  6
CONTINUOUS
 10
7.5957664978
 20
5.322953087
 11
7.5981562235
 21
5.3130225587
  0
LINE
  5
513
100
AcDbEntity
  8
0
100
AcDbLine
 62
7
  6
CONTINUOUS
 10
7.4752705614
 20
5.8248781787
 11
7.4776496657
 21
5.8149451004
  0
LINE
  5
514
100
AcDbEntity
  8
0
100
AcDbLine
 62
7
  6
CONTINUOUS
 10
7.5863998805
 20
5.6806497694
 11
7.5956212536
 21
5.6762574512
  0
LINE
  5
515
100
AcDbEntity
  8
0
100
AcDbLine
 62
7
  6
CONTINUOUS
 10
7.1205002728
 20
5.9028785341
 11
7.1297169433
 21
5.8984763567
  0
LINE
  5
516
100
AcDbEntity
  8
0
100
AcDbLine
 62
7
  6
CONTINUOUS
 10
7.5957664978
 20
5.6610122479
 11
7.6047453571
 21
5.6561433398
  0
LINE
  5
517
100
AcDbEntity
  8
0
100
AcDbLine
 62
7
  6
CONTINUOUS
 10
7.1421359442
 20
5.9073197573
 11
7.1511095914
 21
5.9024412496
  0
LINE
  5
518
100
AcDbEntity
  8
0
100
AcDbLine
 62
7
  6
CONTINUOUS
 10
7.5090960002
 20
5.6089171558
 11
7.5178109119
 21
5.6038109384
  0
LINE
  5
519
100
AcDbEntity
  8
0
100
AcDbLine
 62
7
  6
CONTINUOUS
 10
7.1694342374
 20
5.8103276323
 11
7.1780965484
 21
5.8051326818
  0
LINE
  5
51A
100
AcDbEntity
  8
0
100
AcDbLine
 62
7
  6
CONTINUOUS
 10
7.1639744003
 20
5.9106225704
 11
7.1726804281
 21
5.9052811042
  0
LINE
  5
51B
100
AcDbEntity
  8
0
100
AcDbLine
 62
7
  6
CONTINUOUS
 10
7.5164653619
 20
5.5884257724
 11
7.5248072246
 21
5.58273047
  0
LINE
  5
51C
100
AcDbEntity
  8
0
100
AcDbLine
 62
7
  6
CONTINUOUS
 10
7.1859557835
 20
5.9127779206
 11
7.1943703292
 21
5.9069881364
  0
LINE
  5
51D
100
AcDbEntity
  8
0
100
AcDbLine
 62
7
  6
CONTINUOUS
 10
7.1915084599
 20
5.8127899964
 11
7.1997917254
 21
5.8070098013
  0
LINE
  5
51E
100
AcDbEntity
  8
0
100
AcDbLine
 62
7
  6
CONTINUOUS
 10
7.2080198442
 20
5.9137799003
 11
7.2161198442
 21
5.9075576675
  0
LINE
  5
51F
100
AcDbEntity
  8
0
100
AcDbLine
 62
7
  6
CONTINUOUS
 10
7.2136999669
 20
5.8137235674
 11
7.2215647134
 21
5.807385673
  0
LINE
  5
520
100
AcDbEntity
  8
0
100
AcDbLine
 62
7
  6
CONTINUOUS
 10
7.2301061065
 20
5.9136257631
 11
7.2378693592
 21
5.9069881364
  0
LINE
  5
521
100
AcDbEntity
  8
0
100
AcDbLine
 62
7
  6
CONTINUOUS
 10
7.2359030057
 20
5.8131238966
 11
7.243311754
 21
5.8062585058
  0
LINE
  5
522
100
AcDbEntity
  8
0
100
AcDbLine
 62
7
  6
CONTINUOUS
 10
7.2521540334
 20
5.9123159315
 11
7.2595592603
 21
5.9052811042
  0
LINE
  5
523
100
AcDbEntity
  8
0
100
AcDbLine
 62
7
  6
CONTINUOUS
 10
7.2741031931
 20
5.9098539956
 11
7.281130097
 21
5.9024412496
  0
LINE
  5
524
100
AcDbEntity
  8
0
100
AcDbLine
 62
7
  6
CONTINUOUS
 10
7.2580117687
 20
5.8109938415
 11
7.2649292129
 21
5.8036336711
  0
LINE
  5
525
100
AcDbEntity
  8
0
100
AcDbLine
 62
7
  6
CONTINUOUS
 10
7.2958934245
 20
5.9062467035
 11
7.3025227451
 21
5.8984763567
  0
LINE
  5
526
100
AcDbEntity
  8
0
100
AcDbLine
 62
7
  6
CONTINUOUS
 10
7.2799208976
 20
5.807343553
 11
7.2863140728
 21
5.7995236774
  0
LINE
  5
527
100
AcDbEntity
  8
0
100
AcDbLine
 62
7
  6
CONTINUOUS
 10
7.317465002
 20
5.9015039424
 11
7.3236785689
 21
5.8933972927
  0
LINE
  5
528
100
AcDbEntity
  8
0
100
AcDbLine
 62
7
  6
CONTINUOUS
 10
7.3015259855
 20
5.8021904262
 11
7.3073644253
 21
5.7939481107
  0
LINE
  5
529
100
AcDbEntity
  8
0
100
AcDbLine
 62
7
  6
CONTINUOUS
 10
7.3387587996
 20
5.895638712
 11
7.3445395816
 21
5.8872179792
  0
LINE
  5
52A
100
AcDbEntity
  8
0
100
AcDbLine
 62
7
  6
CONTINUOUS
 10
7.3597164522
 20
5.8886670884
 11
7.3650486048
 21
5.8799553532
  0
LINE
  5
52B
100
AcDbEntity
  8
0
100
AcDbLine
 62
7
  6
CONTINUOUS
 10
7.3802805165
 20
5.8806081804
 11
7.3851494247
 21
5.871629321
  0
LINE
  5
52C
100
AcDbEntity
  8
0
100
AcDbLine
 62
7
  6
CONTINUOUS
 10
8.7843698442
 20
5.3468576675
 11
8.7843698442
 21
5.6371076675
  0
LINE
  5
52D
100
AcDbEntity
  8
0
100
AcDbLine
 62
7
  6
CONTINUOUS
 10
8.8383698442
 20
5.3468576675
 11
8.8383698442
 21
5.6371076675
  0
ARC
  5
52E
100
AcDbEntity
  8
0
100
AcDbCircle
 62
7
  6
CONTINUOUS
 10
5.414944708
 20
1.8169574017
 40
0.2552101423
100
AcDbArc
 50
179.9999994761
 51
180.4836909428
  0
ARC
  5
52F
100
AcDbEntity
  8
0
100
AcDbCircle
 62
7
  6
CONTINUOUS
 10
2.0208698442
 20
5.3468576675
 40
0.027
100
AcDbArc
 50
180.0
 51
360.0
  0
ARC
  5
530
100
AcDbEntity
  8
0
100
AcDbCircle
 62
7
  6
CONTINUOUS
 10
2.0208698442
 20
5.6371076675
 40
0.027
100
AcDbArc
 50
0.0
 51
180.0
  0
ARC
  5
531
100
AcDbEntity
  8
0
100
AcDbCircle
 62
9
  6
CONTINUOUS
 10
3.6962676315
 20
5.4919099167
 40
0.2371029204
100
AcDbArc
 50
4.7269744336
 51
5.7703685142
  0
ARC
  5
532
100
AcDbEntity
  8
0
100
AcDbCircle
 62
9
  6
CONTINUOUS
 10
3.6993854404
 20
5.4919789387
 40
0.2339844039
100
AcDbArc
 50
0.0009130593
 51
0.5604213961
  0
ARC
  5
533
100
AcDbEntity
  8
0
100
AcDbCircle
 62
7
  6
CONTINUOUS
 10
3.2988698442
 20
5.3526565311
 40
0.0340261364
100
AcDbArc
 50
90.0
 51
172.6955544394
  0
ARC
  5
534
100
AcDbEntity
  8
0
100
AcDbCircle
 62
7
  6
CONTINUOUS
 10
3.2369948442
 20
5.3569826675
 40
0.028125
100
AcDbArc
 50
180.0
 51
360.0
  0
ARC
  5
535
100
AcDbEntity
  8
0
100
AcDbCircle
 62
7
  6
CONTINUOUS
 10
3.2988698442
 20
5.6313088039
 40
0.0340261364
100
AcDbArc
 50
187.3044455606
 51
270.0
  0
ARC
  5
536
100
AcDbEntity
  8
0
100
AcDbCircle
 62
7
  6
CONTINUOUS
 10
3.2369948442
 20
5.6269826675
 40
0.028125
100
AcDbArc
 50
0.0
 51
180.0
  0
ARC
  5
537
100
AcDbEntity
  8
0
100
AcDbCircle
 62
7
  6
CONTINUOUS
 10
3.6161198442
 20
5.4919826675
 40
0.421875
100
AcDbArc
 50
32.2323680509
 51
40.0000516631
  0
ARC
  5
538
100
AcDbEntity
  8
0
100
AcDbCircle
 62
7
  6
CONTINUOUS
 10
3.6161198442
 20
5.4919826675
 40
0.421875
100
AcDbArc
 50
40.1001465667
 51
43.8998534333
  0
ARC
  5
539
100
AcDbEntity
  8
0
100
AcDbCircle
 62
7
  6
CONTINUOUS
 10
3.6161198442
 20
5.4919826675
 40
0.421875
100
AcDbArc
 50
43.9998475319
 51
52.0001773904
  0
ARC
  5
53A
100
AcDbEntity
  8
0
100
AcDbCircle
 62
7
  6
CONTINUOUS
 10
3.6161198442
 20
5.4919826675
 40
0.421875
100
AcDbArc
 50
52.1001465667
 51
55.8998534333
  0
ARC
  5
53B
100
AcDbEntity
  8
0
100
AcDbCircle
 62
7
  6
CONTINUOUS
 10
3.6161198442
 20
5.4919826675
 40
0.421875
100
AcDbArc
 50
56.0000714604
 51
63.9998746033
  0
ARC
  5
53C
100
AcDbEntity
  8
0
100
AcDbCircle
 62
7
  6
CONTINUOUS
 10
3.6161198442
 20
5.4919826675
 40
0.421875
100
AcDbArc
 50
64.1001465667
 51
67.8998534333
  0
ARC
  5
53D
100
AcDbEntity
  8
0
100
AcDbCircle
 62
7
  6
CONTINUOUS
 10
3.6161198442
 20
5.4919826675
 40
0.421875
100
AcDbArc
 50
68.0001704055
 51
75.9998753473
  0
ARC
  5
53E
100
AcDbEntity
  8
0
100
AcDbCircle
 62
7
  6
CONTINUOUS
 10
3.6161198442
 20
5.4919826675
 40
0.421875
100
AcDbArc
 50
76.1001465667
 51
79.8998534333
  0
ARC
  5
53F
100
AcDbEntity
  8
0
100
AcDbCircle
 62
7
  6
CONTINUOUS
 10
3.6161198442
 20
5.4919826675
 40
0.421875
100
AcDbArc
 50
79.9998553433
 51
88.0001082032
  0
ARC
  5
540
100
AcDbEntity
  8
0
100
AcDbCircle
 62
7
  6
CONTINUOUS
 10
3.6161198442
 20
5.4919826675
 40
0.421875
100
AcDbArc
 50
88.1001465667
 51
91.8998534333
  0
ARC
  5
541
100
AcDbEntity
  8
0
100
AcDbCircle
 62
7
  6
CONTINUOUS
 10
3.6161198442
 20
5.4919826675
 40
0.421875
100
AcDbArc
 50
91.9998917968
 51
100.0001446567
  0
ARC
  5
542
100
AcDbEntity
  8
0
100
AcDbCircle
 62
7
  6
CONTINUOUS
 10
3.6161198442
 20
5.4919826675
 40
0.421875
100
AcDbArc
 50
100.1001465667
 51
103.8998534333
  0
ARC
  5
543
100
AcDbEntity
  8
0
100
AcDbCircle
 62
7
  6
CONTINUOUS
 10
3.6161198442
 20
5.4919826675
 40
0.421875
100
AcDbArc
 50
104.0001246527
 51
111.9998295945
  0
ARC
  5
544
100
AcDbEntity
  8
0
100
AcDbCircle
 62
7
  6
CONTINUOUS
 10
3.6161198442
 20
5.4919826675
 40
0.421875
100
AcDbArc
 50
112.1001465667
 51
115.8998534333
  0
ARC
  5
545
100
AcDbEntity
  8
0
100
AcDbCircle
 62
7
  6
CONTINUOUS
 10
3.6161198442
 20
5.4919826675
 40
0.421875
100
AcDbArc
 50
116.0001253967
 51
123.9999285396
  0
ARC
  5
546
100
AcDbEntity
  8
0
100
AcDbCircle
 62
7
  6
CONTINUOUS
 10
3.6161198442
 20
5.4919826675
 40
0.421875
100
AcDbArc
 50
124.1001465667
 51
127.8998534333
  0
ARC
  5
547
100
AcDbEntity
  8
0
100
AcDbCircle
 62
7
  6
CONTINUOUS
 10
3.6161198442
 20
5.4919826675
 40
0.421875
100
AcDbArc
 50
127.9998226096
 51
136.0001524681
  0
ARC
  5
548
100
AcDbEntity
  8
0
100
AcDbCircle
 62
7
  6
CONTINUOUS
 10
3.6161198442
 20
5.4919826675
 40
0.421875
100
AcDbArc
 50
136.1001465667
 51
139.8998534333
  0
ARC
  5
549
100
AcDbEntity
  8
0
100
AcDbCircle
 62
7
  6
CONTINUOUS
 10
3.6161198442
 20
5.4919826675
 40
0.421875
100
AcDbArc
 50
139.9999483369
 51
148.0000728656
  0
ARC
  5
54A
100
AcDbEntity
  8
0
100
AcDbCircle
 62
7
  6
CONTINUOUS
 10
3.6161198442
 20
5.4919826675
 40
0.421875
100
AcDbArc
 50
148.1001465667
 51
151.8998534333
  0
ARC
  5
54B
100
AcDbEntity
  8
0
100
AcDbCircle
 62
7
  6
CONTINUOUS
 10
3.6161198442
 20
5.4919826675
 40
0.421875
100
AcDbArc
 50
152.000163338
 51
157.5755226362
  0
ARC
  5
54C
100
AcDbEntity
  8
0
100
AcDbCircle
 62
7
  6
CONTINUOUS
 10
3.6161198442
 20
5.4919826675
 40
0.421875
100
AcDbArc
 50
319.9999483369
 51
327.7676319491
  0
ARC
  5
54D
100
AcDbEntity
  8
0
100
AcDbCircle
 62
7
  6
CONTINUOUS
 10
3.6161198442
 20
5.4919826675
 40
0.421875
100
AcDbArc
 50
316.1001465667
 51
319.8998534333
  0
ARC
  5
54E
100
AcDbEntity
  8
0
100
AcDbCircle
 62
7
  6
CONTINUOUS
 10
3.6161198442
 20
5.4919826675
 40
0.421875
100
AcDbArc
 50
307.9998226096
 51
316.0001524681
  0
ARC
  5
54F
100
AcDbEntity
  8
0
100
AcDbCircle
 62
7
  6
CONTINUOUS
 10
3.6161198442
 20
5.4919826675
 40
0.421875
100
AcDbArc
 50
304.1001465667
 51
307.8998534333
  0
ARC
  5
550
100
AcDbEntity
  8
0
100
AcDbCircle
 62
7
  6
CONTINUOUS
 10
3.6161198442
 20
5.4919826675
 40
0.421875
100
AcDbArc
 50
296.0001253967
 51
303.9999285396
  0
ARC
  5
551
100
AcDbEntity
  8
0
100
AcDbCircle
 62
7
  6
CONTINUOUS
 10
3.6161198442
 20
5.4919826675
 40
0.421875
100
AcDbArc
 50
292.1001465667
 51
295.8998534333
  0
ARC
  5
552
100
AcDbEntity
  8
0
100
AcDbCircle
 62
7
  6
CONTINUOUS
 10
3.6161198442
 20
5.4919826675
 40
0.421875
100
AcDbArc
 50
284.0001246527
 51
291.9998295945
  0
ARC
  5
553
100
AcDbEntity
  8
0
100
AcDbCircle
 62
7
  6
CONTINUOUS
 10
3.6161198442
 20
5.4919826675
 40
0.421875
100
AcDbArc
 50
280.1001465667
 51
283.8998534333
  0
ARC
  5
554
100
AcDbEntity
  8
0
100
AcDbCircle
 62
7
  6
CONTINUOUS
 10
3.6161198442
 20
5.4919826675
 40
0.421875
100
AcDbArc
 50
271.9998917968
 51
280.0001446567
  0
ARC
  5
555
100
AcDbEntity
  8
0
100
AcDbCircle
 62
7
  6
CONTINUOUS
 10
3.6161198442
 20
5.4919826675
 40
0.421875
100
AcDbArc
 50
268.1001465667
 51
271.8998534333
  0
ARC
  5
556
100
AcDbEntity
  8
0
100
AcDbCircle
 62
7
  6
CONTINUOUS
 10
3.6161198442
 20
5.4919826675
 40
0.421875
100
AcDbArc
 50
259.9998553433
 51
268.0001082032
  0
ARC
  5
557
100
AcDbEntity
  8
0
100
AcDbCircle
 62
7
  6
CONTINUOUS
 10
3.6161198442
 20
5.4919826675
 40
0.421875
100
AcDbArc
 50
256.1001465667
 51
259.8998534333
  0
ARC
  5
558
100
AcDbEntity
  8
0
100
AcDbCircle
 62
7
  6
CONTINUOUS
 10
3.6161198442
 20
5.4919826675
 40
0.421875
100
AcDbArc
 50
248.0001704055
 51
255.9998753473
  0
ARC
  5
559
100
AcDbEntity
  8
0
100
AcDbCircle
 62
7
  6
CONTINUOUS
 10
3.6161198442
 20
5.4919826675
 40
0.421875
100
AcDbArc
 50
244.1001465667
 51
247.8998534333
  0
ARC
  5
55A
100
AcDbEntity
  8
0
100
AcDbCircle
 62
7
  6
CONTINUOUS
 10
3.6161198442
 20
5.4919826675
 40
0.421875
100
AcDbArc
 50
236.0000714604
 51
243.9998746033
  0
ARC
  5
55B
100
AcDbEntity
  8
0
100
AcDbCircle
 62
7
  6
CONTINUOUS
 10
3.6161198442
 20
5.4919826675
 40
0.421875
100
AcDbArc
 50
232.1001465667
 51
235.8998534333
  0
ARC
  5
55C
100
AcDbEntity
  8
0
100
AcDbCircle
 62
7
  6
CONTINUOUS
 10
3.6161198442
 20
5.4919826675
 40
0.421875
100
AcDbArc
 50
223.9998475319
 51
232.0001773904
  0
ARC
  5
55D
100
AcDbEntity
  8
0
100
AcDbCircle
 62
7
  6
CONTINUOUS
 10
3.6161198442
 20
5.4919826675
 40
0.421875
100
AcDbArc
 50
220.1001465667
 51
223.8998534333
  0
ARC
  5
55E
100
AcDbEntity
  8
0
100
AcDbCircle
 62
7
  6
CONTINUOUS
 10
3.6161198442
 20
5.4919826675
 40
0.421875
100
AcDbArc
 50
211.9999271344
 51
220.0000516631
  0
ARC
  5
55F
100
AcDbEntity
  8
0
100
AcDbCircle
 62
7
  6
CONTINUOUS
 10
3.6161198442
 20
5.4919826675
 40
0.421875
100
AcDbArc
 50
208.1001465667
 51
211.8998534333
  0
ARC
  5
560
100
AcDbEntity
  8
0
100
AcDbCircle
 62
7
  6
CONTINUOUS
 10
3.6161198442
 20
5.4919826675
 40
0.421875
100
AcDbArc
 50
202.4244773638
 51
207.999836662
  0
ARC
  5
561
100
AcDbEntity
  8
0
100
AcDbCircle
 62
9
  6
CONTINUOUS
 10
3.6161198442
 20
5.4919826675
 40
0.369
100
AcDbArc
 50
37.5727575816
 51
160.3734852159
  0
ARC
  5
562
100
AcDbEntity
  8
0
100
AcDbCircle
 62
9
  6
CONTINUOUS
 10
3.6161198442
 20
5.4919826675
 40
0.369
100
AcDbArc
 50
199.6265147841
 51
322.4272424184
  0
ARC
  5
563
100
AcDbEntity
  8
0
100
AcDbCircle
 62
9
  6
CONTINUOUS
 10
3.6161198442
 20
5.4919826675
 40
0.3389509152
100
AcDbArc
 50
41.5929420325
 51
161.8324030038
  0
ARC
  5
564
100
AcDbEntity
  8
0
100
AcDbCircle
 62
9
  6
CONTINUOUS
 10
3.6161198442
 20
5.4919826675
 40
0.3389509152
100
AcDbArc
 50
198.1675969962
 51
318.4070579675
  0
ARC
  5
565
100
AcDbEntity
  8
0
100
AcDbCircle
 62
9
  6
CONTINUOUS
 10
3.6161198442
 20
5.4919826675
 40
0.3260727359
100
AcDbArc
 50
43.6364763117
 51
164.3107264875
  0
ARC
  5
566
100
AcDbEntity
  8
0
100
AcDbCircle
 62
9
  6
CONTINUOUS
 10
3.6161198442
 20
5.4919826675
 40
0.3260727359
100
AcDbArc
 50
195.6116946325
 51
316.3635236929
  0
ARC
  5
567
100
AcDbEntity
  8
0
100
AcDbCircle
 62
7
  6
CONTINUOUS
 10
3.6161198442
 20
5.4919826675
 40
0.32175
100
AcDbArc
 50
1.4199358238
 51
2.5361081322
  0
ARC
  5
568
100
AcDbEntity
  8
0
100
AcDbCircle
 62
7
  6
CONTINUOUS
 10
3.6161198442
 20
5.4919826675
 40
0.32175
100
AcDbArc
 50
5.3759797799
 51
6.4921520883
  0
ARC
  5
569
100
AcDbEntity
  8
0
100
AcDbCircle
 62
7
  6
CONTINUOUS
 10
3.6161198442
 20
5.4919826675
 40
0.32175
100
AcDbArc
 50
9.3320237359
 51
10.4481960443
  0
ARC
  5
56A
100
AcDbEntity
  8
0
100
AcDbCircle
 62
7
  6
CONTINUOUS
 10
3.6161198442
 20
5.4919826675
 40
0.32175
100
AcDbArc
 50
13.288067692
 51
14.4042400003
  0
ARC
  5
56B
100
AcDbEntity
  8
0
100
AcDbCircle
 62
7
  6
CONTINUOUS
 10
3.6161198442
 20
5.4919826675
 40
0.32175
100
AcDbArc
 50
17.244111648
 51
18.3602839564
  0
ARC
  5
56C
100
AcDbEntity
  8
0
100
AcDbCircle
 62
7
  6
CONTINUOUS
 10
3.6161198442
 20
5.4919826675
 40
0.32175
100
AcDbArc
 50
21.2001556041
 51
22.3163279124
  0
ARC
  5
56D
100
AcDbEntity
  8
0
100
AcDbCircle
 62
7
  6
CONTINUOUS
 10
3.6161198442
 20
5.4919826675
 40
0.32175
100
AcDbArc
 50
25.1561995601
 51
26.2723718685
  0
ARC
  5
56E
100
AcDbEntity
  8
0
100
AcDbCircle
 62
7
  6
CONTINUOUS
 10
3.6161198442
 20
5.4919826675
 40
0.32175
100
AcDbArc
 50
29.1122435161
 51
30.2284158245
  0
ARC
  5
56F
100
AcDbEntity
  8
0
100
AcDbCircle
 62
7
  6
CONTINUOUS
 10
3.6161198442
 20
5.4919826675
 40
0.32175
100
AcDbArc
 50
33.0682874722
 51
34.1844597806
  0
ARC
  5
570
100
AcDbEntity
  8
0
100
AcDbCircle
 62
7
  6
CONTINUOUS
 10
3.6161198442
 20
5.4919826675
 40
0.32175
100
AcDbArc
 50
37.0243314282
 51
38.1405037366
  0
ARC
  5
571
100
AcDbEntity
  8
0
100
AcDbCircle
 62
7
  6
CONTINUOUS
 10
3.6161198442
 20
5.4919826675
 40
0.32175
100
AcDbArc
 50
40.9803753843
 51
42.0965476926
  0
ARC
  5
572
100
AcDbEntity
  8
0
100
AcDbCircle
 62
7
  6
CONTINUOUS
 10
3.6161198442
 20
5.4919826675
 40
0.32175
100
AcDbArc
 50
44.9364193403
 51
46.0525916487
  0
ARC
  5
573
100
AcDbEntity
  8
0
100
AcDbCircle
 62
7
  6
CONTINUOUS
 10
3.6161198442
 20
5.4919826675
 40
0.32175
100
AcDbArc
 50
48.8924632964
 51
50.0086356047
  0
ARC
  5
574
100
AcDbEntity
  8
0
100
AcDbCircle
 62
7
  6
CONTINUOUS
 10
3.6161198442
 20
5.4919826675
 40
0.32175
100
AcDbArc
 50
52.8485072524
 51
53.9646795608
  0
ARC
  5
575
100
AcDbEntity
  8
0
100
AcDbCircle
 62
7
  6
CONTINUOUS
 10
3.6161198442
 20
5.4919826675
 40
0.32175
100
AcDbArc
 50
56.8045512084
 51
57.9207235168
  0
ARC
  5
576
100
AcDbEntity
  8
0
100
AcDbCircle
 62
7
  6
CONTINUOUS
 10
3.6161198442
 20
5.4919826675
 40
0.32175
100
AcDbArc
 50
60.7605951645
 51
61.8767674729
  0
ARC
  5
577
100
AcDbEntity
  8
0
100
AcDbCircle
 62
7
  6
CONTINUOUS
 10
3.6161198442
 20
5.4919826675
 40
0.32175
100
AcDbArc
 50
64.7166391205
 51
65.8328114289
  0
ARC
  5
578
100
AcDbEntity
  8
0
100
AcDbCircle
 62
7
  6
CONTINUOUS
 10
3.6161198442
 20
5.4919826675
 40
0.32175
100
AcDbArc
 50
68.6726830766
 51
69.788855385
  0
ARC
  5
579
100
AcDbEntity
  8
0
100
AcDbCircle
 62
7
  6
CONTINUOUS
 10
3.6161198442
 20
5.4919826675
 40
0.32175
100
AcDbArc
 50
72.6287270326
 51
73.744899341
  0
ARC
  5
57A
100
AcDbEntity
  8
0
100
AcDbCircle
 62
7
  6
CONTINUOUS
 10
3.6161198442
 20
5.4919826675
 40
0.32175
100
AcDbArc
 50
76.5847709887
 51
77.700943297
  0
ARC
  5
57B
100
AcDbEntity
  8
0
100
AcDbCircle
 62
7
  6
CONTINUOUS
 10
3.6161198442
 20
5.4919826675
 40
0.32175
100
AcDbArc
 50
80.5408149447
 51
81.6569872531
  0
ARC
  5
57C
100
AcDbEntity
  8
0
100
AcDbCircle
 62
7
  6
CONTINUOUS
 10
3.6161198442
 20
5.4919826675
 40
0.32175
100
AcDbArc
 50
84.4968589008
 51
85.6130312091
  0
ARC
  5
57D
100
AcDbEntity
  8
0
100
AcDbCircle
 62
7
  6
CONTINUOUS
 10
3.6161198442
 20
5.4919826675
 40
0.32175
100
AcDbArc
 50
88.4529028568
 51
89.5690751652
  0
ARC
  5
57E
100
AcDbEntity
  8
0
100
AcDbCircle
 62
7
  6
CONTINUOUS
 10
3.6161198442
 20
5.4919826675
 40
0.32175
100
AcDbArc
 50
92.4089468128
 51
93.5251191212
  0
ARC
  5
57F
100
AcDbEntity
  8
0
100
AcDbCircle
 62
7
  6
CONTINUOUS
 10
3.6161198442
 20
5.4919826675
 40
0.32175
100
AcDbArc
 50
96.3649907689
 51
97.4811630773
  0
ARC
  5
580
100
AcDbEntity
  8
0
100
AcDbCircle
 62
7
  6
CONTINUOUS
 10
3.6161198442
 20
5.4919826675
 40
0.32175
100
AcDbArc
 50
100.3210347249
 51
101.4372070333
  0
ARC
  5
581
100
AcDbEntity
  8
0
100
AcDbCircle
 62
7
  6
CONTINUOUS
 10
3.6161198442
 20
5.4919826675
 40
0.32175
100
AcDbArc
 50
104.277078681
 51
105.3932509894
  0
ARC
  5
582
100
AcDbEntity
  8
0
100
AcDbCircle
 62
7
  6
CONTINUOUS
 10
3.6161198442
 20
5.4919826675
 40
0.32175
100
AcDbArc
 50
108.233122637
 51
109.3492949454
  0
ARC
  5
583
100
AcDbEntity
  8
0
100
AcDbCircle
 62
7
  6
CONTINUOUS
 10
3.6161198442
 20
5.4919826675
 40
0.32175
100
AcDbArc
 50
112.1891665931
 51
113.3053389014
  0
ARC
  5
584
100
AcDbEntity
  8
0
100
AcDbCircle
 62
7
  6
CONTINUOUS
 10
3.6161198442
 20
5.4919826675
 40
0.32175
100
AcDbArc
 50
116.1452105491
 51
117.2613828575
  0
ARC
  5
585
100
AcDbEntity
  8
0
100
AcDbCircle
 62
7
  6
CONTINUOUS
 10
3.6161198442
 20
5.4919826675
 40
0.32175
100
AcDbArc
 50
120.1012545052
 51
121.2174268135
  0
ARC
  5
586
100
AcDbEntity
  8
0
100
AcDbCircle
 62
7
  6
CONTINUOUS
 10
3.6161198442
 20
5.4919826675
 40
0.32175
100
AcDbArc
 50
124.0572984612
 51
125.1734707696
  0
ARC
  5
587
100
AcDbEntity
  8
0
100
AcDbCircle
 62
7
  6
CONTINUOUS
 10
3.6161198442
 20
5.4919826675
 40
0.32175
100
AcDbArc
 50
128.0133424172
 51
129.1295147256
  0
ARC
  5
588
100
AcDbEntity
  8
0
100
AcDbCircle
 62
7
  6
CONTINUOUS
 10
3.6161198442
 20
5.4919826675
 40
0.32175
100
AcDbArc
 50
131.9693863733
 51
133.0855586817
  0
ARC
  5
589
100
AcDbEntity
  8
0
100
AcDbCircle
 62
7
  6
CONTINUOUS
 10
3.6161198442
 20
5.4919826675
 40
0.32175
100
AcDbArc
 50
135.9254303293
 51
137.0416026377
  0
ARC
  5
58A
100
AcDbEntity
  8
0
100
AcDbCircle
 62
7
  6
CONTINUOUS
 10
3.6161198442
 20
5.4919826675
 40
0.32175
100
AcDbArc
 50
139.8814742854
 51
140.9976465937
  0
ARC
  5
58B
100
AcDbEntity
  8
0
100
AcDbCircle
 62
7
  6
CONTINUOUS
 10
3.6161198442
 20
5.4919826675
 40
0.32175
100
AcDbArc
 50
143.8375182414
 51
144.9536905498
  0
ARC
  5
58C
100
AcDbEntity
  8
0
100
AcDbCircle
 62
7
  6
CONTINUOUS
 10
3.6161198442
 20
5.4919826675
 40
0.32175
100
AcDbArc
 50
147.7935621975
 51
148.9097345058
  0
ARC
  5
58D
100
AcDbEntity
  8
0
100
AcDbCircle
 62
7
  6
CONTINUOUS
 10
3.6161198442
 20
5.4919826675
 40
0.32175
100
AcDbArc
 50
151.7496061535
 51
152.8657784619
  0
ARC
  5
58E
100
AcDbEntity
  8
0
100
AcDbCircle
 62
7
  6
CONTINUOUS
 10
3.6161198442
 20
5.4919826675
 40
0.32175
100
AcDbArc
 50
155.7056501095
 51
156.8218224179
  0
ARC
  5
58F
100
AcDbEntity
  8
0
100
AcDbCircle
 62
7
  6
CONTINUOUS
 10
3.6161198442
 20
5.4919826675
 40
0.32175
100
AcDbArc
 50
159.6616940656
 51
160.777866374
  0
ARC
  5
590
100
AcDbEntity
  8
0
100
AcDbCircle
 62
7
  6
CONTINUOUS
 10
3.6161198442
 20
5.4919826675
 40
0.32175
100
AcDbArc
 50
163.6177380216
 51
164.1733703706
  0
ARC
  5
591
100
AcDbEntity
  8
0
100
AcDbCircle
 62
7
  6
CONTINUOUS
 10
3.6161198442
 20
5.4919826675
 40
0.32175
100
AcDbArc
 50
195.8266296294
 51
196.3822619784
  0
ARC
  5
592
100
AcDbEntity
  8
0
100
AcDbCircle
 62
7
  6
CONTINUOUS
 10
3.6161198442
 20
5.4919826675
 40
0.32175
100
AcDbArc
 50
199.222133626
 51
200.3383059344
  0
ARC
  5
593
100
AcDbEntity
  8
0
100
AcDbCircle
 62
7
  6
CONTINUOUS
 10
3.6161198442
 20
5.4919826675
 40
0.32175
100
AcDbArc
 50
203.1781775821
 51
204.2943498905
  0
ARC
  5
594
100
AcDbEntity
  8
0
100
AcDbCircle
 62
7
  6
CONTINUOUS
 10
3.6161198442
 20
5.4919826675
 40
0.32175
100
AcDbArc
 50
207.1342215381
 51
208.2503938465
  0
ARC
  5
595
100
AcDbEntity
  8
0
100
AcDbCircle
 62
7
  6
CONTINUOUS
 10
3.6161198442
 20
5.4919826675
 40
0.32175
100
AcDbArc
 50
211.0902654942
 51
212.2064378025
  0
ARC
  5
596
100
AcDbEntity
  8
0
100
AcDbCircle
 62
7
  6
CONTINUOUS
 10
3.6161198442
 20
5.4919826675
 40
0.32175
100
AcDbArc
 50
215.0463094502
 51
216.1624817586
  0
ARC
  5
597
100
AcDbEntity
  8
0
100
AcDbCircle
 62
7
  6
CONTINUOUS
 10
3.6161198442
 20
5.4919826675
 40
0.32175
100
AcDbArc
 50
219.0023534063
 51
220.1185257146
  0
ARC
  5
598
100
AcDbEntity
  8
0
100
AcDbCircle
 62
7
  6
CONTINUOUS
 10
3.6161198442
 20
5.4919826675
 40
0.32175
100
AcDbArc
 50
222.9583973623
 51
224.0745696707
  0
ARC
  5
599
100
AcDbEntity
  8
0
100
AcDbCircle
 62
7
  6
CONTINUOUS
 10
3.6161198442
 20
5.4919826675
 40
0.32175
100
AcDbArc
 50
226.9144413183
 51
228.0306136267
  0
ARC
  5
59A
100
AcDbEntity
  8
0
100
AcDbCircle
 62
7
  6
CONTINUOUS
 10
3.6161198442
 20
5.4919826675
 40
0.32175
100
AcDbArc
 50
230.8704852744
 51
231.9866575828
  0
ARC
  5
59B
100
AcDbEntity
  8
0
100
AcDbCircle
 62
7
  6
CONTINUOUS
 10
3.6161198442
 20
5.4919826675
 40
0.32175
100
AcDbArc
 50
234.8265292304
 51
235.9427015388
  0
ARC
  5
59C
100
AcDbEntity
  8
0
100
AcDbCircle
 62
7
  6
CONTINUOUS
 10
3.6161198442
 20
5.4919826675
 40
0.32175
100
AcDbArc
 50
238.7825731865
 51
239.8987454948
  0
ARC
  5
59D
100
AcDbEntity
  8
0
100
AcDbCircle
 62
7
  6
CONTINUOUS
 10
3.6161198442
 20
5.4919826675
 40
0.32175
100
AcDbArc
 50
242.7386171425
 51
243.8547894509
  0
ARC
  5
59E
100
AcDbEntity
  8
0
100
AcDbCircle
 62
7
  6
CONTINUOUS
 10
3.6161198442
 20
5.4919826675
 40
0.32175
100
AcDbArc
 50
246.6946610986
 51
247.8108334069
  0
ARC
  5
59F
100
AcDbEntity
  8
0
100
AcDbCircle
 62
7
  6
CONTINUOUS
 10
3.6161198442
 20
5.4919826675
 40
0.32175
100
AcDbArc
 50
250.6507050546
 51
251.766877363
  0
ARC
  5
5A0
100
AcDbEntity
  8
0
100
AcDbCircle
 62
7
  6
CONTINUOUS
 10
3.6161198442
 20
5.4919826675
 40
0.32175
100
AcDbArc
 50
254.6067490106
 51
255.722921319
  0
ARC
  5
5A1
100
AcDbEntity
  8
0
100
AcDbCircle
 62
7
  6
CONTINUOUS
 10
3.6161198442
 20
5.4919826675
 40
0.32175
100
AcDbArc
 50
258.5627929667
 51
259.6789652751
  0
ARC
  5
5A2
100
AcDbEntity
  8
0
100
AcDbCircle
 62
7
  6
CONTINUOUS
 10
3.6161198442
 20
5.4919826675
 40
0.32175
100
AcDbArc
 50
262.5188369227
 51
263.6350092311
  0
ARC
  5
5A3
100
AcDbEntity
  8
0
100
AcDbCircle
 62
7
  6
CONTINUOUS
 10
3.6161198442
 20
5.4919826675
 40
0.32175
100
AcDbArc
 50
266.4748808788
 51
267.5910531872
  0
ARC
  5
5A4
100
AcDbEntity
  8
0
100
AcDbCircle
 62
7
  6
CONTINUOUS
 10
3.6161198442
 20
5.4919826675
 40
0.32175
100
AcDbArc
 50
270.4309248348
 51
271.5470971432
  0
ARC
  5
5A5
100
AcDbEntity
  8
0
100
AcDbCircle
 62
7
  6
CONTINUOUS
 10
3.6161198442
 20
5.4919826675
 40
0.32175
100
AcDbArc
 50
274.3869687909
 51
275.5031410992
  0
ARC
  5
5A6
100
AcDbEntity
  8
0
100
AcDbCircle
 62
7
  6
CONTINUOUS
 10
3.6161198442
 20
5.4919826675
 40
0.32175
100
AcDbArc
 50
278.3430127469
 51
279.4591850553
  0
ARC
  5
5A7
100
AcDbEntity
  8
0
100
AcDbCircle
 62
7
  6
CONTINUOUS
 10
3.6161198442
 20
5.4919826675
 40
0.32175
100
AcDbArc
 50
282.299056703
 51
283.4152290113
  0
ARC
  5
5A8
100
AcDbEntity
  8
0
100
AcDbCircle
 62
7
  6
CONTINUOUS
 10
3.6161198442
 20
5.4919826675
 40
0.32175
100
AcDbArc
 50
286.255100659
 51
287.3712729674
  0
ARC
  5
5A9
100
AcDbEntity
  8
0
100
AcDbCircle
 62
7
  6
CONTINUOUS
 10
3.6161198442
 20
5.4919826675
 40
0.32175
100
AcDbArc
 50
290.211144615
 51
291.3273169234
  0
ARC
  5
5AA
100
AcDbEntity
  8
0
100
AcDbCircle
 62
7
  6
CONTINUOUS
 10
3.6161198442
 20
5.4919826675
 40
0.32175
100
AcDbArc
 50
294.1671885711
 51
295.2833608795
  0
ARC
  5
5AB
100
AcDbEntity
  8
0
100
AcDbCircle
 62
7
  6
CONTINUOUS
 10
3.6161198442
 20
5.4919826675
 40
0.32175
100
AcDbArc
 50
298.1232325271
 51
299.2394048355
  0
ARC
  5
5AC
100
AcDbEntity
  8
0
100
AcDbCircle
 62
7
  6
CONTINUOUS
 10
3.6161198442
 20
5.4919826675
 40
0.32175
100
AcDbArc
 50
302.0792764832
 51
303.1954487916
  0
ARC
  5
5AD
100
AcDbEntity
  8
0
100
AcDbCircle
 62
7
  6
CONTINUOUS
 10
3.6161198442
 20
5.4919826675
 40
0.32175
100
AcDbArc
 50
306.0353204392
 51
307.1514927476
  0
ARC
  5
5AE
100
AcDbEntity
  8
0
100
AcDbCircle
 62
7
  6
CONTINUOUS
 10
3.6161198442
 20
5.4919826675
 40
0.32175
100
AcDbArc
 50
309.9913643953
 51
311.1075367036
  0
ARC
  5
5AF
100
AcDbEntity
  8
0
100
AcDbCircle
 62
7
  6
CONTINUOUS
 10
3.6161198442
 20
5.4919826675
 40
0.32175
100
AcDbArc
 50
313.9474083513
 51
315.0635806597
  0
ARC
  5
5B0
100
AcDbEntity
  8
0
100
AcDbCircle
 62
7
  6
CONTINUOUS
 10
3.6161198442
 20
5.4919826675
 40
0.32175
100
AcDbArc
 50
317.9034523074
 51
319.0196246157
  0
ARC
  5
5B1
100
AcDbEntity
  8
0
100
AcDbCircle
 62
7
  6
CONTINUOUS
 10
3.6161198442
 20
5.4919826675
 40
0.32175
100
AcDbArc
 50
321.8594962634
 51
322.9756685718
  0
ARC
  5
5B2
100
AcDbEntity
  8
0
100
AcDbCircle
 62
7
  6
CONTINUOUS
 10
3.6161198442
 20
5.4919826675
 40
0.32175
100
AcDbArc
 50
325.8155402194
 51
326.9317125278
  0
ARC
  5
5B3
100
AcDbEntity
  8
0
100
AcDbCircle
 62
7
  6
CONTINUOUS
 10
3.6161198442
 20
5.4919826675
 40
0.32175
100
AcDbArc
 50
329.7715841755
 51
330.8877564839
  0
ARC
  5
5B4
100
AcDbEntity
  8
0
100
AcDbCircle
 62
7
  6
CONTINUOUS
 10
3.6161198442
 20
5.4919826675
 40
0.32175
100
AcDbArc
 50
333.7276281315
 51
334.8438004399
  0
ARC
  5
5B5
100
AcDbEntity
  8
0
100
AcDbCircle
 62
7
  6
CONTINUOUS
 10
3.6161198442
 20
5.4919826675
 40
0.32175
100
AcDbArc
 50
337.6836720876
 51
338.7998443959
  0
ARC
  5
5B6
100
AcDbEntity
  8
0
100
AcDbCircle
 62
7
  6
CONTINUOUS
 10
3.6161198442
 20
5.4919826675
 40
0.32175
100
AcDbArc
 50
341.6397160436
 51
342.755888352
  0
ARC
  5
5B7
100
AcDbEntity
  8
0
100
AcDbCircle
 62
7
  6
CONTINUOUS
 10
3.6161198442
 20
5.4919826675
 40
0.32175
100
AcDbArc
 50
345.5957599997
 51
346.711932308
  0
ARC
  5
5B8
100
AcDbEntity
  8
0
100
AcDbCircle
 62
7
  6
CONTINUOUS
 10
3.6161198442
 20
5.4919826675
 40
0.32175
100
AcDbArc
 50
349.5518039557
 51
350.6679762641
  0
ARC
  5
5B9
100
AcDbEntity
  8
0
100
AcDbCircle
 62
7
  6
CONTINUOUS
 10
3.6161198442
 20
5.4919826675
 40
0.32175
100
AcDbArc
 50
353.5078479117
 51
354.6240202201
  0
ARC
  5
5BA
100
AcDbEntity
  8
0
100
AcDbCircle
 62
7
  6
CONTINUOUS
 10
3.6161198442
 20
5.4919826675
 40
0.32175
100
AcDbArc
 50
357.4638918678
 51
358.5800641762
  0
ARC
  5
5BB
100
AcDbEntity
  8
0
100
AcDbCircle
 62
9
  6
CONTINUOUS
 10
3.6161198442
 20
5.4919826675
 40
0.3124427049
100
AcDbArc
 50
196.3149181027
 51
163.6850818973
  0
ARC
  5
5BC
100
AcDbEntity
  8
0
100
AcDbCircle
 62
9
  6
CONTINUOUS
 10
3.6965170855
 20
5.4920522475
 40
0.2368547205
100
AcDbArc
 50
354.2244188971
 51
355.254574144
  0
ARC
  5
5BD
100
AcDbEntity
  8
0
100
AcDbCircle
 62
9
  6
CONTINUOUS
 10
3.698337736
 20
5.4919860269
 40
0.2350321082
100
AcDbArc
 50
359.4421321531
 51
359.9991810584
  0
ARC
  5
5BE
100
AcDbEntity
  8
0
100
AcDbCircle
 62
9
  6
CONTINUOUS
 10
3.6161198442
 20
5.4919826675
 40
0.2174477819
100
AcDbArc
 50
203.8114198961
 51
156.1885801039
  0
ARC
  5
5BF
100
AcDbEntity
  8
0
100
AcDbCircle
 62
9
  6
CONTINUOUS
 10
3.6161198442
 20
5.4919826675
 40
0.2060483911
100
AcDbArc
 50
205.2363906796
 51
154.7636093099
  0
ARC
  5
5C0
100
AcDbEntity
  8
0
100
AcDbCircle
 62
9
  6
CONTINUOUS
 10
3.6161198442
 20
5.4919826675
 40
0.1935
100
AcDbArc
 50
206.9838015838
 51
153.0161985087
  0
ARC
  5
5C1
100
AcDbEntity
  8
0
100
AcDbCircle
 62
7
  6
CONTINUOUS
 10
3.6161198442
 20
5.4919826675
 40
0.18
100
AcDbArc
 50
209.1996179993
 51
150.8003820007
  0
ARC
  5
5C2
100
AcDbEntity
  8
0
100
AcDbCircle
 62
9
  6
CONTINUOUS
 10
3.6161198442
 20
5.4919826675
 40
0.1665
100
AcDbArc
 50
211.8287670134
 51
148.1712329989
  0
ARC
  5
5C3
100
AcDbEntity
  8
0
100
AcDbCircle
 62
7
  6
CONTINUOUS
 10
3.6161198442
 20
5.4919826675
 40
0.165375
100
AcDbArc
 50
212.0719395921
 51
147.9280604079
  0
ARC
  5
5C4
100
AcDbEntity
  8
0
100
AcDbCircle
 62
9
  6
CONTINUOUS
 10
3.6161198442
 20
5.4919826675
 40
0.138375
100
AcDbArc
 50
219.3799937508
 51
140.6200062492
  0
ARC
  5
5C5
100
AcDbEntity
  8
0
100
AcDbCircle
 62
9
  6
CONTINUOUS
 10
3.6161198442
 20
5.4919826675
 40
0.09675
100
AcDbArc
 50
245.1249119189
 51
114.8750879781
  0
ARC
  5
5C6
100
AcDbEntity
  8
0
100
AcDbCircle
 62
7
  6
CONTINUOUS
 10
3.6161198442
 20
5.4919826675
 40
0.08775
100
AcDbArc
 50
270.0
 51
90.0
  0
ARC
  5
5C7
100
AcDbEntity
  8
0
100
AcDbCircle
 62
9
  6
CONTINUOUS
 10
5.416195134
 20
1.6374646951
 40
0.3629897694
100
AcDbArc
 50
269.9881160164
 51
294.383484382
  0
ARC
  5
5C8
100
AcDbEntity
  8
0
100
AcDbCircle
 62
7
  6
CONTINUOUS
 10
5.4172949804
 20
1.8169574017
 40
0.2552101423
100
AcDbArc
 50
359.5163090572
 51
0.0000005239
  0
ARC
  5
5C9
100
AcDbEntity
  8
0
100
AcDbCircle
 62
9
  6
CONTINUOUS
 10
5.4174106417
 20
1.8424817822
 40
0.255094481
100
AcDbArc
 50
356.4851954041
 51
0.0001988523
  0
ARC
  5
5CA
100
AcDbEntity
  8
0
100
AcDbCircle
 62
7
  6
CONTINUOUS
 10
5.4161198442
 20
5.4919826675
 40
0.421875
100
AcDbArc
 50
32.2333016594
 51
147.7666983406
  0
ARC
  5
5CB
100
AcDbEntity
  8
0
100
AcDbCircle
 62
7
  6
CONTINUOUS
 10
5.4161198442
 20
5.4919826675
 40
0.421875
100
AcDbArc
 50
307.4254199064
 51
327.7666983406
  0
ARC
  5
5CC
100
AcDbEntity
  8
0
100
AcDbCircle
 62
7
  6
CONTINUOUS
 10
5.4161198442
 20
5.4919826675
 40
0.421875
100
AcDbArc
 50
212.2333016594
 51
232.5745800936
  0
ARC
  5
5CD
100
AcDbEntity
  8
0
100
AcDbCircle
 62
9
  6
CONTINUOUS
 10
5.4161198442
 20
5.4919826675
 40
0.369
100
AcDbArc
 50
37.5727575816
 51
142.4272424184
  0
ARC
  5
5CE
100
AcDbEntity
  8
0
100
AcDbCircle
 62
9
  6
CONTINUOUS
 10
5.4161198442
 20
5.4919826675
 40
0.369
100
AcDbArc
 50
314.0127447018
 51
322.4272424184
  0
ARC
  5
5CF
100
AcDbEntity
  8
0
100
AcDbCircle
 62
9
  6
CONTINUOUS
 10
5.4161198442
 20
5.4919826675
 40
0.369
100
AcDbArc
 50
217.5727575816
 51
225.9872552982
  0
ARC
  5
5D0
100
AcDbEntity
  8
0
100
AcDbCircle
 62
7
  6
CONTINUOUS
 10
5.4161198442
 20
5.4919826675
 40
0.34875
100
AcDbArc
 50
317.3223357225
 51
222.6776642775
  0
ARC
  5
5D1
100
AcDbEntity
  8
0
100
AcDbCircle
 62
7
  6
CONTINUOUS
 10
5.4161198442
 20
5.4919826675
 40
0.32625
100
AcDbArc
 50
321.8020134611
 51
218.1979865389
  0
ARC
  5
5D2
100
AcDbEntity
  8
0
100
AcDbCircle
 62
7
  6
CONTINUOUS
 10
5.4161198442
 20
5.4919826675
 40
0.28125
100
AcDbArc
 50
335.732766544
 51
204.267233456
  0
ARC
  5
5D3
100
AcDbEntity
  8
0
100
AcDbCircle
 62
9
  6
CONTINUOUS
 10
7.1357242123
 20
5.4919138396
 40
0.2368562443
100
AcDbArc
 50
174.2246258873
 51
175.2560250132
  0
ARC
  5
5D4
100
AcDbEntity
  8
0
100
AcDbCircle
 62
9
  6
CONTINUOUS
 10
7.1338662896
 20
5.4919792082
 40
0.2349964454
100
AcDbArc
 50
179.4420218443
 51
179.9991565698
  0
ARC
  5
5D5
100
AcDbEntity
  8
0
100
AcDbCircle
 62
7
  6
CONTINUOUS
 10
7.5333698442
 20
5.3526565311
 40
0.0340261364
100
AcDbArc
 50
7.3044455606
 51
90.0
  0
ARC
  5
5D6
100
AcDbEntity
  8
0
100
AcDbCircle
 62
7
  6
CONTINUOUS
 10
7.5952448442
 20
5.3569826675
 40
0.028125
100
AcDbArc
 50
180.0
 51
360.0
  0
ARC
  5
5D7
100
AcDbEntity
  8
0
100
AcDbCircle
 62
7
  6
CONTINUOUS
 10
8.8113698442
 20
5.3468576675
 40
0.027
100
AcDbArc
 50
180.0
 51
360.0
  0
ARC
  5
5D8
100
AcDbEntity
  8
0
100
AcDbCircle
 62
7
  6
CONTINUOUS
 10
7.2161198442
 20
5.4919826675
 40
0.421875
100
AcDbArc
 50
22.4244773638
 51
147.7666983406
  0
ARC
  5
5D9
100
AcDbEntity
  8
0
100
AcDbCircle
 62
7
  6
CONTINUOUS
 10
7.2161198442
 20
5.4919826675
 40
0.421875
100
AcDbArc
 50
212.2333016594
 51
337.5755226362
  0
ARC
  5
5DA
100
AcDbEntity
  8
0
100
AcDbCircle
 62
9
  6
CONTINUOUS
 10
7.2161198442
 20
5.4919826675
 40
0.369
100
AcDbArc
 50
19.6265147841
 51
142.4272424184
  0
ARC
  5
5DB
100
AcDbEntity
  8
0
100
AcDbCircle
 62
9
  6
CONTINUOUS
 10
7.2161198442
 20
5.4919826675
 40
0.369
100
AcDbArc
 50
217.5727575816
 51
340.3734852159
  0
ARC
  5
5DC
100
AcDbEntity
  8
0
100
AcDbCircle
 62
9
  6
CONTINUOUS
 10
7.2161198442
 20
5.4919826675
 40
0.3389509152
100
AcDbArc
 50
18.1675969962
 51
138.4070579675
  0
ARC
  5
5DD
100
AcDbEntity
  8
0
100
AcDbCircle
 62
9
  6
CONTINUOUS
 10
7.2161198442
 20
5.4919826675
 40
0.3389509152
100
AcDbArc
 50
221.5929420325
 51
341.8324030038
  0
ARC
  5
5DE
100
AcDbEntity
  8
0
100
AcDbCircle
 62
9
  6
CONTINUOUS
 10
7.2161198442
 20
5.4919826675
 40
0.3260727359
100
AcDbArc
 50
15.6116946325
 51
136.3635236929
  0
ARC
  5
5DF
100
AcDbEntity
  8
0
100
AcDbCircle
 62
9
  6
CONTINUOUS
 10
7.2161198442
 20
5.4919826675
 40
0.3260727359
100
AcDbArc
 50
223.6364763117
 51
344.3107264875
  0
ARC
  5
5E0
100
AcDbEntity
  8
0
100
AcDbCircle
 62
7
  6
CONTINUOUS
 10
7.2161198442
 20
5.4919826675
 40
0.32175
100
AcDbArc
 50
181.4199358238
 51
182.5361081322
  0
ARC
  5
5E1
100
AcDbEntity
  8
0
100
AcDbCircle
 62
7
  6
CONTINUOUS
 10
7.2161198442
 20
5.4919826675
 40
0.32175
100
AcDbArc
 50
185.3759797799
 51
186.4921520883
  0
ARC
  5
5E2
100
AcDbEntity
  8
0
100
AcDbCircle
 62
7
  6
CONTINUOUS
 10
7.2161198442
 20
5.4919826675
 40
0.32175
100
AcDbArc
 50
189.3320237359
 51
190.4481960443
  0
ARC
  5
5E3
100
AcDbEntity
  8
0
100
AcDbCircle
 62
7
  6
CONTINUOUS
 10
7.2161198442
 20
5.4919826675
 40
0.32175
100
AcDbArc
 50
193.288067692
 51
194.4042400003
  0
ARC
  5
5E4
100
AcDbEntity
  8
0
100
AcDbCircle
 62
7
  6
CONTINUOUS
 10
7.2161198442
 20
5.4919826675
 40
0.32175
100
AcDbArc
 50
197.244111648
 51
198.3602839564
  0
ARC
  5
5E5
100
AcDbEntity
  8
0
100
AcDbCircle
 62
7
  6
CONTINUOUS
 10
7.2161198442
 20
5.4919826675
 40
0.32175
100
AcDbArc
 50
201.2001556041
 51
202.3163279124
  0
ARC
  5
5E6
100
AcDbEntity
  8
0
100
AcDbCircle
 62
7
  6
CONTINUOUS
 10
7.2161198442
 20
5.4919826675
 40
0.32175
100
AcDbArc
 50
205.1561995601
 51
206.2723718685
  0
ARC
  5
5E7
100
AcDbEntity
  8
0
100
AcDbCircle
 62
7
  6
CONTINUOUS
 10
7.2161198442
 20
5.4919826675
 40
0.32175
100
AcDbArc
 50
209.1122435161
 51
210.2284158245
  0
ARC
  5
5E8
100
AcDbEntity
  8
0
100
AcDbCircle
 62
7
  6
CONTINUOUS
 10
7.2161198442
 20
5.4919826675
 40
0.32175
100
AcDbArc
 50
213.0682874722
 51
214.1844597806
  0
ARC
  5
5E9
100
AcDbEntity
  8
0
100
AcDbCircle
 62
7
  6
CONTINUOUS
 10
7.2161198442
 20
5.4919826675
 40
0.32175
100
AcDbArc
 50
217.0243314282
 51
218.1405037366
  0
ARC
  5
5EA
100
AcDbEntity
  8
0
100
AcDbCircle
 62
7
  6
CONTINUOUS
 10
7.2161198442
 20
5.4919826675
 40
0.32175
100
AcDbArc
 50
220.9803753843
 51
222.0965476926
  0
ARC
  5
5EB
100
AcDbEntity
  8
0
100
AcDbCircle
 62
7
  6
CONTINUOUS
 10
7.2161198442
 20
5.4919826675
 40
0.32175
100
AcDbArc
 50
224.9364193403
 51
226.0525916487
  0
ARC
  5
5EC
100
AcDbEntity
  8
0
100
AcDbCircle
 62
7
  6
CONTINUOUS
 10
7.2161198442
 20
5.4919826675
 40
0.32175
100
AcDbArc
 50
228.8924632964
 51
230.0086356047
  0
ARC
  5
5ED
100
AcDbEntity
  8
0
100
AcDbCircle
 62
7
  6
CONTINUOUS
 10
7.2161198442
 20
5.4919826675
 40
0.32175
100
AcDbArc
 50
232.8485072524
 51
233.9646795608
  0
ARC
  5
5EE
100
AcDbEntity
  8
0
100
AcDbCircle
 62
7
  6
CONTINUOUS
 10
7.2161198442
 20
5.4919826675
 40
0.32175
100
AcDbArc
 50
236.8045512084
 51
237.9207235168
  0
ARC
  5
5EF
100
AcDbEntity
  8
0
100
AcDbCircle
 62
7
  6
CONTINUOUS
 10
7.2161198442
 20
5.4919826675
 40
0.32175
100
AcDbArc
 50
240.7605951645
 51
241.8767674729
  0
ARC
  5
5F0
100
AcDbEntity
  8
0
100
AcDbCircle
 62
7
  6
CONTINUOUS
 10
7.2161198442
 20
5.4919826675
 40
0.32175
100
AcDbArc
 50
244.7166391205
 51
245.8328114289
  0
ARC
  5
5F1
100
AcDbEntity
  8
0
100
AcDbCircle
 62
7
  6
CONTINUOUS
 10
7.2161198442
 20
5.4919826675
 40
0.32175
100
AcDbArc
 50
248.6726830766
 51
249.788855385
  0
ARC
  5
5F2
100
AcDbEntity
  8
0
100
AcDbCircle
 62
7
  6
CONTINUOUS
 10
7.2161198442
 20
5.4919826675
 40
0.32175
100
AcDbArc
 50
252.6287270326
 51
253.744899341
  0
ARC
  5
5F3
100
AcDbEntity
  8
0
100
AcDbCircle
 62
7
  6
CONTINUOUS
 10
7.2161198442
 20
5.4919826675
 40
0.32175
100
AcDbArc
 50
256.5847709887
 51
257.700943297
  0
ARC
  5
5F4
100
AcDbEntity
  8
0
100
AcDbCircle
 62
7
  6
CONTINUOUS
 10
7.2161198442
 20
5.4919826675
 40
0.32175
100
AcDbArc
 50
260.5408149447
 51
261.6569872531
  0
ARC
  5
5F5
100
AcDbEntity
  8
0
100
AcDbCircle
 62
7
  6
CONTINUOUS
 10
7.2161198442
 20
5.4919826675
 40
0.32175
100
AcDbArc
 50
264.4968589008
 51
265.6130312091
  0
ARC
  5
5F6
100
AcDbEntity
  8
0
100
AcDbCircle
 62
7
  6
CONTINUOUS
 10
7.2161198442
 20
5.4919826675
 40
0.32175
100
AcDbArc
 50
268.4529028568
 51
269.5690751652
  0
ARC
  5
5F7
100
AcDbEntity
  8
0
100
AcDbCircle
 62
7
  6
CONTINUOUS
 10
7.2161198442
 20
5.4919826675
 40
0.32175
100
AcDbArc
 50
272.4089468128
 51
273.5251191212
  0
ARC
  5
5F8
100
AcDbEntity
  8
0
100
AcDbCircle
 62
7
  6
CONTINUOUS
 10
7.2161198442
 20
5.4919826675
 40
0.32175
100
AcDbArc
 50
276.3649907689
 51
277.4811630773
  0
ARC
  5
5F9
100
AcDbEntity
  8
0
100
AcDbCircle
 62
7
  6
CONTINUOUS
 10
7.2161198442
 20
5.4919826675
 40
0.32175
100
AcDbArc
 50
280.3210347249
 51
281.4372070333
  0
ARC
  5
5FA
100
AcDbEntity
  8
0
100
AcDbCircle
 62
7
  6
CONTINUOUS
 10
7.2161198442
 20
5.4919826675
 40
0.32175
100
AcDbArc
 50
284.277078681
 51
285.3932509894
  0
ARC
  5
5FB
100
AcDbEntity
  8
0
100
AcDbCircle
 62
7
  6
CONTINUOUS
 10
7.2161198442
 20
5.4919826675
 40
0.32175
100
AcDbArc
 50
288.233122637
 51
289.3492949454
  0
ARC
  5
5FC
100
AcDbEntity
  8
0
100
AcDbCircle
 62
7
  6
CONTINUOUS
 10
7.2161198442
 20
5.4919826675
 40
0.32175
100
AcDbArc
 50
292.1891665931
 51
293.3053389014
  0
ARC
  5
5FD
100
AcDbEntity
  8
0
100
AcDbCircle
 62
7
  6
CONTINUOUS
 10
7.2161198442
 20
5.4919826675
 40
0.32175
100
AcDbArc
 50
296.1452105491
 51
297.2613828575
  0
ARC
  5
5FE
100
AcDbEntity
  8
0
100
AcDbCircle
 62
7
  6
CONTINUOUS
 10
7.2161198442
 20
5.4919826675
 40
0.32175
100
AcDbArc
 50
300.1012545052
 51
301.2174268135
  0
ARC
  5
5FF
100
AcDbEntity
  8
0
100
AcDbCircle
 62
7
  6
CONTINUOUS
 10
7.2161198442
 20
5.4919826675
 40
0.32175
100
AcDbArc
 50
304.0572984612
 51
305.1734707696
  0
ARC
  5
600
100
AcDbEntity
  8
0
100
AcDbCircle
 62
7
  6
CONTINUOUS
 10
7.2161198442
 20
5.4919826675
 40
0.32175
100
AcDbArc
 50
308.0133424172
 51
309.1295147256
  0
ARC
  5
601
100
AcDbEntity
  8
0
100
AcDbCircle
 62
7
  6
CONTINUOUS
 10
7.2161198442
 20
5.4919826675
 40
0.32175
100
AcDbArc
 50
311.9693863733
 51
313.0855586817
  0
ARC
  5
602
100
AcDbEntity
  8
0
100
AcDbCircle
 62
7
  6
CONTINUOUS
 10
7.2161198442
 20
5.4919826675
 40
0.32175
100
AcDbArc
 50
315.9254303293
 51
317.0416026377
  0
ARC
  5
603
100
AcDbEntity
  8
0
100
AcDbCircle
 62
7
  6
CONTINUOUS
 10
7.2161198442
 20
5.4919826675
 40
0.32175
100
AcDbArc
 50
319.8814742854
 51
320.9976465937
  0
ARC
  5
604
100
AcDbEntity
  8
0
100
AcDbCircle
 62
7
  6
CONTINUOUS
 10
7.2161198442
 20
5.4919826675
 40
0.32175
100
AcDbArc
 50
323.8375182414
 51
324.9536905498
  0
ARC
  5
605
100
AcDbEntity
  8
0
100
AcDbCircle
 62
7
  6
CONTINUOUS
 10
7.2161198442
 20
5.4919826675
 40
0.32175
100
AcDbArc
 50
327.7935621975
 51
328.9097345058
  0
ARC
  5
606
100
AcDbEntity
  8
0
100
AcDbCircle
 62
7
  6
CONTINUOUS
 10
7.2161198442
 20
5.4919826675
 40
0.32175
100
AcDbArc
 50
331.7496061535
 51
332.8657784619
  0
ARC
  5
607
100
AcDbEntity
  8
0
100
AcDbCircle
 62
7
  6
CONTINUOUS
 10
7.2161198442
 20
5.4919826675
 40
0.32175
100
AcDbArc
 50
335.7056501095
 51
336.8218224179
  0
ARC
  5
608
100
AcDbEntity
  8
0
100
AcDbCircle
 62
7
  6
CONTINUOUS
 10
7.2161198442
 20
5.4919826675
 40
0.32175
100
AcDbArc
 50
339.6616940656
 51
340.777866374
  0
ARC
  5
609
100
AcDbEntity
  8
0
100
AcDbCircle
 62
7
  6
CONTINUOUS
 10
7.2161198442
 20
5.4919826675
 40
0.32175
100
AcDbArc
 50
343.6177380216
 51
344.1733703706
  0
ARC
  5
60A
100
AcDbEntity
  8
0
100
AcDbCircle
 62
7
  6
CONTINUOUS
 10
7.2161198442
 20
5.4919826675
 40
0.32175
100
AcDbArc
 50
15.8266296294
 51
16.3822619784
  0
ARC
  5
60B
100
AcDbEntity
  8
0
100
AcDbCircle
 62
7
  6
CONTINUOUS
 10
7.2161198442
 20
5.4919826675
 40
0.32175
100
AcDbArc
 50
19.222133626
 51
20.3383059344
  0
ARC
  5
60C
100
AcDbEntity
  8
0
100
AcDbCircle
 62
7
  6
CONTINUOUS
 10
7.2161198442
 20
5.4919826675
 40
0.32175
100
AcDbArc
 50
23.1781775821
 51
24.2943498905
  0
ARC
  5
60D
100
AcDbEntity
  8
0
100
AcDbCircle
 62
7
  6
CONTINUOUS
 10
7.2161198442
 20
5.4919826675
 40
0.32175
100
AcDbArc
 50
27.1342215381
 51
28.2503938465
  0
ARC
  5
60E
100
AcDbEntity
  8
0
100
AcDbCircle
 62
7
  6
CONTINUOUS
 10
7.2161198442
 20
5.4919826675
 40
0.32175
100
AcDbArc
 50
31.0902654942
 51
32.2064378025
  0
ARC
  5
60F
100
AcDbEntity
  8
0
100
AcDbCircle
 62
7
  6
CONTINUOUS
 10
7.2161198442
 20
5.4919826675
 40
0.32175
100
AcDbArc
 50
35.0463094502
 51
36.1624817586
  0
ARC
  5
610
100
AcDbEntity
  8
0
100
AcDbCircle
 62
7
  6
CONTINUOUS
 10
7.2161198442
 20
5.4919826675
 40
0.32175
100
AcDbArc
 50
39.0023534063
 51
40.1185257146
  0
ARC
  5
611
100
AcDbEntity
  8
0
100
AcDbCircle
 62
7
  6
CONTINUOUS
 10
7.2161198442
 20
5.4919826675
 40
0.32175
100
AcDbArc
 50
42.9583973623
 51
44.0745696707
  0
ARC
  5
612
100
AcDbEntity
  8
0
100
AcDbCircle
 62
7
  6
CONTINUOUS
 10
7.2161198442
 20
5.4919826675
 40
0.32175
100
AcDbArc
 50
46.9144413183
 51
48.0306136267
  0
ARC
  5
613
100
AcDbEntity
  8
0
100
AcDbCircle
 62
7
  6
CONTINUOUS
 10
7.2161198442
 20
5.4919826675
 40
0.32175
100
AcDbArc
 50
50.8704852744
 51
51.9866575828
  0
ARC
  5
614
100
AcDbEntity
  8
0
100
AcDbCircle
 62
7
  6
CONTINUOUS
 10
7.2161198442
 20
5.4919826675
 40
0.32175
100
AcDbArc
 50
54.8265292304
 51
55.9427015388
  0
ARC
  5
615
100
AcDbEntity
  8
0
100
AcDbCircle
 62
7
  6
CONTINUOUS
 10
7.2161198442
 20
5.4919826675
 40
0.32175
100
AcDbArc
 50
58.7825731865
 51
59.8987454948
  0
ARC
  5
616
100
AcDbEntity
  8
0
100
AcDbCircle
 62
7
  6
CONTINUOUS
 10
7.2161198442
 20
5.4919826675
 40
0.32175
100
AcDbArc
 50
62.7386171425
 51
63.8547894509
  0
ARC
  5
617
100
AcDbEntity
  8
0
100
AcDbCircle
 62
7
  6
CONTINUOUS
 10
7.2161198442
 20
5.4919826675
 40
0.32175
100
AcDbArc
 50
66.6946610986
 51
67.8108334069
  0
ARC
  5
618
100
AcDbEntity
  8
0
100
AcDbCircle
 62
7
  6
CONTINUOUS
 10
7.2161198442
 20
5.4919826675
 40
0.32175
100
AcDbArc
 50
70.6507050546
 51
71.766877363
  0
ARC
  5
619
100
AcDbEntity
  8
0
100
AcDbCircle
 62
7
  6
CONTINUOUS
 10
7.2161198442
 20
5.4919826675
 40
0.32175
100
AcDbArc
 50
74.6067490106
 51
75.722921319
  0
ARC
  5
61A
100
AcDbEntity
  8
0
100
AcDbCircle
 62
7
  6
CONTINUOUS
 10
7.2161198442
 20
5.4919826675
 40
0.32175
100
AcDbArc
 50
78.5627929667
 51
79.6789652751
  0
ARC
  5
61B
100
AcDbEntity
  8
0
100
AcDbCircle
 62
7
  6
CONTINUOUS
 10
7.2161198442
 20
5.4919826675
 40
0.32175
100
AcDbArc
 50
82.5188369227
 51
83.6350092311
  0
ARC
  5
61C
100
AcDbEntity
  8
0
100
AcDbCircle
 62
7
  6
CONTINUOUS
 10
7.2161198442
 20
5.4919826675
 40
0.32175
100
AcDbArc
 50
86.4748808788
 51
87.5910531872
  0
ARC
  5
61D
100
AcDbEntity
  8
0
100
AcDbCircle
 62
7
  6
CONTINUOUS
 10
7.2161198442
 20
5.4919826675
 40
0.32175
100
AcDbArc
 50
90.4309248348
 51
91.5470971432
  0
ARC
  5
61E
100
AcDbEntity
  8
0
100
AcDbCircle
 62
7
  6
CONTINUOUS
 10
7.2161198442
 20
5.4919826675
 40
0.32175
100
AcDbArc
 50
94.3869687909
 51
95.5031410992
  0
ARC
  5
61F
100
AcDbEntity
  8
0
100
AcDbCircle
 62
7
  6
CONTINUOUS
 10
7.2161198442
 20
5.4919826675
 40
0.32175
100
AcDbArc
 50
98.3430127469
 51
99.4591850553
  0
ARC
  5
620
100
AcDbEntity
  8
0
100
AcDbCircle
 62
7
  6
CONTINUOUS
 10
7.2161198442
 20
5.4919826675
 40
0.32175
100
AcDbArc
 50
102.299056703
 51
103.4152290113
  0
ARC
  5
621
100
AcDbEntity
  8
0
100
AcDbCircle
 62
7
  6
CONTINUOUS
 10
7.2161198442
 20
5.4919826675
 40
0.32175
100
AcDbArc
 50
106.255100659
 51
107.3712729674
  0
ARC
  5
622
100
AcDbEntity
  8
0
100
AcDbCircle
 62
7
  6
CONTINUOUS
 10
7.2161198442
 20
5.4919826675
 40
0.32175
100
AcDbArc
 50
110.211144615
 51
111.3273169234
  0
ARC
  5
623
100
AcDbEntity
  8
0
100
AcDbCircle
 62
7
  6
CONTINUOUS
 10
7.2161198442
 20
5.4919826675
 40
0.32175
100
AcDbArc
 50
114.1671885711
 51
115.2833608795
  0
ARC
  5
624
100
AcDbEntity
  8
0
100
AcDbCircle
 62
7
  6
CONTINUOUS
 10
7.2161198442
 20
5.4919826675
 40
0.32175
100
AcDbArc
 50
118.1232325271
 51
119.2394048355
  0
ARC
  5
625
100
AcDbEntity
  8
0
100
AcDbCircle
 62
7
  6
CONTINUOUS
 10
7.2161198442
 20
5.4919826675
 40
0.32175
100
AcDbArc
 50
122.0792764832
 51
123.1954487916
  0
ARC
  5
626
100
AcDbEntity
  8
0
100
AcDbCircle
 62
7
  6
CONTINUOUS
 10
7.2161198442
 20
5.4919826675
 40
0.32175
100
AcDbArc
 50
126.0353204392
 51
127.1514927476
  0
ARC
  5
627
100
AcDbEntity
  8
0
100
AcDbCircle
 62
7
  6
CONTINUOUS
 10
7.2161198442
 20
5.4919826675
 40
0.32175
100
AcDbArc
 50
129.9913643953
 51
131.1075367036
  0
ARC
  5
628
100
AcDbEntity
  8
0
100
AcDbCircle
 62
7
  6
CONTINUOUS
 10
7.2161198442
 20
5.4919826675
 40
0.32175
100
AcDbArc
 50
133.9474083513
 51
135.0635806597
  0
ARC
  5
629
100
AcDbEntity
  8
0
100
AcDbCircle
 62
7
  6
CONTINUOUS
 10
7.2161198442
 20
5.4919826675
 40
0.32175
100
AcDbArc
 50
137.9034523074
 51
139.0196246157
  0
ARC
  5
62A
100
AcDbEntity
  8
0
100
AcDbCircle
 62
7
  6
CONTINUOUS
 10
7.2161198442
 20
5.4919826675
 40
0.32175
100
AcDbArc
 50
141.8594962634
 51
142.9756685718
  0
ARC
  5
62B
100
AcDbEntity
  8
0
100
AcDbCircle
 62
7
  6
CONTINUOUS
 10
7.2161198442
 20
5.4919826675
 40
0.32175
100
AcDbArc
 50
145.8155402194
 51
146.9317125278
  0
ARC
  5
62C
100
AcDbEntity
  8
0
100
AcDbCircle
 62
7
  6
CONTINUOUS
 10
7.2161198442
 20
5.4919826675
 40
0.32175
100
AcDbArc
 50
149.7715841755
 51
150.8877564839
  0
ARC
  5
62D
100
AcDbEntity
  8
0
100
AcDbCircle
 62
7
  6
CONTINUOUS
 10
7.2161198442
 20
5.4919826675
 40
0.32175
100
AcDbArc
 50
153.7276281315
 51
154.8438004399
  0
ARC
  5
62E
100
AcDbEntity
  8
0
100
AcDbCircle
 62
7
  6
CONTINUOUS
 10
7.2161198442
 20
5.4919826675
 40
0.32175
100
AcDbArc
 50
157.6836720876
 51
158.7998443959
  0
ARC
  5
62F
100
AcDbEntity
  8
0
100
AcDbCircle
 62
7
  6
CONTINUOUS
 10
7.2161198442
 20
5.4919826675
 40
0.32175
100
AcDbArc
 50
161.6397160436
 51
162.755888352
  0
ARC
  5
630
100
AcDbEntity
  8
0
100
AcDbCircle
 62
7
  6
CONTINUOUS
 10
7.2161198442
 20
5.4919826675
 40
0.32175
100
AcDbArc
 50
165.5957599997
 51
166.711932308
  0
ARC
  5
631
100
AcDbEntity
  8
0
100
AcDbCircle
 62
7
  6
CONTINUOUS
 10
7.2161198442
 20
5.4919826675
 40
0.32175
100
AcDbArc
 50
169.5518039557
 51
170.6679762641
  0
ARC
  5
632
100
AcDbEntity
  8
0
100
AcDbCircle
 62
7
  6
CONTINUOUS
 10
7.2161198442
 20
5.4919826675
 40
0.32175
100
AcDbArc
 50
173.5078479117
 51
174.6240202201
  0
ARC
  5
633
100
AcDbEntity
  8
0
100
AcDbCircle
 62
7
  6
CONTINUOUS
 10
7.2161198442
 20
5.4919826675
 40
0.32175
100
AcDbArc
 50
177.4638918678
 51
178.5800641762
  0
ARC
  5
634
100
AcDbEntity
  8
0
100
AcDbCircle
 62
9
  6
CONTINUOUS
 10
7.2161198442
 20
5.4919826675
 40
0.3124427049
100
AcDbArc
 50
16.3126149449
 51
343.6873850551
  0
ARC
  5
635
100
AcDbEntity
  8
0
100
AcDbCircle
 62
9
  6
CONTINUOUS
 10
7.1359593462
 20
5.4920546883
 40
0.2370902276
100
AcDbArc
 50
184.7277961661
 51
185.7705003193
  0
ARC
  5
636
100
AcDbEntity
  8
0
100
AcDbCircle
 62
9
  6
CONTINUOUS
 10
7.1328910356
 20
5.4919863393
 40
0.2340211914
100
AcDbArc
 50
180.0008989728
 51
180.5603200757
  0
ARC
  5
637
100
AcDbEntity
  8
0
100
AcDbCircle
 62
9
  6
CONTINUOUS
 10
7.2161198442
 20
5.4919826675
 40
0.2174477819
100
AcDbArc
 50
23.8006585923
 51
336.1993414077
  0
ARC
  5
638
100
AcDbEntity
  8
0
100
AcDbCircle
 62
9
  6
CONTINUOUS
 10
7.2161198442
 20
5.4919826675
 40
0.2060483911
100
AcDbArc
 50
25.205934889
 51
334.7940651145
  0
ARC
  5
639
100
AcDbEntity
  8
0
100
AcDbCircle
 62
9
  6
CONTINUOUS
 10
7.2161198442
 20
5.4919826675
 40
0.1935
100
AcDbArc
 50
26.9703682639
 51
333.0296317517
  0
ARC
  5
63A
100
AcDbEntity
  8
0
100
AcDbCircle
 62
7
  6
CONTINUOUS
 10
7.2161198442
 20
5.4919826675
 40
0.18
100
AcDbArc
 50
29.1797780863
 51
330.8202219137
  0
ARC
  5
63B
100
AcDbEntity
  8
0
100
AcDbCircle
 62
9
  6
CONTINUOUS
 10
7.2161198442
 20
5.4919826675
 40
0.1665
100
AcDbArc
 50
31.8062799094
 51
328.1937201047
  0
ARC
  5
63C
100
AcDbEntity
  8
0
100
AcDbCircle
 62
7
  6
CONTINUOUS
 10
7.2161198442
 20
5.4919826675
 40
0.165375
100
AcDbArc
 50
32.0719395921
 51
327.9280604079
  0
ARC
  5
63D
100
AcDbEntity
  8
0
100
AcDbCircle
 62
9
  6
CONTINUOUS
 10
7.2161198442
 20
5.4919826675
 40
0.138375
100
AcDbArc
 50
39.3616379292
 51
320.6383620708
  0
ARC
  5
63E
100
AcDbEntity
  8
0
100
AcDbCircle
 62
9
  6
CONTINUOUS
 10
7.2161198442
 20
5.4919826675
 40
0.09675
100
AcDbArc
 50
65.106588772
 51
294.8934112168
  0
ARC
  5
63F
100
AcDbEntity
  8
0
100
AcDbCircle
 62
7
  6
CONTINUOUS
 10
7.2161198442
 20
5.4919826675
 40
0.08775
100
AcDbArc
 50
90.0
 51
270.0
  0
ARC
  5
640
100
AcDbEntity
  8
0
100
AcDbCircle
 62
7
  6
CONTINUOUS
 10
7.5333698442
 20
5.6313088039
 40
0.0340261364
100
AcDbArc
 50
270.0
 51
352.6955544394
  0
ARC
  5
641
100
AcDbEntity
  8
0
100
AcDbCircle
 62
7
  6
CONTINUOUS
 10
7.5952448442
 20
5.6269826675
 40
0.028125
100
AcDbArc
 50
0.0
 51
180.0
  0
ARC
  5
642
100
AcDbEntity
  8
0
100
AcDbCircle
 62
7
  6
CONTINUOUS
 10
8.8113698442
 20
5.6371076675
 40
0.027
100
AcDbArc
 50
0.0
 51
180.0
  0
SPLINE
  5
643
100
AcDbEntity
  8
0
100
AcDbSpline
 62
7
  6
CONTINUOUS
 70
0
 71
3
 72
27
 73
23
 74
0
 42
0.0000001
 43
0.0000001
 44
0.0000000001
 40
0.0
 40
0.0
 40
0.0
 40
0.0
 40
0.0629039818
 40
0.1258084934
 40
0.1886481772
 40
0.251430777
 40
0.2828095245
 40
0.3141669702
 40
0.3455021744
 40
0.3768149686
 40
0.4393393455
 40
0.5017751817
 40
0.5641307504
 40
0.6264199428
 40
0.6886614843
 40
0.7197877564
 40
0.7509103243
 40
0.8131224348
 40
0.8753565722
 40
0.9065051755
 40
0.9376648312
 40
1.0
 40
1.0
 40
1.0
 40
1.0
 10
5.4161198442
 20
1.2743309454
 30
0.0
 10
5.4006013318
 20
1.2743309454
 30
0.0
 10
5.3695279036
 20
1.276325565
 30
0.0
 10
5.3237245888
 20
1.2852373739
 30
0.0
 10
5.279463861
 20
1.2999324915
 30
0.0
 10
5.2444667531
 20
1.3167974976
 30
0.0
 10
5.217984703
 20
1.3328808683
 30
0.0
 10
5.1989523121
 20
1.3461899253
 30
0.0
 10
5.1808308463
 20
1.360689145
 30
0.0
 10
5.1580052502
 20
1.3815139527
 30
0.0
 10
5.1320966731
 20
1.4102224225
 30
0.0
 10
5.1057752109
 20
1.448359729
 30
0.0
 10
5.0846579471
 20
1.4895475822
 30
0.0
 10
5.0691034574
 20
1.5330859673
 30
0.0
 10
5.0609896601
 20
1.5707422724
 30
0.0
 10
5.0575001665
 20
1.6012743943
 30
0.0
 10
5.05601256
 20
1.6319623606
 30
0.0
 10
5.0579362192
 20
1.6704105492
 30
0.0
 10
5.0648723547
 20
1.7082825344
 30
0.0
 10
5.0733498202
 20
1.737835468
 30
0.0
 10
5.0837428113
 20
1.7667922317
 30
0.0
 10
5.0936628674
 20
1.7877110225
 30
0.0
 10
5.1011424647
 20
1.8011476965
 30
0.0
  0
SPLINE
  5
644
100
AcDbEntity
  8
0
100
AcDbSpline
 62
7
  6
CONTINUOUS
 70
0
 71
3
 72
27
 73
23
 74
0
 42
0.0000001
 43
0.0000001
 44
0.0000000001
 40
0.0
 40
0.0
 40
0.0
 40
0.0
 40
0.0623351446
 40
0.0934947927
 40
0.1246433885
 40
0.1868775141
 40
0.2490896189
 40
0.2802121858
 40
0.3113384579
 40
0.3735800035
 40
0.4358692031
 40
0.4982247809
 40
0.5606606273
 40
0.6231850143
 40
0.6544978125
 40
0.6858330205
 40
0.7171904695
 40
0.7485692199
 40
0.8113518239
 40
0.8741915097
 40
0.937096021
 40
1.0
 40
1.0
 40
1.0
 40
1.0
 10
5.7311016772
 20
1.801139696
 30
0.0
 10
5.7385808315
 20
1.7877029997
 30
0.0
 10
5.7485002372
 20
1.7667842278
 30
0.0
 10
5.758892404
 20
1.7378275828
 30
0.0
 10
5.7673690834
 20
1.7082748261
 30
0.0
 10
5.7743043003
 20
1.6704031651
 30
0.0
 10
5.7762271558
 20
1.6319554201
 30
0.0
 10
5.7747389848
 20
1.6012678632
 30
0.0
 10
5.7712489784
 20
1.5707361816
 30
0.0
 10
5.7631346411
 20
1.5330804797
 30
0.0
 10
5.7475796738
 20
1.4895428696
 30
0.0
 10
5.7264621051
 20
1.4483558117
 30
0.0
 10
5.7001405068
 20
1.4102192895
 30
0.0
 10
5.6742319477
 20
1.3815114427
 30
0.0
 10
5.6514064394
 20
1.3606870991
 30
0.0
 10
5.6332850732
 20
1.3461882098
 30
0.0
 10
5.6142528153
 20
1.3328794597
 30
0.0
 10
5.587770981
 20
1.3167964667
 30
0.0
 10
5.5527742123
 20
1.2999318638
 30
0.0
 10
5.5085139741
 20
1.2852371045
 30
0.0
 10
5.4627112071
 20
1.2763255154
 30
0.0
 10
5.4316381643
 20
1.2743309454
 30
0.0
 10
5.4161198442
 20
1.2743309454
 30
0.0
  0
SPLINE
  5
645
100
AcDbEntity
  8
0
100
AcDbSpline
 62
7
  6
CONTINUOUS
 70
0
 71
3
 72
29
 73
25
 74
0
 42
0.0000001
 43
0.0000001
 44
0.0000000001
 40
0.0
 40
0.0
 40
0.0
 40
0.0
 40
0.0311114672
 40
0.0622214814
 40
0.093332423
 40
0.1244466013
 40
0.186657161
 40
0.2489096516
 40
0.2800756013
 40
0.3112573505
 40
0.3736344098
 40
0.4360846743
 40
0.4986074817
 40
0.5611970834
 40
0.6238427421
 40
0.6865287159
 40
0.7178996206
 40
0.7492736191
 40
0.8119827046
 40
0.874673279
 40
0.9060240124
 40
0.9373634588
 40
0.9686892872
 40
1.0
 40
1.0
 40
1.0
 40
1.0
 10
5.7290517278
 20
1.7724772119
 30
0.0
 10
5.7298906114
 20
1.7652671156
 30
0.0
 10
5.7310597983
 20
1.7507827562
 30
0.0
 10
5.7312754761
 20
1.7289911612
 30
0.0
 10
5.7299587606
 20
1.7072355284
 30
0.0
 10
5.7261617291
 20
1.6784321551
 30
0.0
 10
5.7176208463
 20
1.6430208123
 30
0.0
 10
5.7041819237
 20
1.6091521407
 30
0.0
 10
5.6906734181
 20
1.583386677
 30
0.0
 10
5.6753738557
 20
1.5586090219
 30
0.0
 10
5.6530317262
 20
1.5297102015
 30
0.0
 10
5.6216357438
 20
1.4990972189
 30
0.0
 10
5.5862511933
 20
1.4731088038
 30
0.0
 10
5.5475695336
 20
1.4522488753
 30
0.0
 10
5.5063461832
 20
1.4369176666
 30
0.0
 10
5.4705238807
 20
1.4289975632
 30
0.0
 10
5.4414296795
 20
1.4256622795
 30
0.0
 10
5.4121687173
 20
1.4243446297
 30
0.0
 10
5.3755304287
 20
1.4264856473
 30
0.0
 10
5.3395412681
 20
1.4336563638
 30
0.0
 10
5.3115793374
 20
1.442317087
 30
0.0
 10
5.2911078288
 20
1.4502469239
 30
0.0
 10
5.2712431549
 20
1.4595669865
 30
0.0
 10
5.2584640636
 20
1.4666853717
 30
0.0
 10
5.2522092677
 20
1.4704594638
 30
0.0
  0
SPLINE
  5
646
100
AcDbEntity
  8
0
100
AcDbSpline
 62
7
  6
CONTINUOUS
 70
0
 71
3
 72
27
 73
23
 74
0
 42
0.0000001
 43
0.0000001
 44
0.0000000001
 40
0.0
 40
0.0
 40
0.0
 40
0.0
 40
0.0624282361
 40
0.0936376432
 40
0.1248339682
 40
0.1871564608
 40
0.2494499151
 40
0.2806102361
 40
0.3117704712
 40
0.3740630434
 40
0.4363839061
 40
0.4987503353
 40
0.5611757709
 40
0.6236690495
 40
0.6549609736
 40
0.686270722
 40
0.717598549
 40
0.7489438015
 40
0.8116455617
 40
0.8743929643
 40
0.9371996436
 40
1.0
 40
1.0
 40
1.0
 40
1.0
 10
5.6726248276
 20
1.9891452558
 30
0.0
 10
5.6809562089
 20
1.9775712802
 30
0.0
 10
5.6922813272
 20
1.9593207439
 30
0.0
 10
5.7047420616
 20
1.9336529851
 30
0.0
 10
5.7154013408
 20
1.9072075803
 30
0.0
 10
5.7252599132
 20
1.87288259
 30
0.0
 10
5.7302928419
 20
1.83753353
 30
0.0
 10
5.7313628588
 20
1.809067619
 30
0.0
 10
5.7304695089
 20
1.780596231
 30
0.0
 10
5.7256550663
 20
1.745214661
 30
0.0
 10
5.714084553
 20
1.7039613635
 30
0.0
 10
5.6969358927
 20
1.6646595535
 30
0.0
 10
5.6745364217
 20
1.6280549511
 30
0.0
 10
5.651838463
 20
1.6003627072
 30
0.0
 10
5.6315435306
 20
1.5802195526
 30
0.0
 10
5.6153029477
 20
1.566170396
 30
0.0
 10
5.5981324987
 20
1.5532542525
 30
0.0
 10
5.5741111896
 20
1.5376250449
 30
0.0
 10
5.5421453645
 20
1.5212030092
 30
0.0
 10
5.5014622412
 20
1.5068678544
 30
0.0
 10
5.4591959515
 20
1.4981646338
 30
0.0
 10
5.4304655934
 20
1.4962152966
 30
0.0
 10
5.4161198442
 20
1.4962152966
 30
0.0
  0
SPLINE
  5
647
100
AcDbEntity
  8
0
100
AcDbSpline
 62
7
  6
CONTINUOUS
 70
0
 71
3
 72
27
 73
23
 74
0
 42
0.0000001
 43
0.0000001
 44
0.0000000001
 40
0.0
 40
0.0
 40
0.0
 40
0.0
 40
0.0628003825
 40
0.1256070427
 40
0.1883544091
 40
0.2510561129
 40
0.2824013295
 40
0.3137291181
 40
0.3450388277
 40
0.3763307146
 40
0.4388239152
 40
0.5012492825
 40
0.5636156668
 40
0.6259365063
 40
0.6882290782
 40
0.7193893292
 40
0.7505496688
 40
0.8128431929
 40
0.8751657788
 40
0.9063621595
 40
0.9375716267
 40
1.0
 40
1.0
 40
1.0
 40
1.0
 10
5.4161198442
 20
1.4962152966
 30
0.0
 10
5.4017740801
 20
1.4962152966
 30
0.0
 10
5.3730437023
 20
1.4981646366
 30
0.0
 10
5.3307773932
 20
1.506867867
 30
0.0
 10
5.2900942736
 20
1.5212030352
 30
0.0
 10
5.2581284524
 20
1.5376250648
 30
0.0
 10
5.2341071617
 20
1.5532542781
 30
0.0
 10
5.2169367148
 20
1.5661704044
 30
0.0
 10
5.200696154
 20
1.580219567
 30
0.0
 10
5.1804012238
 20
1.6003626993
 30
0.0
 10
5.1577032923
 20
1.6280549405
 30
0.0
 10
5.1353038079
 20
1.6646595131
 30
0.0
 10
5.1181551398
 20
1.7039613166
 30
0.0
 10
5.106584632
 20
1.7452146282
 30
0.0
 10
5.1017701963
 20
1.7805962187
 30
0.0
 10
5.100876827
 20
1.8090676318
 30
0.0
 10
5.1019468384
 20
1.8375335848
 30
0.0
 10
5.1069797838
 20
1.8728827102
 30
0.0
 10
5.1168384279
 20
1.907207753
 30
0.0
 10
5.1274977133
 20
1.933653227
 30
0.0
 10
5.1399585423
 20
1.9593210242
 30
0.0
 10
5.1512836846
 20
1.9775716138
 30
0.0
 10
5.159615108
 20
1.9891456087
 30
0.0
  0
SPLINE
  5
648
100
AcDbEntity
  8
0
100
AcDbSpline
 62
7
  6
CONTINUOUS
 70
0
 71
3
 72
22
 73
18
 74
0
 42
0.0000001
 43
0.0000001
 44
0.0000000001
 40
0.0
 40
0.0
 40
0.0
 40
0.0
 40
0.0621862691
 40
0.1243590611
 40
0.1865253243
 40
0.2487267456
 40
0.3110105525
 40
0.3733857275
 40
0.4358355808
 40
0.4983354473
 40
0.5608702575
 40
0.5921627278
 40
0.623471645
 40
0.6861382426
 40
0.7488988742
 40
0.8744506912
 40
1.0
 40
1.0
 40
1.0
 40
1.0
 10
5.6724960287
 20
1.8148029434
 30
0.0
 10
5.6724263684
 20
1.8065515508
 30
0.0
 10
5.6714861863
 20
1.7900459708
 30
0.0
 10
5.6676718994
 20
1.7655528779
 30
0.0
 10
5.6614537254
 20
1.7415501403
 30
0.0
 10
5.6528224164
 20
1.7182903825
 30
0.0
 10
5.6419112637
 20
1.6959806753
 30
0.0
 10
5.6288671251
 20
1.6748099017
 30
0.0
 10
5.6138302801
 20
1.6549688416
 30
0.0
 10
5.5969427003
 20
1.636649485
 30
0.0
 10
5.5814415781
 20
1.6228106151
 30
0.0
 10
5.5682632487
 20
1.6126987545
 30
0.0
 10
5.5545791571
 20
1.6032520627
 30
0.0
 10
5.5365991516
 20
1.5927242999
 30
0.0
 10
5.5063296168
 20
1.5787352424
 30
0.0
 10
5.4661765593
 20
1.5667390702
 30
0.0
 10
5.4327793668
 20
1.5634087221
 30
0.0
 10
5.4161198442
 20
1.5634087221
 30
0.0
  0
SPLINE
  5
649
100
AcDbEntity
  8
0
100
AcDbSpline
 62
7
  6
CONTINUOUS
 70
0
 71
3
 72
22
 73
18
 74
0
 42
0.0000001
 43
0.0000001
 44
0.0000000001
 40
0.0
 40
0.0
 40
0.0
 40
0.0
 40
0.0625499766
 40
0.1250732087
 40
0.1875609505
 40
0.2500395329
 40
0.3125480041
 40
0.3750898881
 40
0.4376434768
 40
0.500179868
 40
0.5626809527
 40
0.5939298502
 40
0.6251774132
 40
0.6876714822
 40
0.7502015985
 40
0.8751546837
 40
1.0
 40
1.0
 40
1.0
 40
1.0
 10
5.6725051227
 20
5.4919826675
 30
0.0
 10
5.6725051227
 20
5.5003756231
 30
0.0
 10
5.671695836
 20
5.5171693294
 30
0.0
 10
5.6680520117
 20
5.5421092542
 30
0.0
 10
5.6619795389
 20
5.5665665989
 30
0.0
 10
5.6534650788
 20
5.5902825378
 30
0.0
 10
5.6426345468
 20
5.6130399084
 30
0.0
 10
5.6296396773
 20
5.6346448215
 30
0.0
 10
5.6146223752
 20
5.6549009489
 30
0.0
 10
5.5977270684
 20
5.6736109596
 30
0.0
 10
5.5821939965
 20
5.6877545955
 30
0.0
 10
5.5689781172
 20
5.6980916973
 30
0.0
 10
5.5552562701
 20
5.7077451503
 30
0.0
 10
5.5372138398
 20
5.7185052979
 30
0.0
 10
5.5068232684
 20
5.7328030454
 30
0.0
 10
5.4664703911
 20
5.7450734442
 30
0.0
 10
5.4328715883
 20
5.7484826675
 30
0.0
 10
5.4161198442
 20
5.7484826675
 30
0.0
  0
SPLINE
  5
64A
100
AcDbEntity
  8
0
100
AcDbSpline
 62
7
  6
CONTINUOUS
 70
0
 71
3
 72
22
 73
18
 74
0
 42
0.0000001
 43
0.0000001
 44
0.0000000001
 40
0.0
 40
0.0
 40
0.0
 40
0.0
 40
0.1248453163
 40
0.2497984015
 40
0.3123285178
 40
0.3748225868
 40
0.4060701498
 40
0.4373190473
 40
0.499820132
 40
0.5623565232
 40
0.6249101119
 40
0.6874519959
 40
0.7499604671
 40
0.8124390495
 40
0.8749267913
 40
0.9374500234
 40
1.0
 40
1.0
 40
1.0
 40
1.0
 10
5.4161198442
 20
5.7484826675
 30
0.0
 10
5.3993681002
 20
5.7484826675
 30
0.0
 10
5.3657692973
 20
5.7450734442
 30
0.0
 10
5.32541642
 20
5.7328030454
 30
0.0
 10
5.2950258487
 20
5.7185052979
 30
0.0
 10
5.2769834183
 20
5.7077451503
 30
0.0
 10
5.2632615712
 20
5.6980916973
 30
0.0
 10
5.2500456919
 20
5.6877545955
 30
0.0
 10
5.23451262
 20
5.6736109596
 30
0.0
 10
5.2176173132
 20
5.6549009489
 30
0.0
 10
5.2026000111
 20
5.6346448215
 30
0.0
 10
5.1896051417
 20
5.6130399084
 30
0.0
 10
5.1787746096
 20
5.5902825378
 30
0.0
 10
5.1702601495
 20
5.5665665989
 30
0.0
 10
5.1641876767
 20
5.5421092542
 30
0.0
 10
5.1605438525
 20
5.5171693294
 30
0.0
 10
5.1597345657
 20
5.5003756231
 30
0.0
 10
5.1597345657
 20
5.4919826675
 30
0.0
  0
SPLINE
  5
64B
100
AcDbEntity
  8
0
100
AcDbSpline
 62
7
  6
CONTINUOUS
 70
0
 71
3
 72
22
 73
18
 74
0
 42
0.0000001
 43
0.0000001
 44
0.0000000001
 40
0.0
 40
0.0
 40
0.0
 40
0.0
 40
0.1255493088
 40
0.2511011258
 40
0.3138617574
 40
0.376528355
 40
0.4078372722
 40
0.4391297425
 40
0.5016645527
 40
0.5641644192
 40
0.6266142725
 40
0.6889894475
 40
0.7512732544
 40
0.8134746757
 40
0.8756409389
 40
0.9378137309
 40
1.0
 40
1.0
 40
1.0
 40
1.0
 10
5.4161198442
 20
1.5634087221
 30
0.0
 10
5.3994603216
 20
1.5634087221
 30
0.0
 10
5.3660631291
 20
1.5667390702
 30
0.0
 10
5.3259100716
 20
1.5787352424
 30
0.0
 10
5.2956405368
 20
1.5927242999
 30
0.0
 10
5.2776605313
 20
1.6032520627
 30
0.0
 10
5.2639764398
 20
1.6126987545
 30
0.0
 10
5.2507981103
 20
1.6228106151
 30
0.0
 10
5.2352969881
 20
1.636649485
 30
0.0
 10
5.2184094083
 20
1.6549688416
 30
0.0
 10
5.2033725633
 20
1.6748099017
 30
0.0
 10
5.1903284247
 20
1.6959806753
 30
0.0
 10
5.1794172721
 20
1.7182903825
 30
0.0
 10
5.1707859631
 20
1.7415501403
 30
0.0
 10
5.164567789
 20
1.7655528779
 30
0.0
 10
5.1607535022
 20
1.7900459708
 30
0.0
 10
5.15981332
 20
1.8065515508
 30
0.0
 10
5.1597436597
 20
1.8148029434
 30
0.0
  0
SPLINE
  5
64C
100
AcDbEntity
  8
0
100
AcDbSpline
 62
7
  6
CONTINUOUS
 70
0
 71
3
 72
15
 73
11
 74
0
 42
0.0000001
 43
0.0000001
 44
0.0000000001
 40
0.0
 40
0.0
 40
0.0
 40
0.0
 40
0.1254349339
 40
0.2507221932
 40
0.3758591078
 40
0.5008561836
 40
0.625735387
 40
0.7505268268
 40
0.8752674943
 40
1.0
 40
1.0
 40
1.0
 40
1.0
 10
5.2522092677
 20
1.4704594638
 30
0.0
 10
5.2394794895
 20
1.4781405068
 30
0.0
 10
5.2150843975
 20
1.4953168749
 30
0.0
 10
5.1825528239
 20
1.5259630992
 30
0.0
 10
5.1547227957
 20
1.560879904
 30
0.0
 10
5.132169368
 20
1.5993583922
 30
0.0
 10
5.115350365
 20
1.6406231619
 30
0.0
 10
5.1046138268
 20
1.6838426636
 30
0.0
 10
5.1001768461
 20
1.7281274337
 30
0.0
 10
5.1014791681
 20
1.7577891559
 30
0.0
 10
5.1031876462
 20
1.7724744554
 30
0.0
  0
SPLINE
  5
64D
100
AcDbEntity
  8
0
100
AcDbSpline
 62
9
  6
CONTINUOUS
 70
0
 71
3
 72
23
 73
19
 74
0
 42
0.0000001
 43
0.0000001
 44
0.0000000001
 40
0.0
 40
0.0
 40
0.0
 40
0.0
 40
0.0624523828
 40
0.1248515922
 40
0.1872086099
 40
0.2495373961
 40
0.3118524863
 40
0.3741690086
 40
0.4365026465
 40
0.4988672039
 40
0.5612766867
 40
0.6237414706
 40
0.6862712864
 40
0.748871739
 40
0.8115460818
 40
0.8742941763
 40
0.9371141868
 40
1.0
 40
1.0
 40
1.0
 40
1.0
 10
5.7311057186
 20
1.8011276634
 30
0.0
 10
5.737033927
 20
1.7904768
 30
0.0
 10
5.7477903945
 20
1.7685533133
 30
0.0
 10
5.760433378
 20
1.7342042864
 30
0.0
 10
5.7694430213
 20
1.6987492479
 30
0.0
 10
5.7747321475
 20
1.6625692758
 30
0.0
 10
5.7762339541
 20
1.6260431762
 30
0.0
 10
5.7739439071
 20
1.5895572176
 30
0.0
 10
5.7678762934
 20
1.5534966204
 30
0.0
 10
5.7581024204
 20
1.5182409698
 30
0.0
 10
5.7447218537
 20
1.4841627177
 30
0.0
 10
5.7278758975
 20
1.4516217198
 30
0.0
 10
5.7077458722
 20
1.4209588058
 30
0.0
 10
5.684537967
 20
1.3925017029
 30
0.0
 10
5.6585053971
 20
1.3665437087
 30
0.0
 10
5.629913397
 20
1.34336571
 30
0.0
 10
5.5990747861
 20
1.3232053277
 30
0.0
 10
5.5772294467
 20
1.3119251557
 30
0.0
 10
5.5660516938
 20
1.3068544606
 30
0.0
  0
SPLINE
  5
64E
100
AcDbEntity
  8
0
100
AcDbSpline
 62
9
  6
CONTINUOUS
 70
0
 71
3
 72
22
 73
18
 74
0
 42
0.0000001
 43
0.0000001
 44
0.0000000001
 40
0.0
 40
0.0
 40
0.0
 40
0.0
 40
0.1255518261
 40
0.2511048487
 40
0.3138653234
 40
0.3765310021
 40
0.4078396858
 40
0.4391322653
 40
0.5016676138
 40
0.564167592
 40
0.6266161452
 40
0.6889883379
 40
0.7512683151
 40
0.8134674092
 40
0.8756351664
 40
0.9378110696
 40
1.0
 40
1.0
 40
1.0
 40
1.0
 10
5.4161198442
 20
1.5889339855
 30
0.0
 10
5.3993700029
 20
1.5889339855
 30
0.0
 10
5.3657911381
 20
1.5923006023
 30
0.0
 10
5.3254366689
 20
1.6044248147
 30
0.0
 10
5.295036248
 20
1.6185609984
 30
0.0
 10
5.2769898345
 20
1.6291984955
 30
0.0
 10
5.2632643884
 20
1.6387430844
 30
0.0
 10
5.2500521514
 20
1.6489581328
 30
0.0
 10
5.2345226944
 20
1.6629342009
 30
0.0
 10
5.2176260889
 20
1.6814283281
 30
0.0
 10
5.2026072772
 20
1.7014512325
 30
0.0
 10
5.189610768
 20
1.7228079159
 30
0.0
 10
5.1787785691
 20
1.7453043545
 30
0.0
 10
5.1702624817
 20
1.7687490955
 30
0.0
 10
5.1641886752
 20
1.7929275039
 30
0.0
 10
5.1605440594
 20
1.8175830581
 30
0.0
 10
5.1597345657
 20
1.8341860561
 30
0.0
 10
5.1597345657
 20
1.8424826675
 30
0.0
  0
SPLINE
  5
64F
100
AcDbEntity
  8
0
100
AcDbSpline
 62
7
  6
CONTINUOUS
 70
0
 71
3
 72
15
 73
11
 74
0
 42
0.0000001
 43
0.0000001
 44
0.0000000001
 40
0.0
 40
0.0
 40
0.0
 40
0.0
 40
0.1242896074
 40
0.2486878134
 40
0.3732863975
 40
0.4981462866
 40
0.6232883837
 40
0.7486906339
 40
0.8742916102
 40
1.0
 40
1.0
 40
1.0
 40
1.0
 10
5.6690198442
 20
1.8166170672
 30
0.0
 10
5.6690198442
 20
1.8002796914
 30
0.0
 10
5.665755962
 20
1.76749811
 30
0.0
 10
5.6512602183
 20
1.7202993263
 30
0.0
 10
5.6277250263
 20
1.6767902151
 30
0.0
 10
5.5960594216
 20
1.6386683528
 30
0.0
 10
5.5574863875
 20
1.6073894978
 30
0.0
 10
5.5134839994
 20
1.5841530618
 30
0.0
 10
5.4657669173
 20
1.5698466399
 30
0.0
 10
5.4326437134
 20
1.5666269633
 30
0.0
 10
5.4161198442
 20
1.5666269633
 30
0.0
  0
SPLINE
  5
650
100
AcDbEntity
  8
0
100
AcDbSpline
 62
9
  6
CONTINUOUS
 70
0
 71
3
 72
21
 73
17
 74
0
 42
0.0000001
 43
0.0000001
 44
0.0000000001
 40
0.0
 40
0.0
 40
0.0
 40
0.0
 40
0.062168383
 40
0.1243237141
 40
0.1864871975
 40
0.248708688
 40
0.3110175136
 40
0.3734105881
 40
0.435867687
 40
0.4983668014
 40
0.5608994101
 40
0.6234852652
 40
0.6861584182
 40
0.7489203626
 40
0.8744653001
 40
1.0
 40
1.0
 40
1.0
 40
1.0
 10
5.6720252876
 20
1.8268428465
 30
0.0
 10
5.6715365297
 20
1.8188877958
 30
0.0
 10
5.6698108601
 20
1.8030150567
 30
0.0
 10
5.6649813539
 20
1.7795644417
 30
0.0
 10
5.6578990321
 20
1.7566818707
 30
0.0
 10
5.6486051715
 20
1.7345852877
 30
0.0
 10
5.637244454
 20
1.7134454928
 30
0.0
 10
5.6239414355
 20
1.6934353148
 30
0.0
 10
5.6088245609
 20
1.6747263347
 30
0.0
 10
5.5920194828
 20
1.6574922942
 30
0.0
 10
5.5736538621
 20
1.6419034472
 30
0.0
 10
5.5538491034
 20
1.628149248
 30
0.0
 10
5.5327958866
 20
1.6163350495
 30
0.0
 10
5.5033578948
 20
1.6032501069
 30
0.0
 10
5.464472772
 20
1.5920417506
 30
0.0
 10
5.4322135229
 20
1.5889339855
 30
0.0
 10
5.4161198442
 20
1.5889339855
 30
0.0
  0
SPLINE
  5
651
100
AcDbEntity
  8
0
100
AcDbSpline
 62
9
  6
CONTINUOUS
 70
0
 71
3
 72
20
 73
16
 74
0
 42
0.0000001
 43
0.0000001
 44
0.0000000001
 40
0.0
 40
0.0
 40
0.0
 40
0.0
 40
0.062152741
 40
0.1243420283
 40
0.2487537093
 40
0.3733835106
 40
0.4358387396
 40
0.4983538091
 40
0.5609270282
 40
0.623555815
 40
0.6862307524
 40
0.7489420267
 40
0.8116953772
 40
0.8745010743
 40
1.0
 40
1.0
 40
1.0
 40
1.0
 10
5.6992360159
 20
1.6714356615
 30
0.0
 10
5.6972195147
 20
1.6637583858
 30
0.0
 10
5.6925449924
 20
1.6485583416
 30
0.0
 10
5.6807096255
 20
1.6190452246
 30
0.0
 10
5.6613577573
 20
1.584102856
 30
0.0
 10
5.636490263
 20
1.5528048836
 30
0.0
 10
5.6137176819
 20
1.530456036
 30
0.0
 10
5.5952816122
 20
1.5151218022
 30
0.0
 10
5.5756351218
 20
1.5013363812
 30
0.0
 10
5.5549061928
 20
1.4891987146
 30
0.0
 10
5.5332419355
 20
1.4787815218
 30
0.0
 10
5.5107849361
 20
1.4701633195
 30
0.0
 10
5.4876820989
 20
1.4633965309
 30
0.0
 10
5.4562564933
 20
1.4569149715
 30
0.0
 10
5.4321476314
 20
1.4549469807
 30
0.0
 10
5.4161198442
 20
1.4549469807
 30
0.0
  0
SPLINE
  5
652
100
AcDbEntity
  8
0
100
AcDbSpline
 62
9
  6
CONTINUOUS
 70
0
 71
3
 72
28
 73
24
 74
0
 42
0.0000001
 43
0.0000001
 44
0.0000000001
 40
0.0
 40
0.0
 40
0.0
 40
0.0
 40
0.031036557
 40
0.062082179
 40
0.0931395557
 40
0.1242106308
 40
0.1863718963
 40
0.2486112512
 40
0.2797793661
 40
0.3109698516
 40
0.3733881081
 40
0.4358948441
 40
0.4671949143
 40
0.4985136572
 40
0.5611690184
 40
0.6238747699
 40
0.6552557171
 40
0.6866414527
 40
0.7493846435
 40
0.8121128016
 40
0.874804043
 40
0.9374381495
 40
1.0
 40
1.0
 40
1.0
 40
1.0
 10
5.7121588775
 20
1.7015391905
 30
0.0
 10
5.7112958528
 20
1.6953702515
 30
0.0
 10
5.7091743942
 20
1.6830820698
 30
0.0
 10
5.7048179585
 20
1.6648914351
 30
0.0
 10
5.6993087091
 20
1.6470074479
 30
0.0
 10
5.6904561197
 20
1.6236711456
 30
0.0
 10
5.6766089007
 20
1.5956082632
 30
0.0
 10
5.6593029774
 20
1.5695136294
 30
0.0
 10
5.6435539545
 20
1.5500704972
 30
0.0
 10
5.6265847757
 20
1.5316336764
 30
0.0
 10
5.6032065748
 20
1.5106398208
 30
0.0
 10
5.5773567851
 20
1.4927397478
 30
0.0
 10
5.5554418361
 20
1.4804473386
 30
0.0
 10
5.5327738435
 20
1.4695371001
 30
0.0
 10
5.5031985681
 20
1.4585987106
 30
0.0
 10
5.4724774507
 20
1.4514347828
 30
0.0
 10
5.447510407
 20
1.4480409383
 30
0.0
 10
5.4223733379
 20
1.4462077032
 30
0.0
 10
5.3908099279
 20
1.4468745857
 30
0.0
 10
5.3533529882
 20
1.4523846744
 30
0.0
 10
5.3168942579
 20
1.4625262191
 30
0.0
 10
5.2820255318
 20
1.4771283212
 30
0.0
 10
5.2601791692
 20
1.4896996925
 30
0.0
 10
5.2497123557
 20
1.4966352465
 30
0.0
  0
SPLINE
  5
653
100
AcDbEntity
  8
0
100
AcDbSpline
 62
9
  6
CONTINUOUS
 70
0
 71
3
 72
20
 73
16
 74
0
 42
0.0000001
 43
0.0000001
 44
0.0000000001
 40
0.0
 40
0.0
 40
0.0
 40
0.0
 40
0.1254989582
 40
0.1883046688
 40
0.2510580313
 40
0.3137693177
 40
0.3764442645
 40
0.4390730552
 40
0.501646274
 40
0.5641613398
 40
0.6266165622
 40
0.7512463337
 40
0.8756579838
 40
0.9378472633
 40
1.0
 40
1.0
 40
1.0
 40
1.0
 10
5.4161198442
 20
1.4549469807
 30
0.0
 10
5.4000913177
 20
1.4549469807
 30
0.0
 10
5.3759813384
 20
1.4569151531
 30
0.0
 10
5.3445543431
 20
1.4633973089
 30
0.0
 10
5.321450528
 20
1.4701647138
 30
0.0
 10
5.2989926388
 20
1.4787836958
 30
0.0
 10
5.2773275986
 20
1.4892018178
 30
0.0
 10
5.2565980131
 20
1.5013405523
 30
0.0
 10
5.2369510123
 20
1.5151271667
 30
0.0
 10
5.218514589
 20
1.5304626975
 30
0.0
 10
5.1957417744
 20
1.5528133934
 30
0.0
 10
5.1708744447
 20
1.5841138501
 30
0.0
 10
5.1515234198
 20
1.6190587917
 30
0.0
 10
5.1396891572
 20
1.6485739199
 30
0.0
 10
5.1350153224
 20
1.6637749392
 30
0.0
 10
5.1329992003
 20
1.6714526903
 30
0.0
  0
SPLINE
  5
654
100
AcDbEntity
  8
0
100
AcDbSpline
 62
9
  6
CONTINUOUS
 70
0
 71
3
 72
27
 73
23
 74
0
 42
0.0000001
 43
0.0000001
 44
0.0000000001
 40
0.0
 40
0.0
 40
0.0
 40
0.0
 40
0.0629113979
 40
0.1258299621
 40
0.1886779492
 40
0.2514671396
 40
0.2828490772
 40
0.3142090238
 40
0.3455461492
 40
0.3768599397
 40
0.4393851897
 40
0.5018192823
 40
0.5641709418
 40
0.6264549484
 40
0.6886898622
 40
0.7198122954
 40
0.7509310537
 40
0.8131359835
 40
0.875362426
 40
0.9065072886
 40
0.9376660087
 40
1.0
 40
1.0
 40
1.0
 40
1.0
 10
5.4161198442
 20
1.27447284
 30
0.0
 10
5.4006028719
 20
1.27447284
 30
0.0
 10
5.3695309658
 20
1.276467935
 30
0.0
 10
5.3237300613
 20
1.2853769422
 30
0.0
 10
5.2794711245
 20
1.3000685692
 30
0.0
 10
5.2444779148
 20
1.3169321765
 30
0.0
 10
5.2179966943
 20
1.3330098054
 30
0.0
 10
5.1989669028
 20
1.3463171102
 30
0.0
 10
5.1808469519
 20
1.360812217
 30
0.0
 10
5.1580233911
 20
1.3816307153
 30
0.0
 10
5.1321182065
 20
1.4103310755
 30
0.0
 10
5.1058010529
 20
1.4484576529
 30
0.0
 10
5.0846848586
 20
1.489631522
 30
0.0
 10
5.0691287758
 20
1.5331548853
 30
0.0
 10
5.0610182814
 20
1.5707991707
 30
0.0
 10
5.057522915
 20
1.6013203961
 30
0.0
 10
5.0560375666
 20
1.6319981575
 30
0.0
 10
5.0579529265
 20
1.6704335806
 30
0.0
 10
5.0648851132
 20
1.7082932333
 30
0.0
 10
5.0733559832
 20
1.7378379773
 30
0.0
 10
5.0837478811
 20
1.7667864686
 30
0.0
 10
5.0936610252
 20
1.7877023109
 30
0.0
 10
5.1011385895
 20
1.801135963
 30
0.0
  0
SPLINE
  5
655
100
AcDbEntity
  8
0
100
AcDbSpline
 62
9
  6
CONTINUOUS
 70
0
 71
3
 72
25
 73
21
 74
0
 42
0.0000001
 43
0.0000001
 44
0.0000000001
 40
0.0
 40
0.0
 40
0.0
 40
0.0
 40
0.0628897101
 40
0.1258096086
 40
0.18866111
 40
0.2514555507
 40
0.314187536
 40
0.3768394765
 40
0.4394062565
 40
0.4706716733
 40
0.501916195
 40
0.5643172401
 40
0.6266458142
 40
0.6889141742
 40
0.7511378253
 40
0.8133359645
 40
0.8755274324
 40
0.9066412778
 40
0.9377608331
 40
1.0
 40
1.0
 40
1.0
 40
1.0
 10
5.4161198442
 20
1.5480220336
 30
0.0
 10
5.426733989
 20
1.5480220336
 30
0.0
 10
5.447987856
 20
1.5492665905
 30
0.0
 10
5.4794110277
 20
1.5548186791
 30
0.0
 10
5.5099604687
 20
1.5639984646
 30
0.0
 10
5.5391979797
 20
1.5766703208
 30
0.0
 10
5.5667278443
 20
1.5926533278
 30
0.0
 10
5.5921581057
 20
1.6117343237
 30
0.0
 10
5.6113236737
 20
1.63000232
 30
0.0
 10
5.6252591795
 20
1.6458727358
 30
0.0
 10
5.6382185018
 20
1.6625143112
 30
0.0
 10
5.6525186178
 20
1.6846957863
 30
0.0
 10
5.666391529
 20
1.7131246494
 30
0.0
 10
5.6767769224
 20
1.7429751689
 30
0.0
 10
5.6835361639
 20
1.773826881
 30
0.0
 10
5.6865712052
 20
1.8052495563
 30
0.0
 10
5.6859600561
 20
1.8315550149
 30
0.0
 10
5.6835963113
 20
1.8524324754
 30
0.0
 10
5.6799930229
 20
1.8731379902
 30
0.0
 10
5.6758984024
 20
1.8884041154
 30
0.0
 10
5.6725797031
 20
1.898370439
 30
0.0
  0
SPLINE
  5
656
100
AcDbEntity
  8
0
100
AcDbSpline
 62
9
  6
CONTINUOUS
 70
0
 71
3
 72
25
 73
21
 74
0
 42
0.0000001
 43
0.0000001
 44
0.0000000001
 40
0.0
 40
0.0
 40
0.0
 40
0.0
 40
0.0628897101
 40
0.1258096086
 40
0.18866111
 40
0.2514555507
 40
0.314187536
 40
0.3768394765
 40
0.4394062565
 40
0.4706716733
 40
0.501916195
 40
0.5643172401
 40
0.6266458142
 40
0.6889141742
 40
0.7511378253
 40
0.8133359645
 40
0.8755274324
 40
0.9066412778
 40
0.9377608331
 40
1.0
 40
1.0
 40
1.0
 40
1.0
 10
5.4161198442
 20
1.5480220336
 30
0.0
 10
5.4055056994
 20
1.5480220336
 30
0.0
 10
5.3842518324
 20
1.5492665905
 30
0.0
 10
5.3528286607
 20
1.5548186791
 30
0.0
 10
5.3222792198
 20
1.5639984646
 30
0.0
 10
5.2930417087
 20
1.5766703208
 30
0.0
 10
5.2655118442
 20
1.5926533278
 30
0.0
 10
5.2400815828
 20
1.6117343237
 30
0.0
 10
5.2209160147
 20
1.63000232
 30
0.0
 10
5.206980509
 20
1.6458727358
 30
0.0
 10
5.1940211866
 20
1.6625143112
 30
0.0
 10
5.1797210706
 20
1.6846957863
 30
0.0
 10
5.1658481595
 20
1.7131246494
 30
0.0
 10
5.155462766
 20
1.7429751689
 30
0.0
 10
5.1487035245
 20
1.773826881
 30
0.0
 10
5.1456684832
 20
1.8052495563
 30
0.0
 10
5.1462796323
 20
1.8315550149
 30
0.0
 10
5.1486433772
 20
1.8524324754
 30
0.0
 10
5.1522466655
 20
1.8731379902
 30
0.0
 10
5.156341286
 20
1.8884041154
 30
0.0
 10
5.1596599853
 20
1.898370439
 30
0.0
  0
SPLINE
  5
657
100
AcDbEntity
  8
0
100
AcDbSpline
 62
9
  6
CONTINUOUS
 70
0
 71
3
 72
15
 73
11
 74
0
 42
0.0000001
 43
0.0000001
 44
0.0000000001
 40
0.0
 40
0.0
 40
0.0
 40
0.0
 40
0.1254854997
 40
0.2508209813
 40
0.3760044866
 40
0.5010391383
 40
0.6259372356
 40
0.7507138005
 40
0.8753932719
 40
1.0
 40
1.0
 40
1.0
 40
1.0
 10
5.2497123557
 20
1.4966352465
 30
0.0
 10
5.2410046388
 20
1.5024051822
 30
0.0
 10
5.224192328
 20
1.5148624897
 30
0.0
 10
5.2010932653
 20
1.5360656787
 30
0.0
 10
5.180378822
 20
1.5595589724
 30
0.0
 10
5.1622742644
 20
1.5850721758
 30
0.0
 10
5.1469871641
 20
1.6123284171
 30
0.0
 10
5.1346811317
 20
1.6410228891
 30
0.0
 10
5.1254981285
 20
1.6708349274
 30
0.0
 10
5.1215210152
 20
1.6912490765
 30
0.0
 10
5.1200832609
 20
1.7015216821
 30
0.0
  0
ENDSEC
  0
SECTION
  2
OBJECTS
  0
DICTIONARY
  5
C
100
AcDbDictionary
280
0
281
1
  3
ACAD_GROUP
350
D
  3
ACAD_MLINESTYLE
350
17
  3
ACAD_LAYOUT
350
1A
  3
ACAD_PLOTSETTINGS
350
19
  3
ACAD_PLOTSTYLENAME
350
E
  0
DICTIONARY
  5
D
102
{ACAD_REACTORS
330
C
102
}
100
AcDbDictionary
280
0
281
1
  0
ACDBDICTIONARYWDFLT
  5
E
102
{ACAD_REACTORS
330
C
102
}
100
AcDbDictionary
281
1
  3
Normal
350
F
100
AcDbDictionaryWithDefault
340
F
  0
DICTIONARY
  5
17
102
{ACAD_REACTORS
330
C
102
}
100
AcDbDictionary
280
0
281
1
  3
Standard
350
18
  0
DICTIONARY
  5
19
102
{ACAD_REACTORS
330
C
102
}
100
AcDbDictionary
281
1
  0
DICTIONARY
  5
1A
102
{ACAD_REACTORS
330
C
102
}
100
AcDbDictionary
281
1
  3
Model
350
658
  3
Layout1
350
659
  0
ACDBPLACEHOLDER
  5
F
102
{ACAD_REACTORS
330
E
102
}
  0
MLINESTYLE
  5
18
102
{ACAD_REACTORS
330
17
102
}
100
AcDbMlineStyle
  2
STANDARD
 70
0
  3

 62
256
 51
90.0
 52
90.0
 71
2
 49
0.5
 62
256
  6
BYLAYER
 49
-0.5
 62
256
  6
BYLAYER
  0
LAYOUT
  5
658
102
{ACAD_REACTORS
330
1A
102
}
100
AcDbPlotSettings
  1

  2
none_device
  4
ANSI_A_(11.00_x_8.50_Inches)
  6

 40
0.0
 41
0.0
 42
0.0
 43
0.0
 44
279.4
 45
215.9
 46
0.0
 47
0.0
 48
0.0
 49
0.0
140
0.0
141
0.0
142
1.0
143
1.0
 70
1024
 72
0
 73
0
 74
0
  7

 75
0
147
1.0
148
0.0
149
0.0
100
AcDbLayout
  1
Model
 70
0
 71
0
 10
0.0
 20
0.0
 11
11.0
 21
8.5
 12
0.0
 22
0.0
 32
0.0
 14
0.0
 24
0.0
 34
0.0
 15
0.0
 25
0.0
 35
0.0
146
0.0
 13
0.0
 23
0.0
 33
0.0
 16
1.0
 26
0.0
 36
0.0
 17
0.0
 27
1.0
 37
0.0
 76
0
330
202
345
0
346
0
  0
LAYOUT
  5
659
102
{ACAD_REACTORS
330
1A
102
}
100
AcDbPlotSettings
  1

  2
none_device
  4
ANSI_A_(11.00_x_8.50_Inches)
  6

 40
0.0
 41
0.0
 42
0.0
 43
0.0
 44
279.4
 45
215.9
 46
0.0
 47
0.0
 48
0.0
 49
0.0
140
0.0
141
0.0
142
1.0
143
1.0
 70
0
 72
0
 73
0
 74
0
  7

 75
0
147
1.0
148
0.0
149
0.0
100
AcDbLayout
  1
Layout1
 70
0
 71
1
 10
0.0
 20
0.0
 11
11.0
 21
8.5
 12
0.0
 22
0.0
 32
0.0
 14
0.0
 24
0.0
 34
0.0
 15
0.0
 25
0.0
 35
0.0
146
0.0
 13
0.0
 23
0.0
 33
0.0
 16
1.0
 26
0.0
 36
0.0
 17
0.0
 27
1.0
 37
0.0
 76
0
330
203
345
0
346
0
  0
ENDSEC
  0
EOF
