999
DXF file: E:\BT Custom\CADOUTPUT\_TOP.dxf
999
Pro/ENGINEER 2018400 by Parametric Technology Corporation
  0
SECTION
  2
HEADER
  9
$ACADVER
  1
AC1018
  9
$DWGCODEPAGE
  3
ANSI_1252
  9
$EXTMAX
 10
22.0
 20
17.0
 30
0.0
  9
$EXTMIN
 10
0.0
 20
0.0
 30
0.0
  9
$LIMMIN
 10
0.0
 20
0.0
  9
$LIMMAX
 10
22.0
 20
17.0
  9
$VIEWCTR
 10
11.0
 20
8.5
  9
$VIEWSIZE
 40
17.0
  9
$CLAYER
  8
0
  9
$LTSCALE
 40
1.21
  9
$CELTYPE
  6
BYLAYER
  9
$DIMSCALE
 40
1.0
  9
$DIMASZ
 40
0.1
  9
$DIMEXO
 40
0.0625
  9
$DIMDLI
 40
0.836
  9
$DIMEXE
 40
0.125
  9
$DIMCEN
 40
0.198
  9
$DIMLFAC
 40
1.0
  9
$DIMBLK
  1
_FILLED
  9
$DIMALT
 70
1
  9
$DIMALTD
 70
2
  9
$DIMALTTD
 70
2
  9
$DIMALTF
 40
25.4
  9
$DIMTXT
 40
0.08
  9
$DIMTOL
 70
1
  9
$DIMLIM
 70
0
  9
$DIMTFAC
 40
1.0
  9
$DIMTP
 40
0.001
  9
$DIMTM
 40
0.001
  9
$DIMGAP
 40
0.09
  9
$DIMDSEP
 70
46
  9
$AUNITS
 70
0
  9
$PDMODE
 70
3
  9
$PDSIZE
 40
0.06
  9
$HANDSEED
  5
2FD
  9
$TILEMODE
 70
1
  9
$MEASUREMENT
 70
0
  9
$INSUNITS
 70
1
  0
ENDSEC
  0
SECTION
  2
CLASSES
  0
CLASS
  1
ACDBDICTIONARYWDFLT
  2
AcDbDictionaryWithDefault
  3
AutoCAD 2000
 90
0
 91
1
280
0
281
0
  0
CLASS
  1
ACDBPLACEHOLDER
  2
AcDbPlaceHolder
  3
AutoCAD 2000
 90
0
 91
1
280
0
281
0
  0
CLASS
  1
LAYOUT
  2
AcDbLayout
  3
AutoCAD 2000
 90
0
 91
0
280
0
281
0
  0
ENDSEC
  0
SECTION
  2
TABLES
  0
TABLE
  2
VPORT
  5
8
100
AcDbSymbolTable
 70
2
  0
VPORT
  5
1F4
100
AcDbSymbolTableRecord
100
AcDbViewportTableRecord
  2
*ACTIVE
 70
0
 10
0.0
 20
0.0
 11
1.0
 21
1.0
 12
11.0
 22
8.5
 13
0.0
 23
0.0
 14
1.0
 24
1.0
 15
0.0
 25
0.0
 16
0.0
 26
0.0
 36
1.0
 17
0.0
 27
0.0
 37
0.0
 40
17.0
 41
1.2941176471
 42
50.0
 43
0.0
 44
0.0
 50
0.0
 51
0.0
 71
0
 72
100
 73
1
 74
1
 75
0
 76
0
 77
0
 78
0
  0
ENDTAB
  0
TABLE
  2
LTYPE
  5
5
100
AcDbSymbolTable
 70
6
  0
LTYPE
  5
14
100
AcDbSymbolTableRecord
100
AcDbLinetypeTableRecord
  2
BYBLOCK
 70
0
  3

 72
65
 73
0
 40
0.0
  0
LTYPE
  5
15
100
AcDbSymbolTableRecord
100
AcDbLinetypeTableRecord
  2
BYLAYER
 70
0
  3

 72
65
 73
0
 40
0.0
  0
LTYPE
  5
16
100
AcDbSymbolTableRecord
100
AcDbLinetypeTableRecord
  2
CONTINUOUS
 70
64
  3
Solid line
 72
65
 73
0
 40
0.0
  0
LTYPE
  5
1F5
100
AcDbSymbolTableRecord
100
AcDbLinetypeTableRecord
  2
CENTER
 70
64
  3
____ _ ____ _ ____ _ ____ _ ____ _ ____ _ ____
 72
65
 73
4
 40
0.6
 49
0.375
 74
0
 49
-0.075
 74
0
 49
0.075
 74
0
 49
-0.075
 74
0
  0
LTYPE
  5
1F6
100
AcDbSymbolTableRecord
100
AcDbLinetypeTableRecord
  2
HIDDEN
 70
64
  3
- - - - - - - - - - - - - - - - - - - -
 72
65
 73
2
 40
0.2
 49
0.1
 74
0
 49
-0.1
 74
0
  0
LTYPE
  5
1F7
100
AcDbSymbolTableRecord
100
AcDbLinetypeTableRecord
  2
PHANTOM
 70
64
  3
_____ _ _ _____ _ _ _____ _ _ _____
 72
65
 73
6
 40
0.8
 49
0.45
 74
0
 49
-0.05
 74
0
 49
0.1
 74
0
 49
-0.05
 74
0
 49
0.1
 74
0
 49
-0.05
 74
0
  0
LTYPE
  5
1F8
100
AcDbSymbolTableRecord
100
AcDbLinetypeTableRecord
  2
DOT
 70
64
  3
. . . . . . . . . . . . . . . . . . . .
 72
65
 73
2
 40
0.2
 49
0.1
 74
0
 49
-0.1
 74
0
  0
LTYPE
  5
1F9
100
AcDbSymbolTableRecord
100
AcDbLinetypeTableRecord
  2
DASHED
 70
64
  3
- - - - - - - - - - - - - - - - - - - -
 72
65
 73
2
 40
0.2
 49
0.1
 74
0
 49
-0.1
 74
0
  0
ENDTAB
  0
TABLE
  2
LAYER
  5
2
100
AcDbSymbolTable
 70
36
  0
LAYER
  5
10
100
AcDbSymbolTableRecord
100
AcDbLayerTableRecord
  2
0
 70
0
 62
7
  6
CONTINUOUS
370
-3
390
F
  0
LAYER
  5
1FA
100
AcDbSymbolTableRecord
100
AcDbLayerTableRecord
  2
DEFAULT_1
 70
0
 62
7
  6
CENTER
370
-3
390
F
  0
LAYER
  5
1FB
100
AcDbSymbolTableRecord
100
AcDbLayerTableRecord
  2
DEFAULT_2
 70
0
 62
8
  6
HIDDEN
370
-3
390
F
  0
LAYER
  5
1FC
100
AcDbSymbolTableRecord
100
AcDbLayerTableRecord
  2
DEFAULT_3
 70
0
 62
7
  6
PHANTOM
370
-3
390
F
  0
LAYER
  5
1FD
100
AcDbSymbolTableRecord
100
AcDbLayerTableRecord
  2
ALL_FEATURES
 70
0
 62
7
  6
CONTINUOUS
370
-3
390
F
  0
LAYER
  5
1FE
100
AcDbSymbolTableRecord
100
AcDbLayerTableRecord
  2
AXES_FEATURES
 70
0
 62
7
  6
CONTINUOUS
370
-3
390
F
  0
LAYER
  5
1FF
100
AcDbSymbolTableRecord
100
AcDbLayerTableRecord
  2
DIMENSIONS
 70
0
 62
7
  6
CONTINUOUS
370
-3
390
F
  0
ENDTAB
  0
TABLE
  2
STYLE
  5
3
100
AcDbSymbolTable
 70
1
  0
STYLE
  5
11
100
AcDbSymbolTableRecord
100
AcDbTextStyleTableRecord
  2
STANDARD
 70
0
 40
0.0
 41
0.8
 50
0.0
 71
0
 42
0.2
  3
txt
  4

  0
STYLE
  5
200
100
AcDbSymbolTableRecord
100
AcDbTextStyleTableRecord
  2
TEXTSTYLE_1
 70
0
 40
0.0
 41
0.8
 50
0.0
 71
0
 42
0.2
  3
gdt
  4

  0
ENDTAB
  0
TABLE
  2
VIEW
  5
6
100
AcDbSymbolTable
 70
0
  0
ENDTAB
  0
TABLE
  2
UCS
  5
7
100
AcDbSymbolTable
 70
0
  0
ENDTAB
  0
TABLE
  2
APPID
  5
9
100
AcDbSymbolTable
 70
1
  0
APPID
  5
201
100
AcDbSymbolTableRecord
100
AcDbRegAppTableRecord
  2
ACAD
 70
0
  0
ENDTAB
  0
TABLE
  2
BLOCK_RECORD
  5
1
100
AcDbSymbolTable
 70
0
  0
BLOCK_RECORD
  5
202
100
AcDbSymbolTableRecord
100
AcDbBlockTableRecord
  2
*Model_Space
  0
BLOCK_RECORD
  5
203
100
AcDbSymbolTableRecord
100
AcDbBlockTableRecord
  2
*Paper_Space
  0
BLOCK_RECORD
  5
204
100
AcDbSymbolTableRecord
100
AcDbBlockTableRecord
  2
_FILLED
  0
ENDTAB
  0
TABLE
  2
DIMSTYLE
  5
A
100
AcDbSymbolTable
 70
1
100
AcDbDimStyleTable
 71
0
  0
DIMSTYLE
105
205
100
AcDbSymbolTableRecord
100
AcDbDimStyleTableRecord
  2
STANDARD
 70
0
  3

  4

 40
1.0
 41
0.1
 42
0.0625
 43
0.38
 44
0.125
 45
0.0
 46
0.0
 47
0.001
 48
0.001
140
0.08
141
0.09
142
0.0
143
25.4
144
1.0
145
0.0
146
1.0
147
0.09
 71
1.0
 72
0.0
 73
1
 74
1
 75
0
 76
0
 77
0
 78
4
 79
1
170
1
171
2
172
0
173
0
174
0
175
0
176
0
177
0
178
0
270
2
179
3
271
3
272
3
273
2
274
2
275
0
280
0
281
0
282
0
283
1
284
4
285
0
286
0
287
3
288
0
340
11
278
46
341
204
342
204
343
204
344
204
  0
ENDTAB
  0
ENDSEC
  0
SECTION
  2
BLOCKS
  0
BLOCK
  5
20
100
AcDbEntity
  8
0
100
AcDbBlockBegin
  2
*Model_Space
 70
0
 10
0.0
 20
0.0
 30
0.0
  3
*Model_Space
  1

  0
ENDBLK
  5
21
100
AcDbEntity
  8
0
100
AcDbBlockEnd
  0
BLOCK
  5
1C
100
AcDbEntity
  8
0
100
AcDbBlockBegin
  2
*Paper_Space
 70
0
 10
0.0
 20
0.0
 30
0.0
  3
*Paper_Space
  1

  0
ENDBLK
  5
1D
100
AcDbEntity
  8
0
100
AcDbBlockEnd
  0
BLOCK
  5
206
100
AcDbEntity
  8
0
100
AcDbBlockBegin
  2
_FILLED
 70
64
 10
0.0
 20
0.0
  3
_FILLED
  1

  0
SOLID
  5
207
100
AcDbEntity
  8
0
  6
BYBLOCK
 62
0
100
AcDbTrace
 10
0.0
 20
0.0
 11
-1.0
 21
0.2
 12
-1.0
 22
-0.2
 13
-1.0
 23
-0.2
  0
ENDBLK
  5
208
100
AcDbEntity
  8
0
  6
BYBLOCK
 62
0
100
AcDbBlockEnd
  0
ENDSEC
  0
SECTION
  2
ENTITIES
  0
LINE
  5
209
100
AcDbEntity
  8
0
100
AcDbLine
 62
7
  6
CONTINUOUS
 10
10.6473183383
 20
-6.0776681396
 11
11.4473179159
 21
-6.0776681396
  0
LINE
  5
20A
100
AcDbEntity
  8
0
100
AcDbLine
 62
7
  6
CONTINUOUS
 10
10.6319978065
 20
-5.9800731682
 11
11.46263887
 21
-5.9800731682
  0
LINE
  5
20B
100
AcDbEntity
  8
0
100
AcDbLine
 62
7
  6
CONTINUOUS
 10
10.5775504081
 20
-5.2576681396
 11
11.5170862685
 21
-5.2576681396
  0
LINE
  5
20C
100
AcDbEntity
  8
0
100
AcDbLine
 62
7
  6
CONTINUOUS
 10
11.5170862685
 20
-5.1976681396
 11
10.5775504081
 21
-5.1976681396
  0
LINE
  5
20D
100
AcDbEntity
  8
0
100
AcDbLine
 62
7
  6
CONTINUOUS
 10
10.4973183383
 20
-4.7976681396
 11
11.5973183383
 21
-4.7976681396
  0
LINE
  5
20E
100
AcDbEntity
  8
0
100
AcDbLine
 62
7
  6
CONTINUOUS
 10
10.4523186668
 20
-4.7576681396
 11
11.6423180098
 21
-4.7576681396
  0
LINE
  5
20F
100
AcDbEntity
  8
0
100
AcDbLine
 62
7
  6
CONTINUOUS
 10
11.6423180098
 20
-4.6576681396
 11
10.4523186668
 21
-4.6576681396
  0
LINE
  5
210
100
AcDbEntity
  8
0
100
AcDbLine
 62
7
  6
CONTINUOUS
 10
11.4351683379
 20
-4.64831814
 11
11.0381589525
 21
-4.64831814
  0
LINE
  5
211
100
AcDbEntity
  8
0
100
AcDbLine
 62
7
  6
CONTINUOUS
 10
10.4973183383
 20
-4.6376681396
 11
11.5973183383
 21
-4.6376681396
  0
LINE
  5
212
100
AcDbEntity
  8
0
100
AcDbLine
 62
7
  6
CONTINUOUS
 10
11.5973183383
 20
-2.5376681396
 11
10.4973183383
 21
-2.5376681396
  0
LINE
  5
213
100
AcDbEntity
  8
0
100
AcDbLine
 62
7
  6
CONTINUOUS
 10
10.6488183383
 20
-4.6376681396
 11
10.6688183383
 21
-4.6576681396
  0
LINE
  5
214
100
AcDbEntity
  8
0
100
AcDbLine
 62
7
  6
CONTINUOUS
 10
11.4352200677
 20
-4.6482664102
 11
11.4351914982
 21
-4.6481414102
  0
LINE
  5
215
100
AcDbEntity
  8
0
100
AcDbLine
 62
7
  6
CONTINUOUS
 10
9.5873183383
 20
20.7923318604
 11
9.5873183383
 21
21.0423318604
  0
LINE
  5
216
100
AcDbEntity
  8
0
100
AcDbLine
 62
7
  6
CONTINUOUS
 10
10.1973183383
 20
20.4423318604
 11
10.1973183383
 21
20.7923318604
  0
LINE
  5
217
100
AcDbEntity
  8
0
100
AcDbLine
 62
7
  6
CONTINUOUS
 10
10.5773260027
 20
5.8723318604
 11
11.5173106738
 21
5.8723318604
  0
LWPOLYLINE
  5
218
100
AcDbEntity
  8
0
100
AcDbPolyline
 62
7
  6
CONTINUOUS
 90
4
 70
0
 10
10.5655025088
 20
6.5747638621
 10
10.572449553
 20
6.5626888422
 10
10.576441288
 20
6.5492398254
 10
10.5773197105
 20
6.5390109994
  0
LINE
  5
219
100
AcDbEntity
  8
0
100
AcDbLine
 62
7
  6
CONTINUOUS
 10
10.3848183383
 20
16.6023318604
 11
10.3848183383
 21
20.4423318604
  0
LINE
  5
21A
100
AcDbEntity
  8
0
100
AcDbLine
 62
7
  6
CONTINUOUS
 10
10.4523183383
 20
-4.7576681396
 11
10.4523183383
 21
-4.6576681396
  0
LINE
  5
21B
100
AcDbEntity
  8
0
100
AcDbLine
 62
7
  6
CONTINUOUS
 10
10.4523183383
 20
16.4823318604
 11
10.4523183383
 21
16.5823318604
  0
LINE
  5
21C
100
AcDbEntity
  8
0
100
AcDbLine
 62
7
  6
CONTINUOUS
 10
10.4973183383
 20
-4.7976681396
 11
10.4973183383
 21
-4.7576681396
  0
LINE
  5
21D
100
AcDbEntity
  8
0
100
AcDbLine
 62
7
  6
CONTINUOUS
 10
10.4973183383
 20
-4.6376681396
 11
10.4973183383
 21
-2.5376681396
  0
LINE
  5
21E
100
AcDbEntity
  8
0
100
AcDbLine
 62
7
  6
CONTINUOUS
 10
10.4973183383
 20
16.4423318604
 11
10.4973183383
 21
16.4823318604
  0
LINE
  5
21F
100
AcDbEntity
  8
0
100
AcDbLine
 62
7
  6
CONTINUOUS
 10
10.5748183383
 20
16.5977027808
 11
10.5748183383
 21
16.6025629981
  0
LINE
  5
220
100
AcDbEntity
  8
0
100
AcDbLine
 62
7
  6
CONTINUOUS
 10
10.5773183383
 20
17.1090109994
 11
10.5773183383
 21
16.4423318604
  0
LINE
  5
221
100
AcDbEntity
  8
0
100
AcDbLine
 62
7
  6
CONTINUOUS
 10
10.5773183383
 20
6.5390109994
 11
10.5773183383
 21
5.8723318604
  0
LINE
  5
222
100
AcDbEntity
  8
0
100
AcDbLine
 62
7
  6
CONTINUOUS
 10
10.5773183383
 20
7.3256527216
 11
10.5773183383
 21
7.9923318604
  0
LINE
  5
223
100
AcDbEntity
  8
0
100
AcDbLine
 62
7
  6
CONTINUOUS
 10
10.5775504081
 20
-5.2576681396
 11
10.5775504081
 21
-5.1976681396
  0
LINE
  5
224
100
AcDbEntity
  8
0
100
AcDbLine
 62
7
  6
CONTINUOUS
 10
10.5775504081
 20
15.9823318604
 11
10.5775504081
 21
16.0423318604
  0
LINE
  5
225
100
AcDbEntity
  8
0
100
AcDbLine
 62
7
  6
CONTINUOUS
 10
10.578050907
 20
16.0423318604
 11
10.578050907
 21
15.9823318604
  0
LINE
  5
226
100
AcDbEntity
  8
0
100
AcDbLine
 62
7
  6
CONTINUOUS
 10
10.578050907
 20
-5.1976681396
 11
10.578050907
 21
-5.2576681396
  0
LINE
  5
227
100
AcDbEntity
  8
0
100
AcDbLine
 62
7
  6
CONTINUOUS
 10
10.5806251268
 20
-5.2576681396
 11
10.5806251268
 21
-5.1976681396
  0
LINE
  5
228
100
AcDbEntity
  8
0
100
AcDbLine
 62
7
  6
CONTINUOUS
 10
10.5806251268
 20
15.9823318604
 11
10.5806251268
 21
16.0423318604
  0
LINE
  5
229
100
AcDbEntity
  8
0
100
AcDbLine
 62
7
  6
CONTINUOUS
 10
10.5821228143
 20
16.0423318604
 11
10.5821228143
 21
15.9823318604
  0
LINE
  5
22A
100
AcDbEntity
  8
0
100
AcDbLine
 62
7
  6
CONTINUOUS
 10
10.5821228143
 20
-5.1976681396
 11
10.5821228143
 21
-5.2576681396
  0
LINE
  5
22B
100
AcDbEntity
  8
0
100
AcDbLine
 62
7
  6
CONTINUOUS
 10
10.5872516627
 20
-5.2576681396
 11
10.5872516627
 21
-5.1976681396
  0
LINE
  5
22C
100
AcDbEntity
  8
0
100
AcDbLine
 62
7
  6
CONTINUOUS
 10
10.5872516627
 20
15.9823318604
 11
10.5872516627
 21
16.0423318604
  0
LINE
  5
22D
100
AcDbEntity
  8
0
100
AcDbLine
 62
7
  6
CONTINUOUS
 10
10.5897351406
 20
16.0423318604
 11
10.5897351406
 21
15.9823318604
  0
LINE
  5
22E
100
AcDbEntity
  8
0
100
AcDbLine
 62
7
  6
CONTINUOUS
 10
10.5897351406
 20
-5.1976681396
 11
10.5897351406
 21
-5.2576681396
  0
LINE
  5
22F
100
AcDbEntity
  8
0
100
AcDbLine
 62
7
  6
CONTINUOUS
 10
10.5973795837
 20
-5.2576681396
 11
10.5973795837
 21
-5.1976681396
  0
LINE
  5
230
100
AcDbEntity
  8
0
100
AcDbLine
 62
7
  6
CONTINUOUS
 10
10.5973795837
 20
15.9823318604
 11
10.5973795837
 21
16.0423318604
  0
LINE
  5
231
100
AcDbEntity
  8
0
100
AcDbLine
 62
7
  6
CONTINUOUS
 10
10.6008299512
 20
16.0423318604
 11
10.6008299512
 21
15.9823318604
  0
LINE
  5
232
100
AcDbEntity
  8
0
100
AcDbLine
 62
7
  6
CONTINUOUS
 10
10.6008299512
 20
-5.1976681396
 11
10.6008299512
 21
-5.2576681396
  0
LINE
  5
233
100
AcDbEntity
  8
0
100
AcDbLine
 62
7
  6
CONTINUOUS
 10
10.6109318104
 20
-5.2576681396
 11
10.6109318104
 21
-5.1976681396
  0
LINE
  5
234
100
AcDbEntity
  8
0
100
AcDbLine
 62
7
  6
CONTINUOUS
 10
10.6109318104
 20
15.9823318604
 11
10.6109318104
 21
16.0423318604
  0
LINE
  5
235
100
AcDbEntity
  8
0
100
AcDbLine
 62
7
  6
CONTINUOUS
 10
10.6153228081
 20
16.0423318604
 11
10.6153228081
 21
15.9823318604
  0
LINE
  5
236
100
AcDbEntity
  8
0
100
AcDbLine
 62
7
  6
CONTINUOUS
 10
10.6153228081
 20
-5.1976681396
 11
10.6153228081
 21
-5.2576681396
  0
LINE
  5
237
100
AcDbEntity
  8
0
100
AcDbLine
 62
7
  6
CONTINUOUS
 10
10.627805202
 20
-5.2576681396
 11
10.627805202
 21
-5.1976681396
  0
LINE
  5
238
100
AcDbEntity
  8
0
100
AcDbLine
 62
7
  6
CONTINUOUS
 10
10.627805202
 20
15.9823318604
 11
10.627805202
 21
16.0423318604
  0
LINE
  5
239
100
AcDbEntity
  8
0
100
AcDbLine
 62
7
  6
CONTINUOUS
 10
10.6319978065
 20
-5.9800731682
 11
10.6319978065
 21
-5.2576681396
  0
LINE
  5
23A
100
AcDbEntity
  8
0
100
AcDbLine
 62
7
  6
CONTINUOUS
 10
10.6319978065
 20
15.2599268318
 11
10.6319978065
 21
15.9823318604
  0
LINE
  5
23B
100
AcDbEntity
  8
0
100
AcDbLine
 62
7
  6
CONTINUOUS
 10
10.6331034118
 20
16.0423318604
 11
10.6331034118
 21
15.9823318604
  0
LINE
  5
23C
100
AcDbEntity
  8
0
100
AcDbLine
 62
7
  6
CONTINUOUS
 10
10.6331034118
 20
-5.1976681396
 11
10.6331034118
 21
-5.2576681396
  0
LINE
  5
23D
100
AcDbEntity
  8
0
100
AcDbLine
 62
7
  6
CONTINUOUS
 10
10.6478713419
 20
-5.2576681396
 11
10.6478713419
 21
-5.1976681396
  0
LINE
  5
23E
100
AcDbEntity
  8
0
100
AcDbLine
 62
7
  6
CONTINUOUS
 10
10.6478713419
 20
15.9823318604
 11
10.6478713419
 21
16.0423318604
  0
LINE
  5
23F
100
AcDbEntity
  8
0
100
AcDbLine
 62
7
  6
CONTINUOUS
 10
10.6540364412
 20
16.0423318604
 11
10.6540364412
 21
15.9823318604
  0
LINE
  5
240
100
AcDbEntity
  8
0
100
AcDbLine
 62
7
  6
CONTINUOUS
 10
10.6540364412
 20
-5.1976681396
 11
10.6540364412
 21
-5.2576681396
  0
LINE
  5
241
100
AcDbEntity
  8
0
100
AcDbLine
 62
7
  6
CONTINUOUS
 10
10.6709775147
 20
-5.2576681396
 11
10.6709775147
 21
-5.1976681396
  0
LINE
  5
242
100
AcDbEntity
  8
0
100
AcDbLine
 62
7
  6
CONTINUOUS
 10
10.6709775147
 20
15.9823318604
 11
10.6709775147
 21
16.0423318604
  0
LINE
  5
243
100
AcDbEntity
  8
0
100
AcDbLine
 62
7
  6
CONTINUOUS
 10
10.6723183383
 20
-2.5376681396
 11
10.6723183383
 21
5.8723318604
  0
LINE
  5
244
100
AcDbEntity
  8
0
100
AcDbLine
 62
7
  6
CONTINUOUS
 10
10.6723183383
 20
7.9923318604
 11
10.6723183383
 21
16.4423318604
  0
LINE
  5
245
100
AcDbEntity
  8
0
100
AcDbLine
 62
7
  6
CONTINUOUS
 10
10.6779625833
 20
-5.1976681396
 11
10.6779625833
 21
-5.2576681396
  0
LINE
  5
246
100
AcDbEntity
  8
0
100
AcDbLine
 62
7
  6
CONTINUOUS
 10
10.6969478684
 20
-5.2576681396
 11
10.6969478684
 21
-5.1976681396
  0
LINE
  5
247
100
AcDbEntity
  8
0
100
AcDbLine
 62
7
  6
CONTINUOUS
 10
10.7046997457
 20
-5.1976681396
 11
10.7046997457
 21
-5.2576681396
  0
LINE
  5
248
100
AcDbEntity
  8
0
100
AcDbLine
 62
7
  6
CONTINUOUS
 10
10.7255847528
 20
-5.2576681396
 11
10.7255847528
 21
-5.1976681396
  0
LINE
  5
249
100
AcDbEntity
  8
0
100
AcDbLine
 62
7
  6
CONTINUOUS
 10
10.7340444425
 20
-5.1976681396
 11
10.7340444425
 21
-5.2576681396
  0
LINE
  5
24A
100
AcDbEntity
  8
0
100
AcDbLine
 62
7
  6
CONTINUOUS
 10
10.7548499759
 20
-5.1976681396
 11
10.7548499759
 21
-5.2576681396
  0
LINE
  5
24B
100
AcDbEntity
  8
0
100
AcDbLine
 62
7
  6
CONTINUOUS
 10
10.7566702242
 20
-5.2576681396
 11
10.7566702242
 21
-5.1976681396
  0
LINE
  5
24C
100
AcDbEntity
  8
0
100
AcDbLine
 62
7
  6
CONTINUOUS
 10
10.7657733428
 20
-5.1976681396
 11
10.7657733428
 21
-5.2576681396
  0
LINE
  5
24D
100
AcDbEntity
  8
0
100
AcDbLine
 62
7
  6
CONTINUOUS
 10
10.7863410597
 20
-5.1976681396
 11
10.7863410597
 21
-5.2576681396
  0
LINE
  5
24E
100
AcDbEntity
  8
0
100
AcDbLine
 62
7
  6
CONTINUOUS
 10
10.7899677032
 20
-5.2576681396
 11
10.7899677032
 21
-5.1976681396
  0
LINE
  5
24F
100
AcDbEntity
  8
0
100
AcDbLine
 62
7
  6
CONTINUOUS
 10
10.7996449705
 20
-5.1976681396
 11
10.7996449705
 21
-5.2576681396
  0
LINE
  5
250
100
AcDbEntity
  8
0
100
AcDbLine
 62
7
  6
CONTINUOUS
 10
10.8198183383
 20
-5.1976681396
 11
10.8198183383
 21
-5.2576681396
  0
LINE
  5
251
100
AcDbEntity
  8
0
100
AcDbLine
 62
7
  6
CONTINUOUS
 10
10.8252237759
 20
-5.2576681396
 11
10.8252237759
 21
-5.1976681396
  0
LINE
  5
252
100
AcDbEntity
  8
0
100
AcDbLine
 62
7
  6
CONTINUOUS
 10
10.8354015421
 20
-5.1976681396
 11
10.8354015421
 21
-5.2576681396
  0
LINE
  5
253
100
AcDbEntity
  8
0
100
AcDbLine
 62
7
  6
CONTINUOUS
 10
10.8550270292
 20
-5.1976681396
 11
10.8550270292
 21
-5.2576681396
  0
LINE
  5
254
100
AcDbEntity
  8
0
100
AcDbLine
 62
7
  6
CONTINUOUS
 10
10.8621701223
 20
-5.2576681396
 11
10.8621701223
 21
-5.1976681396
  0
LINE
  5
255
100
AcDbEntity
  8
0
100
AcDbLine
 62
7
  6
CONTINUOUS
 10
10.8727709284
 20
-5.1976681396
 11
10.8727709284
 21
-5.2576681396
  0
LINE
  5
256
100
AcDbEntity
  8
0
100
AcDbLine
 62
7
  6
CONTINUOUS
 10
10.8916991731
 20
-5.1976681396
 11
10.8916991731
 21
-5.2576681396
  0
LINE
  5
257
100
AcDbEntity
  8
0
100
AcDbLine
 62
7
  6
CONTINUOUS
 10
10.9005255585
 20
-5.2576681396
 11
10.9005255585
 21
-5.1976681396
  0
LINE
  5
258
100
AcDbEntity
  8
0
100
AcDbLine
 62
7
  6
CONTINUOUS
 10
10.911468726
 20
-5.1976681396
 11
10.911468726
 21
-5.2576681396
  0
LINE
  5
259
100
AcDbEntity
  8
0
100
AcDbLine
 62
7
  6
CONTINUOUS
 10
10.9295556728
 20
-5.1976681396
 11
10.9295556728
 21
-5.2576681396
  0
LINE
  5
25A
100
AcDbEntity
  8
0
100
AcDbLine
 62
7
  6
CONTINUOUS
 10
10.9399981763
 20
-5.2576681396
 11
10.9399981763
 21
-5.1976681396
  0
LINE
  5
25B
100
AcDbEntity
  8
0
100
AcDbLine
 62
7
  6
CONTINUOUS
 10
10.9512004211
 20
-5.1976681396
 11
10.9512004211
 21
-5.2576681396
  0
LINE
  5
25C
100
AcDbEntity
  8
0
100
AcDbLine
 62
7
  6
CONTINUOUS
 10
10.9683084174
 20
-5.1976681396
 11
10.9683084174
 21
-5.2576681396
  0
LINE
  5
25D
100
AcDbEntity
  8
0
100
AcDbLine
 62
7
  6
CONTINUOUS
 10
10.9802875654
 20
-5.2576681396
 11
10.9802875654
 21
-5.1976681396
  0
LINE
  5
25E
100
AcDbEntity
  8
0
100
AcDbLine
 62
7
  6
CONTINUOUS
 10
10.9916636316
 20
-5.1976681396
 11
10.9916636316
 21
-5.2576681396
  0
LINE
  5
25F
100
AcDbEntity
  8
0
100
AcDbLine
 62
7
  6
CONTINUOUS
 10
11.0076624753
 20
-5.1976681396
 11
11.0076624753
 21
-5.2576681396
  0
LINE
  5
260
100
AcDbEntity
  8
0
100
AcDbLine
 62
7
  6
CONTINUOUS
 10
11.0210870992
 20
-5.2576681396
 11
11.0210870992
 21
-5.1976681396
  0
LINE
  5
261
100
AcDbEntity
  8
0
100
AcDbLine
 62
7
  6
CONTINUOUS
 10
11.0325504081
 20
-5.1976681396
 11
11.0325504081
 21
-5.2576681396
  0
LINE
  5
262
100
AcDbEntity
  8
0
100
AcDbLine
 62
9
  6
CONTINUOUS
 10
11.0473182827
 20
18.1023312999
 11
11.0473183204
 21
18.1623312485
  0
LINE
  5
263
100
AcDbEntity
  8
0
100
AcDbLine
 62
9
  6
CONTINUOUS
 10
11.0473183167
 20
16.8423318604
 11
11.0473183297
 21
16.9023319775
  0
LINE
  5
264
100
AcDbEntity
  8
0
100
AcDbLine
 62
9
  6
CONTINUOUS
 10
11.04731836
 20
7.5923318604
 11
11.0473183455
 21
7.5323317293
  0
LINE
  5
265
100
AcDbEntity
  8
0
100
AcDbLine
 62
7
  6
CONTINUOUS
 10
11.0473183383
 20
-5.1976681396
 11
11.0473183383
 21
-5.2576681396
  0
LINE
  5
266
100
AcDbEntity
  8
0
100
AcDbLine
 62
9
  6
CONTINUOUS
 10
11.0473183167
 20
6.2723318604
 11
11.0473183297
 21
6.3323319775
  0
LINE
  5
267
100
AcDbEntity
  8
0
100
AcDbLine
 62
7
  6
CONTINUOUS
 10
11.0620862685
 20
-5.2576681396
 11
11.0620862685
 21
-5.1976681396
  0
LINE
  5
268
100
AcDbEntity
  8
0
100
AcDbLine
 62
7
  6
CONTINUOUS
 10
11.0735495774
 20
-5.1976681396
 11
11.0735495774
 21
-5.2576681396
  0
LINE
  5
269
100
AcDbEntity
  8
0
100
AcDbLine
 62
7
  6
CONTINUOUS
 10
11.0869742012
 20
-5.1976681396
 11
11.0869742012
 21
-5.2576681396
  0
LINE
  5
26A
100
AcDbEntity
  8
0
100
AcDbLine
 62
7
  6
CONTINUOUS
 10
11.1029730449
 20
-5.2576681396
 11
11.1029730449
 21
-5.1976681396
  0
LINE
  5
26B
100
AcDbEntity
  8
0
100
AcDbLine
 62
7
  6
CONTINUOUS
 10
11.1143491111
 20
-5.1976681396
 11
11.1143491111
 21
-5.2576681396
  0
LINE
  5
26C
100
AcDbEntity
  8
0
100
AcDbLine
 62
7
  6
CONTINUOUS
 10
11.1263282591
 20
-5.1976681396
 11
11.1263282591
 21
-5.2576681396
  0
LINE
  5
26D
100
AcDbEntity
  8
0
100
AcDbLine
 62
7
  6
CONTINUOUS
 10
11.1434362554
 20
-5.2576681396
 11
11.1434362554
 21
-5.1976681396
  0
LINE
  5
26E
100
AcDbEntity
  8
0
100
AcDbLine
 62
7
  6
CONTINUOUS
 10
11.1546385002
 20
-5.1976681396
 11
11.1546385002
 21
-5.2576681396
  0
LINE
  5
26F
100
AcDbEntity
  8
0
100
AcDbLine
 62
7
  6
CONTINUOUS
 10
11.1650810038
 20
-5.1976681396
 11
11.1650810038
 21
-5.2576681396
  0
LWPOLYLINE
  5
270
100
AcDbEntity
  8
0
100
AcDbPolyline
 62
7
  6
CONTINUOUS
 90
4
 70
0
 10
11.5173169688
 20
17.1090110023
 10
11.5181954037
 20
17.1192399011
 10
11.5221871409
 20
17.1326888819
 10
11.5291341724
 20
17.1447638721
  0
LWPOLYLINE
  5
271
100
AcDbEntity
  8
0
100
AcDbPolyline
 62
7
  6
CONTINUOUS
 90
4
 70
0
 10
10.5773197106
 20
7.3256527216
 10
10.5764193263
 20
7.3152977726
 10
10.572424228
 20
7.3019160072
 10
10.5655025092
 20
7.2898998594
  0
LINE
  5
272
100
AcDbEntity
  8
0
100
AcDbLine
 62
7
  6
CONTINUOUS
 10
11.1831679506
 20
-5.2576681396
 11
11.1831679506
 21
-5.1976681396
  0
LINE
  5
273
100
AcDbEntity
  8
0
100
AcDbLine
 62
7
  6
CONTINUOUS
 10
11.1941111181
 20
-5.1976681396
 11
11.1941111181
 21
-5.2576681396
  0
LINE
  5
274
100
AcDbEntity
  8
0
100
AcDbLine
 62
7
  6
CONTINUOUS
 10
11.2029375035
 20
-5.1976681396
 11
11.2029375035
 21
-5.2576681396
  0
LINE
  5
275
100
AcDbEntity
  8
0
100
AcDbLine
 62
7
  6
CONTINUOUS
 10
11.2218657481
 20
-5.2576681396
 11
11.2218657481
 21
-5.1976681396
  0
LINE
  5
276
100
AcDbEntity
  8
0
100
AcDbLine
 62
7
  6
CONTINUOUS
 10
11.2324665542
 20
-5.1976681396
 11
11.2324665542
 21
-5.2576681396
  0
LINE
  5
277
100
AcDbEntity
  8
0
100
AcDbLine
 62
7
  6
CONTINUOUS
 10
11.2396096474
 20
-5.1976681396
 11
11.2396096474
 21
-5.2576681396
  0
LINE
  5
278
100
AcDbEntity
  8
0
100
AcDbLine
 62
7
  6
CONTINUOUS
 10
11.2592351345
 20
-5.2576681396
 11
11.2592351345
 21
-5.1976681396
  0
LINE
  5
279
100
AcDbEntity
  8
0
100
AcDbLine
 62
7
  6
CONTINUOUS
 10
11.2694129007
 20
-5.1976681396
 11
11.2694129007
 21
-5.2576681396
  0
LINE
  5
27A
100
AcDbEntity
  8
0
100
AcDbLine
 62
7
  6
CONTINUOUS
 10
11.2748183383
 20
-5.1976681396
 11
11.2748183383
 21
-5.2576681396
  0
LINE
  5
27B
100
AcDbEntity
  8
0
100
AcDbLine
 62
7
  6
CONTINUOUS
 10
11.2949917061
 20
-5.2576681396
 11
11.2949917061
 21
-5.1976681396
  0
LINE
  5
27C
100
AcDbEntity
  8
0
100
AcDbLine
 62
7
  6
CONTINUOUS
 10
11.3046689734
 20
-5.1976681396
 11
11.3046689734
 21
-5.2576681396
  0
LINE
  5
27D
100
AcDbEntity
  8
0
100
AcDbLine
 62
7
  6
CONTINUOUS
 10
11.3082956168
 20
-5.1976681396
 11
11.3082956168
 21
-5.2576681396
  0
LINE
  5
27E
100
AcDbEntity
  8
0
100
AcDbLine
 62
7
  6
CONTINUOUS
 10
11.3288633338
 20
-5.2576681396
 11
11.3288633338
 21
-5.1976681396
  0
LINE
  5
27F
100
AcDbEntity
  8
0
100
AcDbLine
 62
7
  6
CONTINUOUS
 10
11.3379664524
 20
-5.1976681396
 11
11.3379664524
 21
-5.2576681396
  0
LINE
  5
280
100
AcDbEntity
  8
0
100
AcDbLine
 62
7
  6
CONTINUOUS
 10
11.3397867007
 20
-5.1976681396
 11
11.3397867007
 21
-5.2576681396
  0
LINE
  5
281
100
AcDbEntity
  8
0
100
AcDbLine
 62
7
  6
CONTINUOUS
 10
11.3605922341
 20
-5.2576681396
 11
11.3605922341
 21
-5.1976681396
  0
LINE
  5
282
100
AcDbEntity
  8
0
100
AcDbLine
 62
7
  6
CONTINUOUS
 10
11.3690519237
 20
-5.1976681396
 11
11.3690519237
 21
-5.2576681396
  0
LINE
  5
283
100
AcDbEntity
  8
0
100
AcDbLine
 62
7
  6
CONTINUOUS
 10
11.3899369309
 20
-5.2576681396
 11
11.3899369309
 21
-5.1976681396
  0
LINE
  5
284
100
AcDbEntity
  8
0
100
AcDbLine
 62
7
  6
CONTINUOUS
 10
11.3976888082
 20
-5.1976681396
 11
11.3976888082
 21
-5.2576681396
  0
LINE
  5
285
100
AcDbEntity
  8
0
100
AcDbLine
 62
7
  6
CONTINUOUS
 10
11.4166740933
 20
-5.2576681396
 11
11.4166740933
 21
-5.1976681396
  0
LINE
  5
286
100
AcDbEntity
  8
0
100
AcDbLine
 62
7
  6
CONTINUOUS
 10
11.4223183383
 20
-2.5376681396
 11
11.4223183383
 21
5.8723318604
  0
LINE
  5
287
100
AcDbEntity
  8
0
100
AcDbLine
 62
7
  6
CONTINUOUS
 10
11.4223183383
 20
7.9923318604
 11
11.4223183383
 21
16.4423318604
  0
LINE
  5
288
100
AcDbEntity
  8
0
100
AcDbLine
 62
7
  6
CONTINUOUS
 10
11.4236591619
 20
16.0423318604
 11
11.4236591619
 21
15.9823318604
  0
LINE
  5
289
100
AcDbEntity
  8
0
100
AcDbLine
 62
7
  6
CONTINUOUS
 10
11.4236591619
 20
-5.1976681396
 11
11.4236591619
 21
-5.2576681396
  0
LINE
  5
28A
100
AcDbEntity
  8
0
100
AcDbLine
 62
7
  6
CONTINUOUS
 10
11.4351407307
 20
-4.6481482475
 11
11.4351407307
 21
-4.6381763418
  0
LINE
  5
28B
100
AcDbEntity
  8
0
100
AcDbLine
 62
7
  6
CONTINUOUS
 10
11.4406002354
 20
-5.2576681396
 11
11.4406002354
 21
-5.1976681396
  0
LINE
  5
28C
100
AcDbEntity
  8
0
100
AcDbLine
 62
7
  6
CONTINUOUS
 10
11.4406002354
 20
15.9823318604
 11
11.4406002354
 21
16.0423318604
  0
LINE
  5
28D
100
AcDbEntity
  8
0
100
AcDbLine
 62
7
  6
CONTINUOUS
 10
11.4467653346
 20
16.0423318604
 11
11.4467653346
 21
15.9823318604
  0
LINE
  5
28E
100
AcDbEntity
  8
0
100
AcDbLine
 62
7
  6
CONTINUOUS
 10
11.4467653346
 20
-5.1976681396
 11
11.4467653346
 21
-5.2576681396
  0
LINE
  5
28F
100
AcDbEntity
  8
0
100
AcDbLine
 62
7
  6
CONTINUOUS
 10
11.4615332648
 20
-5.2576681396
 11
11.4615332648
 21
-5.1976681396
  0
LINE
  5
290
100
AcDbEntity
  8
0
100
AcDbLine
 62
7
  6
CONTINUOUS
 10
11.4615332648
 20
15.9823318604
 11
11.4615332648
 21
16.0423318604
  0
LINE
  5
291
100
AcDbEntity
  8
0
100
AcDbLine
 62
7
  6
CONTINUOUS
 10
11.46263887
 20
-5.9800731682
 11
11.46263887
 21
-5.2576681396
  0
LINE
  5
292
100
AcDbEntity
  8
0
100
AcDbLine
 62
7
  6
CONTINUOUS
 10
11.46263887
 20
15.2599268318
 11
11.46263887
 21
15.9823318604
  0
LINE
  5
293
100
AcDbEntity
  8
0
100
AcDbLine
 62
7
  6
CONTINUOUS
 10
11.4668314745
 20
16.0423318604
 11
11.4668314745
 21
15.9823318604
  0
LINE
  5
294
100
AcDbEntity
  8
0
100
AcDbLine
 62
7
  6
CONTINUOUS
 10
11.4668314745
 20
-5.1976681396
 11
11.4668314745
 21
-5.2576681396
  0
LINE
  5
295
100
AcDbEntity
  8
0
100
AcDbLine
 62
7
  6
CONTINUOUS
 10
11.4793138685
 20
-5.2576681396
 11
11.4793138685
 21
-5.1976681396
  0
LINE
  5
296
100
AcDbEntity
  8
0
100
AcDbLine
 62
7
  6
CONTINUOUS
 10
11.4793138685
 20
15.9823318604
 11
11.4793138685
 21
16.0423318604
  0
LINE
  5
297
100
AcDbEntity
  8
0
100
AcDbLine
 62
7
  6
CONTINUOUS
 10
11.4837048662
 20
16.0423318604
 11
11.4837048662
 21
15.9823318604
  0
LINE
  5
298
100
AcDbEntity
  8
0
100
AcDbLine
 62
7
  6
CONTINUOUS
 10
11.4837048662
 20
-5.1976681396
 11
11.4837048662
 21
-5.2576681396
  0
LINE
  5
299
100
AcDbEntity
  8
0
100
AcDbLine
 62
7
  6
CONTINUOUS
 10
11.4938067254
 20
-5.2576681396
 11
11.4938067254
 21
-5.1976681396
  0
LINE
  5
29A
100
AcDbEntity
  8
0
100
AcDbLine
 62
7
  6
CONTINUOUS
 10
11.4938067254
 20
15.9823318604
 11
11.4938067254
 21
16.0423318604
  0
LINE
  5
29B
100
AcDbEntity
  8
0
100
AcDbLine
 62
7
  6
CONTINUOUS
 10
11.4972570928
 20
16.0423318604
 11
11.4972570928
 21
15.9823318604
  0
LINE
  5
29C
100
AcDbEntity
  8
0
100
AcDbLine
 62
7
  6
CONTINUOUS
 10
11.4972570928
 20
-5.1976681396
 11
11.4972570928
 21
-5.2576681396
  0
LINE
  5
29D
100
AcDbEntity
  8
0
100
AcDbLine
 62
7
  6
CONTINUOUS
 10
11.504901536
 20
-5.2576681396
 11
11.504901536
 21
-5.1976681396
  0
LINE
  5
29E
100
AcDbEntity
  8
0
100
AcDbLine
 62
7
  6
CONTINUOUS
 10
11.504901536
 20
15.9823318604
 11
11.504901536
 21
16.0423318604
  0
LINE
  5
29F
100
AcDbEntity
  8
0
100
AcDbLine
 62
7
  6
CONTINUOUS
 10
11.5073850139
 20
16.0423318604
 11
11.5073850139
 21
15.9823318604
  0
LINE
  5
2A0
100
AcDbEntity
  8
0
100
AcDbLine
 62
7
  6
CONTINUOUS
 10
11.5073850139
 20
-5.1976681396
 11
11.5073850139
 21
-5.2576681396
  0
LINE
  5
2A1
100
AcDbEntity
  8
0
100
AcDbLine
 62
7
  6
CONTINUOUS
 10
11.5125138622
 20
-5.2576681396
 11
11.5125138622
 21
-5.1976681396
  0
LINE
  5
2A2
100
AcDbEntity
  8
0
100
AcDbLine
 62
7
  6
CONTINUOUS
 10
11.5125138622
 20
15.9823318604
 11
11.5125138622
 21
16.0423318604
  0
LINE
  5
2A3
100
AcDbEntity
  8
0
100
AcDbLine
 62
7
  6
CONTINUOUS
 10
11.5140115497
 20
16.0423318604
 11
11.5140115497
 21
15.9823318604
  0
LINE
  5
2A4
100
AcDbEntity
  8
0
100
AcDbLine
 62
7
  6
CONTINUOUS
 10
11.5140115497
 20
-5.1976681396
 11
11.5140115497
 21
-5.2576681396
  0
LINE
  5
2A5
100
AcDbEntity
  8
0
100
AcDbLine
 62
7
  6
CONTINUOUS
 10
11.5165857696
 20
-5.2576681396
 11
11.5165857696
 21
-5.1976681396
  0
LINE
  5
2A6
100
AcDbEntity
  8
0
100
AcDbLine
 62
7
  6
CONTINUOUS
 10
11.5165857696
 20
15.9823318604
 11
11.5165857696
 21
16.0423318604
  0
LINE
  5
2A7
100
AcDbEntity
  8
0
100
AcDbLine
 62
7
  6
CONTINUOUS
 10
11.5170862685
 20
16.0423318604
 11
11.5170862685
 21
15.9823318604
  0
LINE
  5
2A8
100
AcDbEntity
  8
0
100
AcDbLine
 62
7
  6
CONTINUOUS
 10
11.5170862685
 20
-5.1976681396
 11
11.5170862685
 21
-5.2576681396
  0
LINE
  5
2A9
100
AcDbEntity
  8
0
100
AcDbLine
 62
7
  6
CONTINUOUS
 10
11.5173183383
 20
17.1090110023
 11
11.5173183383
 21
16.4423318604
  0
LINE
  5
2AA
100
AcDbEntity
  8
0
100
AcDbLine
 62
7
  6
CONTINUOUS
 10
11.5173183383
 20
6.5390110023
 11
11.5173183383
 21
5.8723318604
  0
LINE
  5
2AB
100
AcDbEntity
  8
0
100
AcDbLine
 62
7
  6
CONTINUOUS
 10
11.5173183383
 20
7.3256527188
 11
11.5173183383
 21
7.9923318604
  0
LINE
  5
2AC
100
AcDbEntity
  8
0
100
AcDbLine
 62
7
  6
CONTINUOUS
 10
11.5973183383
 20
-4.7976681396
 11
11.5973183383
 21
-4.7576681396
  0
LINE
  5
2AD
100
AcDbEntity
  8
0
100
AcDbLine
 62
7
  6
CONTINUOUS
 10
11.5973183383
 20
-4.6376681396
 11
11.5973183383
 21
-2.5376681396
  0
LINE
  5
2AE
100
AcDbEntity
  8
0
100
AcDbLine
 62
7
  6
CONTINUOUS
 10
11.5973183383
 20
16.4423318604
 11
11.5973183383
 21
16.4823318604
  0
LINE
  5
2AF
100
AcDbEntity
  8
0
100
AcDbLine
 62
7
  6
CONTINUOUS
 10
11.6423183383
 20
-4.7576681396
 11
11.6423183383
 21
-4.6576681396
  0
LINE
  5
2B0
100
AcDbEntity
  8
0
100
AcDbLine
 62
7
  6
CONTINUOUS
 10
11.6423183383
 20
16.4823318604
 11
11.6423183383
 21
16.5823318604
  0
LINE
  5
2B1
100
AcDbEntity
  8
0
100
AcDbLine
 62
7
  6
CONTINUOUS
 10
11.7098183383
 20
16.6023318604
 11
11.7098183383
 21
20.4423318604
  0
LINE
  5
2B2
100
AcDbEntity
  8
0
100
AcDbLine
 62
7
  6
CONTINUOUS
 10
11.8973183383
 20
20.4423318604
 11
11.8973183383
 21
20.7923318604
  0
LWPOLYLINE
  5
2B3
100
AcDbEntity
  8
0
100
AcDbPolyline
 62
7
  6
CONTINUOUS
 90
4
 70
0
 10
11.5173169688
 20
6.5390110023
 10
11.5181954037
 20
6.5492399011
 10
11.5221871409
 20
6.5626888819
 10
11.5291341724
 20
6.5747638721
  0
LINE
  5
2B4
100
AcDbEntity
  8
0
100
AcDbLine
 62
7
  6
CONTINUOUS
 10
11.5173105216
 20
7.9923318604
 11
10.577326155
 21
7.9923318604
  0
LWPOLYLINE
  5
2B5
100
AcDbEntity
  8
0
100
AcDbPolyline
 62
7
  6
CONTINUOUS
 90
4
 70
0
 10
11.5291341721
 20
7.2898998494
 10
11.5222124693
 20
7.3019159597
 10
11.5182173675
 20
7.315297685
 10
11.5173169686
 20
7.3256527187
  0
LINE
  5
2B6
100
AcDbEntity
  8
0
100
AcDbLine
 62
7
  6
CONTINUOUS
 10
12.5073183383
 20
20.7923318604
 11
12.5073183383
 21
21.0423318604
  0
LWPOLYLINE
  5
2B7
100
AcDbEntity
  8
0
100
AcDbPolyline
 62
7
  6
CONTINUOUS
 90
4
 70
0
 10
10.5655025088
 20
17.1447638621
 10
10.572449553
 20
17.1326888422
 10
10.576441288
 20
17.1192398254
 10
10.5773197105
 20
17.1090109994
  0
LINE
  5
2B8
100
AcDbEntity
  8
0
100
AcDbLine
 62
7
  6
CONTINUOUS
 10
10.5748183383
 20
16.5977018597
 11
10.5749399314
 21
16.5975597042
  0
LINE
  5
2B9
100
AcDbEntity
  8
0
100
AcDbLine
 62
7
  6
CONTINUOUS
 10
10.6473183383
 20
15.1623318604
 11
10.6723183383
 21
15.1623318604
  0
LINE
  5
2BA
100
AcDbEntity
  8
0
100
AcDbLine
 62
7
  6
CONTINUOUS
 10
11.4223183383
 20
15.1623318604
 11
11.4473179159
 21
15.1623318604
  0
LINE
  5
2BB
100
AcDbEntity
  8
0
100
AcDbLine
 62
7
  6
CONTINUOUS
 10
10.6319978065
 20
15.2599268318
 11
10.6723183383
 21
15.2599268318
  0
LINE
  5
2BC
100
AcDbEntity
  8
0
100
AcDbLine
 62
7
  6
CONTINUOUS
 10
11.4223183383
 20
15.2599268318
 11
11.46263887
 21
15.2599268318
  0
LINE
  5
2BD
100
AcDbEntity
  8
0
100
AcDbLine
 62
7
  6
CONTINUOUS
 10
10.5749399322
 20
16.5975621511
 11
10.5773183383
 21
16.5961886069
  0
LINE
  5
2BE
100
AcDbEntity
  8
0
100
AcDbLine
 62
7
  6
CONTINUOUS
 10
11.4351683379
 20
-4.64831814
 11
11.4258183383
 21
-4.6576681396
  0
LINE
  5
2BF
100
AcDbEntity
  8
0
100
AcDbLine
 62
7
  6
CONTINUOUS
 10
10.5775504081
 20
15.9823318604
 11
10.6709775147
 21
15.9823318604
  0
LINE
  5
2C0
100
AcDbEntity
  8
0
100
AcDbLine
 62
7
  6
CONTINUOUS
 10
11.4236591619
 20
15.9823318604
 11
11.5170862685
 21
15.9823318604
  0
LINE
  5
2C1
100
AcDbEntity
  8
0
100
AcDbLine
 62
7
  6
CONTINUOUS
 10
11.5170862685
 20
16.0423318604
 11
11.4236591619
 21
16.0423318604
  0
LINE
  5
2C2
100
AcDbEntity
  8
0
100
AcDbLine
 62
7
  6
CONTINUOUS
 10
10.6709775147
 20
16.0423318604
 11
10.5775504081
 21
16.0423318604
  0
LINE
  5
2C3
100
AcDbEntity
  8
0
100
AcDbLine
 62
7
  6
CONTINUOUS
 10
10.4973183383
 20
16.4423318604
 11
11.5973183383
 21
16.4423318604
  0
LINE
  5
2C4
100
AcDbEntity
  8
0
100
AcDbLine
 62
7
  6
CONTINUOUS
 10
10.4523186668
 20
16.4823318604
 11
10.5773183383
 21
16.4823318604
  0
LINE
  5
2C5
100
AcDbEntity
  8
0
100
AcDbLine
 62
7
  6
CONTINUOUS
 10
11.5173183383
 20
16.4823318604
 11
11.6423180098
 21
16.4823318604
  0
LINE
  5
2C6
100
AcDbEntity
  8
0
100
AcDbLine
 62
7
  6
CONTINUOUS
 10
11.6423180098
 20
16.5823318604
 11
11.5173183383
 21
16.5823318604
  0
LINE
  5
2C7
100
AcDbEntity
  8
0
100
AcDbLine
 62
7
  6
CONTINUOUS
 10
10.5773183383
 20
16.5823318604
 11
10.4523186668
 21
16.5823318604
  0
LINE
  5
2C8
100
AcDbEntity
  8
0
100
AcDbLine
 62
7
  6
CONTINUOUS
 10
10.3848192629
 20
16.6023318604
 11
10.5773183383
 21
16.6023318604
  0
LINE
  5
2C9
100
AcDbEntity
  8
0
100
AcDbLine
 62
7
  6
CONTINUOUS
 10
11.5173183383
 20
16.6023318604
 11
11.7098174136
 21
16.6023318604
  0
LINE
  5
2CA
100
AcDbEntity
  8
0
100
AcDbLine
 62
7
  6
CONTINUOUS
 10
11.4349751838
 20
-4.6383686197
 11
11.4361879513
 21
-4.6376681396
  0
LINE
  5
2CB
100
AcDbEntity
  8
0
100
AcDbLine
 62
7
  6
CONTINUOUS
 10
10.1973183383
 20
20.4423318604
 11
11.8973183383
 21
20.4423318604
  0
LINE
  5
2CC
100
AcDbEntity
  8
0
100
AcDbLine
 62
7
  6
CONTINUOUS
 10
9.5873183383
 20
20.7923318604
 11
12.5073183383
 21
20.7923318604
  0
LINE
  5
2CD
100
AcDbEntity
  8
0
100
AcDbLine
 62
7
  6
CONTINUOUS
 10
12.5073183383
 20
21.0423318604
 11
9.5873183383
 21
21.0423318604
  0
ARC
  5
2CE
100
AcDbEntity
  8
0
100
AcDbCircle
 62
7
  6
CONTINUOUS
 10
9.7879135764
 20
-5.1976681396
 40
0.8144047619
100
AcDbArc
 50
0.0222987101
 51
29.4166077993
  0
ARC
  5
2CF
100
AcDbEntity
  8
0
100
AcDbCircle
 62
7
  6
CONTINUOUS
 10
10.6473183383
 20
-6.0276681396
 40
0.05
100
AcDbArc
 50
107.8430512473
 51
270.0
  0
ARC
  5
2D0
100
AcDbEntity
  8
0
100
AcDbCircle
 62
7
  6
CONTINUOUS
 10
9.7879135764
 20
16.0423318604
 40
0.8144047619
100
AcDbArc
 50
0.0222987101
 51
29.4166077993
  0
ARC
  5
2D1
100
AcDbEntity
  8
0
100
AcDbCircle
 62
9
  6
CONTINUOUS
 10
10.9916138909
 20
17.4775431893
 40
0.6551679821
100
AcDbArc
 50
323.4409031096
 51
324.929320991
  0
ARC
  5
2D2
100
AcDbEntity
  8
0
100
AcDbCircle
 62
9
  6
CONTINUOUS
 10
11.0215246601
 20
17.4193363637
 40
0.5831967527
100
AcDbArc
 50
305.855548125
 51
306.714923474
  0
ARC
  5
2D3
100
AcDbEntity
  8
0
100
AcDbCircle
 62
9
  6
CONTINUOUS
 10
11.0215246602
 20
6.8493363635
 40
0.5831967525
100
AcDbArc
 50
305.8555481248
 51
306.7149234741
  0
ARC
  5
2D4
100
AcDbEntity
  8
0
100
AcDbCircle
 62
7
  6
CONTINUOUS
 10
10.6473183383
 20
15.2123318604
 40
0.05
100
AcDbArc
 50
107.8430512473
 51
270.0
  0
ARC
  5
2D5
100
AcDbEntity
  8
0
100
AcDbCircle
 62
7
  6
CONTINUOUS
 10
12.3067231002
 20
-5.1976681396
 40
0.8144047619
100
AcDbArc
 50
150.5833922007
 51
179.9777012899
  0
ARC
  5
2D6
100
AcDbEntity
  8
0
100
AcDbCircle
 62
7
  6
CONTINUOUS
 10
11.4473183383
 20
-6.0276681396
 40
0.05
100
AcDbArc
 50
270.0
 51
72.1569487527
  0
CIRCLE
  5
2D7
100
AcDbEntity
  8
0
100
AcDbCircle
 62
7
  6
CONTINUOUS
 10
11.0473183383
 20
6.9323318604
 40
0.6
  0
ARC
  5
2D8
100
AcDbEntity
  8
0
100
AcDbCircle
 62
7
  6
CONTINUOUS
 10
11.0473183383
 20
6.9323318604
 40
0.6
100
AcDbArc
 50
314.7903782842
 51
315.0346843262
  0
ARC
  5
2D9
100
AcDbEntity
  8
0
100
AcDbCircle
 62
7
  6
CONTINUOUS
 10
11.0473183383
 20
6.9323318604
 40
0.6
100
AcDbArc
 50
305.7120840813
 51
306.1733559328
  0
ARC
  5
2DA
100
AcDbEntity
  8
0
100
AcDbCircle
 62
7
  6
CONTINUOUS
 10
11.0473183383
 20
6.9323318604
 40
0.6
100
AcDbArc
 50
224.365702517
 51
224.7016702472
  0
ARC
  5
2DB
100
AcDbEntity
  8
0
100
AcDbCircle
 62
7
  6
CONTINUOUS
 10
11.0473183383
 20
6.9323318604
 40
0.6
100
AcDbArc
 50
233.2299247147
 51
233.8188225755
  0
ARC
  5
2DC
100
AcDbEntity
  8
0
100
AcDbCircle
 62
7
  6
CONTINUOUS
 10
11.0473183383
 20
6.9323318604
 40
0.6
100
AcDbArc
 50
242.3250093387
 51
242.829182209
  0
ARC
  5
2DD
100
AcDbEntity
  8
0
100
AcDbCircle
 62
9
  6
CONTINUOUS
 10
11.0733751825
 20
6.8496952395
 40
0.5836417631
100
AcDbArc
 50
233.2869746272
 51
234.1483783814
  0
CIRCLE
  5
2DE
100
AcDbEntity
  8
0
100
AcDbCircle
 62
9
  6
CONTINUOUS
 10
11.0473183383
 20
6.9323318604
 40
0.5799999803
  0
ARC
  5
2DF
100
AcDbEntity
  8
0
100
AcDbCircle
 62
9
  6
CONTINUOUS
 10
11.1022683917
 20
17.476997962
 40
0.6542373018
100
AcDbArc
 50
215.0683173208
 51
216.5574207609
  0
CIRCLE
  5
2E0
100
AcDbEntity
  8
0
100
AcDbCircle
 62
7
  6
CONTINUOUS
 10
11.0473183383
 20
17.5023318604
 40
0.6
  0
ARC
  5
2E1
100
AcDbEntity
  8
0
100
AcDbCircle
 62
7
  6
CONTINUOUS
 10
11.0473183383
 20
17.5023318604
 40
0.6
100
AcDbArc
 50
314.7903782842
 51
323.4205461564
  0
ARC
  5
2E2
100
AcDbEntity
  8
0
100
AcDbCircle
 62
7
  6
CONTINUOUS
 10
11.0473183383
 20
17.5023318604
 40
0.6
100
AcDbArc
 50
305.7120840813
 51
306.1733559328
  0
ARC
  5
2E3
100
AcDbEntity
  8
0
100
AcDbCircle
 62
7
  6
CONTINUOUS
 10
11.0473183383
 20
17.5023318604
 40
0.6
100
AcDbArc
 50
233.2299247147
 51
233.8188225755
  0
ARC
  5
2E4
100
AcDbEntity
  8
0
100
AcDbCircle
 62
7
  6
CONTINUOUS
 10
11.0473183383
 20
17.5023318604
 40
0.6
100
AcDbArc
 50
260.5907167802
 51
270.0000000001
  0
ARC
  5
2E5
100
AcDbEntity
  8
0
100
AcDbCircle
 62
9
  6
CONTINUOUS
 10
11.0733751825
 20
17.4196952396
 40
0.5836417631
100
AcDbArc
 50
233.2869746272
 51
234.1483783814
  0
CIRCLE
  5
2E6
100
AcDbEntity
  8
0
100
AcDbCircle
 62
9
  6
CONTINUOUS
 10
11.0473183383
 20
17.5023318604
 40
0.5799999803
  0
ARC
  5
2E7
100
AcDbEntity
  8
0
100
AcDbCircle
 62
7
  6
CONTINUOUS
 10
11.4473183383
 20
15.2123318604
 40
0.05
100
AcDbArc
 50
270.0
 51
72.1569487527
  0
ARC
  5
2E8
100
AcDbEntity
  8
0
100
AcDbCircle
 62
7
  6
CONTINUOUS
 10
12.3067231002
 20
16.0423318604
 40
0.8144047619
100
AcDbArc
 50
150.5833922007
 51
179.9777012899
  0
LINE
  5
2E9
100
AcDbEntity
  8
0
100
AcDbLine
 62
7
  6
CONTINUOUS
 10
10.5758904775
 20
16.5981235929
 11
10.574926912
 21
16.5978360923
  0
LINE
  5
2EA
100
AcDbEntity
  8
0
100
AcDbLine
 62
7
  6
CONTINUOUS
 10
10.574926912
 20
16.5978360923
 11
10.5748199539
 21
16.597701848
  0
SPLINE
  5
2EB
100
AcDbEntity
  8
0
100
AcDbSpline
 62
7
  6
CONTINUOUS
 70
0
 71
3
 72
14
 73
10
 74
0
 42
0.0000001
 43
0.0000001
 44
0.0000000001
 40
0.0
 40
0.0
 40
0.0
 40
0.0
 40
0.1098905703
 40
0.2259587365
 40
0.3473269773
 40
0.4730707565
 40
0.6022172954
 40
0.7337868001
 40
1.0
 40
1.0
 40
1.0
 40
1.0
 10
11.2989774295
 20
-4.6376664446
 30
0.0
 10
11.2894262764
 20
-4.6381180049
 30
0.0
 10
11.2697856696
 20
-4.6390175297
 30
0.0
 10
11.2395926429
 20
-4.640333841
 30
0.0
 10
11.2080190076
 20
-4.6416517015
 30
0.0
 10
11.1753065003
 20
-4.642970885
 30
0.0
 10
11.1417060279
 20
-4.6442993967
 30
0.0
 10
11.0958916596
 20
-4.6460883038
 30
0.0
 10
11.0613052623
 20
-4.6474181714
 30
0.0
 10
11.0381589525
 20
-4.64831814
 30
0.0
  0
SPLINE
  5
2EC
100
AcDbEntity
  8
0
100
AcDbSpline
 62
7
  6
CONTINUOUS
 70
0
 71
3
 72
35
 73
31
 74
0
 42
0.0000001
 43
0.0000001
 44
0.0000000001
 40
0.0
 40
0.0
 40
0.0
 40
0.0
 40
0.0004573375
 40
0.0010511287
 40
0.0026630648
 40
0.004850127
 40
0.0076142501
 40
0.0109544763
 40
0.0148686744
 40
0.019354147
 40
0.0244078901
 40
0.0362072799
 40
0.0502403203
 40
0.0664795074
 40
0.0848969001
 40
0.1054633766
 40
0.1281301718
 40
0.1528299929
 40
0.1794947543
 40
0.2080563229
 40
0.2384465319
 40
0.3044400763
 40
0.3769060524
 40
0.4551213344
 40
0.5383012905
 40
0.62566105
 40
0.7164001779
 40
0.809639315
 40
0.9044740629
 40
1.0
 40
1.0
 40
1.0
 40
1.0
 10
11.4350062673
 20
-4.6383506661
 30
0.0
 10
11.4349538497
 20
-4.6383809388
 30
0.0
 10
11.434826545
 20
-4.6384384165
 30
0.0
 10
11.4344925842
 20
-4.6385516772
 30
0.0
 10
11.4339254478
 20
-4.6386844372
 30
0.0
 10
11.4330700707
 20
-4.6388357125
 30
0.0
 10
11.4319830186
 20
-4.6389880282
 30
0.0
 10
11.4306658832
 20
-4.6391415599
 30
0.0
 10
11.4291196267
 20
-4.639295601
 30
0.0
 10
11.4273456726
 20
-4.6394500826
 30
0.0
 10
11.4245297524
 20
-4.6396678022
 30
0.0
 10
11.4204503714
 20
-4.6399345198
 30
0.0
 10
11.414890392
 20
-4.6402420357
 30
0.0
 10
11.4084533741
 20
-4.6405504488
 30
0.0
 10
11.4011507944
 20
-4.6408595996
 30
0.0
 10
11.3929968194
 20
-4.6411690632
 30
0.0
 10
11.3840108011
 20
-4.6414787981
 30
0.0
 10
11.3742172133
 20
-4.6417888496
 30
0.0
 10
11.3636430651
 20
-4.642099125
 30
0.0
 10
11.3523154653
 20
-4.6424095898
 30
0.0
 10
11.3357837042
 20
-4.6428355188
 30
0.0
 10
11.3134416663
 20
-4.6433632818
 30
0.0
 10
11.284770133
 20
-4.6439809493
 30
0.0
 10
11.2538234077
 20
-4.6445993575
 30
0.0
 10
11.2209050511
 20
-4.6452184769
 30
0.0
 10
11.1863288215
 20
-4.6458380439
 30
0.0
 10
11.1504209974
 20
-4.6464576549
 30
0.0
 10
11.1135236759
 20
-4.6470774605
 30
0.0
 10
11.0759927076
 20
-4.6476974221
 30
0.0
 10
11.05080075
 20
-4.6481105787
 30
0.0
 10
11.0381590397
 20
-4.6483181385
 30
0.0
  0
SPLINE
  5
2ED
100
AcDbEntity
  8
0
100
AcDbSpline
 62
9
  6
CONTINUOUS
 70
0
 71
3
 72
19
 73
15
 74
0
 42
0.0000001
 43
0.0000001
 44
0.0000000001
 40
0.0
 40
0.0
 40
0.0
 40
0.0
 40
0.1345107642
 40
0.201453418
 40
0.267971253
 40
0.3339101283
 40
0.3991702921
 40
0.4636828728
 40
0.5273680027
 40
0.590135598
 40
0.6519150323
 40
0.7723839052
 40
0.8885105925
 40
1.0
 40
1.0
 40
1.0
 40
1.0
 10
11.0473183383
 20
16.8423318954
 30
0.0
 10
11.0624762779
 20
16.8423329528
 30
0.0
 10
11.0851937523
 20
16.8433466917
 30
0.0
 10
11.1152172168
 20
16.8466387671
 30
0.0
 10
11.137435816
 20
16.8500423997
 30
0.0
 10
11.1593001758
 20
16.8543636517
 30
0.0
 10
11.180741378
 20
16.8595567105
 30
0.0
 10
11.2017055153
 20
16.8655597999
 30
0.0
 10
11.2221432444
 20
16.8723158308
 30
0.0
 10
11.2420086325
 20
16.8797689596
 30
0.0
 10
11.2674667991
 20
16.8904714534
 30
0.0
 10
11.2977109988
 20
16.9052399669
 30
0.0
 10
11.3316633273
 20
16.9249425345
 30
0.0
 10
11.352945663
 20
16.9392984753
 30
0.0
 10
11.3631284981
 20
16.9466575401
 30
0.0
  0
SPLINE
  5
2EE
100
AcDbEntity
  8
0
100
AcDbSpline
 62
9
  6
CONTINUOUS
 70
0
 71
3
 72
28
 73
24
 74
0
 42
0.0000001
 43
0.0000001
 44
0.0000000001
 40
0.0
 40
0.0
 40
0.0
 40
0.0
 40
0.1900203186
 40
0.2807627413
 40
0.3684041789
 40
0.4527309786
 40
0.5334285137
 40
0.6100338654
 40
0.6820522856
 40
0.7489611619
 40
0.8100436967
 40
0.8644041552
 40
0.9110428498
 40
0.9311339313
 40
0.9488970088
 40
0.9642031889
 40
0.9769232324
 40
0.9869332073
 40
0.9941542133
 40
0.9967009269
 40
0.9985289045
 40
0.9996309843
 40
1.0
 40
1.0
 40
1.0
 40
1.0
 10
11.3701794843
 20
16.9518342076
 30
0.0
 10
11.3811658636
 20
16.960027508
 30
0.0
 10
11.3969792872
 20
16.9727110402
 30
0.0
 10
11.4168397322
 20
16.9903670274
 30
0.0
 10
11.4305958403
 20
17.003402412
 30
0.0
 10
11.4434363634
 20
17.0163372304
 30
0.0
 10
11.4553517338
 20
17.0290580729
 30
0.0
 10
11.4663305121
 20
17.0414310085
 30
0.0
 10
11.4763529244
 20
17.0533160017
 30
0.0
 10
11.4853883806
 20
17.0645630263
 30
0.0
 10
11.493401107
 20
17.0749936094
 30
0.0
 10
11.5003432569
 20
17.0843999375
 30
0.0
 10
11.5054111748
 20
17.0915131716
 30
0.0
 10
11.5088928916
 20
17.0965146748
 30
0.0
 10
11.5110638527
 20
17.0996750459
 30
0.0
 10
11.5129185885
 20
17.1024075869
 30
0.0
 10
11.5144484677
 20
17.1046847463
 30
0.0
 10
11.5156472228
 20
17.1064818196
 30
0.0
 10
11.5164359582
 20
17.1076703881
 30
0.0
 10
11.5168964
 20
17.1083685586
 30
0.0
 10
11.5171140614
 20
17.1086981978
 30
0.0
 10
11.5172437562
 20
17.108897679
 30
0.0
 10
11.5173027808
 20
17.1089858663
 30
0.0
 10
11.5173169688
 20
17.1090083844
 30
0.0
  0
SPLINE
  5
2EF
100
AcDbEntity
  8
0
100
AcDbSpline
 62
9
  6
CONTINUOUS
 70
0
 71
3
 72
40
 73
36
 74
0
 42
0.0000001
 43
0.0000001
 44
0.0000000001
 40
0.0
 40
0.0
 40
0.0
 40
0.0
 40
0.0000231129
 40
0.0000923794
 40
0.0002076874
 40
0.0003689249
 40
0.0008287404
 40
0.0014709297
 40
0.0022945969
 40
0.0032988466
 40
0.0044827834
 40
0.0058455122
 40
0.0091037669
 40
0.0130664555
 40
0.0177264271
 40
0.0230764007
 40
0.0291050595
 40
0.0357964524
 40
0.0511027048
 40
0.068865967
 40
0.0889573844
 40
0.1112457724
 40
0.1355973284
 40
0.1618788221
 40
0.1899587812
 40
0.2197172089
 40
0.2510418354
 40
0.3179504629
 40
0.3899690503
 40
0.4665747188
 40
0.547272414
 40
0.6315989653
 40
0.7192397996
 40
0.8099814075
 40
1.0
 40
1.0
 40
1.0
 40
1.0
 10
10.5773197104
 20
17.1090083767
 30
0.0
 10
10.5773191333
 20
17.1090099408
 30
0.0
 10
10.5773264022
 20
17.1089971608
 30
0.0
 10
10.5773311064
 20
17.1089915714
 30
0.0
 10
10.5773467421
 20
17.1089667713
 30
0.0
 10
10.577374642
 20
17.1089247239
 30
0.0
 10
10.5774254956
 20
17.1088467548
 30
0.0
 10
10.577501305
 20
17.1087315009
 30
0.0
 10
10.5775993632
 20
17.108582303
 30
0.0
 10
10.5777187862
 20
17.108400986
 30
0.0
 10
10.5778598194
 20
17.108187131
 30
0.0
 10
10.5780905722
 20
17.1078377689
 30
0.0
 10
10.5784323624
 20
17.107321505
 30
0.0
 10
10.5789064152
 20
17.1066075981
 30
0.0
 10
10.5794651101
 20
17.1057687798
 30
0.0
 10
10.5801077344
 20
17.1048068198
 30
0.0
 10
10.580833508
 20
17.1037241932
 30
0.0
 10
10.5819626282
 20
17.102047381
 30
0.0
 10
10.5835732734
 20
17.0996743978
 30
0.0
 10
10.5857444351
 20
17.0965137684
 30
0.0
 10
10.5882229597
 20
17.0929533701
 30
0.0
 10
10.5910002738
 20
17.0890220754
 30
0.0
 10
10.5940682082
 20
17.0847495968
 30
0.0
 10
10.5974183361
 20
17.0801656894
 30
0.0
 10
10.6010428216
 20
17.0752995333
 30
0.0
 10
10.6049342925
 20
17.0701790048
 30
0.0
 10
10.6105953074
 20
17.0628861401
 30
0.0
 10
10.6182872569
 20
17.0533118449
 30
0.0
 10
10.628310479
 20
17.04142604
 30
0.0
 10
10.6392902405
 20
17.029052255
 30
0.0
 10
10.6512066522
 20
17.0163305904
 30
0.0
 10
10.6640482927
 20
17.0033950373
 30
0.0
 10
10.6778055774
 20
16.9903590173
 30
0.0
 10
10.6976677106
 20
16.9727022915
 30
0.0
 10
10.7134824934
 20
16.9600183304
 30
0.0
 10
10.7244698154
 20
16.9518247955
 30
0.0
  0
SPLINE
  5
2F0
100
AcDbEntity
  8
0
100
AcDbSpline
 62
9
  6
CONTINUOUS
 70
0
 71
3
 72
19
 73
15
 74
0
 42
0.0000001
 43
0.0000001
 44
0.0000000001
 40
0.0
 40
0.0
 40
0.0
 40
0.0
 40
0.1114929392
 40
0.2276222333
 40
0.3480927847
 40
0.4098727977
 40
0.4726408064
 40
0.5363260657
 40
0.6008384131
 40
0.6660979001
 40
0.7320355685
 40
0.7985516964
 40
0.8654924324
 40
1.0
 40
1.0
 40
1.0
 40
1.0
 10
10.7315431009
 20
16.9466323097
 30
0.0
 10
10.7417255081
 20
16.9392747063
 30
0.0
 10
10.7630067329
 20
16.9249217356
 30
0.0
 10
10.7969568031
 20
16.9052234949
 30
0.0
 10
10.8271985219
 20
16.8904584379
 30
0.0
 10
10.8526543069
 20
16.8797585842
 30
0.0
 10
10.872517658
 20
16.872307366
 30
0.0
 10
10.8929531204
 20
16.8655531102
 30
0.0
 10
10.9139147401
 20
16.8595516466
 30
0.0
 10
10.9353531553
 20
16.8543600424
 30
0.0
 10
10.9572144559
 20
16.8500400535
 30
0.0
 10
10.9794297615
 20
16.8466374451
 30
0.0
 10
11.0094486916
 20
16.8433463848
 30
0.0
 10
11.0321626901
 20
16.8423329846
 30
0.0
 10
11.0473183383
 20
16.8423319103
 30
0.0
  0
SPLINE
  5
2F1
100
AcDbEntity
  8
0
100
AcDbSpline
 62
9
  6
CONTINUOUS
 70
0
 71
3
 72
40
 73
36
 74
0
 42
0.0000001
 43
0.0000001
 44
0.0000000001
 40
0.0
 40
0.0
 40
0.0
 40
0.0
 40
0.0000231054
 40
0.0000923502
 40
0.0002076226
 40
0.0003688105
 40
0.0008284853
 40
0.0014704797
 40
0.0022938987
 40
0.0032978477
 40
0.0044814323
 40
0.0058437584
 40
0.0091010597
 40
0.0130626041
 40
0.0177212482
 40
0.0230697231
 40
0.0290967596
 40
0.0357864296
 40
0.0510889966
 40
0.0688483575
 40
0.0889357849
 40
0.1112202501
 40
0.135568094
 40
0.1618462233
 40
0.1899232665
 40
0.2196792329
 40
0.2510019425
 40
0.3179085624
 40
0.3899267501
 40
0.466533792
 40
0.5472350279
 40
0.6315672232
 40
0.7192146843
 40
0.809963826
 40
1.0
 40
1.0
 40
1.0
 40
1.0
 10
11.5173169686
 20
7.3256553623
 30
0.0
 10
11.5173175383
 20
7.3256537981
 30
0.0
 10
11.5173102958
 20
7.3256665659
 30
0.0
 10
11.5173055827
 20
7.3256721416
 30
0.0
 10
11.5172899779
 20
7.3256969099
 30
0.0
 10
11.517262112
 20
7.3257388961
 30
0.0
 10
11.517211334
 20
7.325816757
 30
0.0
 10
11.5171356294
 20
7.3259318482
 30
0.0
 10
11.51703771
 20
7.3260808372
 30
0.0
 10
11.5169184546
 20
7.3262619001
 30
0.0
 10
11.5167776195
 20
7.3264754563
 30
0.0
 10
11.5165471903
 20
7.3268243311
 30
0.0
 10
11.5162058789
 20
7.3273398769
 30
0.0
 10
11.5157324894
 20
7.3280527934
 30
0.0
 10
11.515174575
 20
7.3288904521
 30
0.0
 10
11.5145328449
 20
7.3298510894
 30
0.0
 10
11.5138080787
 20
7.3309322404
 30
0.0
 10
11.5126805121
 20
7.3326067999
 30
0.0
 10
11.511072069
 20
7.3349766438
 30
0.0
 10
11.5089038615
 20
7.3381331592
 30
0.0
 10
11.5064286806
 20
7.3416890177
 30
0.0
 10
11.5036550865
 20
7.3456154143
 30
0.0
 10
11.5005912287
 20
7.3498827017
 30
0.0
 10
11.4972455172
 20
7.354461188
 30
0.0
 10
11.4936257766
 20
7.3593217476
 30
0.0
 10
11.4897393662
 20
7.3644365515
 30
0.0
 10
11.4840856104
 20
7.3717215769
 30
0.0
 10
11.4764035132
 20
7.3812860073
 30
0.0
 10
11.4663931371
 20
7.39316011
 30
0.0
 10
11.4554274328
 20
7.4055224025
 30
0.0
 10
11.4435262772
 20
7.4182330474
 30
0.0
 10
11.4307011484
 20
7.4311582588
 30
0.0
 10
11.4169615848
 20
7.4441846512
 30
0.0
 10
11.3971251244
 20
7.4618295669
 30
0.0
 10
11.3813310843
 20
7.4745064648
 30
0.0
 10
11.3703582088
 20
7.4826962002
 30
0.0
  0
SPLINE
  5
2F2
100
AcDbEntity
  8
0
100
AcDbSpline
 62
9
  6
CONTINUOUS
 70
0
 71
3
 72
16
 73
12
 74
0
 42
0.0000001
 43
0.0000001
 44
0.0000000001
 40
0.0
 40
0.0
 40
0.0
 40
0.0
 40
0.1108587128
 40
0.2265691248
 40
0.3468371855
 40
0.4085852326
 40
0.4713648674
 40
0.7309936556
 40
0.7977367967
 40
0.8649343641
 40
1.0
 40
1.0
 40
1.0
 40
1.0
 10
11.3703582088
 20
7.4826962002
 30
0.0
 10
11.3600841452
 20
7.4903643691
 30
0.0
 10
11.3385642109
 20
7.5053510526
 30
0.0
 10
11.3041258
 20
7.5259743452
 30
0.0
 10
11.2733435121
 20
7.5414767873
 30
0.0
 10
11.247362936
 20
7.5527401493
 30
0.0
 10
11.2059290639
 20
7.5687707759
 30
0.0
 10
11.1622286467
 20
7.5806647678
 30
0.0
 10
11.1172657761
 20
7.5877615839
 30
0.0
 10
11.0863451152
 20
7.5912549094
 30
0.0
 10
11.0629379201
 20
7.5923307863
 30
0.0
 10
11.0473183383
 20
7.5923318537
 30
0.0
  0
SPLINE
  5
2F3
100
AcDbEntity
  8
0
100
AcDbSpline
 62
9
  6
CONTINUOUS
 70
0
 71
3
 72
16
 73
12
 74
0
 42
0.0000001
 43
0.0000001
 44
0.0000000001
 40
0.0
 40
0.0
 40
0.0
 40
0.0
 40
0.1350678677
 40
0.2022660273
 40
0.2690094495
 40
0.5286373096
 40
0.591416555
 40
0.6531642428
 40
0.7734316793
 40
0.8891416055
 40
1.0
 40
1.0
 40
1.0
 40
1.0
 10
11.0473183383
 20
7.5923318255
 30
0.0
 10
11.0316986075
 20
7.5923306788
 30
0.0
 10
11.0082912548
 20
7.5912547719
 30
0.0
 10
10.9773704488
 20
7.5877614652
 30
0.0
 10
10.9324078857
 20
7.5806647784
 30
0.0
 10
10.8887078895
 20
7.5687708882
 30
0.0
 10
10.8472744823
 20
7.5527404597
 30
0.0
 10
10.8212942178
 20
7.5414772757
 30
0.0
 10
10.7905122601
 20
7.5259750936
 30
0.0
 10
10.756074162
 20
7.5053521471
 30
0.0
 10
10.7345543978
 20
7.4903657029
 30
0.0
 10
10.7242804061
 20
7.4826976487
 30
0.0
  0
SPLINE
  5
2F4
100
AcDbEntity
  8
0
100
AcDbSpline
 62
9
  6
CONTINUOUS
 70
0
 71
3
 72
28
 73
24
 74
0
 42
0.0000001
 43
0.0000001
 44
0.0000000001
 40
0.0
 40
0.0
 40
0.0
 40
0.0
 40
0.1900365281
 40
0.2807858576
 40
0.3684333933
 40
0.4527654565
 40
0.5334663878
 40
0.6100731414
 40
0.6820912574
 40
0.748998206
 40
0.8100765714
 40
0.8644312525
 40
0.9110630128
 40
0.9311504317
 40
0.9489098898
 40
0.9642126262
 40
0.9769295324
 40
0.9869368559
 40
0.994155892
 40
0.9967018937
 40
0.9985293501
 40
0.9996311054
 40
1.0
 40
1.0
 40
1.0
 40
1.0
 10
10.7242804061
 20
7.4826976487
 30
0.0
 10
10.7133073753
 20
7.4745078627
 30
0.0
 10
10.6975131177
 20
7.4618308667
 30
0.0
 10
10.677676394
 20
7.4441858036
 30
0.0
 10
10.6639366597
 20
7.4311593178
 30
0.0
 10
10.6511113881
 20
7.418234044
 30
0.0
 10
10.6392101057
 20
7.4055233605
 30
0.0
 10
10.6282443065
 20
7.3931610205
 30
0.0
 10
10.6182337608
 20
7.3812868302
 30
0.0
 10
10.6092090706
 20
7.3700506133
 30
0.0
 10
10.6012059312
 20
7.3596306518
 30
0.0
 10
10.5942721948
 20
7.3502344368
 30
0.0
 10
10.5892104552
 20
7.3431291806
 30
0.0
 10
10.5857330335
 20
7.3381335036
 30
0.0
 10
10.5835648026
 20
7.3349769357
 30
0.0
 10
10.5817124194
 20
7.3322477542
 30
0.0
 10
10.5801844996
 20
7.3299734485
 30
0.0
 10
10.5789872801
 20
7.3281786692
 30
0.0
 10
10.5781995796
 20
7.3269916204
 30
0.0
 10
10.5777397184
 20
7.326294364
 30
0.0
 10
10.5775223708
 20
7.3259651354
 30
0.0
 10
10.577392794
 20
7.3257659489
 30
0.0
 10
10.577333902
 20
7.3256778437
 30
0.0
 10
10.5773197106
 20
7.3256553701
 30
0.0
  0
SPLINE
  5
2F5
100
AcDbEntity
  8
0
100
AcDbSpline
 62
9
  6
CONTINUOUS
 70
0
 71
3
 72
19
 73
15
 74
0
 42
0.0000001
 43
0.0000001
 44
0.0000000001
 40
0.0
 40
0.0
 40
0.0
 40
0.0
 40
0.1345107642
 40
0.201453418
 40
0.267971253
 40
0.3339101283
 40
0.3991702921
 40
0.4636828728
 40
0.5273680027
 40
0.590135598
 40
0.6519150323
 40
0.7723839052
 40
0.8885105925
 40
1.0
 40
1.0
 40
1.0
 40
1.0
 10
11.0473183383
 20
6.2723318954
 30
0.0
 10
11.0624762779
 20
6.2723329528
 30
0.0
 10
11.0851937523
 20
6.2733466917
 30
0.0
 10
11.1152172168
 20
6.2766387671
 30
0.0
 10
11.137435816
 20
6.2800423997
 30
0.0
 10
11.1593001758
 20
6.2843636517
 30
0.0
 10
11.180741378
 20
6.2895567105
 30
0.0
 10
11.2017055153
 20
6.2955597999
 30
0.0
 10
11.2221432444
 20
6.3023158308
 30
0.0
 10
11.2420086325
 20
6.3097689596
 30
0.0
 10
11.2674667991
 20
6.3204714534
 30
0.0
 10
11.2977109988
 20
6.3352399669
 30
0.0
 10
11.3316633273
 20
6.3549425345
 30
0.0
 10
11.352945663
 20
6.3692984753
 30
0.0
 10
11.3631284981
 20
6.3766575401
 30
0.0
  0
SPLINE
  5
2F6
100
AcDbEntity
  8
0
100
AcDbSpline
 62
9
  6
CONTINUOUS
 70
0
 71
3
 72
28
 73
24
 74
0
 42
0.0000001
 43
0.0000001
 44
0.0000000001
 40
0.0
 40
0.0
 40
0.0
 40
0.0
 40
0.1900203186
 40
0.2807627413
 40
0.3684041789
 40
0.4527309786
 40
0.5334285137
 40
0.6100338654
 40
0.6820522856
 40
0.7489611619
 40
0.8100436967
 40
0.8644041552
 40
0.9110428498
 40
0.9311339313
 40
0.9488970088
 40
0.9642031889
 40
0.9769232324
 40
0.9869332073
 40
0.9941542133
 40
0.9967009269
 40
0.9985289045
 40
0.9996309843
 40
1.0
 40
1.0
 40
1.0
 40
1.0
 10
11.3701794843
 20
6.3818342076
 30
0.0
 10
11.3811658636
 20
6.390027508
 30
0.0
 10
11.3969792872
 20
6.4027110402
 30
0.0
 10
11.4168397322
 20
6.4203670274
 30
0.0
 10
11.4305958403
 20
6.433402412
 30
0.0
 10
11.4434363634
 20
6.4463372304
 30
0.0
 10
11.4553517338
 20
6.4590580729
 30
0.0
 10
11.4663305121
 20
6.4714310085
 30
0.0
 10
11.4763529244
 20
6.4833160017
 30
0.0
 10
11.4853883806
 20
6.4945630263
 30
0.0
 10
11.493401107
 20
6.5049936094
 30
0.0
 10
11.5003432569
 20
6.5143999375
 30
0.0
 10
11.5054111748
 20
6.5215131716
 30
0.0
 10
11.5088928916
 20
6.5265146748
 30
0.0
 10
11.5110638527
 20
6.5296750459
 30
0.0
 10
11.5129185885
 20
6.5324075869
 30
0.0
 10
11.5144484677
 20
6.5346847463
 30
0.0
 10
11.5156472228
 20
6.5364818196
 30
0.0
 10
11.5164359582
 20
6.5376703881
 30
0.0
 10
11.5168964
 20
6.5383685586
 30
0.0
 10
11.5171140614
 20
6.5386981978
 30
0.0
 10
11.5172437562
 20
6.538897679
 30
0.0
 10
11.5173027808
 20
6.5389858663
 30
0.0
 10
11.5173169688
 20
6.5390083844
 30
0.0
  0
SPLINE
  5
2F7
100
AcDbEntity
  8
0
100
AcDbSpline
 62
9
  6
CONTINUOUS
 70
0
 71
3
 72
40
 73
36
 74
0
 42
0.0000001
 43
0.0000001
 44
0.0000000001
 40
0.0
 40
0.0
 40
0.0
 40
0.0
 40
0.0000231129
 40
0.0000923794
 40
0.0002076874
 40
0.0003689249
 40
0.0008287404
 40
0.0014709297
 40
0.0022945969
 40
0.0032988466
 40
0.0044827834
 40
0.0058455122
 40
0.0091037669
 40
0.0130664555
 40
0.0177264271
 40
0.0230764007
 40
0.0291050595
 40
0.0357964524
 40
0.0511027048
 40
0.068865967
 40
0.0889573844
 40
0.1112457724
 40
0.1355973284
 40
0.1618788221
 40
0.1899587812
 40
0.2197172089
 40
0.2510418354
 40
0.3179504629
 40
0.3899690503
 40
0.4665747188
 40
0.547272414
 40
0.6315989653
 40
0.7192397996
 40
0.8099814075
 40
1.0
 40
1.0
 40
1.0
 40
1.0
 10
10.5773197104
 20
6.5390083767
 30
0.0
 10
10.5773191333
 20
6.5390099408
 30
0.0
 10
10.5773264022
 20
6.5389971608
 30
0.0
 10
10.5773311064
 20
6.5389915714
 30
0.0
 10
10.5773467421
 20
6.5389667713
 30
0.0
 10
10.577374642
 20
6.5389247239
 30
0.0
 10
10.5774254956
 20
6.5388467548
 30
0.0
 10
10.577501305
 20
6.5387315009
 30
0.0
 10
10.5775993632
 20
6.538582303
 30
0.0
 10
10.5777187862
 20
6.538400986
 30
0.0
 10
10.5778598194
 20
6.538187131
 30
0.0
 10
10.5780905722
 20
6.5378377689
 30
0.0
 10
10.5784323624
 20
6.537321505
 30
0.0
 10
10.5789064152
 20
6.5366075981
 30
0.0
 10
10.5794651101
 20
6.5357687798
 30
0.0
 10
10.5801077344
 20
6.5348068198
 30
0.0
 10
10.580833508
 20
6.5337241932
 30
0.0
 10
10.5819626282
 20
6.532047381
 30
0.0
 10
10.5835732734
 20
6.5296743978
 30
0.0
 10
10.5857444351
 20
6.5265137684
 30
0.0
 10
10.5882229597
 20
6.5229533701
 30
0.0
 10
10.5910002738
 20
6.5190220754
 30
0.0
 10
10.5940682082
 20
6.5147495968
 30
0.0
 10
10.5974183361
 20
6.5101656894
 30
0.0
 10
10.6010428216
 20
6.5052995333
 30
0.0
 10
10.6049342925
 20
6.5001790048
 30
0.0
 10
10.6105953074
 20
6.4928861401
 30
0.0
 10
10.6182872569
 20
6.4833118449
 30
0.0
 10
10.628310479
 20
6.47142604
 30
0.0
 10
10.6392902405
 20
6.459052255
 30
0.0
 10
10.6512066522
 20
6.4463305904
 30
0.0
 10
10.6640482927
 20
6.4333950373
 30
0.0
 10
10.6778055774
 20
6.4203590173
 30
0.0
 10
10.6976677106
 20
6.4027022915
 30
0.0
 10
10.7134824934
 20
6.3900183304
 30
0.0
 10
10.7244698154
 20
6.3818247955
 30
0.0
  0
SPLINE
  5
2F8
100
AcDbEntity
  8
0
100
AcDbSpline
 62
9
  6
CONTINUOUS
 70
0
 71
3
 72
19
 73
15
 74
0
 42
0.0000001
 43
0.0000001
 44
0.0000000001
 40
0.0
 40
0.0
 40
0.0
 40
0.0
 40
0.1114929392
 40
0.2276222333
 40
0.3480927847
 40
0.4098727977
 40
0.4726408064
 40
0.5363260657
 40
0.6008384131
 40
0.6660979001
 40
0.7320355685
 40
0.7985516964
 40
0.8654924324
 40
1.0
 40
1.0
 40
1.0
 40
1.0
 10
10.7315431009
 20
6.3766323097
 30
0.0
 10
10.7417255081
 20
6.3692747063
 30
0.0
 10
10.7630067329
 20
6.3549217356
 30
0.0
 10
10.7969568031
 20
6.3352234949
 30
0.0
 10
10.8271985219
 20
6.3204584379
 30
0.0
 10
10.8526543069
 20
6.3097585842
 30
0.0
 10
10.872517658
 20
6.302307366
 30
0.0
 10
10.8929531204
 20
6.2955531102
 30
0.0
 10
10.9139147401
 20
6.2895516466
 30
0.0
 10
10.9353531553
 20
6.2843600424
 30
0.0
 10
10.9572144559
 20
6.2800400535
 30
0.0
 10
10.9794297615
 20
6.2766374451
 30
0.0
 10
11.0094486916
 20
6.2733463848
 30
0.0
 10
11.0321626901
 20
6.2723329846
 30
0.0
 10
11.0473183383
 20
6.2723319103
 30
0.0
  0
SPLINE
  5
2F9
100
AcDbEntity
  8
0
100
AcDbSpline
 62
9
  6
CONTINUOUS
 70
0
 71
3
 72
36
 73
32
 74
0
 42
0.0000001
 43
0.0000001
 44
0.0000000001
 40
0.0
 40
0.0
 40
0.0
 40
0.0
 40
0.0292146927
 40
0.0584287939
 40
0.0877736001
 40
0.1174043831
 40
0.1475066544
 40
0.1782910857
 40
0.2099670839
 40
0.2426775248
 40
0.2763360987
 40
0.3104913756
 40
0.3775190766
 40
0.4096081662
 40
0.4407330314
 40
0.4710871889
 40
0.50088669
 40
0.5595507987
 40
0.6179919293
 40
0.6474372668
 40
0.6771523888
 40
0.7072216772
 40
0.7377191289
 40
0.7687077875
 40
0.8002363159
 40
0.8323325394
 40
0.8649969837
 40
0.8981940499
 40
0.9318469543
 40
0.9658340043
 40
1.0
 40
1.0
 40
1.0
 40
1.0
 10
10.5667963894
 20
17.1011041183
 30
0.0
 10
10.5588483589
 20
17.1124256772
 30
0.0
 10
10.5436627942
 20
17.1355766485
 30
0.0
 10
10.5230609359
 20
17.1716997672
 30
0.0
 10
10.5046264767
 20
17.2091966734
 30
0.0
 10
10.4883494524
 20
17.2481350413
 30
0.0
 10
10.4742571524
 20
17.2886397549
 30
0.0
 10
10.4624308392
 20
17.3308706153
 30
0.0
 10
10.453002262
 20
17.3749666811
 30
0.0
 10
10.4462314073
 20
17.4209261567
 30
0.0
 10
10.4423912809
 20
17.4684059582
 30
0.0
 10
10.4415167812
 20
17.5322823817
 30
0.0
 10
10.4469523474
 20
17.5953745671
 30
0.0
 10
10.4582826936
 20
17.6560247597
 30
0.0
 10
10.4691500211
 20
17.6990062756
 30
0.0
 10
10.4823319804
 20
17.7401959891
 30
0.0
 10
10.5027395144
 20
17.7926544622
 30
0.0
 10
10.5338299053
 20
17.8550825983
 30
0.0
 10
10.5723123144
 20
17.9130598449
 30
0.0
 10
10.6074306119
 20
17.9563152355
 30
0.0
 10
10.636176034
 20
17.9873224761
 30
0.0
 10
10.6673097531
 20
18.0166632778
 30
0.0
 10
10.7008777161
 20
18.0441517494
 30
0.0
 10
10.7369022614
 20
18.0695554911
 30
0.0
 10
10.7753669318
 20
18.0926036355
 30
0.0
 10
10.816204711
 20
18.1129792843
 30
0.0
 10
10.8592699157
 20
18.1303397429
 30
0.0
 10
10.9043201054
 20
18.1443327493
 30
0.0
 10
10.9510040619
 20
18.1546211323
 30
0.0
 10
10.9988536721
 20
18.1609146336
 30
0.0
 10
11.0311410501
 20
18.1623293116
 30
0.0
 10
11.0473183383
 20
18.1623312484
 30
0.0
  0
SPLINE
  5
2FA
100
AcDbEntity
  8
0
100
AcDbSpline
 62
9
  6
CONTINUOUS
 70
0
 71
3
 72
38
 73
34
 74
0
 42
0.0000001
 43
0.0000001
 44
0.0000000001
 40
0.0
 40
0.0
 40
0.0
 40
0.0
 40
0.0341657965
 40
0.0681525682
 40
0.1018051475
 40
0.1350018801
 40
0.1676660245
 40
0.1997619759
 40
0.2312902261
 40
0.2622785665
 40
0.2927756696
 40
0.3228446274
 40
0.3525595014
 40
0.3820047212
 40
0.4404454378
 40
0.4991088252
 40
0.528907967
 40
0.5592619486
 40
0.5903864994
 40
0.6224755454
 40
0.6895028899
 40
0.7066024787
 40
0.723662727
 40
0.757320744
 40
0.7900307034
 40
0.8059937213
 40
0.8217102804
 40
0.8524943969
 40
0.8825963328
 40
0.9122269538
 40
0.9415716376
 40
0.9707855733
 40
1.0
 40
1.0
 40
1.0
 40
1.0
 10
11.0473183383
 20
18.1623312484
 30
0.0
 10
11.0634958357
 20
18.1623292596
 30
0.0
 10
11.0957835923
 20
18.1609146097
 30
0.0
 10
11.1436337202
 20
18.1546209715
 30
0.0
 10
11.190318084
 20
18.1443323354
 30
0.0
 10
11.2353686496
 20
18.1303390867
 30
0.0
 10
11.278434199
 20
18.112978296
 30
0.0
 10
11.3192722856
 20
18.0926022465
 30
0.0
 10
11.3577372067
 20
18.0695536845
 30
0.0
 10
11.3937619231
 20
18.0441495242
 30
0.0
 10
11.4273299526
 20
18.0166605957
 30
0.0
 10
11.4584637713
 20
17.9873193694
 30
0.0
 10
11.4872092537
 20
17.9563115502
 30
0.0
 10
11.522327673
 20
17.9130553947
 30
0.0
 10
11.5608101118
 20
17.8550772813
 30
0.0
 10
11.5918998547
 20
17.7926481855
 30
0.0
 10
11.6123073068
 20
17.7401891434
 30
0.0
 10
11.6254883644
 20
17.6989988129
 30
0.0
 10
11.6363561997
 20
17.6560164814
 30
0.0
 10
11.6476846926
 20
17.5953668937
 30
0.0
 10
11.6524271757
 20
17.5403386035
 30
0.0
 10
11.6525723937
 20
17.4924239429
 30
0.0
 10
11.6515929113
 20
17.4603209643
 30
0.0
 10
11.6484032369
 20
17.4209159785
 30
0.0
 10
11.6427184682
 20
17.3823194667
 30
0.0
 10
11.6368083205
 20
17.3524047086
 30
0.0
 10
11.6301653139
 20
17.3235796083
 30
0.0
 10
11.6203758794
 20
17.2886279998
 30
0.0
 10
11.6062828409
 20
17.2481238558
 30
0.0
 10
11.5900049854
 20
17.2091850963
 30
0.0
 10
11.5715695845
 20
17.1716880639
 30
0.0
 10
11.5509666237
 20
17.1355649659
 30
0.0
 10
11.5357804822
 20
17.1124139989
 30
0.0
 10
11.5278321084
 20
17.1010925178
 30
0.0
  0
ENDSEC
  0
SECTION
  2
OBJECTS
  0
DICTIONARY
  5
C
100
AcDbDictionary
280
0
281
1
  3
ACAD_GROUP
350
D
  3
ACAD_MLINESTYLE
350
17
  3
ACAD_LAYOUT
350
1A
  3
ACAD_PLOTSETTINGS
350
19
  3
ACAD_PLOTSTYLENAME
350
E
  0
DICTIONARY
  5
D
102
{ACAD_REACTORS
330
C
102
}
100
AcDbDictionary
280
0
281
1
  0
ACDBDICTIONARYWDFLT
  5
E
102
{ACAD_REACTORS
330
C
102
}
100
AcDbDictionary
281
1
  3
Normal
350
F
100
AcDbDictionaryWithDefault
340
F
  0
DICTIONARY
  5
17
102
{ACAD_REACTORS
330
C
102
}
100
AcDbDictionary
280
0
281
1
  3
Standard
350
18
  0
DICTIONARY
  5
19
102
{ACAD_REACTORS
330
C
102
}
100
AcDbDictionary
281
1
  0
DICTIONARY
  5
1A
102
{ACAD_REACTORS
330
C
102
}
100
AcDbDictionary
281
1
  3
Model
350
2FB
  3
Layout1
350
2FC
  0
ACDBPLACEHOLDER
  5
F
102
{ACAD_REACTORS
330
E
102
}
  0
MLINESTYLE
  5
18
102
{ACAD_REACTORS
330
17
102
}
100
AcDbMlineStyle
  2
STANDARD
 70
0
  3

 62
256
 51
90.0
 52
90.0
 71
2
 49
0.5
 62
256
  6
BYLAYER
 49
-0.5
 62
256
  6
BYLAYER
  0
LAYOUT
  5
2FB
102
{ACAD_REACTORS
330
1A
102
}
100
AcDbPlotSettings
  1

  2
none_device
  4
ANSI_C_(22.00_x_17.00_Inches)
  6

 40
0.0
 41
0.0
 42
0.0
 43
0.0
 44
558.8
 45
431.8
 46
0.0
 47
0.0
 48
0.0
 49
0.0
140
0.0
141
0.0
142
1.0
143
1.0
 70
1024
 72
0
 73
0
 74
0
  7

 75
0
147
1.0
148
0.0
149
0.0
100
AcDbLayout
  1
Model
 70
0
 71
0
 10
0.0
 20
0.0
 11
22.0
 21
17.0
 12
0.0
 22
0.0
 32
0.0
 14
0.0
 24
0.0
 34
0.0
 15
0.0
 25
0.0
 35
0.0
146
0.0
 13
0.0
 23
0.0
 33
0.0
 16
1.0
 26
0.0
 36
0.0
 17
0.0
 27
1.0
 37
0.0
 76
0
330
202
345
0
346
0
  0
LAYOUT
  5
2FC
102
{ACAD_REACTORS
330
1A
102
}
100
AcDbPlotSettings
  1

  2
none_device
  4
ANSI_C_(22.00_x_17.00_Inches)
  6

 40
0.0
 41
0.0
 42
0.0
 43
0.0
 44
558.8
 45
431.8
 46
0.0
 47
0.0
 48
0.0
 49
0.0
140
0.0
141
0.0
142
1.0
143
1.0
 70
0
 72
0
 73
0
 74
0
  7

 75
0
147
1.0
148
0.0
149
0.0
100
AcDbLayout
  1
Layout1
 70
0
 71
1
 10
0.0
 20
0.0
 11
22.0
 21
17.0
 12
0.0
 22
0.0
 32
0.0
 14
0.0
 24
0.0
 34
0.0
 15
0.0
 25
0.0
 35
0.0
146
0.0
 13
0.0
 23
0.0
 33
0.0
 16
1.0
 26
0.0
 36
0.0
 17
0.0
 27
1.0
 37
0.0
 76
0
330
203
345
0
346
0
  0
ENDSEC
  0
EOF
