999
DXF file: E:\BT Custom\CADOUTPUT\_FRONT.dxf
999
Pro/ENGINEER 2018400 by Parametric Technology Corporation
  0
SECTION
  2
HEADER
  9
$ACADVER
  1
AC1018
  9
$DWGCODEPAGE
  3
ANSI_1252
  9
$EXTMAX
 10
22.0
 20
17.0
 30
0.0
  9
$EXTMIN
 10
0.0
 20
0.0
 30
0.0
  9
$LIMMIN
 10
0.0
 20
0.0
  9
$LIMMAX
 10
22.0
 20
17.0
  9
$VIEWCTR
 10
11.0
 20
8.5
  9
$VIEWSIZE
 40
17.0
  9
$CLAYER
  8
0
  9
$LTSCALE
 40
1.21
  9
$CELTYPE
  6
BYLAYER
  9
$DIMSCALE
 40
1.0
  9
$DIMASZ
 40
0.1
  9
$DIMEXO
 40
0.0625
  9
$DIMDLI
 40
0.836
  9
$DIMEXE
 40
0.125
  9
$DIMCEN
 40
0.198
  9
$DIMLFAC
 40
1.0
  9
$DIMBLK
  1
_FILLED
  9
$DIMALT
 70
1
  9
$DIMALTD
 70
2
  9
$DIMALTTD
 70
2
  9
$DIMALTF
 40
25.4
  9
$DIMTXT
 40
0.08
  9
$DIMTOL
 70
1
  9
$DIMLIM
 70
0
  9
$DIMTFAC
 40
1.0
  9
$DIMTP
 40
0.001
  9
$DIMTM
 40
0.001
  9
$DIMGAP
 40
0.09
  9
$DIMDSEP
 70
46
  9
$AUNITS
 70
0
  9
$PDMODE
 70
3
  9
$PDSIZE
 40
0.06
  9
$HANDSEED
  5
424
  9
$TILEMODE
 70
1
  9
$MEASUREMENT
 70
0
  9
$INSUNITS
 70
1
  0
ENDSEC
  0
SECTION
  2
CLASSES
  0
CLASS
  1
ACDBDICTIONARYWDFLT
  2
AcDbDictionaryWithDefault
  3
AutoCAD 2000
 90
0
 91
1
280
0
281
0
  0
CLASS
  1
ACDBPLACEHOLDER
  2
AcDbPlaceHolder
  3
AutoCAD 2000
 90
0
 91
1
280
0
281
0
  0
CLASS
  1
LAYOUT
  2
AcDbLayout
  3
AutoCAD 2000
 90
0
 91
0
280
0
281
0
  0
ENDSEC
  0
SECTION
  2
TABLES
  0
TABLE
  2
VPORT
  5
8
100
AcDbSymbolTable
 70
2
  0
VPORT
  5
1F4
100
AcDbSymbolTableRecord
100
AcDbViewportTableRecord
  2
*ACTIVE
 70
0
 10
0.0
 20
0.0
 11
1.0
 21
1.0
 12
11.0
 22
8.5
 13
0.0
 23
0.0
 14
1.0
 24
1.0
 15
0.0
 25
0.0
 16
0.0
 26
0.0
 36
1.0
 17
0.0
 27
0.0
 37
0.0
 40
17.0
 41
1.2941176471
 42
50.0
 43
0.0
 44
0.0
 50
0.0
 51
0.0
 71
0
 72
100
 73
1
 74
1
 75
0
 76
0
 77
0
 78
0
  0
ENDTAB
  0
TABLE
  2
LTYPE
  5
5
100
AcDbSymbolTable
 70
6
  0
LTYPE
  5
14
100
AcDbSymbolTableRecord
100
AcDbLinetypeTableRecord
  2
BYBLOCK
 70
0
  3

 72
65
 73
0
 40
0.0
  0
LTYPE
  5
15
100
AcDbSymbolTableRecord
100
AcDbLinetypeTableRecord
  2
BYLAYER
 70
0
  3

 72
65
 73
0
 40
0.0
  0
LTYPE
  5
16
100
AcDbSymbolTableRecord
100
AcDbLinetypeTableRecord
  2
CONTINUOUS
 70
64
  3
Solid line
 72
65
 73
0
 40
0.0
  0
LTYPE
  5
1F5
100
AcDbSymbolTableRecord
100
AcDbLinetypeTableRecord
  2
CENTER
 70
64
  3
____ _ ____ _ ____ _ ____ _ ____ _ ____ _ ____
 72
65
 73
4
 40
0.6
 49
0.375
 74
0
 49
-0.075
 74
0
 49
0.075
 74
0
 49
-0.075
 74
0
  0
LTYPE
  5
1F6
100
AcDbSymbolTableRecord
100
AcDbLinetypeTableRecord
  2
HIDDEN
 70
64
  3
- - - - - - - - - - - - - - - - - - - -
 72
65
 73
2
 40
0.2
 49
0.1
 74
0
 49
-0.1
 74
0
  0
LTYPE
  5
1F7
100
AcDbSymbolTableRecord
100
AcDbLinetypeTableRecord
  2
PHANTOM
 70
64
  3
_____ _ _ _____ _ _ _____ _ _ _____
 72
65
 73
6
 40
0.8
 49
0.45
 74
0
 49
-0.05
 74
0
 49
0.1
 74
0
 49
-0.05
 74
0
 49
0.1
 74
0
 49
-0.05
 74
0
  0
LTYPE
  5
1F8
100
AcDbSymbolTableRecord
100
AcDbLinetypeTableRecord
  2
DOT
 70
64
  3
. . . . . . . . . . . . . . . . . . . .
 72
65
 73
2
 40
0.2
 49
0.1
 74
0
 49
-0.1
 74
0
  0
LTYPE
  5
1F9
100
AcDbSymbolTableRecord
100
AcDbLinetypeTableRecord
  2
DASHED
 70
64
  3
- - - - - - - - - - - - - - - - - - - -
 72
65
 73
2
 40
0.2
 49
0.1
 74
0
 49
-0.1
 74
0
  0
ENDTAB
  0
TABLE
  2
LAYER
  5
2
100
AcDbSymbolTable
 70
36
  0
LAYER
  5
10
100
AcDbSymbolTableRecord
100
AcDbLayerTableRecord
  2
0
 70
0
 62
7
  6
CONTINUOUS
370
-3
390
F
  0
LAYER
  5
1FA
100
AcDbSymbolTableRecord
100
AcDbLayerTableRecord
  2
DEFAULT_1
 70
0
 62
7
  6
CENTER
370
-3
390
F
  0
LAYER
  5
1FB
100
AcDbSymbolTableRecord
100
AcDbLayerTableRecord
  2
DEFAULT_2
 70
0
 62
8
  6
HIDDEN
370
-3
390
F
  0
LAYER
  5
1FC
100
AcDbSymbolTableRecord
100
AcDbLayerTableRecord
  2
DEFAULT_3
 70
0
 62
7
  6
PHANTOM
370
-3
390
F
  0
LAYER
  5
1FD
100
AcDbSymbolTableRecord
100
AcDbLayerTableRecord
  2
ALL_FEATURES
 70
0
 62
7
  6
CONTINUOUS
370
-3
390
F
  0
LAYER
  5
1FE
100
AcDbSymbolTableRecord
100
AcDbLayerTableRecord
  2
AXES_FEATURES
 70
0
 62
7
  6
CONTINUOUS
370
-3
390
F
  0
LAYER
  5
1FF
100
AcDbSymbolTableRecord
100
AcDbLayerTableRecord
  2
DEFAULT_COORDINATE_SYSTEM
 70
0
 62
7
  6
CONTINUOUS
370
-3
390
F
  0
LAYER
  5
200
100
AcDbSymbolTableRecord
100
AcDbLayerTableRecord
  2
DEFAULT_DATUM_AXES
 70
0
 62
7
  6
CONTINUOUS
370
-3
390
F
  0
LAYER
  5
201
100
AcDbSymbolTableRecord
100
AcDbLayerTableRecord
  2
DEFAULT_DATUM_PLANES
 70
0
 62
7
  6
CONTINUOUS
370
-3
390
F
  0
LAYER
  5
202
100
AcDbSymbolTableRecord
100
AcDbLayerTableRecord
  2
DIMENSIONS
 70
0
 62
7
  6
CONTINUOUS
370
-3
390
F
  0
ENDTAB
  0
TABLE
  2
STYLE
  5
3
100
AcDbSymbolTable
 70
1
  0
STYLE
  5
11
100
AcDbSymbolTableRecord
100
AcDbTextStyleTableRecord
  2
STANDARD
 70
0
 40
0.0
 41
0.8
 50
0.0
 71
0
 42
0.2
  3
txt
  4

  0
STYLE
  5
203
100
AcDbSymbolTableRecord
100
AcDbTextStyleTableRecord
  2
TEXTSTYLE_1
 70
0
 40
0.0
 41
0.8
 50
0.0
 71
0
 42
0.2
  3
gdt
  4

  0
ENDTAB
  0
TABLE
  2
VIEW
  5
6
100
AcDbSymbolTable
 70
0
  0
ENDTAB
  0
TABLE
  2
UCS
  5
7
100
AcDbSymbolTable
 70
0
  0
ENDTAB
  0
TABLE
  2
APPID
  5
9
100
AcDbSymbolTable
 70
1
  0
APPID
  5
204
100
AcDbSymbolTableRecord
100
AcDbRegAppTableRecord
  2
ACAD
 70
0
  0
ENDTAB
  0
TABLE
  2
BLOCK_RECORD
  5
1
100
AcDbSymbolTable
 70
0
  0
BLOCK_RECORD
  5
205
100
AcDbSymbolTableRecord
100
AcDbBlockTableRecord
  2
*Model_Space
  0
BLOCK_RECORD
  5
206
100
AcDbSymbolTableRecord
100
AcDbBlockTableRecord
  2
*Paper_Space
  0
BLOCK_RECORD
  5
207
100
AcDbSymbolTableRecord
100
AcDbBlockTableRecord
  2
_FILLED
  0
ENDTAB
  0
TABLE
  2
DIMSTYLE
  5
A
100
AcDbSymbolTable
 70
1
100
AcDbDimStyleTable
 71
0
  0
DIMSTYLE
105
208
100
AcDbSymbolTableRecord
100
AcDbDimStyleTableRecord
  2
STANDARD
 70
0
  3

  4

 40
1.0
 41
0.1
 42
0.0625
 43
0.38
 44
0.125
 45
0.0
 46
0.0
 47
0.001
 48
0.001
140
0.08
141
0.09
142
0.0
143
25.4
144
1.0
145
0.0
146
1.0
147
0.09
 71
1.0
 72
0.0
 73
1
 74
1
 75
0
 76
0
 77
0
 78
4
 79
1
170
1
171
2
172
0
173
0
174
0
175
0
176
0
177
0
178
0
270
2
179
3
271
3
272
3
273
2
274
2
275
0
280
0
281
0
282
0
283
1
284
4
285
0
286
0
287
3
288
0
340
11
278
46
341
207
342
207
343
207
344
207
  0
ENDTAB
  0
ENDSEC
  0
SECTION
  2
BLOCKS
  0
BLOCK
  5
20
100
AcDbEntity
  8
0
100
AcDbBlockBegin
  2
*Model_Space
 70
0
 10
0.0
 20
0.0
 30
0.0
  3
*Model_Space
  1

  0
ENDBLK
  5
21
100
AcDbEntity
  8
0
100
AcDbBlockEnd
  0
BLOCK
  5
1C
100
AcDbEntity
  8
0
100
AcDbBlockBegin
  2
*Paper_Space
 70
0
 10
0.0
 20
0.0
 30
0.0
  3
*Paper_Space
  1

  0
ENDBLK
  5
1D
100
AcDbEntity
  8
0
100
AcDbBlockEnd
  0
BLOCK
  5
209
100
AcDbEntity
  8
0
100
AcDbBlockBegin
  2
_FILLED
 70
64
 10
0.0
 20
0.0
  3
_FILLED
  1

  0
SOLID
  5
20A
100
AcDbEntity
  8
0
  6
BYBLOCK
 62
0
100
AcDbTrace
 10
0.0
 20
0.0
 11
-1.0
 21
0.2
 12
-1.0
 22
-0.2
 13
-1.0
 23
-0.2
  0
ENDBLK
  5
20B
100
AcDbEntity
  8
0
  6
BYBLOCK
 62
0
100
AcDbBlockEnd
  0
ENDSEC
  0
SECTION
  2
ENTITIES
  0
LINE
  5
20C
100
AcDbEntity
  8
0
100
AcDbLine
 62
7
  6
CONTINUOUS
 10
9.9376923427
 20
4.4817187254
 11
11.9376923427
 21
4.4817187254
  0
LINE
  5
20D
100
AcDbEntity
  8
0
100
AcDbLine
 62
7
  6
CONTINUOUS
 10
11.9376923427
 20
4.5617187254
 11
9.9376923427
 21
4.5617187254
  0
LINE
  5
20E
100
AcDbEntity
  8
0
100
AcDbLine
 62
7
  6
CONTINUOUS
 10
11.8896923427
 20
4.6097187254
 11
9.9856923427
 21
4.6097187254
  0
LINE
  5
20F
100
AcDbEntity
  8
0
100
AcDbLine
 62
7
  6
CONTINUOUS
 10
11.9374923227
 20
4.8667187254
 11
9.9378923627
 21
4.8667187254
  0
LINE
  5
210
100
AcDbEntity
  8
0
100
AcDbLine
 62
7
  6
CONTINUOUS
 10
9.9378923627
 20
4.9267187254
 11
11.9374923227
 21
4.9267187254
  0
LINE
  5
211
100
AcDbEntity
  8
0
100
AcDbLine
 62
7
  6
CONTINUOUS
 10
11.7996923427
 20
4.9817187254
 11
10.0756923427
 21
4.9817187254
  0
LINE
  5
212
100
AcDbEntity
  8
0
100
AcDbLine
 62
7
  6
CONTINUOUS
 10
12.1926923427
 20
5.7977187254
 11
12.0926923427
 21
5.7977187254
  0
LINE
  5
213
100
AcDbEntity
  8
0
100
AcDbLine
 62
7
  6
CONTINUOUS
 10
9.6826923427
 20
5.7977187254
 11
9.7826923427
 21
5.7977187254
  0
LINE
  5
214
100
AcDbEntity
  8
0
100
AcDbLine
 62
7
  6
CONTINUOUS
 10
12.2326923427
 20
5.8427187254
 11
12.1926923427
 21
5.8427187254
  0
LINE
  5
215
100
AcDbEntity
  8
0
100
AcDbLine
 62
7
  6
CONTINUOUS
 10
9.6426923427
 20
5.8427187254
 11
9.6826923427
 21
5.8427187254
  0
LINE
  5
216
100
AcDbEntity
  8
0
100
AcDbLine
 62
7
  6
CONTINUOUS
 10
12.0926923427
 20
5.9077187254
 11
11.7334638726
 21
5.9077187254
  0
LINE
  5
217
100
AcDbEntity
  8
0
100
AcDbLine
 62
7
  6
CONTINUOUS
 10
9.7826923427
 20
5.9077187254
 11
10.1419207732
 21
5.9077187254
  0
LINE
  5
218
100
AcDbEntity
  8
0
100
AcDbLine
 62
7
  6
CONTINUOUS
 10
12.6926923427
 20
5.9229507952
 11
12.6326923427
 21
5.9229507952
  0
LINE
  5
219
100
AcDbEntity
  8
0
100
AcDbLine
 62
7
  6
CONTINUOUS
 10
9.1826923427
 20
5.9229507952
 11
9.2426923427
 21
5.9229507952
  0
LINE
  5
21A
100
AcDbEntity
  8
0
100
AcDbLine
 62
7
  6
CONTINUOUS
 10
12.6926923427
 20
5.9234512941
 11
12.6326923427
 21
5.9234512941
  0
LINE
  5
21B
100
AcDbEntity
  8
0
100
AcDbLine
 62
7
  6
CONTINUOUS
 10
9.1826923427
 20
5.9234512941
 11
9.2426923427
 21
5.9234512941
  0
LINE
  5
21C
100
AcDbEntity
  8
0
100
AcDbLine
 62
7
  6
CONTINUOUS
 10
12.6926923427
 20
5.9260255139
 11
12.6326923427
 21
5.9260255139
  0
LINE
  5
21D
100
AcDbEntity
  8
0
100
AcDbLine
 62
7
  6
CONTINUOUS
 10
9.1826923427
 20
5.9260255139
 11
9.2426923427
 21
5.9260255139
  0
LINE
  5
21E
100
AcDbEntity
  8
0
100
AcDbLine
 62
7
  6
CONTINUOUS
 10
12.6926923427
 20
5.9275232015
 11
12.6326923427
 21
5.9275232015
  0
LINE
  5
21F
100
AcDbEntity
  8
0
100
AcDbLine
 62
7
  6
CONTINUOUS
 10
9.1826923427
 20
5.9275232015
 11
9.2426923427
 21
5.9275232015
  0
LINE
  5
220
100
AcDbEntity
  8
0
100
AcDbLine
 62
7
  6
CONTINUOUS
 10
12.6926923427
 20
5.9326520498
 11
12.6326923427
 21
5.9326520498
  0
LINE
  5
221
100
AcDbEntity
  8
0
100
AcDbLine
 62
7
  6
CONTINUOUS
 10
9.1826923427
 20
5.9326520498
 11
9.2426923427
 21
5.9326520498
  0
LINE
  5
222
100
AcDbEntity
  8
0
100
AcDbLine
 62
7
  6
CONTINUOUS
 10
12.6926923427
 20
5.9351355277
 11
12.6326923427
 21
5.9351355277
  0
LINE
  5
223
100
AcDbEntity
  8
0
100
AcDbLine
 62
7
  6
CONTINUOUS
 10
9.1826923427
 20
5.9351355277
 11
9.2426923427
 21
5.9351355277
  0
LINE
  5
224
100
AcDbEntity
  8
0
100
AcDbLine
 62
7
  6
CONTINUOUS
 10
12.6926923427
 20
5.9427799709
 11
12.6326923427
 21
5.9427799709
  0
LINE
  5
225
100
AcDbEntity
  8
0
100
AcDbLine
 62
7
  6
CONTINUOUS
 10
9.1826923427
 20
5.9427799709
 11
9.2426923427
 21
5.9427799709
  0
LINE
  5
226
100
AcDbEntity
  8
0
100
AcDbLine
 62
7
  6
CONTINUOUS
 10
12.6926923427
 20
5.9462303383
 11
12.6326923427
 21
5.9462303383
  0
LINE
  5
227
100
AcDbEntity
  8
0
100
AcDbLine
 62
7
  6
CONTINUOUS
 10
9.1826923427
 20
5.9462303383
 11
9.2426923427
 21
5.9462303383
  0
LINE
  5
228
100
AcDbEntity
  8
0
100
AcDbLine
 62
7
  6
CONTINUOUS
 10
12.6926923427
 20
5.9563321975
 11
12.6326923427
 21
5.9563321975
  0
LINE
  5
229
100
AcDbEntity
  8
0
100
AcDbLine
 62
7
  6
CONTINUOUS
 10
9.1826923427
 20
5.9563321975
 11
9.2426923427
 21
5.9563321975
  0
LINE
  5
22A
100
AcDbEntity
  8
0
100
AcDbLine
 62
7
  6
CONTINUOUS
 10
12.6926923427
 20
5.9607231952
 11
12.6326923427
 21
5.9607231952
  0
LINE
  5
22B
100
AcDbEntity
  8
0
100
AcDbLine
 62
7
  6
CONTINUOUS
 10
9.1826923427
 20
5.9607231952
 11
9.2426923427
 21
5.9607231952
  0
LINE
  5
22C
100
AcDbEntity
  8
0
100
AcDbLine
 62
7
  6
CONTINUOUS
 10
12.6926923427
 20
5.9732055892
 11
12.6326923427
 21
5.9732055892
  0
LINE
  5
22D
100
AcDbEntity
  8
0
100
AcDbLine
 62
7
  6
CONTINUOUS
 10
9.1826923427
 20
5.9732055892
 11
9.2426923427
 21
5.9732055892
  0
LINE
  5
22E
100
AcDbEntity
  8
0
100
AcDbLine
 62
7
  6
CONTINUOUS
 10
9.1826923427
 20
5.9773981936
 11
8.4602873142
 21
5.9773981936
  0
LINE
  5
22F
100
AcDbEntity
  8
0
100
AcDbLine
 62
7
  6
CONTINUOUS
 10
12.6926923427
 20
5.9773981936
 11
13.4150973713
 21
5.9773981936
  0
LINE
  5
230
100
AcDbEntity
  8
0
100
AcDbLine
 62
7
  6
CONTINUOUS
 10
12.6926923427
 20
5.9785037989
 11
12.6326923427
 21
5.9785037989
  0
LINE
  5
231
100
AcDbEntity
  8
0
100
AcDbLine
 62
7
  6
CONTINUOUS
 10
9.1826923427
 20
5.9785037989
 11
9.2426923427
 21
5.9785037989
  0
LINE
  5
232
100
AcDbEntity
  8
0
100
AcDbLine
 62
7
  6
CONTINUOUS
 10
12.6926923427
 20
5.9932717291
 11
12.6326923427
 21
5.9932717291
  0
LINE
  5
233
100
AcDbEntity
  8
0
100
AcDbLine
 62
7
  6
CONTINUOUS
 10
9.1826923427
 20
5.9932717291
 11
9.2426923427
 21
5.9932717291
  0
LINE
  5
234
100
AcDbEntity
  8
0
100
AcDbLine
 62
7
  6
CONTINUOUS
 10
12.6926923427
 20
5.9994368283
 11
12.6326923427
 21
5.9994368283
  0
LINE
  5
235
100
AcDbEntity
  8
0
100
AcDbLine
 62
7
  6
CONTINUOUS
 10
9.1826923427
 20
5.9994368283
 11
9.2426923427
 21
5.9994368283
  0
LINE
  5
236
100
AcDbEntity
  8
0
100
AcDbLine
 62
7
  6
CONTINUOUS
 10
12.6926923427
 20
6.0163779018
 11
12.6326923427
 21
6.0163779018
  0
LINE
  5
237
100
AcDbEntity
  8
0
100
AcDbLine
 62
7
  6
CONTINUOUS
 10
9.1826923427
 20
6.0163779018
 11
9.2426923427
 21
6.0163779018
  0
LINE
  5
238
100
AcDbEntity
  8
0
100
AcDbLine
 62
7
  6
CONTINUOUS
 10
12.6926923427
 20
6.0233629704
 11
12.6326923427
 21
6.0233629704
  0
LINE
  5
239
100
AcDbEntity
  8
0
100
AcDbLine
 62
7
  6
CONTINUOUS
 10
9.1826923427
 20
6.0233629704
 11
9.2426923427
 21
6.0233629704
  0
LINE
  5
23A
100
AcDbEntity
  8
0
100
AcDbLine
 62
7
  6
CONTINUOUS
 10
12.6926923427
 20
6.0423482555
 11
12.6326923427
 21
6.0423482555
  0
LINE
  5
23B
100
AcDbEntity
  8
0
100
AcDbLine
 62
7
  6
CONTINUOUS
 10
9.1826923427
 20
6.0423482555
 11
9.2426923427
 21
6.0423482555
  0
LINE
  5
23C
100
AcDbEntity
  8
0
100
AcDbLine
 62
7
  6
CONTINUOUS
 10
12.6926923427
 20
6.0501001328
 11
12.6326923427
 21
6.0501001328
  0
LINE
  5
23D
100
AcDbEntity
  8
0
100
AcDbLine
 62
7
  6
CONTINUOUS
 10
9.1826923427
 20
6.0501001328
 11
9.2426923427
 21
6.0501001328
  0
LINE
  5
23E
100
AcDbEntity
  8
0
100
AcDbLine
 62
7
  6
CONTINUOUS
 10
12.6926923427
 20
6.07098514
 11
12.6326923427
 21
6.07098514
  0
LINE
  5
23F
100
AcDbEntity
  8
0
100
AcDbLine
 62
7
  6
CONTINUOUS
 10
9.1826923427
 20
6.07098514
 11
9.2426923427
 21
6.07098514
  0
LINE
  5
240
100
AcDbEntity
  8
0
100
AcDbLine
 62
7
  6
CONTINUOUS
 10
12.6926923427
 20
6.0794448296
 11
12.6326923427
 21
6.0794448296
  0
LINE
  5
241
100
AcDbEntity
  8
0
100
AcDbLine
 62
7
  6
CONTINUOUS
 10
9.1826923427
 20
6.0794448296
 11
9.2426923427
 21
6.0794448296
  0
LINE
  5
242
100
AcDbEntity
  8
0
100
AcDbLine
 62
7
  6
CONTINUOUS
 10
12.6926923427
 20
6.100250363
 11
12.6326923427
 21
6.100250363
  0
LINE
  5
243
100
AcDbEntity
  8
0
100
AcDbLine
 62
7
  6
CONTINUOUS
 10
9.1826923427
 20
6.100250363
 11
9.2426923427
 21
6.100250363
  0
LINE
  5
244
100
AcDbEntity
  8
0
100
AcDbLine
 62
7
  6
CONTINUOUS
 10
12.6926923427
 20
6.1020706113
 11
12.6326923427
 21
6.1020706113
  0
LINE
  5
245
100
AcDbEntity
  8
0
100
AcDbLine
 62
7
  6
CONTINUOUS
 10
9.1826923427
 20
6.1020706113
 11
9.2426923427
 21
6.1020706113
  0
LINE
  5
246
100
AcDbEntity
  8
0
100
AcDbLine
 62
7
  6
CONTINUOUS
 10
12.6926923427
 20
6.1111737299
 11
12.6326923427
 21
6.1111737299
  0
LINE
  5
247
100
AcDbEntity
  8
0
100
AcDbLine
 62
7
  6
CONTINUOUS
 10
9.1826923427
 20
6.1111737299
 11
9.2426923427
 21
6.1111737299
  0
LINE
  5
248
100
AcDbEntity
  8
0
100
AcDbLine
 62
7
  6
CONTINUOUS
 10
12.6926923427
 20
6.1317414469
 11
12.6326923427
 21
6.1317414469
  0
LINE
  5
249
100
AcDbEntity
  8
0
100
AcDbLine
 62
7
  6
CONTINUOUS
 10
9.1826923427
 20
6.1317414469
 11
9.2426923427
 21
6.1317414469
  0
LINE
  5
24A
100
AcDbEntity
  8
0
100
AcDbLine
 62
7
  6
CONTINUOUS
 10
12.6926923427
 20
6.1353680903
 11
12.6326923427
 21
6.1353680903
  0
LINE
  5
24B
100
AcDbEntity
  8
0
100
AcDbLine
 62
7
  6
CONTINUOUS
 10
9.1826923427
 20
6.1353680903
 11
9.2426923427
 21
6.1353680903
  0
LINE
  5
24C
100
AcDbEntity
  8
0
100
AcDbLine
 62
7
  6
CONTINUOUS
 10
12.6926923427
 20
6.1450453576
 11
12.6326923427
 21
6.1450453576
  0
LINE
  5
24D
100
AcDbEntity
  8
0
100
AcDbLine
 62
7
  6
CONTINUOUS
 10
9.1826923427
 20
6.1450453576
 11
9.2426923427
 21
6.1450453576
  0
LINE
  5
24E
100
AcDbEntity
  8
0
100
AcDbLine
 62
7
  6
CONTINUOUS
 10
12.6926923427
 20
6.1652187254
 11
12.6326923427
 21
6.1652187254
  0
LINE
  5
24F
100
AcDbEntity
  8
0
100
AcDbLine
 62
7
  6
CONTINUOUS
 10
9.1826923427
 20
6.1652187254
 11
9.2426923427
 21
6.1652187254
  0
LINE
  5
250
100
AcDbEntity
  8
0
100
AcDbLine
 62
7
  6
CONTINUOUS
 10
12.6926923427
 20
6.170624163
 11
12.6326923427
 21
6.170624163
  0
LINE
  5
251
100
AcDbEntity
  8
0
100
AcDbLine
 62
7
  6
CONTINUOUS
 10
9.1826923427
 20
6.170624163
 11
9.2426923427
 21
6.170624163
  0
LINE
  5
252
100
AcDbEntity
  8
0
100
AcDbLine
 62
7
  6
CONTINUOUS
 10
12.6926923427
 20
6.1808019292
 11
12.6326923427
 21
6.1808019292
  0
LINE
  5
253
100
AcDbEntity
  8
0
100
AcDbLine
 62
7
  6
CONTINUOUS
 10
9.1826923427
 20
6.1808019292
 11
9.2426923427
 21
6.1808019292
  0
LINE
  5
254
100
AcDbEntity
  8
0
100
AcDbLine
 62
7
  6
CONTINUOUS
 10
12.6926923427
 20
6.2004274163
 11
12.6326923427
 21
6.2004274163
  0
LINE
  5
255
100
AcDbEntity
  8
0
100
AcDbLine
 62
7
  6
CONTINUOUS
 10
9.1826923427
 20
6.2004274163
 11
9.2426923427
 21
6.2004274163
  0
LINE
  5
256
100
AcDbEntity
  8
0
100
AcDbLine
 62
7
  6
CONTINUOUS
 10
12.6926923427
 20
6.2075705095
 11
12.6326923427
 21
6.2075705095
  0
LINE
  5
257
100
AcDbEntity
  8
0
100
AcDbLine
 62
7
  6
CONTINUOUS
 10
9.1826923427
 20
6.2075705095
 11
9.2426923427
 21
6.2075705095
  0
LINE
  5
258
100
AcDbEntity
  8
0
100
AcDbLine
 62
7
  6
CONTINUOUS
 10
12.6926923427
 20
6.2181713156
 11
12.6326923427
 21
6.2181713156
  0
LINE
  5
259
100
AcDbEntity
  8
0
100
AcDbLine
 62
7
  6
CONTINUOUS
 10
9.1826923427
 20
6.2181713156
 11
9.2426923427
 21
6.2181713156
  0
LINE
  5
25A
100
AcDbEntity
  8
0
100
AcDbLine
 62
7
  6
CONTINUOUS
 10
12.6926923427
 20
6.2370995602
 11
12.6326923427
 21
6.2370995602
  0
LINE
  5
25B
100
AcDbEntity
  8
0
100
AcDbLine
 62
7
  6
CONTINUOUS
 10
9.1826923427
 20
6.2370995602
 11
9.2426923427
 21
6.2370995602
  0
LINE
  5
25C
100
AcDbEntity
  8
0
100
AcDbLine
 62
7
  6
CONTINUOUS
 10
12.6926923427
 20
6.2459259456
 11
12.6326923427
 21
6.2459259456
  0
LINE
  5
25D
100
AcDbEntity
  8
0
100
AcDbLine
 62
7
  6
CONTINUOUS
 10
9.1826923427
 20
6.2459259456
 11
9.2426923427
 21
6.2459259456
  0
LINE
  5
25E
100
AcDbEntity
  8
0
100
AcDbLine
 62
7
  6
CONTINUOUS
 10
12.6926923427
 20
6.2568691131
 11
12.6326923427
 21
6.2568691131
  0
LINE
  5
25F
100
AcDbEntity
  8
0
100
AcDbLine
 62
7
  6
CONTINUOUS
 10
9.1826923427
 20
6.2568691131
 11
9.2426923427
 21
6.2568691131
  0
LINE
  5
260
100
AcDbEntity
  8
0
100
AcDbLine
 62
7
  6
CONTINUOUS
 10
12.6926923427
 20
6.2749560599
 11
12.6326923427
 21
6.2749560599
  0
LINE
  5
261
100
AcDbEntity
  8
0
100
AcDbLine
 62
7
  6
CONTINUOUS
 10
9.1826923427
 20
6.2749560599
 11
9.2426923427
 21
6.2749560599
  0
LINE
  5
262
100
AcDbEntity
  8
0
100
AcDbLine
 62
7
  6
CONTINUOUS
 10
12.6926923427
 20
6.2853985635
 11
12.6326923427
 21
6.2853985635
  0
LINE
  5
263
100
AcDbEntity
  8
0
100
AcDbLine
 62
7
  6
CONTINUOUS
 10
9.1826923427
 20
6.2853985635
 11
9.2426923427
 21
6.2853985635
  0
LINE
  5
264
100
AcDbEntity
  8
0
100
AcDbLine
 62
7
  6
CONTINUOUS
 10
12.6926923427
 20
6.2966008083
 11
12.6326923427
 21
6.2966008083
  0
LINE
  5
265
100
AcDbEntity
  8
0
100
AcDbLine
 62
7
  6
CONTINUOUS
 10
9.1826923427
 20
6.2966008083
 11
9.2426923427
 21
6.2966008083
  0
LINE
  5
266
100
AcDbEntity
  8
0
100
AcDbLine
 62
7
  6
CONTINUOUS
 10
12.6926923427
 20
6.3137088046
 11
12.6326923427
 21
6.3137088046
  0
LINE
  5
267
100
AcDbEntity
  8
0
100
AcDbLine
 62
7
  6
CONTINUOUS
 10
9.1826923427
 20
6.3137088046
 11
9.2426923427
 21
6.3137088046
  0
LINE
  5
268
100
AcDbEntity
  8
0
100
AcDbLine
 62
7
  6
CONTINUOUS
 10
12.6926923427
 20
6.3256879526
 11
12.6326923427
 21
6.3256879526
  0
LINE
  5
269
100
AcDbEntity
  8
0
100
AcDbLine
 62
7
  6
CONTINUOUS
 10
9.1826923427
 20
6.3256879526
 11
9.2426923427
 21
6.3256879526
  0
LINE
  5
26A
100
AcDbEntity
  8
0
100
AcDbLine
 62
7
  6
CONTINUOUS
 10
12.6926923427
 20
6.3370640188
 11
12.6326923427
 21
6.3370640188
  0
LINE
  5
26B
100
AcDbEntity
  8
0
100
AcDbLine
 62
7
  6
CONTINUOUS
 10
9.1826923427
 20
6.3370640188
 11
9.2426923427
 21
6.3370640188
  0
LINE
  5
26C
100
AcDbEntity
  8
0
100
AcDbLine
 62
7
  6
CONTINUOUS
 10
12.6926923427
 20
6.3530628625
 11
12.6326923427
 21
6.3530628625
  0
LINE
  5
26D
100
AcDbEntity
  8
0
100
AcDbLine
 62
7
  6
CONTINUOUS
 10
9.1826923427
 20
6.3530628625
 11
9.2426923427
 21
6.3530628625
  0
LINE
  5
26E
100
AcDbEntity
  8
0
100
AcDbLine
 62
7
  6
CONTINUOUS
 10
12.6926923427
 20
6.3664874863
 11
12.6326923427
 21
6.3664874863
  0
LINE
  5
26F
100
AcDbEntity
  8
0
100
AcDbLine
 62
7
  6
CONTINUOUS
 10
9.1826923427
 20
6.3664874863
 11
9.2426923427
 21
6.3664874863
  0
LINE
  5
270
100
AcDbEntity
  8
0
100
AcDbLine
 62
7
  6
CONTINUOUS
 10
12.6926923427
 20
6.3779507952
 11
12.6326923427
 21
6.3779507952
  0
LINE
  5
271
100
AcDbEntity
  8
0
100
AcDbLine
 62
7
  6
CONTINUOUS
 10
9.1826923427
 20
6.3779507952
 11
9.2426923427
 21
6.3779507952
  0
LINE
  5
272
100
AcDbEntity
  8
0
100
AcDbLine
 62
7
  6
CONTINUOUS
 10
12.6926923427
 20
6.3927187254
 11
12.6326923427
 21
6.3927187254
  0
LINE
  5
273
100
AcDbEntity
  8
0
100
AcDbLine
 62
7
  6
CONTINUOUS
 10
9.1826923427
 20
6.3927187254
 11
9.2426923427
 21
6.3927187254
  0
LINE
  5
274
100
AcDbEntity
  8
0
100
AcDbLine
 62
7
  6
CONTINUOUS
 10
12.6926923427
 20
6.4074866556
 11
12.6326923427
 21
6.4074866556
  0
LINE
  5
275
100
AcDbEntity
  8
0
100
AcDbLine
 62
7
  6
CONTINUOUS
 10
9.1826923427
 20
6.4074866556
 11
9.2426923427
 21
6.4074866556
  0
LINE
  5
276
100
AcDbEntity
  8
0
100
AcDbLine
 62
7
  6
CONTINUOUS
 10
8.3626923427
 20
5.9927187254
 11
8.3626923427
 21
6.7927187254
  0
LINE
  5
277
100
AcDbEntity
  8
0
100
AcDbLine
 62
7
  6
CONTINUOUS
 10
12.6926923427
 20
6.4189499645
 11
12.6326923427
 21
6.4189499645
  0
LINE
  5
278
100
AcDbEntity
  8
0
100
AcDbLine
 62
7
  6
CONTINUOUS
 10
9.1826923427
 20
6.4189499645
 11
9.2426923427
 21
6.4189499645
  0
LINE
  5
279
100
AcDbEntity
  8
0
100
AcDbLine
 62
7
  6
CONTINUOUS
 10
12.6926923427
 20
6.4323745884
 11
12.6326923427
 21
6.4323745884
  0
LINE
  5
27A
100
AcDbEntity
  8
0
100
AcDbLine
 62
7
  6
CONTINUOUS
 10
9.1826923427
 20
6.4323745884
 11
9.2426923427
 21
6.4323745884
  0
LINE
  5
27B
100
AcDbEntity
  8
0
100
AcDbLine
 62
7
  6
CONTINUOUS
 10
12.6926923427
 20
6.448373432
 11
12.6326923427
 21
6.448373432
  0
LINE
  5
27C
100
AcDbEntity
  8
0
100
AcDbLine
 62
7
  6
CONTINUOUS
 10
9.1826923427
 20
6.448373432
 11
9.2426923427
 21
6.448373432
  0
LINE
  5
27D
100
AcDbEntity
  8
0
100
AcDbLine
 62
7
  6
CONTINUOUS
 10
12.6926923427
 20
6.4597494983
 11
12.6326923427
 21
6.4597494983
  0
LINE
  5
27E
100
AcDbEntity
  8
0
100
AcDbLine
 62
7
  6
CONTINUOUS
 10
9.1826923427
 20
6.4597494983
 11
9.2426923427
 21
6.4597494983
  0
LINE
  5
27F
100
AcDbEntity
  8
0
100
AcDbLine
 62
7
  6
CONTINUOUS
 10
12.6926923427
 20
6.4717286462
 11
12.6326923427
 21
6.4717286462
  0
LINE
  5
280
100
AcDbEntity
  8
0
100
AcDbLine
 62
7
  6
CONTINUOUS
 10
9.1826923427
 20
6.4717286462
 11
9.2426923427
 21
6.4717286462
  0
LINE
  5
281
100
AcDbEntity
  8
0
100
AcDbLine
 62
7
  6
CONTINUOUS
 10
12.6926923427
 20
6.4888366426
 11
12.6326923427
 21
6.4888366426
  0
LINE
  5
282
100
AcDbEntity
  8
0
100
AcDbLine
 62
7
  6
CONTINUOUS
 10
9.1826923427
 20
6.4888366426
 11
9.2426923427
 21
6.4888366426
  0
LINE
  5
283
100
AcDbEntity
  8
0
100
AcDbLine
 62
7
  6
CONTINUOUS
 10
12.6926923427
 20
6.5000388873
 11
12.6326923427
 21
6.5000388873
  0
LINE
  5
284
100
AcDbEntity
  8
0
100
AcDbLine
 62
7
  6
CONTINUOUS
 10
9.1826923427
 20
6.5000388873
 11
9.2426923427
 21
6.5000388873
  0
LINE
  5
285
100
AcDbEntity
  8
0
100
AcDbLine
 62
7
  6
CONTINUOUS
 10
12.6926923427
 20
6.5104813909
 11
12.6326923427
 21
6.5104813909
  0
LINE
  5
286
100
AcDbEntity
  8
0
100
AcDbLine
 62
7
  6
CONTINUOUS
 10
9.1826923427
 20
6.5104813909
 11
9.2426923427
 21
6.5104813909
  0
LINE
  5
287
100
AcDbEntity
  8
0
100
AcDbLine
 62
7
  6
CONTINUOUS
 10
12.6926923427
 20
6.5285683377
 11
12.6326923427
 21
6.5285683377
  0
LINE
  5
288
100
AcDbEntity
  8
0
100
AcDbLine
 62
7
  6
CONTINUOUS
 10
9.1826923427
 20
6.5285683377
 11
9.2426923427
 21
6.5285683377
  0
LINE
  5
289
100
AcDbEntity
  8
0
100
AcDbLine
 62
7
  6
CONTINUOUS
 10
12.6926923427
 20
6.5395115052
 11
12.6326923427
 21
6.5395115052
  0
LINE
  5
28A
100
AcDbEntity
  8
0
100
AcDbLine
 62
7
  6
CONTINUOUS
 10
9.1826923427
 20
6.5395115052
 11
9.2426923427
 21
6.5395115052
  0
LINE
  5
28B
100
AcDbEntity
  8
0
100
AcDbLine
 62
7
  6
CONTINUOUS
 10
12.6926923427
 20
6.5483378906
 11
12.6326923427
 21
6.5483378906
  0
LINE
  5
28C
100
AcDbEntity
  8
0
100
AcDbLine
 62
7
  6
CONTINUOUS
 10
9.1826923427
 20
6.5483378906
 11
9.2426923427
 21
6.5483378906
  0
LINE
  5
28D
100
AcDbEntity
  8
0
100
AcDbLine
 62
7
  6
CONTINUOUS
 10
12.6926923427
 20
6.5672661352
 11
12.6326923427
 21
6.5672661352
  0
LINE
  5
28E
100
AcDbEntity
  8
0
100
AcDbLine
 62
7
  6
CONTINUOUS
 10
9.1826923427
 20
6.5672661352
 11
9.2426923427
 21
6.5672661352
  0
LINE
  5
28F
100
AcDbEntity
  8
0
100
AcDbLine
 62
7
  6
CONTINUOUS
 10
12.6926923427
 20
6.5778669414
 11
12.6326923427
 21
6.5778669414
  0
LINE
  5
290
100
AcDbEntity
  8
0
100
AcDbLine
 62
7
  6
CONTINUOUS
 10
9.1826923427
 20
6.5778669414
 11
9.2426923427
 21
6.5778669414
  0
LINE
  5
291
100
AcDbEntity
  8
0
100
AcDbLine
 62
7
  6
CONTINUOUS
 10
12.6926923427
 20
6.5850100345
 11
12.6326923427
 21
6.5850100345
  0
LINE
  5
292
100
AcDbEntity
  8
0
100
AcDbLine
 62
7
  6
CONTINUOUS
 10
9.1826923427
 20
6.5850100345
 11
9.2426923427
 21
6.5850100345
  0
LINE
  5
293
100
AcDbEntity
  8
0
100
AcDbLine
 62
7
  6
CONTINUOUS
 10
12.6926923427
 20
6.6046355216
 11
12.6326923427
 21
6.6046355216
  0
LINE
  5
294
100
AcDbEntity
  8
0
100
AcDbLine
 62
7
  6
CONTINUOUS
 10
9.1826923427
 20
6.6046355216
 11
9.2426923427
 21
6.6046355216
  0
LINE
  5
295
100
AcDbEntity
  8
0
100
AcDbLine
 62
7
  6
CONTINUOUS
 10
12.6926923427
 20
6.6148132878
 11
12.6326923427
 21
6.6148132878
  0
LINE
  5
296
100
AcDbEntity
  8
0
100
AcDbLine
 62
7
  6
CONTINUOUS
 10
9.1826923427
 20
6.6148132878
 11
9.2426923427
 21
6.6148132878
  0
LINE
  5
297
100
AcDbEntity
  8
0
100
AcDbLine
 62
7
  6
CONTINUOUS
 10
12.6926923427
 20
6.6202187254
 11
12.6326923427
 21
6.6202187254
  0
LINE
  5
298
100
AcDbEntity
  8
0
100
AcDbLine
 62
7
  6
CONTINUOUS
 10
9.1826923427
 20
6.6202187254
 11
9.2426923427
 21
6.6202187254
  0
LINE
  5
299
100
AcDbEntity
  8
0
100
AcDbLine
 62
7
  6
CONTINUOUS
 10
12.6926923427
 20
6.6403920932
 11
12.6326923427
 21
6.6403920932
  0
LINE
  5
29A
100
AcDbEntity
  8
0
100
AcDbLine
 62
7
  6
CONTINUOUS
 10
9.1826923427
 20
6.6403920932
 11
9.2426923427
 21
6.6403920932
  0
LINE
  5
29B
100
AcDbEntity
  8
0
100
AcDbLine
 62
7
  6
CONTINUOUS
 10
12.6926923427
 20
6.6500693605
 11
12.6326923427
 21
6.6500693605
  0
LINE
  5
29C
100
AcDbEntity
  8
0
100
AcDbLine
 62
7
  6
CONTINUOUS
 10
9.1826923427
 20
6.6500693605
 11
9.2426923427
 21
6.6500693605
  0
LINE
  5
29D
100
AcDbEntity
  8
0
100
AcDbLine
 62
7
  6
CONTINUOUS
 10
12.6926923427
 20
6.6536960039
 11
12.6326923427
 21
6.6536960039
  0
LINE
  5
29E
100
AcDbEntity
  8
0
100
AcDbLine
 62
7
  6
CONTINUOUS
 10
9.1826923427
 20
6.6536960039
 11
9.2426923427
 21
6.6536960039
  0
LINE
  5
29F
100
AcDbEntity
  8
0
100
AcDbLine
 62
7
  6
CONTINUOUS
 10
12.6926923427
 20
6.6742637209
 11
12.6326923427
 21
6.6742637209
  0
LINE
  5
2A0
100
AcDbEntity
  8
0
100
AcDbLine
 62
7
  6
CONTINUOUS
 10
9.1826923427
 20
6.6742637209
 11
9.2426923427
 21
6.6742637209
  0
LINE
  5
2A1
100
AcDbEntity
  8
0
100
AcDbLine
 62
7
  6
CONTINUOUS
 10
12.6926923427
 20
6.6833668395
 11
12.6326923427
 21
6.6833668395
  0
LINE
  5
2A2
100
AcDbEntity
  8
0
100
AcDbLine
 62
7
  6
CONTINUOUS
 10
9.1826923427
 20
6.6833668395
 11
9.2426923427
 21
6.6833668395
  0
LINE
  5
2A3
100
AcDbEntity
  8
0
100
AcDbLine
 62
7
  6
CONTINUOUS
 10
12.6926923427
 20
6.6851870878
 11
12.6326923427
 21
6.6851870878
  0
LINE
  5
2A4
100
AcDbEntity
  8
0
100
AcDbLine
 62
7
  6
CONTINUOUS
 10
9.1826923427
 20
6.6851870878
 11
9.2426923427
 21
6.6851870878
  0
LINE
  5
2A5
100
AcDbEntity
  8
0
100
AcDbLine
 62
7
  6
CONTINUOUS
 10
12.6926923427
 20
6.7059926212
 11
12.6326923427
 21
6.7059926212
  0
LINE
  5
2A6
100
AcDbEntity
  8
0
100
AcDbLine
 62
7
  6
CONTINUOUS
 10
9.1826923427
 20
6.7059926212
 11
9.2426923427
 21
6.7059926212
  0
LINE
  5
2A7
100
AcDbEntity
  8
0
100
AcDbLine
 62
7
  6
CONTINUOUS
 10
12.6926923427
 20
6.7144523108
 11
12.6326923427
 21
6.7144523108
  0
LINE
  5
2A8
100
AcDbEntity
  8
0
100
AcDbLine
 62
7
  6
CONTINUOUS
 10
9.1826923427
 20
6.7144523108
 11
9.2426923427
 21
6.7144523108
  0
LINE
  5
2A9
100
AcDbEntity
  8
0
100
AcDbLine
 62
7
  6
CONTINUOUS
 10
12.6926923427
 20
6.735337318
 11
12.6326923427
 21
6.735337318
  0
LINE
  5
2AA
100
AcDbEntity
  8
0
100
AcDbLine
 62
7
  6
CONTINUOUS
 10
9.1826923427
 20
6.735337318
 11
9.2426923427
 21
6.735337318
  0
LINE
  5
2AB
100
AcDbEntity
  8
0
100
AcDbLine
 62
7
  6
CONTINUOUS
 10
12.6926923427
 20
6.7430891953
 11
12.6326923427
 21
6.7430891953
  0
LINE
  5
2AC
100
AcDbEntity
  8
0
100
AcDbLine
 62
7
  6
CONTINUOUS
 10
9.1826923427
 20
6.7430891953
 11
9.2426923427
 21
6.7430891953
  0
LINE
  5
2AD
100
AcDbEntity
  8
0
100
AcDbLine
 62
7
  6
CONTINUOUS
 10
12.6926923427
 20
6.7620744804
 11
12.6326923427
 21
6.7620744804
  0
LINE
  5
2AE
100
AcDbEntity
  8
0
100
AcDbLine
 62
7
  6
CONTINUOUS
 10
9.1826923427
 20
6.7620744804
 11
9.2426923427
 21
6.7620744804
  0
LINE
  5
2AF
100
AcDbEntity
  8
0
100
AcDbLine
 62
7
  6
CONTINUOUS
 10
12.6926923427
 20
6.769059549
 11
12.6326923427
 21
6.769059549
  0
LINE
  5
2B0
100
AcDbEntity
  8
0
100
AcDbLine
 62
7
  6
CONTINUOUS
 10
9.1826923427
 20
6.769059549
 11
9.2426923427
 21
6.769059549
  0
LINE
  5
2B1
100
AcDbEntity
  8
0
100
AcDbLine
 62
7
  6
CONTINUOUS
 10
13.2015132599
 20
6.7737187254
 11
13.0668714255
 21
6.7737187254
  0
LINE
  5
2B2
100
AcDbEntity
  8
0
100
AcDbLine
 62
7
  6
CONTINUOUS
 10
8.6738714255
 20
6.7737187254
 11
8.8085132599
 21
6.7737187254
  0
LINE
  5
2B3
100
AcDbEntity
  8
0
100
AcDbLine
 62
7
  6
CONTINUOUS
 10
11.8896923427
 20
4.6097187254
 11
11.9376923427
 21
4.5617187254
  0
LINE
  5
2B4
100
AcDbEntity
  8
0
100
AcDbLine
 62
7
  6
CONTINUOUS
 10
8.4602873142
 20
5.9773981936
 11
8.4602873142
 21
6.8080392572
  0
LINE
  5
2B5
100
AcDbEntity
  8
0
100
AcDbLine
 62
7
  6
CONTINUOUS
 10
8.5071923427
 20
7.1077187254
 11
8.5071923427
 21
8.9057187254
  0
LINE
  5
2B6
100
AcDbEntity
  8
0
100
AcDbLine
 62
7
  6
CONTINUOUS
 10
8.5701923427
 20
6.8057187254
 11
8.5701923427
 21
7.0057187254
  0
LINE
  5
2B7
100
AcDbEntity
  8
0
100
AcDbLine
 62
7
  6
CONTINUOUS
 10
8.5736923427
 20
6.8034376692
 11
8.5736923427
 21
6.8057187254
  0
LINE
  5
2B8
100
AcDbEntity
  8
0
100
AcDbLine
 62
7
  6
CONTINUOUS
 10
12.6926923427
 20
6.7860006225
 11
12.6326923427
 21
6.7860006225
  0
LINE
  5
2B9
100
AcDbEntity
  8
0
100
AcDbLine
 62
7
  6
CONTINUOUS
 10
9.1826923427
 20
6.7860006225
 11
9.2426923427
 21
6.7860006225
  0
LINE
  5
2BA
100
AcDbEntity
  8
0
100
AcDbLine
 62
7
  6
CONTINUOUS
 10
12.6926923427
 20
6.7921657217
 11
12.6326923427
 21
6.7921657217
  0
LINE
  5
2BB
100
AcDbEntity
  8
0
100
AcDbLine
 62
7
  6
CONTINUOUS
 10
9.1826923427
 20
6.7921657217
 11
9.2426923427
 21
6.7921657217
  0
LINE
  5
2BC
100
AcDbEntity
  8
0
100
AcDbLine
 62
7
  6
CONTINUOUS
 10
8.5701924219
 20
6.8057187254
 11
8.9121922636
 21
6.8057187254
  0
LINE
  5
2BD
100
AcDbEntity
  8
0
100
AcDbLine
 62
7
  6
CONTINUOUS
 10
12.9631924219
 20
6.8057187254
 11
13.3051922636
 21
6.8057187254
  0
LINE
  5
2BE
100
AcDbEntity
  8
0
100
AcDbLine
 62
7
  6
CONTINUOUS
 10
12.6926923427
 20
6.8069336519
 11
12.6326923427
 21
6.8069336519
  0
LINE
  5
2BF
100
AcDbEntity
  8
0
100
AcDbLine
 62
7
  6
CONTINUOUS
 10
9.1826923427
 20
6.8069336519
 11
9.2426923427
 21
6.8069336519
  0
LINE
  5
2C0
100
AcDbEntity
  8
0
100
AcDbLine
 62
7
  6
CONTINUOUS
 10
9.1826923427
 20
6.8080392572
 11
8.9196923427
 21
6.8080392572
  0
LINE
  5
2C1
100
AcDbEntity
  8
0
100
AcDbLine
 62
7
  6
CONTINUOUS
 10
8.5626923427
 20
6.8080392572
 11
8.4602873142
 21
6.8080392572
  0
LINE
  5
2C2
100
AcDbEntity
  8
0
100
AcDbLine
 62
7
  6
CONTINUOUS
 10
12.6926923427
 20
6.8080392572
 11
12.9556923427
 21
6.8080392572
  0
LINE
  5
2C3
100
AcDbEntity
  8
0
100
AcDbLine
 62
7
  6
CONTINUOUS
 10
13.3126923427
 20
6.8080392572
 11
13.4150973713
 21
6.8080392572
  0
LINE
  5
2C4
100
AcDbEntity
  8
0
100
AcDbLine
 62
7
  6
CONTINUOUS
 10
12.6926923427
 20
6.8122318617
 11
12.6326923427
 21
6.8122318617
  0
LINE
  5
2C5
100
AcDbEntity
  8
0
100
AcDbLine
 62
7
  6
CONTINUOUS
 10
9.1826923427
 20
6.8122318617
 11
9.2426923427
 21
6.8122318617
  0
LINE
  5
2C6
100
AcDbEntity
  8
0
100
AcDbLine
 62
7
  6
CONTINUOUS
 10
12.6926923427
 20
6.8247142556
 11
12.6326923427
 21
6.8247142556
  0
LINE
  5
2C7
100
AcDbEntity
  8
0
100
AcDbLine
 62
7
  6
CONTINUOUS
 10
9.1826923427
 20
6.8247142556
 11
9.2426923427
 21
6.8247142556
  0
LINE
  5
2C8
100
AcDbEntity
  8
0
100
AcDbLine
 62
7
  6
CONTINUOUS
 10
12.6926923427
 20
6.8291052533
 11
12.6326923427
 21
6.8291052533
  0
LINE
  5
2C9
100
AcDbEntity
  8
0
100
AcDbLine
 62
7
  6
CONTINUOUS
 10
9.1826923427
 20
6.8291052533
 11
9.2426923427
 21
6.8291052533
  0
LINE
  5
2CA
100
AcDbEntity
  8
0
100
AcDbLine
 62
7
  6
CONTINUOUS
 10
12.6926923427
 20
6.8392071125
 11
12.6326923427
 21
6.8392071125
  0
LINE
  5
2CB
100
AcDbEntity
  8
0
100
AcDbLine
 62
7
  6
CONTINUOUS
 10
9.1826923427
 20
6.8392071125
 11
9.2426923427
 21
6.8392071125
  0
LINE
  5
2CC
100
AcDbEntity
  8
0
100
AcDbLine
 62
7
  6
CONTINUOUS
 10
12.6926923427
 20
6.8426574799
 11
12.6326923427
 21
6.8426574799
  0
LINE
  5
2CD
100
AcDbEntity
  8
0
100
AcDbLine
 62
7
  6
CONTINUOUS
 10
9.1826923427
 20
6.8426574799
 11
9.2426923427
 21
6.8426574799
  0
LINE
  5
2CE
100
AcDbEntity
  8
0
100
AcDbLine
 62
7
  6
CONTINUOUS
 10
12.6926923427
 20
6.8503019231
 11
12.6326923427
 21
6.8503019231
  0
LINE
  5
2CF
100
AcDbEntity
  8
0
100
AcDbLine
 62
7
  6
CONTINUOUS
 10
9.1826923427
 20
6.8503019231
 11
9.2426923427
 21
6.8503019231
  0
LINE
  5
2D0
100
AcDbEntity
  8
0
100
AcDbLine
 62
7
  6
CONTINUOUS
 10
12.6926923427
 20
6.852785401
 11
12.6326923427
 21
6.852785401
  0
LINE
  5
2D1
100
AcDbEntity
  8
0
100
AcDbLine
 62
7
  6
CONTINUOUS
 10
9.1826923427
 20
6.852785401
 11
9.2426923427
 21
6.852785401
  0
LINE
  5
2D2
100
AcDbEntity
  8
0
100
AcDbLine
 62
7
  6
CONTINUOUS
 10
12.6926923427
 20
6.8579142493
 11
12.6326923427
 21
6.8579142493
  0
LINE
  5
2D3
100
AcDbEntity
  8
0
100
AcDbLine
 62
7
  6
CONTINUOUS
 10
9.1826923427
 20
6.8579142493
 11
9.2426923427
 21
6.8579142493
  0
LINE
  5
2D4
100
AcDbEntity
  8
0
100
AcDbLine
 62
7
  6
CONTINUOUS
 10
12.6926923427
 20
6.8594119369
 11
12.6326923427
 21
6.8594119369
  0
LINE
  5
2D5
100
AcDbEntity
  8
0
100
AcDbLine
 62
7
  6
CONTINUOUS
 10
9.1826923427
 20
6.8594119369
 11
9.2426923427
 21
6.8594119369
  0
LINE
  5
2D6
100
AcDbEntity
  8
0
100
AcDbLine
 62
7
  6
CONTINUOUS
 10
12.6926923427
 20
6.8619861567
 11
12.6326923427
 21
6.8619861567
  0
LINE
  5
2D7
100
AcDbEntity
  8
0
100
AcDbLine
 62
7
  6
CONTINUOUS
 10
9.1826923427
 20
6.8619861567
 11
9.2426923427
 21
6.8619861567
  0
LINE
  5
2D8
100
AcDbEntity
  8
0
100
AcDbLine
 62
7
  6
CONTINUOUS
 10
12.6926923427
 20
6.8624866556
 11
12.6326923427
 21
6.8624866556
  0
LINE
  5
2D9
100
AcDbEntity
  8
0
100
AcDbLine
 62
7
  6
CONTINUOUS
 10
9.1826923427
 20
6.8624866556
 11
9.2426923427
 21
6.8624866556
  0
LINE
  5
2DA
100
AcDbEntity
  8
0
100
AcDbLine
 62
7
  6
CONTINUOUS
 10
12.0926923427
 20
6.8777187254
 11
11.7334638735
 21
6.8777187254
  0
LINE
  5
2DB
100
AcDbEntity
  8
0
100
AcDbLine
 62
7
  6
CONTINUOUS
 10
9.7826923427
 20
6.8777187254
 11
10.1419207741
 21
6.8777187254
  0
LINE
  5
2DC
100
AcDbEntity
  8
0
100
AcDbLine
 62
7
  6
CONTINUOUS
 10
12.2326923427
 20
6.9427187254
 11
12.1926923427
 21
6.9427187254
  0
LINE
  5
2DD
100
AcDbEntity
  8
0
100
AcDbLine
 62
7
  6
CONTINUOUS
 10
9.6426923427
 20
6.9427187254
 11
9.6826923427
 21
6.9427187254
  0
LINE
  5
2DE
100
AcDbEntity
  8
0
100
AcDbLine
 62
7
  6
CONTINUOUS
 10
12.1926923427
 20
6.9877187254
 11
12.0926923427
 21
6.9877187254
  0
LINE
  5
2DF
100
AcDbEntity
  8
0
100
AcDbLine
 62
7
  6
CONTINUOUS
 10
9.6826923427
 20
6.9877187254
 11
9.7826923427
 21
6.9877187254
  0
LINE
  5
2E0
100
AcDbEntity
  8
0
100
AcDbLine
 62
7
  6
CONTINUOUS
 10
8.4911906855
 20
7.0057187254
 11
8.991194
 21
7.0057187254
  0
LINE
  5
2E1
100
AcDbEntity
  8
0
100
AcDbLine
 62
7
  6
CONTINUOUS
 10
12.8841906855
 20
7.0057187254
 11
13.384194
 21
7.0057187254
  0
LINE
  5
2E2
100
AcDbEntity
  8
0
100
AcDbLine
 62
7
  6
CONTINUOUS
 10
8.4911906855
 20
7.1077187254
 11
8.991194
 21
7.1077187254
  0
LINE
  5
2E3
100
AcDbEntity
  8
0
100
AcDbLine
 62
7
  6
CONTINUOUS
 10
12.8841906855
 20
7.1077187254
 11
13.384194
 21
7.1077187254
  0
LINE
  5
2E4
100
AcDbEntity
  8
0
100
AcDbLine
 62
7
  6
CONTINUOUS
 10
8.9086923427
 20
6.8034376954
 11
8.9086923427
 21
6.8057187254
  0
LINE
  5
2E5
100
AcDbEntity
  8
0
100
AcDbLine
 62
7
  6
CONTINUOUS
 10
8.9121923427
 20
6.8057187254
 11
8.9121923427
 21
7.0057187254
  0
LINE
  5
2E6
100
AcDbEntity
  8
0
100
AcDbLine
 62
7
  6
CONTINUOUS
 10
8.9751923427
 20
7.1077187254
 11
8.9751923427
 21
8.9057187254
  0
LINE
  5
2E7
100
AcDbEntity
  8
0
100
AcDbLine
 62
7
  6
CONTINUOUS
 10
10.6136199367
 20
11.7070990119
 11
10.6135842931
 21
11.707057329
  0
LINE
  5
2E8
100
AcDbEntity
  8
0
100
AcDbLine
 62
7
  6
CONTINUOUS
 10
10.1076923427
 20
7.3217187254
 11
11.7676923427
 21
7.3217187254
  0
LINE
  5
2E9
100
AcDbEntity
  8
0
100
AcDbLine
 62
7
  6
CONTINUOUS
 10
10.0726923427
 20
7.3567187254
 11
11.8026923427
 21
7.3567187254
  0
LINE
  5
2EA
100
AcDbEntity
  8
0
100
AcDbLine
 62
7
  6
CONTINUOUS
 10
10.022693584
 20
7.3867187254
 11
11.8526911015
 21
7.3867187254
  0
LINE
  5
2EB
100
AcDbEntity
  8
0
100
AcDbLine
 62
7
  6
CONTINUOUS
 10
10.0726923427
 20
7.3567187254
 11
10.1076923427
 21
7.3217187254
  0
LINE
  5
2EC
100
AcDbEntity
  8
0
100
AcDbLine
 62
7
  6
CONTINUOUS
 10
9.1826923427
 20
5.9229507952
 11
9.1826923427
 21
6.8624866556
  0
LINE
  5
2ED
100
AcDbEntity
  8
0
100
AcDbLine
 62
7
  6
CONTINUOUS
 10
9.2426923427
 20
6.8624866556
 11
9.2426923427
 21
5.9229507952
  0
LINE
  5
2EE
100
AcDbEntity
  8
0
100
AcDbLine
 62
7
  6
CONTINUOUS
 10
10.022693584
 20
7.6117187254
 11
11.8526911015
 21
7.6117187254
  0
LINE
  5
2EF
100
AcDbEntity
  8
0
100
AcDbLine
 62
7
  6
CONTINUOUS
 10
10.0726923427
 20
7.6417187254
 11
11.8026923427
 21
7.6417187254
  0
LINE
  5
2F0
100
AcDbEntity
  8
0
100
AcDbLine
 62
7
  6
CONTINUOUS
 10
11.7376920747
 20
7.7067187254
 11
10.1376926107
 21
7.7067187254
  0
LINE
  5
2F1
100
AcDbEntity
  8
0
100
AcDbLine
 62
7
  6
CONTINUOUS
 10
9.6426923427
 20
6.9427187254
 11
9.6426923427
 21
5.8427187254
  0
LINE
  5
2F2
100
AcDbEntity
  8
0
100
AcDbLine
 62
7
  6
CONTINUOUS
 10
9.6826923427
 20
6.9877187254
 11
9.6826923427
 21
5.7977187254
  0
LINE
  5
2F3
100
AcDbEntity
  8
0
100
AcDbLine
 62
7
  6
CONTINUOUS
 10
9.7826923427
 20
6.9877187254
 11
9.7826923427
 21
5.7977187254
  0
LINE
  5
2F4
100
AcDbEntity
  8
0
100
AcDbLine
 62
9
  6
CONTINUOUS
 10
11.2556059437
 20
11.5770980131
 11
11.2555917082
 21
11.5770821258
  0
LINE
  5
2F5
100
AcDbEntity
  8
0
100
AcDbLine
 62
9
  6
CONTINUOUS
 10
11.2520044024
 20
11.5731968638
 11
11.2520028406
 21
11.5731952214
  0
LINE
  5
2F6
100
AcDbEntity
  8
0
100
AcDbLine
 62
7
  6
CONTINUOUS
 10
11.2254112279
 20
11.2582170714
 11
11.2253087169
 21
11.2581136543
  0
LINE
  5
2F7
100
AcDbEntity
  8
0
100
AcDbLine
 62
7
  6
CONTINUOUS
 10
9.9376923427
 20
4.4817187254
 11
9.9376923427
 21
4.5617187254
  0
LINE
  5
2F8
100
AcDbEntity
  8
0
100
AcDbLine
 62
7
  6
CONTINUOUS
 10
9.9378923627
 20
4.9267187254
 11
9.9378923627
 21
4.8667187254
  0
LINE
  5
2F9
100
AcDbEntity
  8
0
100
AcDbLine
 62
7
  6
CONTINUOUS
 10
9.9382158347
 20
4.9267187254
 11
9.9382158347
 21
4.8667187254
  0
LINE
  5
2FA
100
AcDbEntity
  8
0
100
AcDbLine
 62
7
  6
CONTINUOUS
 10
9.940309273
 20
4.9267187254
 11
9.940309273
 21
4.8667187254
  0
LINE
  5
2FB
100
AcDbEntity
  8
0
100
AcDbLine
 62
7
  6
CONTINUOUS
 10
9.9412788024
 20
4.9267187254
 11
9.9412788024
 21
4.8667187254
  0
LINE
  5
2FC
100
AcDbEntity
  8
0
100
AcDbLine
 62
7
  6
CONTINUOUS
 10
9.9454599409
 20
4.9267187254
 11
9.9454599409
 21
4.8667187254
  0
LINE
  5
2FD
100
AcDbEntity
  8
0
100
AcDbLine
 62
7
  6
CONTINUOUS
 10
9.9470728703
 20
4.9267187254
 11
9.9470728703
 21
4.8667187254
  0
LINE
  5
2FE
100
AcDbEntity
  8
0
100
AcDbLine
 62
7
  6
CONTINUOUS
 10
9.9533302489
 20
4.9267187254
 11
9.9533302489
 21
4.8667187254
  0
LINE
  5
2FF
100
AcDbEntity
  8
0
100
AcDbLine
 62
7
  6
CONTINUOUS
 10
9.9555821573
 20
4.9267187254
 11
9.9555821573
 21
4.8667187254
  0
LINE
  5
300
100
AcDbEntity
  8
0
100
AcDbLine
 62
7
  6
CONTINUOUS
 10
9.9638986249
 20
4.9267187254
 11
9.9638986249
 21
4.8667187254
  0
LINE
  5
301
100
AcDbEntity
  8
0
100
AcDbLine
 62
7
  6
CONTINUOUS
 10
9.96678334
 20
4.9267187254
 11
9.96678334
 21
4.8667187254
  0
LINE
  5
302
100
AcDbEntity
  8
0
100
AcDbLine
 62
7
  6
CONTINUOUS
 10
9.9771361018
 20
4.9267187254
 11
9.9771361018
 21
4.8667187254
  0
LINE
  5
303
100
AcDbEntity
  8
0
100
AcDbLine
 62
7
  6
CONTINUOUS
 10
9.9806457169
 20
4.9267187254
 11
9.9806457169
 21
4.8667187254
  0
LINE
  5
304
100
AcDbEntity
  8
0
100
AcDbLine
 62
7
  6
CONTINUOUS
 10
9.9856923427
 20
4.6097187254
 11
9.9856923427
 21
4.8667187254
  0
LINE
  5
305
100
AcDbEntity
  8
0
100
AcDbLine
 62
7
  6
CONTINUOUS
 10
9.9930063967
 20
4.9267187254
 11
9.9930063967
 21
4.8667187254
  0
LINE
  5
306
100
AcDbEntity
  8
0
100
AcDbLine
 62
7
  6
CONTINUOUS
 10
9.997131292
 20
4.9267187254
 11
9.997131292
 21
4.8667187254
  0
LINE
  5
307
100
AcDbEntity
  8
0
100
AcDbLine
 62
7
  6
CONTINUOUS
 10
10.01146601
 20
4.9267187254
 11
10.01146601
 21
4.8667187254
  0
LINE
  5
308
100
AcDbEntity
  8
0
100
AcDbLine
 62
7
  6
CONTINUOUS
 10
10.0161948796
 20
4.9267187254
 11
10.0161948796
 21
4.8667187254
  0
LINE
  5
309
100
AcDbEntity
  8
0
100
AcDbLine
 62
7
  6
CONTINUOUS
 10
10.0226923427
 20
7.6117187254
 11
10.0226923427
 21
7.3867187254
  0
LINE
  5
30A
100
AcDbEntity
  8
0
100
AcDbLine
 62
7
  6
CONTINUOUS
 10
10.0324643453
 20
4.9267187254
 11
10.0324643453
 21
4.8667187254
  0
LINE
  5
30B
100
AcDbEntity
  8
0
100
AcDbLine
 62
7
  6
CONTINUOUS
 10
10.0377842277
 20
4.9267187254
 11
10.0377842277
 21
4.8667187254
  0
LINE
  5
30C
100
AcDbEntity
  8
0
100
AcDbLine
 62
7
  6
CONTINUOUS
 10
10.0559438477
 20
4.9267187254
 11
10.0559438477
 21
4.8667187254
  0
LINE
  5
30D
100
AcDbEntity
  8
0
100
AcDbLine
 62
7
  6
CONTINUOUS
 10
10.0618401614
 20
4.9267187254
 11
10.0618401614
 21
4.8667187254
  0
LINE
  5
30E
100
AcDbEntity
  8
0
100
AcDbLine
 62
7
  6
CONTINUOUS
 10
10.0726923427
 20
7.6417187254
 11
10.0726923427
 21
7.6117187254
  0
LINE
  5
30F
100
AcDbEntity
  8
0
100
AcDbLine
 62
7
  6
CONTINUOUS
 10
10.0726923427
 20
7.3867187254
 11
10.0726923427
 21
7.3567187254
  0
LINE
  5
310
100
AcDbEntity
  8
0
100
AcDbLine
 62
7
  6
CONTINUOUS
 10
10.0818401614
 20
4.9267187254
 11
10.0818401614
 21
4.8667187254
  0
LINE
  5
311
100
AcDbEntity
  8
0
100
AcDbLine
 62
7
  6
CONTINUOUS
 10
10.088296745
 20
4.9267187254
 11
10.088296745
 21
4.8667187254
  0
LINE
  5
312
100
AcDbEntity
  8
0
100
AcDbLine
 62
7
  6
CONTINUOUS
 10
10.1100823064
 20
4.9267187254
 11
10.1100823064
 21
4.8667187254
  0
LINE
  5
313
100
AcDbEntity
  8
0
100
AcDbLine
 62
7
  6
CONTINUOUS
 10
10.1170814629
 20
4.9267187254
 11
10.1170814629
 21
4.8667187254
  0
LINE
  5
314
100
AcDbEntity
  8
0
100
AcDbLine
 62
7
  6
CONTINUOUS
 10
10.1326923427
 20
4.9817187254
 11
10.1326923427
 21
5.8927187254
  0
LINE
  5
315
100
AcDbEntity
  8
0
100
AcDbLine
 62
7
  6
CONTINUOUS
 10
10.1326923427
 20
6.8927187254
 11
10.1326923427
 21
7.3217187254
  0
LINE
  5
316
100
AcDbEntity
  8
0
100
AcDbLine
 62
7
  6
CONTINUOUS
 10
10.140592873
 20
4.9267187254
 11
10.140592873
 21
4.8667187254
  0
LINE
  5
317
100
AcDbEntity
  8
0
100
AcDbLine
 62
7
  6
CONTINUOUS
 10
10.1481154182
 20
4.9267187254
 11
10.1481154182
 21
4.8667187254
  0
LINE
  5
318
100
AcDbEntity
  8
0
100
AcDbLine
 62
7
  6
CONTINUOUS
 10
10.1732882338
 20
4.9267187254
 11
10.1732882338
 21
4.8667187254
  0
LINE
  5
319
100
AcDbEntity
  8
0
100
AcDbLine
 62
7
  6
CONTINUOUS
 10
10.181313549
 20
4.9267187254
 11
10.181313549
 21
4.8667187254
  0
LINE
  5
31A
100
AcDbEntity
  8
0
100
AcDbLine
 62
7
  6
CONTINUOUS
 10
10.2080787732
 20
4.9267187254
 11
10.2080787732
 21
4.8667187254
  0
LINE
  5
31B
100
AcDbEntity
  8
0
100
AcDbLine
 62
7
  6
CONTINUOUS
 10
10.2165848614
 20
4.9267187254
 11
10.2165848614
 21
4.8667187254
  0
LINE
  5
31C
100
AcDbEntity
  8
0
100
AcDbLine
 62
7
  6
CONTINUOUS
 10
10.2448691327
 20
4.9267187254
 11
10.2448691327
 21
4.8667187254
  0
LINE
  5
31D
100
AcDbEntity
  8
0
100
AcDbLine
 62
7
  6
CONTINUOUS
 10
10.2538326794
 20
4.9267187254
 11
10.2538326794
 21
4.8667187254
  0
LINE
  5
31E
100
AcDbEntity
  8
0
100
AcDbLine
 62
7
  6
CONTINUOUS
 10
10.282078188
 20
4.9267187254
 11
10.282078188
 21
4.8667187254
  0
LINE
  5
31F
100
AcDbEntity
  8
0
100
AcDbLine
 62
7
  6
CONTINUOUS
 10
10.2835584724
 20
4.9267187254
 11
10.2835584724
 21
4.8667187254
  0
LINE
  5
320
100
AcDbEntity
  8
0
100
AcDbLine
 62
7
  6
CONTINUOUS
 10
10.2929549091
 20
4.9267187254
 11
10.2929549091
 21
4.8667187254
  0
LINE
  5
321
100
AcDbEntity
  8
0
100
AcDbLine
 62
7
  6
CONTINUOUS
 10
10.3210842362
 20
4.9267187254
 11
10.3210842362
 21
4.8667187254
  0
LINE
  5
322
100
AcDbEntity
  8
0
100
AcDbLine
 62
7
  6
CONTINUOUS
 10
10.3240407476
 20
4.9267187254
 11
10.3240407476
 21
4.8667187254
  0
LINE
  5
323
100
AcDbEntity
  8
0
100
AcDbLine
 62
7
  6
CONTINUOUS
 10
10.3338443194
 20
4.9267187254
 11
10.3338443194
 21
4.8667187254
  0
LINE
  5
324
100
AcDbEntity
  8
0
100
AcDbLine
 62
7
  6
CONTINUOUS
 10
10.3617803643
 20
4.9267187254
 11
10.3617803643
 21
4.8667187254
  0
LINE
  5
325
100
AcDbEntity
  8
0
100
AcDbLine
 62
7
  6
CONTINUOUS
 10
10.3662049991
 20
4.9267187254
 11
10.3662049991
 21
4.8667187254
  0
LINE
  5
326
100
AcDbEntity
  8
0
100
AcDbLine
 62
7
  6
CONTINUOUS
 10
10.3763888351
 20
4.9267187254
 11
10.3763888351
 21
4.8667187254
  0
LINE
  5
327
100
AcDbEntity
  8
0
100
AcDbLine
 62
7
  6
CONTINUOUS
 10
10.4040550271
 20
4.9267187254
 11
10.4040550271
 21
4.8667187254
  0
LINE
  5
328
100
AcDbEntity
  8
0
100
AcDbLine
 62
7
  6
CONTINUOUS
 10
10.4099356578
 20
4.9267187254
 11
10.4099356578
 21
4.8667187254
  0
LINE
  5
329
100
AcDbEntity
  8
0
100
AcDbLine
 62
7
  6
CONTINUOUS
 10
10.4204718447
 20
4.9267187254
 11
10.4204718447
 21
4.8667187254
  0
LINE
  5
32A
100
AcDbEntity
  8
0
100
AcDbLine
 62
7
  6
CONTINUOUS
 10
10.4477923527
 20
4.9267187254
 11
10.4477923527
 21
4.8667187254
  0
LINE
  5
32B
100
AcDbEntity
  8
0
100
AcDbLine
 62
7
  6
CONTINUOUS
 10
10.4551128608
 20
4.9267187254
 11
10.4551128608
 21
4.8667187254
  0
LINE
  5
32C
100
AcDbEntity
  8
0
100
AcDbLine
 62
7
  6
CONTINUOUS
 10
10.4659725197
 20
4.9267187254
 11
10.4659725197
 21
4.8667187254
  0
LINE
  5
32D
100
AcDbEntity
  8
0
100
AcDbLine
 62
7
  6
CONTINUOUS
 10
10.4928724602
 20
4.9267187254
 11
10.4928724602
 21
4.8667187254
  0
LINE
  5
32E
100
AcDbEntity
  8
0
100
AcDbLine
 62
7
  6
CONTINUOUS
 10
10.5016127807
 20
4.9267187254
 11
10.5016127807
 21
4.8667187254
  0
LINE
  5
32F
100
AcDbEntity
  8
0
100
AcDbLine
 62
7
  6
CONTINUOUS
 10
10.512766146
 20
4.9267187254
 11
10.512766146
 21
4.8667187254
  0
LINE
  5
330
100
AcDbEntity
  8
0
100
AcDbLine
 62
7
  6
CONTINUOUS
 10
10.539171788
 20
4.9267187254
 11
10.539171788
 21
4.8667187254
  0
LINE
  5
331
100
AcDbEntity
  8
0
100
AcDbLine
 62
7
  6
CONTINUOUS
 10
10.5493079643
 20
4.9267187254
 11
10.5493079643
 21
4.8667187254
  0
LINE
  5
332
100
AcDbEntity
  8
0
100
AcDbLine
 62
7
  6
CONTINUOUS
 10
10.5607244654
 20
4.9267187254
 11
10.5607244654
 21
4.8667187254
  0
LINE
  5
333
100
AcDbEntity
  8
0
100
AcDbLine
 62
7
  6
CONTINUOUS
 10
10.5865634329
 20
4.9267187254
 11
10.5865634329
 21
4.8667187254
  0
LINE
  5
334
100
AcDbEntity
  8
0
100
AcDbLine
 62
7
  6
CONTINUOUS
 10
10.5980676825
 20
4.9267187254
 11
10.5980676825
 21
4.8667187254
  0
LINE
  5
335
100
AcDbEntity
  8
0
100
AcDbLine
 62
7
  6
CONTINUOUS
 10
10.6097160276
 20
4.9267187254
 11
10.6097160276
 21
4.8667187254
  0
LINE
  5
336
100
AcDbEntity
  8
0
100
AcDbLine
 62
7
  6
CONTINUOUS
 10
8.4911906855
 20
8.9057187254
 11
8.991194
 21
8.9057187254
  0
LINE
  5
337
100
AcDbEntity
  8
0
100
AcDbLine
 62
7
  6
CONTINUOUS
 10
12.8841906855
 20
8.9057187254
 11
13.384194
 21
8.9057187254
  0
LINE
  5
338
100
AcDbEntity
  8
0
100
AcDbLine
 62
7
  6
CONTINUOUS
 10
10.6349174978
 20
4.9267187254
 11
10.6349174978
 21
4.8667187254
  0
LINE
  5
339
100
AcDbEntity
  8
0
100
AcDbLine
 62
7
  6
CONTINUOUS
 10
10.6477582883
 20
4.9267187254
 11
10.6477582883
 21
4.8667187254
  0
LINE
  5
33A
100
AcDbEntity
  8
0
100
AcDbLine
 62
7
  6
CONTINUOUS
 10
10.6596065501
 20
4.9267187254
 11
10.6596065501
 21
4.8667187254
  0
LINE
  5
33B
100
AcDbEntity
  8
0
100
AcDbLine
 62
7
  6
CONTINUOUS
 10
10.6841014475
 20
4.9267187254
 11
10.6841014475
 21
4.8667187254
  0
LINE
  5
33C
100
AcDbEntity
  8
0
100
AcDbLine
 62
7
  6
CONTINUOUS
 10
10.6876923427
 20
13.8036301235
 11
10.6876923427
 21
11.7567210774
  0
LINE
  5
33D
100
AcDbEntity
  8
0
100
AcDbLine
 62
7
  6
CONTINUOUS
 10
10.6876923427
 20
7.7067187254
 11
10.6876923427
 21
11.231260895
  0
LINE
  5
33E
100
AcDbEntity
  8
0
100
AcDbLine
 62
7
  6
CONTINUOUS
 10
10.6982435831
 20
4.9267187254
 11
10.6982435831
 21
4.8667187254
  0
LINE
  5
33F
100
AcDbEntity
  8
0
100
AcDbLine
 62
7
  6
CONTINUOUS
 10
10.7102592864
 20
4.9267187254
 11
10.7102592864
 21
4.8667187254
  0
LINE
  5
340
100
AcDbEntity
  8
0
100
AcDbLine
 62
7
  6
CONTINUOUS
 10
10.7339804722
 20
4.9267187254
 11
10.7339804722
 21
4.8667187254
  0
LINE
  5
341
100
AcDbEntity
  8
0
100
AcDbLine
 62
7
  6
CONTINUOUS
 10
10.7493851904
 20
4.9267187254
 11
10.7493851904
 21
4.8667187254
  0
LINE
  5
342
100
AcDbEntity
  8
0
100
AcDbLine
 62
7
  6
CONTINUOUS
 10
10.7615354009
 20
4.9267187254
 11
10.7615354009
 21
4.8667187254
  0
LINE
  5
343
100
AcDbEntity
  8
0
100
AcDbLine
 62
7
  6
CONTINUOUS
 10
10.784417857
 20
4.9267187254
 11
10.784417857
 21
4.8667187254
  0
LINE
  5
344
100
AcDbEntity
  8
0
100
AcDbLine
 62
7
  6
CONTINUOUS
 10
10.8010429345
 20
4.9267187254
 11
10.8010429345
 21
4.8667187254
  0
LINE
  5
345
100
AcDbEntity
  8
0
100
AcDbLine
 62
7
  6
CONTINUOUS
 10
10.8132943493
 20
4.9267187254
 11
10.8132943493
 21
4.8667187254
  0
LINE
  5
346
100
AcDbEntity
  8
0
100
AcDbLine
 62
7
  6
CONTINUOUS
 10
10.8352753565
 20
4.9267187254
 11
10.8352753565
 21
4.8667187254
  0
LINE
  5
347
100
AcDbEntity
  8
0
100
AcDbLine
 62
7
  6
CONTINUOUS
 10
10.8530752252
 20
4.9267187254
 11
10.8530752252
 21
4.8667187254
  0
LINE
  5
348
100
AcDbEntity
  8
0
100
AcDbLine
 62
7
  6
CONTINUOUS
 10
10.865394264
 20
4.9267187254
 11
10.865394264
 21
4.8667187254
  0
LINE
  5
349
100
AcDbEntity
  8
0
100
AcDbLine
 62
7
  6
CONTINUOUS
 10
10.8864135739
 20
4.9267187254
 11
10.8864135739
 21
4.8667187254
  0
LINE
  5
34A
100
AcDbEntity
  8
0
100
AcDbLine
 62
7
  6
CONTINUOUS
 10
10.9053394454
 20
4.9267187254
 11
10.9053394454
 21
4.8667187254
  0
LINE
  5
34B
100
AcDbEntity
  8
0
100
AcDbLine
 62
7
  6
CONTINUOUS
 10
10.9176923427
 20
4.9267187254
 11
10.9176923427
 21
4.8667187254
  0
LINE
  5
34C
100
AcDbEntity
  8
0
100
AcDbLine
 62
7
  6
CONTINUOUS
 10
10.9376923427
 20
4.9267187254
 11
10.9376923427
 21
4.8667187254
  0
LINE
  5
34D
100
AcDbEntity
  8
0
100
AcDbLine
 62
7
  6
CONTINUOUS
 10
10.9576923427
 20
4.9267187254
 11
10.9576923427
 21
4.8667187254
  0
LINE
  5
34E
100
AcDbEntity
  8
0
100
AcDbLine
 62
7
  6
CONTINUOUS
 10
10.97004524
 20
4.9267187254
 11
10.97004524
 21
4.8667187254
  0
LINE
  5
34F
100
AcDbEntity
  8
0
100
AcDbLine
 62
7
  6
CONTINUOUS
 10
8.4911906855
 20
9.0057187254
 11
8.991194
 21
9.0057187254
  0
LINE
  5
350
100
AcDbEntity
  8
0
100
AcDbLine
 62
7
  6
CONTINUOUS
 10
12.8841906855
 20
9.0057187254
 11
13.384194
 21
9.0057187254
  0
LINE
  5
351
100
AcDbEntity
  8
0
100
AcDbLine
 62
7
  6
CONTINUOUS
 10
10.9889711116
 20
4.9267187254
 11
10.9889711116
 21
4.8667187254
  0
LINE
  5
352
100
AcDbEntity
  8
0
100
AcDbLine
 62
7
  6
CONTINUOUS
 10
11.0099904214
 20
4.9267187254
 11
11.0099904214
 21
4.8667187254
  0
LINE
  5
353
100
AcDbEntity
  8
0
100
AcDbLine
 62
7
  6
CONTINUOUS
 10
11.0223094603
 20
4.9267187254
 11
11.0223094603
 21
4.8667187254
  0
LINE
  5
354
100
AcDbEntity
  8
0
100
AcDbLine
 62
7
  6
CONTINUOUS
 10
11.040109329
 20
4.9267187254
 11
11.040109329
 21
4.8667187254
  0
LINE
  5
355
100
AcDbEntity
  8
0
100
AcDbLine
 62
7
  6
CONTINUOUS
 10
11.0620903361
 20
4.9267187254
 11
11.0620903361
 21
4.8667187254
  0
LINE
  5
356
100
AcDbEntity
  8
0
100
AcDbLine
 62
7
  6
CONTINUOUS
 10
11.0743417509
 20
4.9267187254
 11
11.0743417509
 21
4.8667187254
  0
LINE
  5
357
100
AcDbEntity
  8
0
100
AcDbLine
 62
7
  6
CONTINUOUS
 10
11.0909668285
 20
4.9267187254
 11
11.0909668285
 21
4.8667187254
  0
LINE
  5
358
100
AcDbEntity
  8
0
100
AcDbLine
 62
7
  6
CONTINUOUS
 10
11.1138492846
 20
4.9267187254
 11
11.1138492846
 21
4.8667187254
  0
LINE
  5
359
100
AcDbEntity
  8
0
100
AcDbLine
 62
7
  6
CONTINUOUS
 10
11.125999495
 20
4.9267187254
 11
11.125999495
 21
4.8667187254
  0
LINE
  5
35A
100
AcDbEntity
  8
0
100
AcDbLine
 62
7
  6
CONTINUOUS
 10
11.1414042132
 20
4.9267187254
 11
11.1414042132
 21
4.8667187254
  0
LINE
  5
35B
100
AcDbEntity
  8
0
100
AcDbLine
 62
7
  6
CONTINUOUS
 10
11.1651253991
 20
4.9267187254
 11
11.1651253991
 21
4.8667187254
  0
LINE
  5
35C
100
AcDbEntity
  8
0
100
AcDbLine
 62
7
  6
CONTINUOUS
 10
11.1771411023
 20
4.9267187254
 11
11.1771411023
 21
4.8667187254
  0
LINE
  5
35D
100
AcDbEntity
  8
0
100
AcDbLine
 62
7
  6
CONTINUOUS
 10
11.1876923427
 20
13.8036301235
 11
11.1876923427
 21
11.7567388514
  0
LINE
  5
35E
100
AcDbEntity
  8
0
100
AcDbLine
 62
7
  6
CONTINUOUS
 10
11.1876923427
 20
7.7067187254
 11
11.1876923427
 21
11.2313173504
  0
LINE
  5
35F
100
AcDbEntity
  8
0
100
AcDbLine
 62
7
  6
CONTINUOUS
 10
11.191283238
 20
4.9267187254
 11
11.191283238
 21
4.8667187254
  0
LINE
  5
360
100
AcDbEntity
  8
0
100
AcDbLine
 62
7
  6
CONTINUOUS
 10
11.2157781354
 20
4.9267187254
 11
11.2157781354
 21
4.8667187254
  0
LINE
  5
361
100
AcDbEntity
  8
0
100
AcDbLine
 62
7
  6
CONTINUOUS
 10
11.2276263972
 20
4.9267187254
 11
11.2276263972
 21
4.8667187254
  0
LINE
  5
362
100
AcDbEntity
  8
0
100
AcDbLine
 62
7
  6
CONTINUOUS
 10
11.2404671876
 20
4.9267187254
 11
11.2404671876
 21
4.8667187254
  0
LINE
  5
363
100
AcDbEntity
  8
0
100
AcDbLine
 62
7
  6
CONTINUOUS
 10
11.2656686579
 20
4.9267187254
 11
11.2656686579
 21
4.8667187254
  0
LINE
  5
364
100
AcDbEntity
  8
0
100
AcDbLine
 62
7
  6
CONTINUOUS
 10
11.277317003
 20
4.9267187254
 11
11.277317003
 21
4.8667187254
  0
LINE
  5
365
100
AcDbEntity
  8
0
100
AcDbLine
 62
7
  6
CONTINUOUS
 10
11.2888212525
 20
4.9267187254
 11
11.2888212525
 21
4.8667187254
  0
LINE
  5
366
100
AcDbEntity
  8
0
100
AcDbLine
 62
7
  6
CONTINUOUS
 10
11.3146602201
 20
4.9267187254
 11
11.3146602201
 21
4.8667187254
  0
LINE
  5
367
100
AcDbEntity
  8
0
100
AcDbLine
 62
7
  6
CONTINUOUS
 10
11.3260767212
 20
4.9267187254
 11
11.3260767212
 21
4.8667187254
  0
LINE
  5
368
100
AcDbEntity
  8
0
100
AcDbLine
 62
7
  6
CONTINUOUS
 10
11.3362128975
 20
4.9267187254
 11
11.3362128975
 21
4.8667187254
  0
LINE
  5
369
100
AcDbEntity
  8
0
100
AcDbLine
 62
7
  6
CONTINUOUS
 10
11.3626185395
 20
4.9267187254
 11
11.3626185395
 21
4.8667187254
  0
LINE
  5
36A
100
AcDbEntity
  8
0
100
AcDbLine
 62
7
  6
CONTINUOUS
 10
11.3737719048
 20
4.9267187254
 11
11.3737719048
 21
4.8667187254
  0
LINE
  5
36B
100
AcDbEntity
  8
0
100
AcDbLine
 62
7
  6
CONTINUOUS
 10
11.3825122253
 20
4.9267187254
 11
11.3825122253
 21
4.8667187254
  0
LINE
  5
36C
100
AcDbEntity
  8
0
100
AcDbLine
 62
7
  6
CONTINUOUS
 10
11.4094121658
 20
4.9267187254
 11
11.4094121658
 21
4.8667187254
  0
LINE
  5
36D
100
AcDbEntity
  8
0
100
AcDbLine
 62
7
  6
CONTINUOUS
 10
11.4202718247
 20
4.9267187254
 11
11.4202718247
 21
4.8667187254
  0
LINE
  5
36E
100
AcDbEntity
  8
0
100
AcDbLine
 62
7
  6
CONTINUOUS
 10
11.4275923327
 20
4.9267187254
 11
11.4275923327
 21
4.8667187254
  0
LINE
  5
36F
100
AcDbEntity
  8
0
100
AcDbLine
 62
7
  6
CONTINUOUS
 10
11.4549128408
 20
4.9267187254
 11
11.4549128408
 21
4.8667187254
  0
LINE
  5
370
100
AcDbEntity
  8
0
100
AcDbLine
 62
7
  6
CONTINUOUS
 10
11.4654490277
 20
4.9267187254
 11
11.4654490277
 21
4.8667187254
  0
LINE
  5
371
100
AcDbEntity
  8
0
100
AcDbLine
 62
7
  6
CONTINUOUS
 10
11.4713296584
 20
4.9267187254
 11
11.4713296584
 21
4.8667187254
  0
LINE
  5
372
100
AcDbEntity
  8
0
100
AcDbLine
 62
7
  6
CONTINUOUS
 10
11.4989958504
 20
4.9267187254
 11
11.4989958504
 21
4.8667187254
  0
LINE
  5
373
100
AcDbEntity
  8
0
100
AcDbLine
 62
7
  6
CONTINUOUS
 10
11.5091796863
 20
4.9267187254
 11
11.5091796863
 21
4.8667187254
  0
LINE
  5
374
100
AcDbEntity
  8
0
100
AcDbLine
 62
7
  6
CONTINUOUS
 10
11.5136043212
 20
4.9267187254
 11
11.5136043212
 21
4.8667187254
  0
LINE
  5
375
100
AcDbEntity
  8
0
100
AcDbLine
 62
7
  6
CONTINUOUS
 10
11.5415403661
 20
4.9267187254
 11
11.5415403661
 21
4.8667187254
  0
LINE
  5
376
100
AcDbEntity
  8
0
100
AcDbLine
 62
7
  6
CONTINUOUS
 10
11.5513439379
 20
4.9267187254
 11
11.5513439379
 21
4.8667187254
  0
LINE
  5
377
100
AcDbEntity
  8
0
100
AcDbLine
 62
7
  6
CONTINUOUS
 10
11.5543004493
 20
4.9267187254
 11
11.5543004493
 21
4.8667187254
  0
LINE
  5
378
100
AcDbEntity
  8
0
100
AcDbLine
 62
7
  6
CONTINUOUS
 10
11.5824297763
 20
4.9267187254
 11
11.5824297763
 21
4.8667187254
  0
LINE
  5
379
100
AcDbEntity
  8
0
100
AcDbLine
 62
7
  6
CONTINUOUS
 10
11.5918262131
 20
4.9267187254
 11
11.5918262131
 21
4.8667187254
  0
LINE
  5
37A
100
AcDbEntity
  8
0
100
AcDbLine
 62
7
  6
CONTINUOUS
 10
11.5933064975
 20
4.9267187254
 11
11.5933064975
 21
4.8667187254
  0
LINE
  5
37B
100
AcDbEntity
  8
0
100
AcDbLine
 62
7
  6
CONTINUOUS
 10
11.6215520061
 20
4.9267187254
 11
11.6215520061
 21
4.8667187254
  0
LINE
  5
37C
100
AcDbEntity
  8
0
100
AcDbLine
 62
7
  6
CONTINUOUS
 10
11.6305155528
 20
4.9267187254
 11
11.6305155528
 21
4.8667187254
  0
LINE
  5
37D
100
AcDbEntity
  8
0
100
AcDbLine
 62
7
  6
CONTINUOUS
 10
11.658799824
 20
4.9267187254
 11
11.658799824
 21
4.8667187254
  0
LINE
  5
37E
100
AcDbEntity
  8
0
100
AcDbLine
 62
7
  6
CONTINUOUS
 10
11.6673059123
 20
4.9267187254
 11
11.6673059123
 21
4.8667187254
  0
LINE
  5
37F
100
AcDbEntity
  8
0
100
AcDbLine
 62
7
  6
CONTINUOUS
 10
11.6940711365
 20
4.9267187254
 11
11.6940711365
 21
4.8667187254
  0
LINE
  5
380
100
AcDbEntity
  8
0
100
AcDbLine
 62
7
  6
CONTINUOUS
 10
11.7020964516
 20
4.9267187254
 11
11.7020964516
 21
4.8667187254
  0
LINE
  5
381
100
AcDbEntity
  8
0
100
AcDbLine
 62
7
  6
CONTINUOUS
 10
11.7272692673
 20
4.9267187254
 11
11.7272692673
 21
4.8667187254
  0
LINE
  5
382
100
AcDbEntity
  8
0
100
AcDbLine
 62
7
  6
CONTINUOUS
 10
11.7347918125
 20
4.9267187254
 11
11.7347918125
 21
4.8667187254
  0
LINE
  5
383
100
AcDbEntity
  8
0
100
AcDbLine
 62
7
  6
CONTINUOUS
 10
11.7426923427
 20
4.9817187254
 11
11.7426923427
 21
5.8927187254
  0
LINE
  5
384
100
AcDbEntity
  8
0
100
AcDbLine
 62
7
  6
CONTINUOUS
 10
11.7426923427
 20
6.8927187254
 11
11.7426923427
 21
7.3217187254
  0
LINE
  5
385
100
AcDbEntity
  8
0
100
AcDbLine
 62
7
  6
CONTINUOUS
 10
11.7583032226
 20
4.9267187254
 11
11.7583032226
 21
4.8667187254
  0
LINE
  5
386
100
AcDbEntity
  8
0
100
AcDbLine
 62
7
  6
CONTINUOUS
 10
11.7653023791
 20
4.9267187254
 11
11.7653023791
 21
4.8667187254
  0
LINE
  5
387
100
AcDbEntity
  8
0
100
AcDbLine
 62
7
  6
CONTINUOUS
 10
11.7870879405
 20
4.9267187254
 11
11.7870879405
 21
4.8667187254
  0
LINE
  5
388
100
AcDbEntity
  8
0
100
AcDbLine
 62
7
  6
CONTINUOUS
 10
11.7935445241
 20
4.9267187254
 11
11.7935445241
 21
4.8667187254
  0
LINE
  5
389
100
AcDbEntity
  8
0
100
AcDbLine
 62
7
  6
CONTINUOUS
 10
11.8026923427
 20
7.6417187254
 11
11.8026923427
 21
7.6117187254
  0
LINE
  5
38A
100
AcDbEntity
  8
0
100
AcDbLine
 62
7
  6
CONTINUOUS
 10
11.8026923427
 20
7.3867187254
 11
11.8026923427
 21
7.3567187254
  0
LINE
  5
38B
100
AcDbEntity
  8
0
100
AcDbLine
 62
7
  6
CONTINUOUS
 10
11.8135445241
 20
4.9267187254
 11
11.8135445241
 21
4.8667187254
  0
LINE
  5
38C
100
AcDbEntity
  8
0
100
AcDbLine
 62
7
  6
CONTINUOUS
 10
11.8194408378
 20
4.9267187254
 11
11.8194408378
 21
4.8667187254
  0
LINE
  5
38D
100
AcDbEntity
  8
0
100
AcDbLine
 62
7
  6
CONTINUOUS
 10
11.8376004578
 20
4.9267187254
 11
11.8376004578
 21
4.8667187254
  0
LINE
  5
38E
100
AcDbEntity
  8
0
100
AcDbLine
 62
7
  6
CONTINUOUS
 10
11.8429203402
 20
4.9267187254
 11
11.8429203402
 21
4.8667187254
  0
LINE
  5
38F
100
AcDbEntity
  8
0
100
AcDbLine
 62
7
  6
CONTINUOUS
 10
11.8526923427
 20
7.6117187254
 11
11.8526923427
 21
7.3867187254
  0
LINE
  5
390
100
AcDbEntity
  8
0
100
AcDbLine
 62
7
  6
CONTINUOUS
 10
11.8591898059
 20
4.9267187254
 11
11.8591898059
 21
4.8667187254
  0
LINE
  5
391
100
AcDbEntity
  8
0
100
AcDbLine
 62
7
  6
CONTINUOUS
 10
11.8639186755
 20
4.9267187254
 11
11.8639186755
 21
4.8667187254
  0
LINE
  5
392
100
AcDbEntity
  8
0
100
AcDbLine
 62
7
  6
CONTINUOUS
 10
11.8782533935
 20
4.9267187254
 11
11.8782533935
 21
4.8667187254
  0
LINE
  5
393
100
AcDbEntity
  8
0
100
AcDbLine
 62
7
  6
CONTINUOUS
 10
11.8823782888
 20
4.9267187254
 11
11.8823782888
 21
4.8667187254
  0
LINE
  5
394
100
AcDbEntity
  8
0
100
AcDbLine
 62
7
  6
CONTINUOUS
 10
11.8896923427
 20
4.6097187254
 11
11.8896923427
 21
4.8667187254
  0
LINE
  5
395
100
AcDbEntity
  8
0
100
AcDbLine
 62
7
  6
CONTINUOUS
 10
11.8947389686
 20
4.9267187254
 11
11.8947389686
 21
4.8667187254
  0
LINE
  5
396
100
AcDbEntity
  8
0
100
AcDbLine
 62
7
  6
CONTINUOUS
 10
11.8982485836
 20
4.9267187254
 11
11.8982485836
 21
4.8667187254
  0
LINE
  5
397
100
AcDbEntity
  8
0
100
AcDbLine
 62
7
  6
CONTINUOUS
 10
11.9086013454
 20
4.9267187254
 11
11.9086013454
 21
4.8667187254
  0
LINE
  5
398
100
AcDbEntity
  8
0
100
AcDbLine
 62
7
  6
CONTINUOUS
 10
11.9114860606
 20
4.9267187254
 11
11.9114860606
 21
4.8667187254
  0
LINE
  5
399
100
AcDbEntity
  8
0
100
AcDbLine
 62
7
  6
CONTINUOUS
 10
11.9198025282
 20
4.9267187254
 11
11.9198025282
 21
4.8667187254
  0
LINE
  5
39A
100
AcDbEntity
  8
0
100
AcDbLine
 62
7
  6
CONTINUOUS
 10
11.9220544366
 20
4.9267187254
 11
11.9220544366
 21
4.8667187254
  0
LINE
  5
39B
100
AcDbEntity
  8
0
100
AcDbLine
 62
7
  6
CONTINUOUS
 10
11.9283118152
 20
4.9267187254
 11
11.9283118152
 21
4.8667187254
  0
LINE
  5
39C
100
AcDbEntity
  8
0
100
AcDbLine
 62
7
  6
CONTINUOUS
 10
11.9299247446
 20
4.9267187254
 11
11.9299247446
 21
4.8667187254
  0
LINE
  5
39D
100
AcDbEntity
  8
0
100
AcDbLine
 62
7
  6
CONTINUOUS
 10
11.9341058831
 20
4.9267187254
 11
11.9341058831
 21
4.8667187254
  0
LINE
  5
39E
100
AcDbEntity
  8
0
100
AcDbLine
 62
7
  6
CONTINUOUS
 10
11.9350754125
 20
4.9267187254
 11
11.9350754125
 21
4.8667187254
  0
LINE
  5
39F
100
AcDbEntity
  8
0
100
AcDbLine
 62
7
  6
CONTINUOUS
 10
11.9371688507
 20
4.9267187254
 11
11.9371688507
 21
4.8667187254
  0
LINE
  5
3A0
100
AcDbEntity
  8
0
100
AcDbLine
 62
7
  6
CONTINUOUS
 10
11.9374923227
 20
4.9267187254
 11
11.9374923227
 21
4.8667187254
  0
LINE
  5
3A1
100
AcDbEntity
  8
0
100
AcDbLine
 62
7
  6
CONTINUOUS
 10
11.9376923427
 20
4.4817187254
 11
11.9376923427
 21
4.5617187254
  0
LINE
  5
3A2
100
AcDbEntity
  8
0
100
AcDbLine
 62
7
  6
CONTINUOUS
 10
12.0926923427
 20
6.9877187254
 11
12.0926923427
 21
5.7977187254
  0
LINE
  5
3A3
100
AcDbEntity
  8
0
100
AcDbLine
 62
7
  6
CONTINUOUS
 10
12.1926923427
 20
6.9877187254
 11
12.1926923427
 21
5.7977187254
  0
LINE
  5
3A4
100
AcDbEntity
  8
0
100
AcDbLine
 62
7
  6
CONTINUOUS
 10
12.2326923427
 20
6.9427187254
 11
12.2326923427
 21
5.8427187254
  0
LINE
  5
3A5
100
AcDbEntity
  8
0
100
AcDbLine
 62
7
  6
CONTINUOUS
 10
10.6499734517
 20
11.2582170773
 11
10.6500762085
 21
11.2581134125
  0
LINE
  5
3A6
100
AcDbEntity
  8
0
100
AcDbLine
 62
9
  6
CONTINUOUS
 10
10.6233802831
 20
11.5731968638
 11
10.6233818448
 21
11.5731952215
  0
LINE
  5
3A7
100
AcDbEntity
  8
0
100
AcDbLine
 62
9
  6
CONTINUOUS
 10
10.6197787407
 20
11.5770980143
 11
10.6197929772
 21
11.5770821258
  0
LINE
  5
3A8
100
AcDbEntity
  8
0
100
AcDbLine
 62
7
  6
CONTINUOUS
 10
12.6326923427
 20
5.9229507952
 11
12.6326923427
 21
6.8624866556
  0
LINE
  5
3A9
100
AcDbEntity
  8
0
100
AcDbLine
 62
7
  6
CONTINUOUS
 10
12.6926923427
 20
5.9229507952
 11
12.6926923427
 21
6.8624866556
  0
LINE
  5
3AA
100
AcDbEntity
  8
0
100
AcDbLine
 62
7
  6
CONTINUOUS
 10
11.2617647488
 20
11.7070990119
 11
11.2618003936
 21
11.7070573275
  0
LINE
  5
3AB
100
AcDbEntity
  8
0
100
AcDbLine
 62
7
  6
CONTINUOUS
 10
12.9001923427
 20
7.1077187254
 11
12.9001923427
 21
8.9057187254
  0
LINE
  5
3AC
100
AcDbEntity
  8
0
100
AcDbLine
 62
7
  6
CONTINUOUS
 10
12.9631923427
 20
6.8057187254
 11
12.9631923427
 21
7.0057187254
  0
LINE
  5
3AD
100
AcDbEntity
  8
0
100
AcDbLine
 62
7
  6
CONTINUOUS
 10
12.9666923427
 20
6.8034376691
 11
12.9666923427
 21
6.8057187254
  0
LINE
  5
3AE
100
AcDbEntity
  8
0
100
AcDbLine
 62
7
  6
CONTINUOUS
 10
11.8026923427
 20
7.3567187254
 11
11.7676923427
 21
7.3217187254
  0
LINE
  5
3AF
100
AcDbEntity
  8
0
100
AcDbLine
 62
7
  6
CONTINUOUS
 10
13.3016923427
 20
6.8034376954
 11
13.3016923427
 21
6.8057187254
  0
LINE
  5
3B0
100
AcDbEntity
  8
0
100
AcDbLine
 62
7
  6
CONTINUOUS
 10
13.3051923427
 20
6.8057187254
 11
13.3051923427
 21
7.0057187254
  0
LINE
  5
3B1
100
AcDbEntity
  8
0
100
AcDbLine
 62
7
  6
CONTINUOUS
 10
13.3681923427
 20
7.1077187254
 11
13.3681923427
 21
8.9057187254
  0
LINE
  5
3B2
100
AcDbEntity
  8
0
100
AcDbLine
 62
7
  6
CONTINUOUS
 10
13.4150973713
 20
5.9773981936
 11
13.4150973713
 21
6.8080392572
  0
LINE
  5
3B3
100
AcDbEntity
  8
0
100
AcDbLine
 62
7
  6
CONTINUOUS
 10
13.5126923427
 20
5.9927187254
 11
13.5126923427
 21
6.7927187254
  0
LINE
  5
3B4
100
AcDbEntity
  8
0
100
AcDbLine
 62
7
  6
CONTINUOUS
 10
9.9856923427
 20
4.6097187254
 11
9.9376923427
 21
4.5617187254
  0
ARC
  5
3B5
100
AcDbEntity
  8
0
100
AcDbCircle
 62
7
  6
CONTINUOUS
 10
9.2426923427
 20
7.6521234873
 40
0.8144047619
100
AcDbArc
 50
270.0
 51
299.4166077994
  0
ARC
  5
3B6
100
AcDbEntity
  8
0
100
AcDbCircle
 62
7
  6
CONTINUOUS
 10
9.2426923427
 20
5.1333139635
 40
0.8144047619
100
AcDbArc
 50
60.5833922006
 51
90.0
  0
ARC
  5
3B7
100
AcDbEntity
  8
0
100
AcDbCircle
 62
7
  6
CONTINUOUS
 10
8.6639468189
 20
7.4030672351
 40
0.6476604569
100
AcDbArc
 50
292.5802956028
 51
293.258236221
  0
ARC
  5
3B8
100
AcDbEntity
  8
0
100
AcDbCircle
 62
7
  6
CONTINUOUS
 10
8.8169993153
 20
7.3996648777
 40
0.6439665451
100
AcDbArc
 50
246.7398186062
 51
247.4216339723
  0
ARC
  5
3B9
100
AcDbEntity
  8
0
100
AcDbCircle
 62
7
  6
CONTINUOUS
 10
8.8115723254
 20
7.3866696803
 40
0.6298836868
100
AcDbArc
 50
247.4235966195
 51
247.7266358513
  0
ARC
  5
3BA
100
AcDbEntity
  8
0
100
AcDbCircle
 62
7
  6
CONTINUOUS
 10
8.6712738945
 20
7.3855513385
 40
0.6286738554
100
AcDbArc
 50
292.2731650986
 51
292.5615315051
  0
ARC
  5
3BB
100
AcDbEntity
  8
0
100
AcDbCircle
 62
7
  6
CONTINUOUS
 10
10.0726923427
 20
7.7067187254
 40
0.065
100
AcDbArc
 50
270.0
 51
360.0
  0
ARC
  5
3BC
100
AcDbEntity
  8
0
100
AcDbCircle
 62
7
  6
CONTINUOUS
 10
10.0206923427
 20
4.9817187254
 40
0.055
100
AcDbArc
 50
272.3669734627
 51
360.0
  0
ARC
  5
3BD
100
AcDbEntity
  8
0
100
AcDbCircle
 62
7
  6
CONTINUOUS
 10
8.4911923427
 20
7.0567187254
 40
0.051
100
AcDbArc
 50
90.0
 51
270.0
  0
ARC
  5
3BE
100
AcDbEntity
  8
0
100
AcDbCircle
 62
7
  6
CONTINUOUS
 10
8.9911923427
 20
7.0567187254
 40
0.051
100
AcDbArc
 50
270.0
 51
90.0
  0
ARC
  5
3BF
100
AcDbEntity
  8
0
100
AcDbCircle
 62
7
  6
CONTINUOUS
 10
8.4911923427
 20
8.9557187254
 40
0.05
100
AcDbArc
 50
90.0
 51
270.0
  0
ARC
  5
3C0
100
AcDbEntity
  8
0
100
AcDbCircle
 62
7
  6
CONTINUOUS
 10
8.9911923427
 20
8.9557187254
 40
0.05
100
AcDbArc
 50
270.0
 51
90.0
  0
ARC
  5
3C1
100
AcDbEntity
  8
0
100
AcDbCircle
 62
7
  6
CONTINUOUS
 10
8.4126923427
 20
5.9927187254
 40
0.05
100
AcDbArc
 50
180.0
 51
342.1569487527
  0
ARC
  5
3C2
100
AcDbEntity
  8
0
100
AcDbCircle
 62
7
  6
CONTINUOUS
 10
8.4126923427
 20
6.7927187254
 40
0.05
100
AcDbArc
 50
17.8430512473
 51
180.0
  0
ARC
  5
3C3
100
AcDbEntity
  8
0
100
AcDbCircle
 62
7
  6
CONTINUOUS
 10
10.0320901398
 20
11.4351901737
 40
0.6221748145
100
AcDbArc
 50
359.9981161437
 51
7.3308599681
  0
ARC
  5
3C4
100
AcDbEntity
  8
0
100
AcDbCircle
 62
7
  6
CONTINUOUS
 10
10.0958932365
 20
11.4351685549
 40
0.5583717156
100
AcDbArc
 50
357.6150604354
 51
0.000119233
  0
ARC
  5
3C5
100
AcDbEntity
  8
0
100
AcDbCircle
 62
7
  6
CONTINUOUS
 10
10.7526471723
 20
11.6961491813
 40
0.1784017962
100
AcDbArc
 50
221.8702211916
 51
223.5638124689
  0
ARC
  5
3C6
100
AcDbEntity
  8
0
100
AcDbCircle
 62
7
  6
CONTINUOUS
 10
10.7334900691
 20
11.5991861849
 40
0.1614981837
100
AcDbArc
 50
127.6635867571
 51
130.5356440196
  0
ARC
  5
3C7
100
AcDbEntity
  8
0
100
AcDbCircle
 62
7
  6
CONTINUOUS
 10
10.7154625561
 20
11.6093109143
 40
0.1416131825
100
AcDbArc
 50
124.4751035409
 51
127.6536791318
  0
ARC
  5
3C8
100
AcDbEntity
  8
0
100
AcDbCircle
 62
7
  6
CONTINUOUS
 10
10.7037259687
 20
11.644612221
 40
0.112725089
100
AcDbArc
 50
168.7522823407
 51
169.5182046707
  0
ARC
  5
3C9
100
AcDbEntity
  8
0
100
AcDbCircle
 62
9
  6
CONTINUOUS
 10
10.681606277
 20
11.6286937211
 40
0.0804373294
100
AcDbArc
 50
219.8251864806
 51
223.6252839548
  0
ARC
  5
3CA
100
AcDbEntity
  8
0
100
AcDbCircle
 62
9
  6
CONTINUOUS
 10
10.6774352635
 20
11.6251790694
 40
0.0749830382
100
AcDbArc
 50
219.2705547879
 51
219.803833123
  0
ARC
  5
3CB
100
AcDbEntity
  8
0
100
AcDbCircle
 62
9
  6
CONTINUOUS
 10
10.6790398882
 20
11.6131671732
 40
0.0681960452
100
AcDbArc
 50
215.583983191
 51
219.7914827514
  0
ARC
  5
3CC
100
AcDbEntity
  8
0
100
AcDbCircle
 62
9
  6
CONTINUOUS
 10
10.668519049
 20
11.6060796284
 40
0.0555042807
100
AcDbArc
 50
210.143345411
 51
210.6077170621
  0
ARC
  5
3CD
100
AcDbEntity
  8
0
100
AcDbCircle
 62
9
  6
CONTINUOUS
 10
10.6348802339
 20
11.6573455711
 40
0.0427116908
100
AcDbArc
 50
167.5209406963
 51
169.5131524857
  0
ARC
  5
3CE
100
AcDbEntity
  8
0
100
AcDbCircle
 62
7
  6
CONTINUOUS
 10
12.6326923427
 20
7.6521234873
 40
0.8144047619
100
AcDbArc
 50
240.5833922006
 51
270.0
  0
ARC
  5
3CF
100
AcDbEntity
  8
0
100
AcDbCircle
 62
7
  6
CONTINUOUS
 10
12.6326923427
 20
5.1333139635
 40
0.8144047619
100
AcDbArc
 50
90.0
 51
119.4166077994
  0
ARC
  5
3D0
100
AcDbEntity
  8
0
100
AcDbCircle
 62
7
  6
CONTINUOUS
 10
13.0569468189
 20
7.4030672353
 40
0.6476604571
100
AcDbArc
 50
292.5802956029
 51
293.2582362209
  0
ARC
  5
3D1
100
AcDbEntity
  8
0
100
AcDbCircle
 62
7
  6
CONTINUOUS
 10
13.2099993165
 20
7.3996648804
 40
0.643966548
100
AcDbArc
 50
246.7398186072
 51
247.4216339755
  0
ARC
  5
3D2
100
AcDbEntity
  8
0
100
AcDbCircle
 62
7
  6
CONTINUOUS
 10
13.2045722824
 20
7.3866695763
 40
0.6298835742
100
AcDbArc
 50
247.423596604
 51
247.7266360924
  0
ARC
  5
3D3
100
AcDbEntity
  8
0
100
AcDbCircle
 62
7
  6
CONTINUOUS
 10
13.0642738946
 20
7.3855513383
 40
0.6286738553
100
AcDbArc
 50
292.2731650985
 51
292.5615315051
  0
ARC
  5
3D4
100
AcDbEntity
  8
0
100
AcDbCircle
 62
7
  6
CONTINUOUS
 10
11.8026923427
 20
7.7067187254
 40
0.065
100
AcDbArc
 50
180.0
 51
270.0
  0
ARC
  5
3D5
100
AcDbEntity
  8
0
100
AcDbCircle
 62
7
  6
CONTINUOUS
 10
11.8546923427
 20
4.9817187254
 40
0.055
100
AcDbArc
 50
180.0
 51
267.6330265373
  0
ARC
  5
3D6
100
AcDbEntity
  8
0
100
AcDbCircle
 62
7
  6
CONTINUOUS
 10
12.8841923427
 20
7.0567187254
 40
0.051
100
AcDbArc
 50
90.0
 51
270.0
  0
ARC
  5
3D7
100
AcDbEntity
  8
0
100
AcDbCircle
 62
7
  6
CONTINUOUS
 10
13.3841923427
 20
7.0567187254
 40
0.051
100
AcDbArc
 50
270.0
 51
90.0
  0
ARC
  5
3D8
100
AcDbEntity
  8
0
100
AcDbCircle
 62
7
  6
CONTINUOUS
 10
12.8841923427
 20
8.9557187254
 40
0.05
100
AcDbArc
 50
90.0
 51
270.0
  0
ARC
  5
3D9
100
AcDbEntity
  8
0
100
AcDbCircle
 62
7
  6
CONTINUOUS
 10
13.3841923427
 20
8.9557187254
 40
0.05
100
AcDbArc
 50
270.0
 51
90.0
  0
ARC
  5
3DA
100
AcDbEntity
  8
0
100
AcDbCircle
 62
7
  6
CONTINUOUS
 10
13.4626923427
 20
5.9927187254
 40
0.05
100
AcDbArc
 50
197.8430512473
 51
360.0
  0
ARC
  5
3DB
100
AcDbEntity
  8
0
100
AcDbCircle
 62
7
  6
CONTINUOUS
 10
13.4626923427
 20
6.7927187254
 40
0.05
100
AcDbArc
 50
0.0
 51
162.1569487527
  0
ARC
  5
3DC
100
AcDbEntity
  8
0
100
AcDbCircle
 62
7
  6
CONTINUOUS
 10
11.8432945339
 20
11.4351901744
 40
0.6221748027
100
AcDbArc
 50
172.6691399624
 51
180.0018839258
  0
ARC
  5
3DD
100
AcDbEntity
  8
0
100
AcDbCircle
 62
7
  6
CONTINUOUS
 10
11.7795341433
 20
11.4351694436
 40
0.5584144099
100
AcDbArc
 50
179.9999719566
 51
182.3848483751
  0
ARC
  5
3DE
100
AcDbEntity
  8
0
100
AcDbCircle
 62
7
  6
CONTINUOUS
 10
10.9376923427
 20
13.8037187254
 40
0.25
100
AcDbArc
 50
0.0
 51
180.0
  0
ARC
  5
3DF
100
AcDbEntity
  8
0
100
AcDbCircle
 62
7
  6
CONTINUOUS
 10
11.1222414606
 20
11.6966071982
 40
0.1790768876
100
AcDbArc
 50
316.439380046
 51
318.1265862902
  0
ARC
  5
3E0
100
AcDbEntity
  8
0
100
AcDbCircle
 62
7
  6
CONTINUOUS
 10
11.1278512583
 20
11.3574962669
 40
0.1392599494
100
AcDbArc
 50
307.6729228895
 51
309.0281499662
  0
ARC
  5
3E1
100
AcDbEntity
  8
0
100
AcDbCircle
 62
7
  6
CONTINUOUS
 10
11.1716587168
 20
11.644612221
 40
0.112725089
100
AcDbArc
 50
10.4817953291
 51
11.2477176596
  0
ARC
  5
3E2
100
AcDbEntity
  8
0
100
AcDbCircle
 62
9
  6
CONTINUOUS
 10
11.1938059224
 20
11.6286685135
 40
0.0804000472
100
AcDbArc
 50
316.3742056437
 51
320.1969136086
  0
ARC
  5
3E3
100
AcDbEntity
  8
0
100
AcDbCircle
 62
9
  6
CONTINUOUS
 10
11.1991003012
 20
11.6242351543
 40
0.0734946279
100
AcDbArc
 50
320.2099495721
 51
321.7106757646
  0
ARC
  5
3E4
100
AcDbEntity
  8
0
100
AcDbCircle
 62
9
  6
CONTINUOUS
 10
11.196313532
 20
11.6131915018
 40
0.0682356427
100
AcDbArc
 50
320.2096017342
 51
324.3802364707
  0
ARC
  5
3E5
100
AcDbEntity
  8
0
100
AcDbCircle
 62
9
  6
CONTINUOUS
 10
11.2077500105
 20
11.6055661921
 40
0.054481692
100
AcDbArc
 50
329.3966375668
 51
331.0359765547
  0
ARC
  5
3E6
100
AcDbEntity
  8
0
100
AcDbCircle
 62
9
  6
CONTINUOUS
 10
11.2405005251
 20
11.6573450796
 40
0.0427156329
100
AcDbArc
 50
10.4865405519
 51
12.4875164438
  0
LINE
  5
3E7
100
AcDbEntity
  8
0
100
AcDbLine
 62
7
  6
CONTINUOUS
 10
8.9126340575
 20
6.8050549235
 11
8.9124805818
 21
6.8049911344
  0
SPLINE
  5
3E8
100
AcDbEntity
  8
0
100
AcDbSpline
 62
7
  6
CONTINUOUS
 70
0
 71
3
 72
12
 73
8
 74
0
 42
0.0000001
 43
0.0000001
 44
0.0000000001
 40
0.0
 40
0.0
 40
0.0
 40
0.0
 40
0.1657842664
 40
0.3958400516
 40
0.6778669416
 40
0.8346679776
 40
1.0
 40
1.0
 40
1.0
 40
1.0
 10
8.9095556126
 20
6.8037845129
 30
0.0
 10
8.9041547532
 20
6.8015723901
 30
0.0
 10
8.8911842023
 20
6.7964715077
 30
0.0
 10
8.8686663947
 20
6.7885485452
 30
0.0
 10
8.8460584932
 20
6.7819027787
 30
0.0
 10
8.8253719374
 20
6.7769419442
 30
0.0
 10
8.8142448844
 20
6.7747314766
 30
0.0
 10
8.8085132599
 20
6.7737187254
 30
0.0
  0
SPLINE
  5
3E9
100
AcDbEntity
  8
0
100
AcDbSpline
 62
7
  6
CONTINUOUS
 70
0
 71
3
 72
17
 73
13
 74
0
 42
0.0000001
 43
0.0000001
 44
0.0000000001
 40
0.0
 40
0.0
 40
0.0
 40
0.0
 40
0.0395062055
 40
0.0833467095
 40
0.1827026578
 40
0.2959907749
 40
0.4211415882
 40
0.5560466649
 40
0.6987293992
 40
0.7723566482
 40
0.8471931484
 40
1.0
 40
1.0
 40
1.0
 40
1.0
 10
11.2487451847
 20
11.5695220124
 30
0.0
 10
11.2482391331
 20
11.5689128989
 30
0.0
 10
11.2471927145
 20
11.5676100901
 30
0.0
 10
11.2449901644
 20
11.5646835348
 30
0.0
 10
11.242108621
 20
11.5604206718
 30
0.0
 10
11.238699788
 20
11.5545642805
 30
0.0
 10
11.2353896256
 20
11.5478454756
 30
0.0
 10
11.2323441481
 20
11.5403616218
 30
0.0
 10
11.230171038
 20
11.5336581226
 30
0.0
 10
11.2286757989
 20
11.528015672
 30
0.0
 10
11.2273482486
 20
11.5221233893
 30
0.0
 10
11.2265964875
 20
11.5176169038
 30
0.0
 10
11.2262054766
 20
11.5145789534
 30
0.0
  0
SPLINE
  5
3EA
100
AcDbEntity
  8
0
100
AcDbSpline
 62
7
  6
CONTINUOUS
 70
0
 71
3
 72
22
 73
18
 74
0
 42
0.0000001
 43
0.0000001
 44
0.0000000001
 40
0.0
 40
0.0
 40
0.0
 40
0.0
 40
0.0611672486
 40
0.1221299815
 40
0.1831552615
 40
0.2443913239
 40
0.3058738066
 40
0.3676473666
 40
0.4297563418
 40
0.492238201
 40
0.555077051
 40
0.6182453767
 40
0.6816805143
 40
0.7453191761
 40
0.8727821799
 40
0.9364107092
 40
1.0
 40
1.0
 40
1.0
 40
1.0
 10
11.2254296883
 20
11.2582357133
 30
0.0
 10
11.2266304543
 20
11.25944918
 30
0.0
 10
11.2289769902
 20
11.2619232481
 30
0.0
 10
11.2323229376
 20
11.2657901835
 30
0.0
 10
11.2354801199
 20
11.2698155225
 30
0.0
 10
11.2384380278
 20
11.2740075182
 30
0.0
 10
11.2411781963
 20
11.2783700019
 30
0.0
 10
11.2436797816
 20
11.2829016973
 30
0.0
 10
11.2459217086
 20
11.287598547
 30
0.0
 10
11.2478818714
 20
11.2924521528
 30
0.0
 10
11.2495383588
 20
11.2974490759
 30
0.0
 10
11.2508692613
 20
11.3025700274
 30
0.0
 10
11.2518568783
 20
11.3077913741
 30
0.0
 10
11.2526963417
 20
11.3148498357
 30
0.0
 10
11.2527959118
 20
11.3219862252
 30
0.0
 10
11.252153993
 20
11.3290691975
 30
0.0
 10
11.2515893976
 20
11.3325781735
 30
0.0
 10
11.251248114
 20
11.3343197917
 30
0.0
  0
SPLINE
  5
3EB
100
AcDbEntity
  8
0
100
AcDbSpline
 62
7
  6
CONTINUOUS
 70
0
 71
3
 72
17
 73
13
 74
0
 42
0.0000001
 43
0.0000001
 44
0.0000000001
 40
0.0
 40
0.0
 40
0.0
 40
0.0
 40
0.1528078975
 40
0.2276422193
 40
0.301269184
 40
0.443953009
 40
0.5788579866
 40
0.7040094764
 40
0.8172962214
 40
0.9166546722
 40
0.9604999371
 40
1.0
 40
1.0
 40
1.0
 40
1.0
 10
10.6491792089
 20
11.5145789534
 30
0.0
 10
10.6487881952
 20
11.5176169245
 30
0.0
 10
10.6480364693
 20
11.5221233936
 30
0.0
 10
10.6467088886
 20
11.5280156408
 30
0.0
 10
10.6452136421
 20
11.5336580604
 30
0.0
 10
10.6430405623
 20
11.5403615837
 30
0.0
 10
10.6399950748
 20
11.5478454715
 30
0.0
 10
10.6366848903
 20
11.5545642466
 30
0.0
 10
10.6332760741
 20
11.560420689
 30
0.0
 10
10.6303944514
 20
11.5646836429
 30
0.0
 10
10.6281918638
 20
11.5676101977
 30
0.0
 10
10.6271454736
 20
11.5689129936
 30
0.0
 10
10.6266395008
 20
11.5695220124
 30
0.0
  0
SPLINE
  5
3EC
100
AcDbEntity
  8
0
100
AcDbSpline
 62
7
  6
CONTINUOUS
 70
0
 71
3
 72
23
 73
19
 74
0
 42
0.0000001
 43
0.0000001
 44
0.0000000001
 40
0.0
 40
0.0
 40
0.0
 40
0.0
 40
0.0635830127
 40
0.1272074365
 40
0.1909741917
 40
0.2547378154
 40
0.3183714171
 40
0.3818017205
 40
0.4449652827
 40
0.5077992477
 40
0.570276369
 40
0.6323805839
 40
0.6941496349
 40
0.7556272942
 40
0.8168585264
 40
0.8778794428
 40
0.9388381841
 40
1.0
 40
1.0
 40
1.0
 40
1.0
 10
10.6241365715
 20
11.3343197917
 30
0.0
 10
10.6237952953
 20
11.3325782112
 30
0.0
 10
10.6232306792
 20
11.3290694956
 30
0.0
 10
10.6227494015
 20
11.323756768
 30
0.0
 10
10.6226382059
 20
11.3184181311
 30
0.0
 10
10.6228984727
 20
11.3130844791
 30
0.0
 10
10.6235277758
 20
11.3077911927
 30
0.0
 10
10.6245154264
 20
11.3025701449
 30
0.0
 10
10.6258463003
 20
11.2974491049
 30
0.0
 10
10.6275028075
 20
11.2924522045
 30
0.0
 10
10.6294629516
 20
11.2875985841
 30
0.0
 10
10.6317048909
 20
11.28290173
 30
0.0
 10
10.6342064751
 20
11.2783700276
 30
0.0
 10
10.6369466429
 20
11.2740075415
 30
0.0
 10
10.6399045487
 20
11.2698155394
 30
0.0
 10
10.6430617486
 20
11.2657901806
 30
0.0
 10
10.6464077064
 20
11.261923242
 30
0.0
 10
10.6487542396
 20
11.2594491718
 30
0.0
 10
10.6499549914
 20
11.2582357192
 30
0.0
  0
SPLINE
  5
3ED
100
AcDbEntity
  8
0
100
AcDbSpline
 62
7
  6
CONTINUOUS
 70
0
 71
3
 72
47
 73
43
 74
0
 42
0.0000001
 43
0.0000001
 44
0.0000000001
 40
0.0
 40
0.0
 40
0.0
 40
0.0
 40
0.0118856328
 40
0.0237672539
 40
0.0357252852
 40
0.0477991477
 40
0.060016624
 40
0.072412217
 40
0.0850204376
 40
0.0978686391
 40
0.1109784241
 40
0.1243676577
 40
0.1380497059
 40
0.1520352984
 40
0.1809361478
 40
0.2110865372
 40
0.2424574698
 40
0.2749847957
 40
0.3085758293
 40
0.343114745
 40
0.3784671907
 40
0.4144841757
 40
0.4510055119
 40
0.487862898
 40
0.5248828229
 40
0.5618892989
 40
0.5987065355
 40
0.6351616374
 40
0.6710873586
 40
0.7063250075
 40
0.7407275802
 40
0.7741632896
 40
0.8065195487
 40
0.8377076188
 40
0.86766835
 40
0.8963783067
 40
0.9102706802
 40
0.9238628075
 40
0.9371650276
 40
0.9501904812
 40
0.9755038058
 40
1.0
 40
1.0
 40
1.0
 40
1.0
 10
11.2617647488
 20
11.7070990119
 30
0.0
 10
11.2600629788
 20
11.7090877333
 30
0.0
 10
11.2565320229
 20
11.7129567601
 30
0.0
 10
11.2508872069
 20
11.7184426696
 30
0.0
 10
11.2449212945
 20
11.72364035
 30
0.0
 10
11.2386433652
 20
11.7285761547
 30
0.0
 10
11.2320660579
 20
11.7332724446
 30
0.0
 10
11.2251952669
 20
11.7377466369
 30
0.0
 10
11.2180349017
 20
11.7420182634
 30
0.0
 10
11.2105864951
 20
11.7461026545
 30
0.0
 10
11.2028510988
 20
11.7500106846
 30
0.0
 10
11.1948310915
 20
11.7537525837
 30
0.0
 10
11.1865280787
 20
11.7573346811
 30
0.0
 10
11.1749582231
 20
11.7619562881
 30
0.0
 10
11.1597951529
 20
11.7673418496
 30
0.0
 10
11.1407426569
 20
11.7731514058
 30
0.0
 10
11.1206969127
 20
11.77838081
 30
0.0
 10
11.0997317698
 20
11.7830258365
 30
0.0
 10
11.0779343876
 20
11.7870774318
 30
0.0
 10
11.0554040315
 20
11.7905242648
 30
0.0
 10
11.0322499253
 20
11.7933545764
 30
0.0
 10
11.0085894413
 20
11.795557446
 30
0.0
 10
10.9845463188
 20
11.7971236743
 30
0.0
 10
10.9602489746
 20
11.7980463821
 30
0.0
 10
10.9358288703
 20
11.7983213934
 30
0.0
 10
10.91141892
 20
11.7979474466
 30
0.0
 10
10.8871519177
 20
11.7969262558
 30
0.0
 10
10.8631589639
 20
11.7952624273
 30
0.0
 10
10.8395678673
 20
11.7929632239
 30
0.0
 10
10.8165015087
 20
11.7900381534
 30
0.0
 10
10.7940761391
 20
11.7864983292
 30
0.0
 10
10.7723995735
 20
11.7823555449
 30
0.0
 10
10.7515693885
 20
11.7776209039
 30
0.0
 10
10.7316707083
 20
11.7723029568
 30
0.0
 10
10.7127752417
 20
11.7664047773
 30
0.0
 10
10.6977501508
 20
11.7609431377
 30
0.0
 10
10.6862944849
 20
11.7562586701
 30
0.0
 10
10.6780773951
 20
11.7526284134
 30
0.0
 10
10.6701443697
 20
11.748836732
 30
0.0
 10
10.6600441272
 20
11.7436067427
 30
0.0
 10
10.6480878643
 20
11.7366162902
 30
0.0
 10
10.6390804682
 20
11.7303271954
 30
0.0
 10
10.6348107917
 20
11.7270300879
 30
0.0
  0
SPLINE
  5
3EE
100
AcDbEntity
  8
0
100
AcDbSpline
 62
7
  6
CONTINUOUS
 70
0
 71
3
 72
14
 73
10
 74
0
 42
0.0000001
 43
0.0000001
 44
0.0000000001
 40
0.0
 40
0.0
 40
0.0
 40
0.0
 40
0.126635716
 40
0.2524335005
 40
0.3778420857
 40
0.5028280777
 40
0.7514067258
 40
0.8754593917
 40
1.0
 40
1.0
 40
1.0
 40
1.0
 10
11.2822186947
 20
11.6665993897
 30
0.0
 10
11.2818417284
 20
11.6684949431
 30
0.0
 10
11.2809493075
 20
11.6722470199
 30
0.0
 10
11.2792075736
 20
11.6777490514
 30
0.0
 10
11.2770933118
 20
11.6830920617
 30
0.0
 10
11.273819385
 20
11.6899725338
 30
0.0
 10
11.2698974835
 20
11.6965024953
 30
0.0
 10
11.2654424587
 20
11.7026476026
 30
0.0
 10
11.2630499623
 20
11.7055950408
 30
0.0
 10
11.2618151888
 20
11.7070400285
 30
0.0
  0
SPLINE
  5
3EF
100
AcDbEntity
  8
0
100
AcDbSpline
 62
7
  6
CONTINUOUS
 70
0
 71
3
 72
20
 73
16
 74
0
 42
0.0000001
 43
0.0000001
 44
0.0000000001
 40
0.0
 40
0.0
 40
0.0
 40
0.0
 40
0.0601624756
 40
0.1204123473
 40
0.1810048483
 40
0.2420406092
 40
0.3035013162
 40
0.3653826708
 40
0.4903752698
 40
0.6168704549
 40
0.7443829749
 40
0.8083753653
 40
0.8723580385
 40
0.936206505
 40
1.0
 40
1.0
 40
1.0
 40
1.0
 10
11.2556117162
 20
11.577104456
 30
0.0
 10
11.2568880783
 20
11.5785292932
 30
0.0
 10
11.2593820992
 20
11.5814360703
 30
0.0
 10
11.2629284319
 20
11.5859713686
 30
0.0
 10
11.2662712269
 20
11.5906931438
 30
0.0
 10
11.2693969709
 20
11.595607183
 30
0.0
 10
11.2722836216
 20
11.6007130636
 30
0.0
 10
11.2757934072
 20
11.607789651
 30
0.0
 10
11.2794609679
 20
11.6170800541
 30
0.0
 10
11.2825302299
 20
11.6287627914
 30
0.0
 10
11.2838742829
 20
11.6388137581
 30
0.0
 10
11.2841819122
 20
11.646935859
 30
0.0
 10
11.2840267238
 20
11.6530374083
 30
0.0
 10
11.2834861373
 20
11.6591100969
 30
0.0
 10
11.2828717446
 20
11.663124997
 30
0.0
 10
11.2825027415
 20
11.6651195211
 30
0.0
  0
LINE
  5
3F0
100
AcDbEntity
  8
0
100
AcDbLine
 62
7
  6
CONTINUOUS
 10
11.2519984902
 20
11.5731906474
 11
11.2487451849
 21
11.5695220121
  0
SPLINE
  5
3F1
100
AcDbEntity
  8
0
100
AcDbSpline
 62
7
  6
CONTINUOUS
 70
0
 71
3
 72
17
 73
13
 74
0
 42
0.0000001
 43
0.0000001
 44
0.0000000001
 40
0.0
 40
0.0
 40
0.0
 40
0.0
 40
0.1527558613
 40
0.3015531713
 40
0.3741444094
 40
0.4451462893
 40
0.5142192455
 40
0.581023567
 40
0.7066450815
 40
0.8197543621
 40
0.9183246977
 40
1.0
 40
1.0
 40
1.0
 40
1.0
 10
11.2216033991
 20
11.4119330169
 30
0.0
 10
11.2216943875
 20
11.4097484328
 30
0.0
 10
11.2220421971
 20
11.4054410846
 30
0.0
 10
11.2228867916
 20
11.4001470914
 30
0.0
 10
11.2237875562
 20
11.3960591179
 30
0.0
 10
11.2245547098
 20
11.3931126144
 30
0.0
 10
11.2254081232
 20
11.390276304
 30
0.0
 10
11.2266228894
 20
11.3867351781
 30
0.0
 10
11.228266952
 20
11.3826780892
 30
0.0
 10
11.2303994137
 20
11.378342082
 30
0.0
 10
11.2325119298
 20
11.3747096072
 30
0.0
 10
11.2339552494
 20
11.3725685548
 30
0.0
 10
11.2346428787
 20
11.3716231053
 30
0.0
  0
SPLINE
  5
3F2
100
AcDbEntity
  8
0
100
AcDbSpline
 62
7
  6
CONTINUOUS
 70
0
 71
3
 72
13
 73
9
 74
0
 42
0.0000001
 43
0.0000001
 44
0.0000000001
 40
0.0
 40
0.0
 40
0.0
 40
0.0
 40
0.1277300531
 40
0.2545938547
 40
0.5062659822
 40
0.7546161361
 40
0.8775176778
 40
1.0
 40
1.0
 40
1.0
 40
1.0
 10
11.2512481266
 20
11.3343197942
 30
0.0
 10
11.2509112423
 20
11.3360389623
 30
0.0
 10
11.2501361987
 20
11.3394463714
 30
0.0
 10
11.248194861
 20
11.3461164309
 30
0.0
 10
11.2450781945
 20
11.3541510622
 30
0.0
 10
11.2411254539
 20
11.3617442086
 30
0.0
 10
11.2375475237
 20
11.3674960739
 30
0.0
 10
11.2356309681
 20
11.370264536
 30
0.0
 10
11.2346428764
 20
11.3716231036
 30
0.0
  0
SPLINE
  5
3F3
100
AcDbEntity
  8
0
100
AcDbSpline
 62
7
  6
CONTINUOUS
 70
0
 71
3
 72
9
 73
5
 74
0
 42
0.0000001
 43
0.0000001
 44
0.0000000001
 40
0.0
 40
0.0
 40
0.0
 40
0.0
 40
0.4857267937
 40
1.0
 40
1.0
 40
1.0
 40
1.0
 10
11.2253087253
 20
11.2581136533
 30
0.0
 10
11.2238081412
 20
11.2566024204
 30
0.0
 10
11.2206006192
 20
11.2536071209
 30
0.0
 10
11.2172053588
 20
11.2508281476
 30
0.0
 10
11.2154206854
 20
11.2494499963
 30
0.0
  0
SPLINE
  5
3F4
100
AcDbEntity
  8
0
100
AcDbSpline
 62
7
  6
CONTINUOUS
 70
0
 71
3
 72
9
 73
5
 74
0
 42
0.0000001
 43
0.0000001
 44
0.0000000001
 40
0.0
 40
0.0
 40
0.0
 40
0.0
 40
0.2528466969
 40
1.0
 40
1.0
 40
1.0
 40
1.0
 10
11.2155435457
 20
11.2493140307
 30
0.0
 10
11.2164026032
 20
11.2500105992
 30
0.0
 10
11.219766128
 20
11.2528069869
 30
0.0
 10
11.2229875224
 20
11.2557759576
 30
0.0
 10
11.2252902491
 20
11.2580950317
 30
0.0
  0
SPLINE
  5
3F5
100
AcDbEntity
  8
0
100
AcDbSpline
 62
7
  6
CONTINUOUS
 70
0
 71
3
 72
9
 73
5
 74
0
 42
0.0000001
 43
0.0000001
 44
0.0000000001
 40
0.0
 40
0.0
 40
0.0
 40
0.0
 40
0.5011070503
 40
1.0
 40
1.0
 40
1.0
 40
1.0
 10
10.6285290121
 20
11.721925094
 30
0.0
 10
10.6258592287
 20
11.7196391434
 30
0.0
 10
10.6206865741
 20
11.7148921786
 30
0.0
 10
10.615894989
 20
11.7097576822
 30
0.0
 10
10.6136199367
 20
11.7070990119
 30
0.0
  0
SPLINE
  5
3F6
100
AcDbEntity
  8
0
100
AcDbSpline
 62
7
  6
CONTINUOUS
 70
0
 71
3
 72
14
 73
10
 74
0
 42
0.0000001
 43
0.0000001
 44
0.0000000001
 40
0.0
 40
0.0
 40
0.0
 40
0.0
 40
0.1245410014
 40
0.2485933261
 40
0.4971719262
 40
0.6221577615
 40
0.7475662319
 40
0.8733646919
 40
1.0
 40
1.0
 40
1.0
 40
1.0
 10
10.6135694979
 20
11.7070400299
 30
0.0
 10
10.6123347204
 20
11.7055950377
 30
0.0
 10
10.6099422221
 20
11.7026475998
 30
0.0
 10
10.605487199
 20
11.6965024906
 30
0.0
 10
10.6015653042
 20
11.6899725348
 30
0.0
 10
10.5982913745
 20
11.6830920691
 30
0.0
 10
10.5961771093
 20
11.677749053
 30
0.0
 10
10.5944353814
 20
11.6722470171
 30
0.0
 10
10.5935429559
 20
11.6684949371
 30
0.0
 10
10.5931659907
 20
11.6665993897
 30
0.0
  0
SPLINE
  5
3F7
100
AcDbEntity
  8
0
100
AcDbSpline
 62
7
  6
CONTINUOUS
 70
0
 71
3
 72
19
 73
15
 74
0
 42
0.0000001
 43
0.0000001
 44
0.0000000001
 40
0.0
 40
0.0
 40
0.0
 40
0.0
 40
0.0637960568
 40
0.1276494073
 40
0.2555685144
 40
0.3830890434
 40
0.5095924583
 40
0.6345931866
 40
0.6964788933
 40
0.7579436023
 40
0.8189830986
 40
0.8795796481
 40
0.9398342452
 40
1.0
 40
1.0
 40
1.0
 40
1.0
 10
10.5928819439
 20
11.6651195211
 30
0.0
 10
10.5925129497
 20
11.6631250451
 30
0.0
 10
10.591898556
 20
11.6591100129
 30
0.0
 10
10.5911776554
 20
11.651012366
 30
0.0
 10
10.5912403288
 20
11.6408310976
 30
0.0
 10
10.5928544242
 20
11.6287636615
 30
0.0
 10
10.5959237068
 20
11.6170799125
 30
0.0
 10
10.5995912552
 20
11.6077897283
 30
0.0
 10
10.6031010462
 20
11.6007130933
 30
0.0
 10
10.6059877036
 20
11.5956072142
 30
0.0
 10
10.6091134381
 20
11.5906931668
 30
0.0
 10
10.6124562473
 20
11.5859713698
 30
0.0
 10
10.6160025952
 20
11.5814360664
 30
0.0
 10
10.6184966185
 20
11.5785292805
 30
0.0
 10
10.6197729682
 20
11.5771044572
 30
0.0
  0
LINE
  5
3F8
100
AcDbEntity
  8
0
100
AcDbLine
 62
7
  6
CONTINUOUS
 10
10.6266395005
 20
11.5695220121
 11
10.6233861952
 21
11.5731906475
  0
SPLINE
  5
3F9
100
AcDbEntity
  8
0
100
AcDbSpline
 62
7
  6
CONTINUOUS
 70
0
 71
3
 72
16
 73
12
 74
0
 42
0.0000001
 43
0.0000001
 44
0.0000000001
 40
0.0
 40
0.0
 40
0.0
 40
0.0
 40
0.0817255206
 40
0.1802139837
 40
0.2933677524
 40
0.4189952437
 40
0.554780326
 40
0.6984265379
 40
0.7723904546
 40
0.8473862575
 40
1.0
 40
1.0
 40
1.0
 40
1.0
 10
10.6407418068
 20
11.3716231053
 30
0.0
 10
10.6414298446
 20
11.3725691165
 30
0.0
 10
10.6428730106
 20
11.3747096658
 30
0.0
 10
10.6449855287
 20
11.3783422366
 30
0.0
 10
10.647117416
 20
11.3826780138
 30
0.0
 10
10.6491330021
 20
11.3876511438
 30
0.0
 10
10.650908339
 20
11.3931760234
 30
0.0
 10
10.6520864701
 20
11.3981006158
 30
0.0
 10
10.6528291472
 20
11.4022233167
 30
0.0
 10
10.6534279885
 20
11.4064988729
 30
0.0
 10
10.6536903845
 20
11.4097505105
 30
0.0
 10
10.6537812863
 20
11.4119330169
 30
0.0
  0
SPLINE
  5
3FA
100
AcDbEntity
  8
0
100
AcDbSpline
 62
7
  6
CONTINUOUS
 70
0
 71
3
 72
13
 73
9
 74
0
 42
0.0000001
 43
0.0000001
 44
0.0000000001
 40
0.0
 40
0.0
 40
0.0
 40
0.0
 40
0.1224825215
 40
0.2453838056
 40
0.4937340308
 40
0.7454058246
 40
0.8722704174
 40
1.0
 40
1.0
 40
1.0
 40
1.0
 10
10.640741809
 20
11.3716231036
 30
0.0
 10
10.6397537157
 20
11.3702645338
 30
0.0
 10
10.6378371599
 20
11.3674960729
 30
0.0
 10
10.634259231
 20
11.3617442064
 30
0.0
 10
10.6303064947
 20
11.3541510662
 30
0.0
 10
10.6271898198
 20
11.34611643
 30
0.0
 10
10.6252484897
 20
11.3394463685
 30
0.0
 10
10.6244734419
 20
11.336038956
 30
0.0
 10
10.6241365589
 20
11.3343197942
 30
0.0
  0
SPLINE
  5
3FB
100
AcDbEntity
  8
0
100
AcDbSpline
 62
7
  6
CONTINUOUS
 70
0
 71
3
 72
43
 73
39
 74
0
 42
0.0000001
 43
0.0000001
 44
0.0000000001
 40
0.0
 40
0.0
 40
0.0
 40
0.0
 40
0.0223330673
 40
0.0454553735
 40
0.0573908113
 40
0.0696088561
 40
0.0821283187
 40
0.0949645861
 40
0.1081286682
 40
0.1216291161
 40
0.1496517066
 40
0.1790378879
 40
0.2097516441
 40
0.2417251381
 40
0.2748646674
 40
0.3090554712
 40
0.3441657087
 40
0.3800498037
 40
0.4165513804
 40
0.4535058805
 40
0.4907429601
 40
0.5280887519
 40
0.5653680495
 40
0.6024064654
 40
0.6390326033
 40
0.6750802927
 40
0.7103909485
 40
0.7448161422
 40
0.7782204226
 40
0.8104845729
 40
0.8415093891
 40
0.8712204191
 40
0.899572917
 40
0.9265613077
 40
0.9395544142
 40
0.952222255
 40
0.9766540009
 40
1.0
 40
1.0
 40
1.0
 40
1.0
 10
10.6500946764
 20
11.2580947897
 30
0.0
 10
10.6531878576
 20
11.2549796574
 30
0.0
 10
10.6598646464
 20
11.2490108721
 30
0.0
 10
10.6689871637
 20
11.2423489769
 30
0.0
 10
10.6768179228
 20
11.2373416907
 30
0.0
 10
10.6830370098
 20
11.2336928608
 30
0.0
 10
10.6895373408
 20
11.2301833718
 30
0.0
 10
10.6963155539
 20
11.2268060107
 30
0.0
 10
10.7033688739
 20
11.2235567817
 30
0.0
 10
10.7132575043
 20
11.2193380348
 30
0.0
 10
10.7262941472
 20
11.2143874754
 30
0.0
 10
10.7427631211
 20
11.2090010712
 30
0.0
 10
10.7601904754
 20
11.2040994598
 30
0.0
 10
10.7785080109
 20
11.1996908148
 30
0.0
 10
10.7976372729
 20
11.1957865682
 30
0.0
 10
10.8174902509
 20
11.1923995279
 30
0.0
 10
10.837970982
 20
11.1895424834
 30
0.0
 10
10.8589768408
 20
11.1872272544
 30
0.0
 10
10.880399837
 20
11.1854640201
 30
0.0
 10
10.9021278362
 20
11.1842608545
 30
0.0
 10
10.9240457385
 20
11.1836234134
 30
0.0
 10
10.9460366226
 20
11.1835547384
 30
0.0
 10
10.9679828726
 20
11.1840551592
 30
0.0
 10
10.9897672972
 20
11.1851222826
 30
0.0
 10
11.0112742529
 20
11.1867510695
 30
0.0
 10
11.0323907823
 20
11.1889340051
 30
0.0
 10
11.0530077842
 20
11.191661382
 30
0.0
 10
11.0730212253
 20
11.1949217242
 30
0.0
 10
11.0923334057
 20
11.1987023957
 30
0.0
 10
11.1108542975
 20
11.2029904993
 30
0.0
 10
11.1285029191
 20
11.2077740603
 30
0.0
 10
11.1452088108
 20
11.2130440508
 30
0.0
 10
11.1609130957
 20
11.2187964554
 30
0.0
 10
11.173278779
 20
11.2240613674
 30
0.0
 10
11.1826114508
 20
11.2285378081
 30
0.0
 10
11.191351777
 20
11.2330755128
 30
0.0
 10
11.2016152085
 20
11.2390824219
 30
0.0
 10
11.2093282323
 20
11.2444654694
 30
0.0
 10
11.2129604014
 20
11.2472702842
 30
0.0
  0
LINE
  5
3FC
100
AcDbEntity
  8
0
100
AcDbLine
 62
7
  6
CONTINUOUS
 10
13.3056340575
 20
6.8050549235
 11
13.3054805818
 21
6.8049911344
  0
SPLINE
  5
3FD
100
AcDbEntity
  8
0
100
AcDbSpline
 62
7
  6
CONTINUOUS
 70
0
 71
3
 72
12
 73
8
 74
0
 42
0.0000001
 43
0.0000001
 44
0.0000000001
 40
0.0
 40
0.0
 40
0.0
 40
0.0
 40
0.1657842664
 40
0.3958400516
 40
0.6778669416
 40
0.8346679776
 40
1.0
 40
1.0
 40
1.0
 40
1.0
 10
13.3025556126
 20
6.8037845129
 30
0.0
 10
13.2971547532
 20
6.8015723901
 30
0.0
 10
13.2841842023
 20
6.7964715077
 30
0.0
 10
13.2616663947
 20
6.7885485452
 30
0.0
 10
13.2390584932
 20
6.7819027787
 30
0.0
 10
13.2183719374
 20
6.7769419442
 30
0.0
 10
13.2072448844
 20
6.7747314766
 30
0.0
 10
13.2015132599
 20
6.7737187254
 30
0.0
  0
SPLINE
  5
3FE
100
AcDbEntity
  8
0
100
AcDbSpline
 62
7
  6
CONTINUOUS
 70
0
 71
3
 72
41
 73
37
 74
0
 42
0.0000001
 43
0.0000001
 44
0.0000000001
 40
0.0
 40
0.0
 40
0.0
 40
0.0
 40
0.0110985253
 40
0.0431386358
 40
0.0930399783
 40
0.1235608319
 40
0.1572252789
 40
0.1936554435
 40
0.2325155493
 40
0.2735045845
 40
0.3163417369
 40
0.3607447471
 40
0.3834415527
 40
0.4064102621
 40
0.4296037079
 40
0.4529701222
 40
0.4647018359
 40
0.4764557912
 40
0.500000003
 40
0.5235442145
 40
0.5352981694
 40
0.5470298827
 40
0.5703962966
 40
0.5935897423
 40
0.6165584513
 40
0.6392552574
 40
0.6836582673
 40
0.726495419
 40
0.7674844526
 40
0.8063445577
 40
0.8427747217
 40
0.8764391684
 40
0.9069600219
 40
0.9568613643
 40
0.9889014749
 40
1.0
 40
1.0
 40
1.0
 40
1.0
 10
11.7426923427
 20
5.8927187254
 30
0.0
 10
11.7405981154
 20
5.8960904043
 30
0.0
 10
11.7324945501
 20
5.9092183853
 30
0.0
 10
11.7153347321
 20
5.9377274552
 30
0.0
 10
11.695402777
 20
5.9726691183
 30
0.0
 10
11.6761456992
 20
6.0086423075
 30
0.0
 10
11.659917136
 20
6.0407623128
 30
0.0
 10
11.6433493216
 20
6.0760368324
 30
0.0
 10
11.6269795582
 20
6.1142746489
 30
0.0
 10
11.6113886299
 20
6.1553031385
 30
0.0
 10
11.5972094453
 20
6.1989358512
 30
0.0
 10
11.5872094705
 20
6.2369878133
 30
0.0
 10
11.5805513978
 20
6.268508531
 30
0.0
 10
11.576300047
 20
6.2927701209
 30
0.0
 10
11.5729048424
 20
6.3174081459
 30
0.0
 10
11.5708436472
 20
6.3381583366
 30
0.0
 10
11.5696774861
 20
6.354874219
 30
0.0
 10
11.5688374351
 20
6.3716733484
 30
0.0
 10
11.5684163957
 20
6.3927187285
 30
0.0
 10
11.5688374351
 20
6.4137641085
 30
0.0
 10
11.5696774863
 20
6.4305632375
 30
0.0
 10
11.5708436479
 20
6.4472791194
 30
0.0
 10
11.5729048429
 20
6.4680293099
 30
0.0
 10
11.5763000477
 20
6.4926673345
 30
0.0
 10
11.5805513988
 20
6.5169289243
 30
0.0
 10
11.5872094715
 20
6.5484496419
 30
0.0
 10
11.5972094465
 20
6.5865016038
 30
0.0
 10
11.611388631
 20
6.6301343156
 30
0.0
 10
11.6269795591
 20
6.6711628042
 30
0.0
 10
11.6433493221
 20
6.7094006197
 30
0.0
 10
11.6599171363
 20
6.7446751387
 30
0.0
 10
11.6761456993
 20
6.7767951437
 30
0.0
 10
11.6954027771
 20
6.8127683327
 30
0.0
 10
11.7153347321
 20
6.8477099957
 30
0.0
 10
11.7324945502
 20
6.8762190656
 30
0.0
 10
11.7405981155
 20
6.8893470466
 30
0.0
 10
11.7426923427
 20
6.8927187254
 30
0.0
  0
SPLINE
  5
3FF
100
AcDbEntity
  8
0
100
AcDbSpline
 62
7
  6
CONTINUOUS
 70
0
 71
3
 72
41
 73
37
 74
0
 42
0.0000001
 43
0.0000001
 44
0.0000000001
 40
0.0
 40
0.0
 40
0.0
 40
0.0
 40
0.0110985197
 40
0.043138621
 40
0.093039958
 40
0.1235608176
 40
0.1572252634
 40
0.1936554438
 40
0.2325155566
 40
0.2735046127
 40
0.3163417652
 40
0.3607447903
 40
0.3834415867
 40
0.406410283
 40
0.4296037403
 40
0.4529701522
 40
0.4647018495
 40
0.4764557897
 40
0.5000000026
 40
0.5235442156
 40
0.5352981558
 40
0.5470298529
 40
0.5703962641
 40
0.5935897208
 40
0.6165584175
 40
0.6392552138
 40
0.6836582383
 40
0.7264953907
 40
0.7674844459
 40
0.8063445576
 40
0.8427747373
 40
0.8764391827
 40
0.9069600419
 40
0.9568613791
 40
0.9889014805
 40
1.0
 40
1.0
 40
1.0
 40
1.0
 10
10.1326923427
 20
6.8927187254
 30
0.0
 10
10.134786569
 20
6.8893470483
 30
0.0
 10
10.1428901316
 20
6.8762190717
 30
0.0
 10
10.1600499456
 20
6.8477100079
 30
0.0
 10
10.1799819004
 20
6.8127683482
 30
0.0
 10
10.1992389779
 20
6.7767951592
 30
0.0
 10
10.2154675458
 20
6.744675148
 30
0.0
 10
10.2320353623
 20
6.7094006209
 30
0.0
 10
10.248405133
 20
6.6711627904
 30
0.0
 10
10.2639960623
 20
6.6301342905
 30
0.0
 10
10.2781752522
 20
6.5865015658
 30
0.0
 10
10.2881752195
 20
6.5484495998
 30
0.0
 10
10.2948332975
 20
6.5169288859
 30
0.0
 10
10.2990846446
 20
6.4926672991
 30
0.0
 10
10.3024798406
 20
6.4680292745
 30
0.0
 10
10.3045410433
 20
6.4472790872
 30
0.0
 10
10.3057072055
 20
6.4305632171
 30
0.0
 10
10.3065472515
 20
6.4137640983
 30
0.0
 10
10.3069682836
 20
6.3927187226
 30
0.0
 10
10.3065472515
 20
6.3716733469
 30
0.0
 10
10.3057072051
 20
6.3548742281
 30
0.0
 10
10.3045410425
 20
6.3381583583
 30
0.0
 10
10.3024798404
 20
6.3174081715
 30
0.0
 10
10.2990846439
 20
6.2927701473
 30
0.0
 10
10.2948332964
 20
6.2685085607
 30
0.0
 10
10.2881752189
 20
6.2369878469
 30
0.0
 10
10.2781752509
 20
6.1989358813
 30
0.0
 10
10.2639960613
 20
6.1553031571
 30
0.0
 10
10.248405132
 20
6.1142746579
 30
0.0
 10
10.2320353617
 20
6.0760368284
 30
0.0
 10
10.2154675454
 20
6.0407623021
 30
0.0
 10
10.1992389777
 20
6.0086422914
 30
0.0
 10
10.1799819004
 20
5.9726691025
 30
0.0
 10
10.1600499456
 20
5.9377274429
 30
0.0
 10
10.1428901316
 20
5.909218379
 30
0.0
 10
10.134786569
 20
5.8960904025
 30
0.0
 10
10.1326923427
 20
5.8927187254
 30
0.0
  0
SPLINE
  5
400
100
AcDbEntity
  8
0
100
AcDbSpline
 62
7
  6
CONTINUOUS
 70
0
 71
3
 72
12
 73
8
 74
0
 42
0.0000001
 43
0.0000001
 44
0.0000000001
 40
0.0
 40
0.0
 40
0.0
 40
0.0
 40
0.1653305818
 40
0.3221304866
 40
0.6041561007
 40
0.8342125581
 40
1.0
 40
1.0
 40
1.0
 40
1.0
 10
8.6738714255
 20
6.7737187254
 30
0.0
 10
8.668139907
 20
6.7747314579
 30
0.0
 10
8.657013051
 20
6.776941882
 30
0.0
 10
8.636326824
 20
6.7819026144
 30
0.0
 10
8.6137191913
 20
6.7885482602
 30
0.0
 10
8.5912015019
 20
6.7964711283
 30
0.0
 10
8.5782309427
 20
6.8015719876
 30
0.0
 10
8.5728300286
 20
6.8037841216
 30
0.0
  0
SPLINE
  5
401
100
AcDbEntity
  8
0
100
AcDbSpline
 62
7
  6
CONTINUOUS
 70
0
 71
3
 72
59
 73
55
 74
0
 42
0.0000001
 43
0.0000001
 44
0.0000000001
 40
0.0
 40
0.0
 40
0.0
 40
0.0
 40
0.0114553667
 40
0.0235875445
 40
0.0364000448
 40
0.049892942
 40
0.0640599542
 40
0.0788896779
 40
0.0943666014
 40
0.110471678
 40
0.1271825559
 40
0.1444739371
 40
0.1623181178
 40
0.1806849505
 40
0.2188541117
 40
0.2587056903
 40
0.2999378315
 40
0.342230272
 40
0.3852490986
 40
0.4286512863
 40
0.4720890777
 40
0.515214274
 40
0.5576825272
 40
0.5991577133
 40
0.6393164071
 40
0.6778525802
 40
0.6964237236
 40
0.7144851213
 40
0.7320057472
 40
0.7489568987
 40
0.7653122618
 40
0.7810482148
 40
0.7961443523
 40
0.8105835778
 40
0.8243528976
 40
0.837443834
 40
0.8498531037
 40
0.8615837633
 40
0.8726459644
 40
0.8830585928
 40
0.8928507553
 40
0.9020635216
 40
0.9107521124
 40
0.9189873369
 40
0.926856759
 40
0.934464115
 40
0.9419265037
 40
0.9493692474
 40
0.9569188048
 40
0.9646954838
 40
0.9728075682
 40
0.9813478201
 40
0.9903919038
 40
1.0
 40
1.0
 40
1.0
 40
1.0
 10
10.659964
 20
11.3335924999
 30
0.0
 10
10.6619769227
 20
11.3351469087
 30
0.0
 10
10.6662247805
 20
11.3382155909
 30
0.0
 10
10.6730293829
 20
11.3425812498
 30
0.0
 10
10.6804332897
 20
11.3468308641
 30
0.0
 10
10.6884193778
 20
11.3509547992
 30
0.0
 10
10.6969700626
 20
11.3549441752
 30
0.0
 10
10.7060662396
 20
11.3587898585
 30
0.0
 10
10.7156874119
 20
11.3624833004
 30
0.0
 10
10.7258119398
 20
11.3660161131
 30
0.0
 10
10.7364170027
 20
11.369380256
 30
0.0
 10
10.7474786141
 20
11.3725681574
 30
0.0
 10
10.758971816
 20
11.3755725241
 30
0.0
 10
10.7750431243
 20
11.3793731396
 30
0.0
 10
10.7960287579
 20
11.3835961849
 30
0.0
 10
10.8221791176
 20
11.3877736777
 30
0.0
 10
10.8493753132
 20
11.3910852593
 30
0.0
 10
10.8773710362
 20
11.3935005187
 30
0.0
 10
10.9059130705
 20
11.3949972233
 30
0.0
 10
10.934742936
 20
11.3955616226
 30
0.0
 10
10.963599517
 20
11.3951885237
 30
0.0
 10
10.9922214474
 20
11.3938813543
 30
0.0
 10
11.0203495047
 20
11.3916521178
 30
0.0
 10
11.0477292339
 20
11.3885213565
 30
0.0
 10
11.074112624
 20
11.3845178073
 30
0.0
 10
11.0953246729
 20
11.3804363303
 30
0.0
 10
11.1116009722
 20
11.3767451048
 30
0.0
 10
11.1232629909
 20
11.3738176891
 30
0.0
 10
11.1345039269
 20
11.370703896
 30
0.0
 10
11.1452984002
 20
11.3674108238
 30
0.0
 10
11.155622004
 20
11.3639459621
 30
0.0
 10
11.1654514249
 20
11.3603171091
 30
0.0
 10
11.1747645442
 20
11.3565325883
 30
0.0
 10
11.1835403942
 20
11.3526008303
 30
0.0
 10
11.1917593194
 20
11.3485307261
 30
0.0
 10
11.1994029685
 20
11.3443313677
 30
0.0
 10
11.2064542817
 20
11.3400119305
 30
0.0
 10
11.2128976907
 20
11.3355819442
 30
0.0
 10
11.2187188785
 20
11.3310507462
 30
0.0
 10
11.2239049474
 20
11.3264277971
 30
0.0
 10
11.2284442727
 20
11.321722443
 30
0.0
 10
11.2323261148
 20
11.3169437265
 30
0.0
 10
11.2355407928
 20
11.3121008884
 30
0.0
 10
11.238078884
 20
11.3072032164
 30
0.0
 10
11.2399315054
 20
11.3022610258
 30
0.0
 10
11.2410907369
 20
11.2972863149
 30
0.0
 10
11.2415502602
 20
11.2922931899
 30
0.0
 10
11.2413075829
 20
11.2872975542
 30
0.0
 10
11.2403640275
 20
11.282315536
 30
0.0
 10
11.2387247995
 20
11.2773619339
 30
0.0
 10
11.2363976061
 20
11.2724493283
 30
0.0
 10
11.2333908872
 20
11.2675885147
 30
0.0
 10
11.2297144237
 20
11.2627892264
 30
0.0
 10
11.226911617
 20
11.2597333321
 30
0.0
 10
11.2254112365
 20
11.2582170704
 30
0.0
  0
SPLINE
  5
402
100
AcDbEntity
  8
0
100
AcDbSpline
 62
7
  6
CONTINUOUS
 70
0
 71
3
 72
23
 73
19
 74
0
 42
0.0000001
 43
0.0000001
 44
0.0000000001
 40
0.0
 40
0.0
 40
0.0
 40
0.0
 40
0.0786573305
 40
0.1527859781
 40
0.2225985298
 40
0.2884172655
 40
0.3506593104
 40
0.4098459918
 40
0.4666141145
 40
0.5217059106
 40
0.5759473564
 40
0.6302106242
 40
0.6853667926
 40
0.742238242
 40
0.8015625949
 40
0.8639703555
 40
0.929979524
 40
1.0
 40
1.0
 40
1.0
 40
1.0
 10
10.659964
 20
11.3335924999
 30
0.0
 10
10.6581143714
 20
11.3321641893
 30
0.0
 10
10.6546018251
 20
11.3292831941
 30
0.0
 10
10.6497811683
 20
11.3247475607
 30
0.0
 10
10.6455784127
 20
11.3201365947
 30
0.0
 10
10.6420034571
 20
11.3154593009
 30
0.0
 10
10.6390647938
 20
11.3107241484
 30
0.0
 10
10.6367710912
 20
11.305939897
 30
0.0
 10
10.6351300639
 20
11.3011165875
 30
0.0
 10
10.6341488085
 20
11.2962656306
 30
0.0
 10
10.6338321666
 20
11.2914004161
 30
0.0
 10
10.6341818402
 20
11.2865355588
 30
0.0
 10
10.6351960773
 20
11.2816856967
 30
0.0
 10
10.6368695882
 20
11.2768640313
 30
0.0
 10
10.6391955785
 20
11.27208206
 30
0.0
 10
10.642166017
 20
11.2673494672
 30
0.0
 10
10.6457722224
 20
11.2626754636
 30
0.0
 10
10.6485102361
 20
11.2596958102
 30
0.0
 10
10.64997348
 20
11.2582170805
 30
0.0
  0
SPLINE
  5
403
100
AcDbEntity
  8
0
100
AcDbSpline
 62
7
  6
CONTINUOUS
 70
0
 71
3
 72
48
 73
44
 74
0
 42
0.0000001
 43
0.0000001
 44
0.0000000001
 40
0.0
 40
0.0
 40
0.0
 40
0.0
 40
0.0106691413
 40
0.0218122687
 40
0.0334304931
 40
0.0455226994
 40
0.0580846654
 40
0.0711102891
 40
0.0985168008
 40
0.1276626684
 40
0.1584436869
 40
0.190737568
 40
0.2244067917
 40
0.2593010142
 40
0.2952591238
 40
0.3321110776
 40
0.3696795879
 40
0.4077817107
 40
0.4462303687
 40
0.4848358342
 40
0.5234071886
 40
0.5617537718
 40
0.5996866342
 40
0.6370200024
 40
0.6735727744
 40
0.7091700632
 40
0.7436448148
 40
0.7768395419
 40
0.8086082294
 40
0.838818498
 40
0.8673541566
 40
0.8809639784
 40
0.8941207139
 40
0.9068158366
 40
0.9190428306
 40
0.9307969407
 40
0.9420758678
 40
0.9528796159
 40
0.9632112576
 40
0.9730769287
 40
0.9824866768
 40
0.9914546458
 40
1.0
 40
1.0
 40
1.0
 40
1.0
 10
10.6353026861
 20
11.7260528892
 30
0.0
 10
10.6372200586
 20
11.7273725813
 30
0.0
 10
10.6412007432
 20
11.7299831611
 30
0.0
 10
10.6474563648
 20
11.7337361554
 30
0.0
 10
10.6541175983
 20
11.7374064356
 30
0.0
 10
10.6611752385
 20
11.7409887924
 30
0.0
 10
10.6686195724
 20
11.7444785601
 30
0.0
 10
10.6792276877
 20
11.7490793662
 30
0.0
 10
10.6933979005
 20
11.7545424084
 30
0.0
 10
10.7114861187
 20
11.7605480562
 30
0.0
 10
10.7308366584
 20
11.7660767887
 30
0.0
 10
10.7513418131
 20
11.7710975256
 30
0.0
 10
10.7728878009
 20
11.7755820023
 30
0.0
 10
10.7953545948
 20
11.7795049247
 30
0.0
 10
10.818616911
 20
11.782844152
 30
0.0
 10
10.8425448803
 20
11.7855808308
 30
0.0
 10
10.8670048284
 20
11.7876995084
 30
0.0
 10
10.8918600431
 20
11.7891882213
 30
0.0
 10
10.9169715602
 20
11.7900385636
 30
0.0
 10
10.9421989568
 20
11.7902457341
 30
0.0
 10
10.9674011506
 20
11.789808563
 30
0.0
 10
10.9924372028
 20
11.7887295186
 30
0.0
 10
11.0171671198
 20
11.7870146936
 30
0.0
 10
11.0414526506
 20
11.7846737706
 30
0.0
 10
11.0651580789
 20
11.7817199681
 30
0.0
 10
11.0881509989
 20
11.7781699644
 30
0.0
 10
11.1103031006
 20
11.7740438011
 30
0.0
 10
11.1314908622
 20
11.7693647617
 30
0.0
 10
11.1515965095
 20
11.7641592249
 30
0.0
 10
11.1705079784
 20
11.7584564784
 30
0.0
 10
11.1854125934
 20
11.7532373468
 30
0.0
 10
11.1966417143
 20
11.7488213909
 30
0.0
 10
11.2045679711
 20
11.7454581157
 30
0.0
 10
11.2121209152
 20
11.7419958242
 30
0.0
 10
11.2192901302
 20
11.7384394382
 30
0.0
 10
11.2260656103
 20
11.7347937264
 30
0.0
 10
11.2324380458
 20
11.7310638805
 30
0.0
 10
11.2383985585
 20
11.7272548454
 30
0.0
 10
11.2439390126
 20
11.7233719542
 30
0.0
 10
11.2490516651
 20
11.7194202985
 30
0.0
 10
11.2537296203
 20
11.7154051913
 30
0.0
 10
11.257966048
 20
11.7113320528
 30
0.0
 10
11.26055263
 20
11.7085154891
 30
0.0
 10
11.2617647406
 20
11.707099011
 30
0.0
  0
SPLINE
  5
404
100
AcDbEntity
  8
0
100
AcDbSpline
 62
7
  6
CONTINUOUS
 70
0
 71
3
 72
10
 73
6
 74
0
 42
0.0000001
 43
0.0000001
 44
0.0000000001
 40
0.0
 40
0.0
 40
0.0
 40
0.0
 40
0.2661088115
 40
0.5212989992
 40
1.0
 40
1.0
 40
1.0
 40
1.0
 10
10.6289528792
 20
11.7214285724
 30
0.0
 10
10.6274773439
 20
11.7202891422
 30
0.0
 10
10.6246332661
 20
11.7179953946
 30
0.0
 10
10.619391199
 20
11.7133461646
 30
0.0
 10
10.6158003422
 20
11.709647071
 30
0.0
 10
10.6136199351
 20
11.707099012
 30
0.0
  0
SPLINE
  5
405
100
AcDbEntity
  8
0
100
AcDbSpline
 62
7
  6
CONTINUOUS
 70
0
 71
3
 72
12
 73
8
 74
0
 42
0.0000001
 43
0.0000001
 44
0.0000000001
 40
0.0
 40
0.0
 40
0.0
 40
0.0
 40
0.1653305787
 40
0.3221304809
 40
0.6041560922
 40
0.8342125511
 40
1.0
 40
1.0
 40
1.0
 40
1.0
 10
13.0668714255
 20
6.7737187254
 30
0.0
 10
13.0611399073
 20
6.7747314579
 30
0.0
 10
13.0500130517
 20
6.7769418818
 30
0.0
 10
13.0293268254
 20
6.781902614
 30
0.0
 10
13.0067191933
 20
6.7885482596
 30
0.0
 10
12.9842015041
 20
6.7964711274
 30
0.0
 10
12.9712309449
 20
6.8015719867
 30
0.0
 10
12.9658300307
 20
6.8037841207
 30
0.0
  0
SPLINE
  5
406
100
AcDbEntity
  8
0
100
AcDbSpline
 62
9
  6
CONTINUOUS
 70
0
 71
3
 72
33
 73
29
 74
0
 42
0.0000001
 43
0.0000001
 44
0.0000000001
 40
0.0
 40
0.0
 40
0.0
 40
0.0
 40
0.0150462325
 40
0.0303619219
 40
0.0462003496
 40
0.0627861035
 40
0.0803083506
 40
0.0989196887
 40
0.1187376965
 40
0.1398495706
 40
0.1623158937
 40
0.1861750319
 40
0.2114469541
 40
0.23813554
 40
0.2662318977
 40
0.2957154964
 40
0.3265562118
 40
0.3587156174
 40
0.3921475401
 40
0.4267996938
 40
0.4626136267
 40
0.4995259041
 40
0.5763644108
 40
0.6567286125
 40
0.7399736467
 40
0.8254144526
 40
0.9123339194
 40
1.0
 40
1.0
 40
1.0
 40
1.0
 10
11.1876923427
 20
12.3232640479
 30
0.0
 10
11.1876923427
 20
12.3246661573
 30
0.0
 10
11.1874871715
 20
12.3274995468
 30
0.0
 10
11.1865689061
 20
12.331719159
 30
0.0
 10
11.185044434
 20
12.335911931
 30
0.0
 10
11.1829211439
 20
12.3400657322
 30
0.0
 10
11.1802072503
 20
12.3441716962
 30
0.0
 10
11.1769110748
 20
12.3482212485
 30
0.0
 10
11.1730416777
 20
12.3522064716
 30
0.0
 10
11.1686085293
 20
12.356119088
 30
0.0
 10
11.1636222431
 20
12.3599508474
 30
0.0
 10
11.1580945352
 20
12.3636933655
 30
0.0
 10
11.1520382985
 20
12.367338075
 30
0.0
 10
11.1454678275
 20
12.3708767108
 30
0.0
 10
11.1383985638
 20
12.3743008592
 30
0.0
 10
11.1308472818
 20
12.3776024917
 30
0.0
 10
11.1228319267
 20
12.3807737466
 30
0.0
 10
11.1143715864
 20
12.3838069559
 30
0.0
 10
11.1054864982
 20
12.3866949531
 30
0.0
 10
11.0961979107
 20
12.3894306551
 30
0.0
 10
11.0865280666
 20
12.3920076045
 30
0.0
 10
11.0729759048
 20
12.3952669638
 30
0.0
 10
11.0552452027
 20
12.3988814495
 30
0.0
 10
11.0331177639
 20
12.4024428884
 30
0.0
 10
11.0100745085
 20
12.4052495779
 30
0.0
 10
10.9863366805
 20
12.4072741375
 30
0.0
 10
10.9621320577
 20
12.4084968812
 30
0.0
 10
10.9458616591
 20
12.4087690837
 30
0.0
 10
10.9376923427
 20
12.4087690837
 30
0.0
  0
SPLINE
  5
407
100
AcDbEntity
  8
0
100
AcDbSpline
 62
9
  6
CONTINUOUS
 70
0
 71
3
 72
55
 73
51
 74
0
 42
0.0000001
 43
0.0000001
 44
0.0000000001
 40
0.0
 40
0.0
 40
0.0
 40
0.0
 40
0.0109133175
 40
0.0224129246
 40
0.0345018854
 40
0.0471811384
 40
0.0604475001
 40
0.074293399
 40
0.0887081996
 40
0.1036786494
 40
0.119188824
 40
0.1352207072
 40
0.1687650042
 40
0.2041324457
 40
0.2411174803
 40
0.2794950121
 40
0.3190240887
 40
0.3594512067
 40
0.4005133793
 40
0.4419410604
 40
0.4834609798
 40
0.5247989335
 40
0.5656825639
 40
0.6058441609
 40
0.6450235183
 40
0.682970894
 40
0.7194501429
 40
0.7542421339
 40
0.7709436022
 40
0.7871508993
 40
0.8028432568
 40
0.8180018467
 40
0.8326100573
 40
0.8466535577
 40
0.8601208968
 40
0.8730034588
 40
0.8852963383
 40
0.8969983922
 40
0.9081132742
 40
0.9186498557
 40
0.9286233292
 40
0.9380561858
 40
0.9469793403
 40
0.9554335677
 40
0.9634704211
 40
0.9711533836
 40
0.9785577115
 40
0.9857696827
 40
0.9928839927
 40
1.0
 40
1.0
 40
1.0
 40
1.0
 10
10.673640029
 20
11.5589223872
 30
0.0
 10
10.6753720329
 20
11.5602598663
 30
0.0
 10
10.6790091825
 20
11.5629040828
 30
0.0
 10
10.6848057033
 20
11.5666851329
 30
0.0
 10
10.6910741135
 20
11.5703767197
 30
0.0
 10
10.6978023352
 20
11.5739719769
 30
0.0
 10
10.7049781958
 20
11.5774644443
 30
0.0
 10
10.7125884687
 20
11.5808476681
 30
0.0
 10
10.7206190345
 20
11.5841153773
 30
0.0
 10
10.7290549975
 20
11.5872614235
 30
0.0
 10
10.7378807002
 20
11.5902801026
 30
0.0
 10
10.7503345729
 20
11.594186354
 30
0.0
 10
10.7667678213
 20
11.5986898063
 30
0.0
 10
10.7874729307
 20
11.6034249958
 30
0.0
 10
10.8092979384
 20
11.6075339664
 30
0.0
 10
10.8320802254
 20
11.6109857086
 30
0.0
 10
10.855650333
 20
11.6137541249
 30
0.0
 10
10.8798325677
 20
11.6158182871
 30
0.0
 10
10.9044465855
 20
11.6171625917
 30
0.0
 10
10.9293087262
 20
11.6177768772
 30
0.0
 10
10.9542334388
 20
11.6176565011
 30
0.0
 10
10.9790346952
 20
11.6168023738
 30
0.0
 10
11.0035274071
 20
11.6152209519
 30
0.0
 10
11.0275288549
 20
11.6129241911
 30
0.0
 10
11.0508600402
 20
11.6099294513
 30
0.0
 10
11.0733472521
 20
11.6062593816
 30
0.0
 10
11.0948227944
 20
11.6019416751
 30
0.0
 10
11.1119699741
 20
11.5977763421
 30
0.0
 10
11.1250471657
 20
11.5941293778
 30
0.0
 10
11.1343710625
 20
11.5912910571
 30
0.0
 10
11.1433274601
 20
11.5883177686
 30
0.0
 10
11.1518997143
 20
11.585215003
 30
0.0
 10
11.1600718972
 20
11.5819886235
 30
0.0
 10
11.1678288175
 20
11.5786445355
 30
0.0
 10
11.1751561458
 20
11.5751890812
 30
0.0
 10
11.1820402886
 20
11.5716284905
 30
0.0
 10
11.1884686191
 20
11.567969465
 30
0.0
 10
11.1944292607
 20
11.5642185171
 30
0.0
 10
11.1999113452
 20
11.5603825205
 30
0.0
 10
11.2049047963
 20
11.5564681923
 30
0.0
 10
11.2094004604
 20
11.5524823628
 30
0.0
 10
11.2133900245
 20
11.5484318193
 30
0.0
 10
11.2168658088
 20
11.544323192
 30
0.0
 10
11.2198209649
 20
11.5401632747
 30
0.0
 10
11.2222488018
 20
11.5359587101
 30
0.0
 10
11.2241434417
 20
11.5317167472
 30
0.0
 10
11.2254990047
 20
11.5274451739
 30
0.0
 10
11.2263109234
 20
11.523152753
 30
0.0
 10
11.226575768
 20
11.5188503529
 30
0.0
 10
11.2263876252
 20
11.5159941589
 30
0.0
 10
11.2262054594
 20
11.5145789536
 30
0.0
  0
SPLINE
  5
408
100
AcDbEntity
  8
0
100
AcDbSpline
 62
9
  6
CONTINUOUS
 70
0
 71
3
 72
18
 73
14
 74
0
 42
0.0000001
 43
0.0000001
 44
0.0000000001
 40
0.0
 40
0.0
 40
0.0
 40
0.0
 40
0.1547426557
 40
0.2984650785
 40
0.4319382027
 40
0.5563170271
 40
0.6731398166
 40
0.7293574976
 40
0.7844580094
 40
0.8387466268
 40
0.8925446134
 40
0.9461839399
 40
1.0
 40
1.0
 40
1.0
 40
1.0
 10
10.673640029
 20
11.5589223872
 30
0.0
 10
10.6714743815
 20
11.5572500421
 30
0.0
 10
10.6674112817
 20
11.5538716304
 30
0.0
 10
10.6619757219
 20
11.5484910385
 30
0.0
 10
10.6574480958
 20
11.5430027082
 30
0.0
 10
10.6538463476
 20
11.5374225069
 30
0.0
 10
10.6516020787
 20
11.5326445246
 30
0.0
 10
10.6503125042
 20
11.5288184347
 30
0.0
 10
10.6495967915
 20
11.5259756418
 30
0.0
 10
10.6491212997
 20
11.5231262988
 30
0.0
 10
10.6488866531
 20
11.5202728467
 30
0.0
 10
10.6488932155
 20
11.5174183046
 30
0.0
 10
10.649057748
 20
11.5155227574
 30
0.0
 10
10.6491792147
 20
11.5145789535
 30
0.0
  0
SPLINE
  5
409
100
AcDbEntity
  8
0
100
AcDbSpline
 62
9
  6
CONTINUOUS
 70
0
 71
3
 72
53
 73
49
 74
0
 42
0.0000001
 43
0.0000001
 44
0.0000000001
 40
0.0
 40
0.0
 40
0.0
 40
0.0
 40
0.0106576407
 40
0.0218649035
 40
0.0336248556
 40
0.0459387767
 40
0.058804265
 40
0.072215075
 40
0.0861622334
 40
0.1006344563
 40
0.115618052
 40
0.1310974717
 40
0.1634702412
 40
0.197596978
 40
0.2332978556
 40
0.2703751826
 40
0.308616586
 40
0.3477978422
 40
0.3876854875
 40
0.4280392844
 40
0.4686145973
 40
0.50916472
 40
0.549443181
 40
0.5892060513
 40
0.6282142792
 40
0.6662360814
 40
0.7030494361
 40
0.7384447267
 40
0.7722276328
 40
0.8042224101
 40
0.8195015673
 40
0.8342783032
 40
0.8485378506
 40
0.8622674269
 40
0.8754566406
 40
0.8880977385
 40
0.9001858728
 40
0.9117197179
 40
0.9227016728
 40
0.9331388262
 40
0.9430432913
 40
0.9524333959
 40
0.9613343609
 40
0.9697795093
 40
0.9778112273
 40
0.9854817746
 40
0.9928538283
 40
1.0
 40
1.0
 40
1.0
 40
1.0
 10
10.6219529849
 20
11.7064138875
 30
0.0
 10
10.6239382025
 20
11.7079469019
 30
0.0
 10
10.6280989254
 20
11.7109793603
 30
0.0
 10
10.6347160801
 20
11.7153242521
 30
0.0
 10
10.6418539235
 20
11.7195712797
 30
0.0
 10
10.6494997876
 20
11.7237131472
 30
0.0
 10
10.6576409177
 20
11.727743009
 30
0.0
 10
10.6662634915
 20
11.7316539867
 30
0.0
 10
10.6753527662
 20
11.7354394278
 30
0.0
 10
10.6848932202
 20
11.7390927598
 30
0.0
 10
10.6948685435
 20
11.7426078951
 30
0.0
 10
10.7089366741
 20
11.7471702635
 30
0.0
 10
10.727497677
 20
11.752461754
 30
0.0
 10
10.7508910276
 20
11.7580799702
 30
0.0
 10
10.7755669198
 20
11.7630188982
 30
0.0
 10
10.801356045
 20
11.7672442424
 30
0.0
 10
10.8280817858
 20
11.7707266152
 30
0.0
 10
10.8555607029
 20
11.7734417986
 30
0.0
 10
10.8836040902
 20
11.7753709073
 30
0.0
 10
10.912019255
 20
11.7765005239
 30
0.0
 10
10.9406108969
 20
11.7768227922
 30
0.0
 10
10.9691824764
 20
11.7763354708
 30
0.0
 10
10.9975375946
 20
11.7750419486
 30
0.0
 10
11.0254813724
 20
11.7729512218
 30
0.0
 10
11.0528218166
 20
11.7700778317
 30
0.0
 10
11.0793711981
 20
11.7664417631
 30
0.0
 10
11.1049473241
 20
11.7620683058
 30
0.0
 10
11.1293751009
 20
11.7569878727
 30
0.0
 10
11.1524869723
 20
11.7512357334
 30
0.0
 10
11.1707909111
 20
11.7458360202
 30
0.0
 10
11.1846372484
 20
11.7411909366
 30
0.0
 10
11.194437184
 20
11.7376186365
 30
0.0
 10
11.2037954943
 20
11.7339106493
 30
0.0
 10
11.2126961915
 20
11.730073203
 30
0.0
 10
11.2211240785
 20
11.7261128991
 30
0.0
 10
11.2290648124
 20
11.7220365106
 30
0.0
 10
11.2365048642
 20
11.717850866
 30
0.0
 10
11.2434316775
 20
11.7135631312
 30
0.0
 10
11.2498334605
 20
11.7091802922
 30
0.0
 10
11.2556994959
 20
11.704709725
 30
0.0
 10
11.2610197656
 20
11.7001584988
 30
0.0
 10
11.2657853005
 20
11.6955339584
 30
0.0
 10
11.2699877706
 20
11.6908431953
 30
0.0
 10
11.2736196317
 20
11.6860933596
 30
0.0
 10
11.2766739177
 20
11.6812917272
 30
0.0
 10
11.2791440409
 20
11.6764453613
 30
0.0
 10
11.2810239534
 20
11.6715632001
 30
0.0
 10
11.2818906272
 20
11.6682489082
 30
0.0
 10
11.2822186665
 20
11.666599389
 30
0.0
  0
SPLINE
  5
40A
100
AcDbEntity
  8
0
100
AcDbSpline
 62
9
  6
CONTINUOUS
 70
0
 71
3
 72
33
 73
29
 74
0
 42
0.0000001
 43
0.0000001
 44
0.0000000001
 40
0.0
 40
0.0
 40
0.0
 40
0.0
 40
0.0876660806
 40
0.1745855474
 40
0.2600263533
 40
0.3432713875
 40
0.4236355892
 40
0.5004740959
 40
0.5373863733
 40
0.5732003062
 40
0.6078524599
 40
0.6412843826
 40
0.6734437882
 40
0.7042845036
 40
0.7337681023
 40
0.76186446
 40
0.7885530459
 40
0.8138249681
 40
0.8376841063
 40
0.8601504294
 40
0.8812623035
 40
0.9010803113
 40
0.9196916494
 40
0.9372138965
 40
0.9537996504
 40
0.9696380781
 40
0.9849537675
 40
1.0
 40
1.0
 40
1.0
 40
1.0
 10
10.9376923427
 20
12.4087690837
 30
0.0
 10
10.9295230264
 20
12.4087690837
 30
0.0
 10
10.9132526278
 20
12.4084968812
 30
0.0
 10
10.8890480049
 20
12.4072741375
 30
0.0
 10
10.865310177
 20
12.4052495779
 30
0.0
 10
10.8422669216
 20
12.4024428884
 30
0.0
 10
10.8201394828
 20
12.3988814495
 30
0.0
 10
10.8024087807
 20
12.3952669638
 30
0.0
 10
10.7888566188
 20
12.3920076045
 30
0.0
 10
10.7791867748
 20
12.3894306551
 30
0.0
 10
10.7698981873
 20
12.3866949531
 30
0.0
 10
10.7610130991
 20
12.3838069559
 30
0.0
 10
10.7525527588
 20
12.3807737466
 30
0.0
 10
10.7445374037
 20
12.3776024917
 30
0.0
 10
10.7369861216
 20
12.3743008592
 30
0.0
 10
10.7299168579
 20
12.3708767108
 30
0.0
 10
10.723346387
 20
12.367338075
 30
0.0
 10
10.7172901502
 20
12.3636933655
 30
0.0
 10
10.7117624424
 20
12.3599508474
 30
0.0
 10
10.7067761562
 20
12.356119088
 30
0.0
 10
10.7023430077
 20
12.3522064716
 30
0.0
 10
10.6984736107
 20
12.3482212485
 30
0.0
 10
10.6951774352
 20
12.3441716962
 30
0.0
 10
10.6924635416
 20
12.3400657322
 30
0.0
 10
10.6903402515
 20
12.335911931
 30
0.0
 10
10.6888157794
 20
12.331719159
 30
0.0
 10
10.6878975139
 20
12.3274995468
 30
0.0
 10
10.6876923427
 20
12.3246661573
 30
0.0
 10
10.6876923427
 20
12.3232640479
 30
0.0
  0
SPLINE
  5
40B
100
AcDbEntity
  8
0
100
AcDbSpline
 62
9
  6
CONTINUOUS
 70
0
 71
3
 72
53
 73
49
 74
0
 42
0.0000001
 43
0.0000001
 44
0.0000000001
 40
0.0
 40
0.0
 40
0.0
 40
0.0
 40
0.0106395178
 40
0.0218271299
 40
0.0335644754
 40
0.045853187
 40
0.0586911743
 40
0.072072164
 40
0.0859872556
 40
0.1004253162
 40
0.1153728079
 40
0.1308143341
 40
0.163106673
 40
0.1971480728
 40
0.2327603921
 40
0.26974774
 40
0.3078996262
 40
0.3469937619
 40
0.3867986392
 40
0.4270759694
 40
0.4675830305
 40
0.5080749647
 40
0.5483070548
 40
0.588037001
 40
0.6270272233
 40
0.6650472174
 40
0.7018760066
 40
0.7373047448
 40
0.7711395514
 40
0.803204721
 40
0.8185258679
 40
0.833348986
 40
0.8476591716
 40
0.8614433959
 40
0.8746910386
 40
0.8873939546
 40
0.8995469143
 40
0.9111480196
 40
0.922199047
 40
0.9327062717
 40
0.942680828
 40
0.9521398889
 40
0.961107226
 40
0.969614538
 40
0.9777022388
 40
0.9854204753
 40
0.992829607
 40
1.0
 40
1.0
 40
1.0
 40
1.0
 10
10.6217905819
 20
11.7055110875
 30
0.0
 10
10.6237710822
 20
11.707039977
 30
0.0
 10
10.6279210542
 20
11.7100650899
 30
0.0
 10
10.63451985
 20
11.7144005924
 30
0.0
 10
10.6416371147
 20
11.7186382536
 30
0.0
 10
10.6492597474
 20
11.7227712816
 30
0.0
 10
10.6573751242
 20
11.7267931234
 30
0.0
 10
10.665969656
 20
11.7306968013
 30
0.0
 10
10.6750287139
 20
11.7344756744
 30
0.0
 10
10.6845368936
 20
11.7381232723
 30
0.0
 10
10.694478043
 20
11.7416335467
 30
0.0
 10
10.7084973854
 20
11.7461905099
 30
0.0
 10
10.7269937868
 20
11.7514778401
 30
0.0
 10
10.7503061252
 20
11.7570952606
 30
0.0
 10
10.7748976082
 20
11.7620376786
 30
0.0
 10
10.8006004793
 20
11.7662709757
 30
0.0
 10
10.8272397297
 20
11.7697658807
 30
0.0
 10
10.8546335698
 20
11.7724982288
 30
0.0
 10
10.8825949634
 20
11.7744491263
 30
0.0
 10
10.9109328893
 20
11.7756050835
 30
0.0
 10
10.9394537004
 20
11.7759581076
 30
0.0
 10
10.9679624734
 20
11.7755057579
 30
0.0
 10
10.9962643688
 20
11.7742511621
 30
0.0
 10
11.0241659912
 20
11.7722029949
 30
0.0
 10
11.0514767373
 20
11.7693754188
 30
0.0
 10
11.0780101535
 20
11.7657879864
 30
0.0
 10
11.1035851931
 20
11.7614655013
 30
0.0
 10
11.1280277551
 20
11.7564378482
 30
0.0
 10
11.1511711294
 20
11.7507397319
 30
0.0
 10
11.169513216
 20
11.7453871743
 30
0.0
 10
11.1833994111
 20
11.7407803493
 30
0.0
 10
11.1932352549
 20
11.7372355895
 30
0.0
 10
11.2026340675
 20
11.7335550154
 30
0.0
 10
11.2115798668
 20
11.7297447226
 30
0.0
 10
11.2200574818
 20
11.7258112986
 30
0.0
 10
11.2280525379
 20
11.7217613613
 30
0.0
 10
11.235551515
 20
11.717601738
 30
0.0
 10
11.2425417952
 20
11.7133394515
 30
0.0
 10
11.2490115666
 20
11.7089814692
 30
0.0
 10
11.2549500454
 20
11.7045350782
 30
0.0
 10
11.2603471455
 20
11.7000072826
 30
0.0
 10
11.2651938668
 20
11.6954054176
 30
0.0
 10
11.2694817619
 20
11.6907364597
 30
0.0
 10
11.2732033289
 20
11.6860075961
 30
0.0
 10
11.2763514613
 20
11.6812259395
 30
0.0
 10
11.278919686
 20
11.6763985345
 30
0.0
 10
11.2809017768
 20
11.6715340541
 30
0.0
 10
11.2818410888
 20
11.6682276497
 30
0.0
 10
11.2822056403
 20
11.6665813483
 30
0.0
  0
SPLINE
  5
40C
100
AcDbEntity
  8
0
100
AcDbSpline
 62
9
  6
CONTINUOUS
 70
0
 71
3
 72
60
 73
56
 74
0
 42
0.0000001
 43
0.0000001
 44
0.0000000001
 40
0.0
 40
0.0
 40
0.0
 40
0.0
 40
0.0114107722
 40
0.0234893178
 40
0.0362392591
 40
0.0496608291
 40
0.0637479983
 40
0.0784898126
 40
0.0938713448
 40
0.1098741442
 40
0.126476604
 40
0.1436542021
 40
0.1613800518
 40
0.1796249375
 40
0.2175430497
 40
0.2571406446
 40
0.2981241293
 40
0.3401817012
 40
0.3829879653
 40
0.4262083092
 40
0.4695030917
 40
0.5125317637
 40
0.554957004
 40
0.5964488812
 40
0.6366891115
 40
0.6753755296
 40
0.6940483385
 40
0.7122292579
 40
0.7298873686
 40
0.7469936763
 40
0.7635215912
 40
0.7794469913
 40
0.794748571
 40
0.809408351
 40
0.823411836
 40
0.8367487991
 40
0.8494137937
 40
0.8614068448
 40
0.8727346772
 40
0.8834115966
 40
0.8934610995
 40
0.9029175515
 40
0.9118278366
 40
0.9202534158
 40
0.9282715052
 40
0.935975457
 40
0.9434733621
 40
0.9508841683
 40
0.9583318006
 40
0.9659380424
 40
0.9738160083
 40
0.9820653723
 40
0.9863576049
 40
0.9907726734
 40
1.0
 40
1.0
 40
1.0
 40
1.0
 10
10.6336768979
 20
11.6564648474
 30
0.0
 10
10.6358587787
 20
11.6581497281
 30
0.0
 10
10.6404608391
 20
11.6614764734
 30
0.0
 10
10.6478290193
 20
11.6662117335
 30
0.0
 10
10.6558411637
 20
11.670822581
 30
0.0
 10
10.6644791069
 20
11.6752987522
 30
0.0
 10
10.6737241807
 20
11.6796307793
 30
0.0
 10
10.6835561058
 20
11.6838089508
 30
0.0
 10
10.6939531577
 20
11.6878241239
 30
0.0
 10
10.7048923836
 20
11.6916673957
 30
0.0
 10
10.7163496022
 20
11.6953301496
 30
0.0
 10
10.7282993861
 20
11.6988043069
 30
0.0
 10
10.7407152799
 20
11.7020821021
 30
0.0
 10
10.7580777548
 20
11.706234058
 30
0.0
 10
10.7807530909
 20
11.7108591058
 30
0.0
 10
10.8090166636
 20
11.7154546318
 30
0.0
 10
10.8384232257
 20
11.7191229373
 30
0.0
 10
10.8687114859
 20
11.7218309865
 30
0.0
 10
10.8996126775
 20
11.7235543448
 30
0.0
 10
10.9308522503
 20
11.7242774689
 30
0.0
 10
10.9621526101
 20
11.723993824
 30
0.0
 10
10.9932356048
 20
11.7227059545
 30
0.0
 10
11.0238250289
 20
11.7204254953
 30
0.0
 10
11.0536493502
 20
11.7171730456
 30
0.0
 10
11.082443477
 20
11.712977891
 30
0.0
 10
11.1056343607
 20
11.7086788016
 30
0.0
 10
11.1234636775
 20
11.7047789482
 30
0.0
 10
11.136264179
 20
11.7016786879
 30
0.0
 10
11.1486226116
 20
11.6983757183
 30
0.0
 10
11.1605115585
 20
11.6948772576
 30
0.0
 10
11.1719046506
 20
11.6911912057
 30
0.0
 10
11.1827766436
 20
11.68732575
 30
0.0
 10
11.1931034683
 20
11.6832894338
 30
0.0
 10
11.2028623529
 20
11.679091307
 30
0.0
 10
11.2120317715
 20
11.6747405409
 30
0.0
 10
11.2205916034
 20
11.6702467335
 30
0.0
 10
11.2285231398
 20
11.665619704
 30
0.0
 10
11.2358090352
 20
11.6608692987
 30
0.0
 10
11.2424335226
 20
11.6560056895
 30
0.0
 10
11.2483821684
 20
11.6510388598
 30
0.0
 10
11.2536419249
 20
11.6459787814
 30
0.0
 10
11.2582010802
 20
11.6408353843
 30
0.0
 10
11.2620486881
 20
11.6356182647
 30
0.0
 10
11.2651747359
 20
11.6303373289
 30
0.0
 10
11.2675695704
 20
11.6250029201
 30
0.0
 10
11.2692240197
 20
11.6196267126
 30
0.0
 10
11.2701306038
 20
11.6142225421
 30
0.0
 10
11.270284182
 20
11.6088063103
 30
0.0
 10
11.26968395
 20
11.6033952148
 30
0.0
 10
11.2683333528
 20
11.598005768
 30
0.0
 10
11.2662391085
 20
11.5926530083
 30
0.0
 10
11.2639122444
 20
11.5882908385
 30
0.0
 10
11.2617069019
 20
11.584836917
 30
0.0
 10
11.2591948953
 20
11.5813048612
 30
0.0
 10
11.2570933445
 20
11.5787584415
 30
0.0
 10
11.2556059436
 20
11.5770980131
 30
0.0
  0
SPLINE
  5
40D
100
AcDbEntity
  8
0
100
AcDbSpline
 62
9
  6
CONTINUOUS
 70
0
 71
3
 72
60
 73
56
 74
0
 42
0.0000001
 43
0.0000001
 44
0.0000000001
 40
0.0
 40
0.0
 40
0.0
 40
0.0
 40
0.0113554311
 40
0.023368163
 40
0.0360417654
 40
0.0493766097
 40
0.0633670589
 40
0.0780026575
 40
0.0932690772
 40
0.109148622
 40
0.1256204799
 40
0.142661029
 40
0.1602443567
 40
0.1783422356
 40
0.215957298
 40
0.2552472832
 40
0.2959280673
 40
0.337697603
 40
0.3802403186
 40
0.4232313052
 40
0.4663403301
 40
0.5092357617
 40
0.5515884884
 40
0.593075889
 40
0.633385869
 40
0.6722210679
 40
0.6909988509
 40
0.7093055373
 40
0.727110169
 40
0.7443837224
 40
0.7610992908
 40
0.7772321816
 40
0.7927604545
 40
0.8076649658
 40
0.8219298973
 40
0.8355432465
 40
0.8484971503
 40
0.8607888716
 40
0.8724213551
 40
0.8834043306
 40
0.8937556602
 40
0.9035025375
 40
0.9126834502
 40
0.9170784267
 40
0.9213524024
 40
0.9295699543
 40
0.937420218
 40
0.9449998112
 40
0.9524184485
 40
0.9597944439
 40
0.967248516
 40
0.9748969922
 40
0.9828461221
 40
0.9911882514
 40
1.0
 40
1.0
 40
1.0
 40
1.0
 10
10.6354891898
 20
11.6539387627
 30
0.0
 10
10.637633254
 20
11.6555944409
 30
0.0
 10
10.642152914
 20
11.6588640918
 30
0.0
 10
10.6493848024
 20
11.6635209203
 30
0.0
 10
10.6572430842
 20
11.6680570341
 30
0.0
 10
10.6657103175
 20
11.6724625574
 30
0.0
 10
10.6747686061
 20
11.6767283823
 30
0.0
 10
10.6843985252
 20
11.6808451471
 30
0.0
 10
10.6945792558
 20
11.6848040636
 30
0.0
 10
10.7052888258
 20
11.6885965201
 30
0.0
 10
10.7165040785
 20
11.6922142282
 30
0.0
 10
10.728200676
 20
11.6956493805
 30
0.0
 10
10.7403533002
 20
11.6988944476
 30
0.0
 10
10.7573485263
 20
11.7030111457
 30
0.0
 10
10.7795482705
 20
11.7076099259
 30
0.0
 10
10.807227465
 20
11.7122022669
 30
0.0
 10
10.836039963
 20
11.715896408
 30
0.0
 10
10.8657354111
 20
11.7186598135
 30
0.0
 10
10.8960561314
 20
11.7204681005
 30
0.0
 10
10.9267386783
 20
11.7213053318
 30
0.0
 10
10.9575164232
 20
11.7211641204
 30
0.0
 10
10.988121885
 20
11.7200457021
 30
0.0
 10
11.018289082
 20
11.7179599286
 30
0.0
 10
11.0477560981
 20
11.7149252345
 30
0.0
 10
11.0762667627
 20
11.7109683287
 30
0.0
 10
11.0992745793
 20
11.7068872129
 30
0.0
 10
11.1170016655
 20
11.703171152
 30
0.0
 10
11.12975751
 20
11.7002087393
 30
0.0
 10
11.1420951802
 20
11.6970463001
 30
0.0
 10
11.1539879194
 20
11.693690704
 30
0.0
 10
11.1654099128
 20
11.6901493361
 30
0.0
 10
11.1763363758
 20
11.6864298151
 30
0.0
 10
11.1867436719
 20
11.6825403403
 30
0.0
 10
11.1966092903
 20
11.6784892988
 30
0.0
 10
11.2059119428
 20
11.6742854458
 30
0.0
 10
11.2146316473
 20
11.6699379213
 30
0.0
 10
11.2227496565
 20
11.6654559049
 30
0.0
 10
11.2302486659
 20
11.6608490005
 30
0.0
 10
11.2371127062
 20
11.656126794
 30
0.0
 10
11.2433271241
 20
11.6512989542
 30
0.0
 10
11.2488788552
 20
11.6463751541
 30
0.0
 10
11.2537555031
 20
11.6413651996
 30
0.0
 10
11.2572984406
 20
11.6370648995
 30
0.0
 10
11.2597671367
 20
11.6335933775
 30
0.0
 10
11.2619374891
 20
11.6301980526
 30
0.0
 10
11.2642324367
 20
11.6259104955
 30
0.0
 10
11.2663083022
 20
11.6206505171
 30
0.0
 10
11.2676617086
 20
11.615354665
 30
0.0
 10
11.2682860957
 20
11.6100372689
 30
0.0
 10
11.2681781528
 20
11.604714052
 30
0.0
 10
11.2673382783
 20
11.5994014411
 30
0.0
 10
11.2657712031
 20
11.5941147952
 30
0.0
 10
11.2634837928
 20
11.5888673877
 30
0.0
 10
11.2604849927
 20
11.5836711631
 30
0.0
 10
11.2580880776
 20
11.5803454769
 30
0.0
 10
11.2567856349
 20
11.5786954725
 30
0.0
  0
SPLINE
  5
40E
100
AcDbEntity
  8
0
100
AcDbSpline
 62
9
  6
CONTINUOUS
 70
0
 71
3
 72
58
 73
54
 74
0
 42
0.0000001
 43
0.0000001
 44
0.0000000001
 40
0.0
 40
0.0
 40
0.0
 40
0.0
 40
0.0112155201
 40
0.0230639223
 40
0.0355486579
 40
0.0486703721
 40
0.0624243118
 40
0.0768010899
 40
0.091787708
 40
0.1073681402
 40
0.1235233235
 40
0.1402316644
 40
0.1574693713
 40
0.1752104578
 40
0.2120882271
 40
0.2506260646
 40
0.2905610623
 40
0.3316130642
 40
0.3734886636
 40
0.4158849433
 40
0.458493083
 40
0.5010018912
 40
0.5431012914
 40
0.5844858206
 40
0.6248581941
 40
0.6639330122
 40
0.7014406488
 40
0.7195289247
 40
0.7371336849
 40
0.7542276751
 40
0.7707855609
 40
0.7867840244
 40
0.8022022586
 40
0.817021932
 40
0.8312277875
 40
0.8448078989
 40
0.8577540853
 40
0.8700627211
 40
0.8817350979
 40
0.8927786098
 40
0.9032075844
 40
0.9130445479
 40
0.922321824
 40
0.9310828199
 40
0.9393838439
 40
0.9472950574
 40
0.9549008666
 40
0.9622988367
 40
0.9695965909
 40
0.9769070452
 40
0.9843424272
 40
0.9920084848
 40
1.0
 40
1.0
 40
1.0
 40
1.0
 10
10.6420279165
 20
11.6445400028
 30
0.0
 10
10.6440700607
 20
11.6461174886
 30
0.0
 10
10.6483697293
 20
11.6492332651
 30
0.0
 10
10.6552402664
 20
11.653676708
 30
0.0
 10
10.6626931453
 20
11.6580090882
 30
0.0
 10
10.6707130607
 20
11.6622207642
 30
0.0
 10
10.679283899
 20
11.6663034618
 30
0.0
 10
10.6883881487
 20
11.6702488185
 30
0.0
 10
10.6980071229
 20
11.6740488295
 30
0.0
 10
10.7081211322
 20
11.677695565
 30
0.0
 10
10.7187093915
 20
11.6811815531
 30
0.0
 10
10.7297500986
 20
11.6844995958
 30
0.0
 10
10.7412205634
 20
11.6876427996
 30
0.0
 10
10.7572632255
 20
11.6916434951
 30
0.0
 10
10.7782266396
 20
11.6961405986
 30
0.0
 10
10.8043815151
 20
11.7006804355
 30
0.0
 10
10.8316359124
 20
11.704392782
 30
0.0
 10
10.8597649906
 20
11.7072466307
 30
0.0
 10
10.8885370255
 20
11.7092180677
 30
0.0
 10
10.9177146673
 20
11.7102905936
 30
0.0
 10
10.9470571741
 20
11.7104552416
 30
0.0
 10
10.9763223958
 20
11.7097106369
 30
0.0
 10
11.0052688515
 20
11.7080630116
 30
0.0
 10
11.0336577147
 20
11.7055261473
 30
0.0
 10
11.0612550354
 20
11.7021212807
 30
0.0
 10
11.0878330807
 20
11.6978768724
 30
0.0
 10
11.1092015601
 20
11.6936200891
 30
0.0
 10
11.1256069884
 20
11.6898051173
 30
0.0
 10
11.1373737811
 20
11.6867925136
 30
0.0
 10
11.1487278525
 20
11.6836003635
 30
0.0
 10
11.1596458444
 20
11.6802352659
 30
0.0
 10
11.170105246
 20
11.6767041078
 30
0.0
 10
11.1800845731
 20
11.6730142997
 30
0.0
 10
11.1895633075
 20
11.6691733524
 30
0.0
 10
11.1985220339
 20
11.6651892167
 30
0.0
 10
11.2069424437
 20
11.6610700731
 30
0.0
 10
11.214807332
 20
11.6568242196
 30
0.0
 10
11.2221007722
 20
11.6524603601
 30
0.0
 10
11.2288079318
 20
11.6479870754
 30
0.0
 10
11.2349152981
 20
11.6434132365
 30
0.0
 10
11.2404105282
 20
11.6387476343
 30
0.0
 10
11.2452823501
 20
11.6339989358
 30
0.0
 10
11.2495207079
 20
11.6291759111
 30
0.0
 10
11.2531161335
 20
11.624286983
 30
0.0
 10
11.2560600451
 20
11.6193409032
 30
0.0
 10
11.2583441796
 20
11.6143467192
 30
0.0
 10
11.2599607663
 20
11.60931452
 30
0.0
 10
11.2609034019
 20
11.6042560453
 30
0.0
 10
11.261167334
 20
11.5991846598
 30
0.0
 10
11.2607514405
 20
11.594114959
 30
0.0
 10
11.2596576435
 20
11.5890611295
 30
0.0
 10
11.2578913508
 20
11.5840369291
 30
0.0
 10
11.2563076714
 20
11.5807916264
 30
0.0
 10
11.2554173478
 20
11.5791828693
 30
0.0
  0
LINE
  5
40F
100
AcDbEntity
  8
0
100
AcDbLine
 62
9
  6
CONTINUOUS
 10
11.2546430649
 20
11.5778300025
 11
11.2517822802
 21
11.5734508311
  0
SPLINE
  5
410
100
AcDbEntity
  8
0
100
AcDbSpline
 62
9
  6
CONTINUOUS
 70
0
 71
3
 72
54
 73
50
 74
0
 42
0.0000001
 43
0.0000001
 44
0.0000000001
 40
0.0
 40
0.0
 40
0.0
 40
0.0
 40
0.0108136183
 40
0.0221991157
 40
0.0341594789
 40
0.0466957232
 40
0.0598050721
 40
0.0734804727
 40
0.087711979
 40
0.1024870946
 40
0.1177908445
 40
0.1336061788
 40
0.1666915127
 40
0.2015734055
 40
0.238056668
 40
0.2759272303
 40
0.3149556235
 40
0.3549000935
 40
0.395509479
 40
0.4365259441
 40
0.4776876255
 40
0.5187312351
 40
0.5593946449
 40
0.599419484
 40
0.6385537789
 40
0.6765546749
 40
0.7131912957
 40
0.7482478271
 40
0.7815269549
 40
0.7974455147
 40
0.8128563441
 40
0.8277418352
 40
0.842086683
 40
0.8558776943
 40
0.8691045309
 40
0.8817596068
 40
0.8938388934
 40
0.9053420946
 40
0.9162734602
 40
0.9266424013
 40
0.9364643268
 40
0.9457617699
 40
0.9545652747
 40
0.9629148691
 40
0.9708608069
 40
0.9784646678
 40
0.9857991328
 40
0.9929472552
 40
1.0
 40
1.0
 40
1.0
 40
1.0
 10
10.6785455649
 20
11.4744261689
 30
0.0
 10
10.6802176764
 20
11.4757173983
 30
0.0
 10
10.6837263661
 20
11.478270738
 30
0.0
 10
10.6893136056
 20
11.4819247332
 30
0.0
 10
10.6953497593
 20
11.4854939035
 30
0.0
 10
10.7018235393
 20
11.4889718257
 30
0.0
 10
10.7087236102
 20
11.4923524219
 30
0.0
 10
10.7160376455
 20
11.4956296867
 30
0.0
 10
10.723752514
 20
11.4987976886
 30
0.0
 10
10.7318543406
 20
11.5018506997
 30
0.0
 10
10.7403285716
 20
11.5047833197
 30
0.0
 10
10.7522839661
 20
11.5085827999
 30
0.0
 10
10.7680588951
 20
11.5129736491
 30
0.0
 10
10.7879372767
 20
11.5176085181
 30
0.0
 10
10.808896971
 20
11.5216515951
 30
0.0
 10
10.830786725
 20
11.5250733418
 30
0.0
 10
10.8534488572
 20
11.5278487133
 30
0.0
 10
10.876719768
 20
11.5299573973
 30
0.0
 10
10.9004313793
 20
11.531383958
 30
0.0
 10
10.9244123359
 20
11.5321179534
 30
0.0
 10
10.9484892939
 20
11.5321540126
 30
0.0
 10
10.9724881992
 20
11.5314918725
 30
0.0
 10
10.9962355763
 20
11.5301363798
 30
0.0
 10
11.0195598063
 20
11.5280974556
 30
0.0
 10
11.0422924164
 20
11.5253900249
 30
0.0
 10
11.0642692834
 20
11.522033901
 30
0.0
 10
11.0853320724
 20
11.5180536533
 30
0.0
 10
11.1053287596
 20
11.5134783485
 30
0.0
 10
11.1212124623
 20
11.5091357034
 30
0.0
 10
11.1332622026
 20
11.5053730383
 30
0.0
 10
11.1418114217
 20
11.5024660018
 30
0.0
 10
11.1499913117
 20
11.4994373569
 30
0.0
 10
11.157787207
 20
11.4962926617
 30
0.0
 10
11.1651850514
 20
11.4930374472
 30
0.0
 10
11.1721716216
 20
11.4896777091
 30
0.0
 10
11.1787343692
 20
11.4862193201
 30
0.0
 10
11.1848616227
 20
11.4826685396
 30
0.0
 10
11.1905424439
 20
11.4790315437
 30
0.0
 10
11.1957667614
 20
11.475314706
 30
0.0
 10
11.200525313
 20
11.4715244046
 30
0.0
 10
11.2048095883
 20
11.4676669643
 30
0.0
 10
11.208611949
 20
11.4637488181
 30
0.0
 10
11.2119252336
 20
11.4597761317
 30
0.0
 10
11.2147431375
 20
11.4557553384
 30
0.0
 10
11.2170594292
 20
11.4516926444
 30
0.0
 10
11.2188687016
 20
11.4475949762
 30
0.0
 10
11.2201655191
 20
11.4434693463
 30
0.0
 10
11.2209457442
 20
11.4393250234
 30
0.0
 10
11.2211196983
 20
11.4365475981
 30
0.0
 10
11.2211197115
 20
11.4351697169
 30
0.0
  0
SPLINE
  5
411
100
AcDbEntity
  8
0
100
AcDbSpline
 62
9
  6
CONTINUOUS
 70
0
 71
3
 72
54
 73
50
 74
0
 42
0.0000001
 43
0.0000001
 44
0.0000000001
 40
0.0
 40
0.0
 40
0.0
 40
0.0
 40
0.010780994
 40
0.0221292175
 40
0.034047632
 40
0.0465372749
 40
0.0595954964
 40
0.0732154075
 40
0.0873872795
 40
0.1020988536
 40
0.1173354567
 40
0.133080341
 40
0.1660163022
 40
0.2007400251
 40
0.2370596079
 40
0.2747644823
 40
0.3136288309
 40
0.35341464
 40
0.3938745194
 40
0.4347543761
 40
0.4757960025
 40
0.5167396188
 40
0.5573263979
 40
0.5973009997
 40
0.6364141445
 40
0.6744252613
 40
0.7111052651
 40
0.746239541
 40
0.7796312589
 40
0.7956190742
 40
0.8111075975
 40
0.8260790597
 40
0.840517782
 40
0.854410184
 40
0.8677453661
 40
0.8805150342
 40
0.8927143319
 40
0.9043418186
 40
0.9154004992
 40
0.9258980508
 40
0.9358479914
 40
0.9452703278
 40
0.9541927991
 40
0.9626519367
 40
0.9706941465
 40
0.9783766825
 40
0.9857678114
 40
0.992946415
 40
1.0
 40
1.0
 40
1.0
 40
1.0
 10
10.6780769998
 20
11.4498771915
 30
0.0
 10
10.6797431495
 20
11.451163817
 30
0.0
 10
10.6832384619
 20
11.453708233
 30
0.0
 10
10.688802926
 20
11.4573503904
 30
0.0
 10
10.6948125516
 20
11.4609085231
 30
0.0
 10
10.7012562097
 20
11.4643762959
 30
0.0
 10
10.708122738
 20
11.4677477036
 30
0.0
 10
10.7153999947
 20
11.4710168346
 30
0.0
 10
10.7230750545
 20
11.474177817
 30
0.0
 10
10.7311342525
 20
11.4772250117
 30
0.0
 10
10.739563266
 20
11.480153069
 30
0.0
 10
10.7514540164
 20
11.483948102
 30
0.0
 10
10.7671434122
 20
11.4883371589
 30
0.0
 10
10.7869148165
 20
11.4929758997
 30
0.0
 10
10.8077635867
 20
11.4970290697
 30
0.0
 10
10.8295408375
 20
11.5004673697
 30
0.0
 10
10.8520913355
 20
11.5032658989
 30
0.0
 10
10.8752539844
 20
11.5054043917
 30
0.0
 10
10.8988632323
 20
11.5068673591
 30
0.0
 10
10.9227502411
 20
11.5076442054
 30
0.0
 10
10.9467441436
 20
11.5077293043
 30
0.0
 10
10.9706732897
 20
11.5071220404
 30
0.0
 10
10.9943665046
 20
11.5058268121
 30
0.0
 10
11.0176543361
 20
11.5038529998
 30
0.0
 10
11.0403703136
 20
11.5012148997
 30
0.0
 10
11.0623521253
 20
11.4979316154
 30
0.0
 10
11.0834430183
 20
11.4940269294
 30
0.0
 10
11.1034923271
 20
11.4895290662
 30
0.0
 10
11.1194372483
 20
11.4852539905
 30
0.0
 10
11.131549687
 20
11.481546194
 30
0.0
 10
11.1401549107
 20
11.4786786608
 30
0.0
 10
11.1483976086
 20
11.4756893315
 30
0.0
 10
11.1562631345
 20
11.4725835694
 30
0.0
 10
11.1637374611
 20
11.4693668312
 30
0.0
 10
11.1708073527
 20
11.4660449683
 30
0.0
 10
11.177460229
 20
11.4626237173
 30
0.0
 10
11.1836843915
 20
11.4591092733
 30
0.0
 10
11.1894687957
 20
11.4555076124
 30
0.0
 10
11.1948033464
 20
11.4518251266
 30
0.0
 10
11.1996785993
 20
11.4480679564
 30
0.0
 10
11.2040860453
 20
11.4442425088
 30
0.0
 10
11.2080178146
 20
11.4403549804
 30
0.0
 10
11.2114668005
 20
11.4364116319
 30
0.0
 10
11.2144264867
 20
11.4324186731
 30
0.0
 10
11.2168907511
 20
11.4283822945
 30
0.0
 10
11.2188540464
 20
11.4243091301
 30
0.0
 10
11.2203109364
 20
11.4202058858
 30
0.0
 10
11.2212570204
 20
11.4160813749
 30
0.0
 10
11.2215460503
 20
11.4133091107
 30
0.0
 10
11.2216033658
 20
11.4119330166
 30
0.0
  0
SPLINE
  5
412
100
AcDbEntity
  8
0
100
AcDbSpline
 62
9
  6
CONTINUOUS
 70
0
 71
3
 72
49
 73
45
 74
0
 42
0.0000001
 43
0.0000001
 44
0.0000000001
 40
0.0
 40
0.0
 40
0.0
 40
0.0
 40
0.0102657294
 40
0.0210263197
 40
0.0322847226
 40
0.044042154
 40
0.0562975256
 40
0.0690463656
 40
0.0822820171
 40
0.0959956519
 40
0.110176866
 40
0.1248133274
 40
0.1553940915
 40
0.1876144759
 40
0.2213305486
 40
0.256383052
 40
0.2925999185
 40
0.3297984771
 40
0.3677874599
 40
0.4063688757
 40
0.4453397988
 40
0.4844941045
 40
0.5236241738
 40
0.5625225847
 40
0.6009838054
 40
0.6388059045
 40
0.6757922967
 40
0.7117535478
 40
0.7465092748
 40
0.7798901913
 40
0.8117403759
 40
0.8419198775
 40
0.870307837
 40
0.8837997101
 40
0.8968091761
 40
0.9093285241
 40
0.9213520842
 40
0.9328767802
 40
0.9439021542
 40
0.9544310705
 40
0.9644698375
 40
0.9740290927
 40
0.9831240664
 40
1.0
 40
1.0
 40
1.0
 40
1.0
 10
10.6579067169
 20
11.3887419198
 30
0.0
 10
10.6595466206
 20
11.3900083139
 30
0.0
 10
10.6629731108
 20
11.3925154667
 30
0.0
 10
10.6684044721
 20
11.3961190113
 30
0.0
 10
10.6742395241
 20
11.3996477191
 30
0.0
 10
10.6804691644
 20
11.4030963249
 30
0.0
 10
10.6870843716
 20
11.4064596936
 30
0.0
 10
10.6940753033
 20
11.4097330483
 30
0.0
 10
10.7014316033
 20
11.4129113151
 30
0.0
 10
10.709142234
 20
11.4159899013
 30
0.0
 10
10.717195757
 20
11.4189640967
 30
0.0
 10
10.7285411022
 20
11.4228413354
 30
0.0
 10
10.7435035071
 20
11.427377716
 30
0.0
 10
10.7623663852
 20
11.4322624321
 30
0.0
 10
10.7822791903
 20
11.4366353059
 30
0.0
 10
10.8031227664
 20
11.4404699103
 30
0.0
 10
10.8247726619
 20
11.4437430233
 30
0.0
 10
10.847099305
 20
11.4464348204
 30
0.0
 10
10.8699690006
 20
11.4485289937
 30
0.0
 10
10.8932447119
 20
11.4500128558
 30
0.0
 10
10.916786921
 20
11.4508774172
 30
0.0
 10
10.9404544803
 20
11.4511174404
 30
0.0
 10
10.9641054772
 20
11.4507314715
 30
0.0
 10
10.9875981002
 20
11.4497218484
 30
0.0
 10
11.0107915048
 20
11.4480946876
 30
0.0
 10
11.0335466754
 20
11.4458598469
 30
0.0
 10
11.0557272804
 20
11.4430308659
 30
0.0
 10
11.0772005098
 20
11.439624883
 30
0.0
 10
11.0978379235
 20
11.435662527
 30
0.0
 10
11.1175161977
 20
11.4311677852
 30
0.0
 10
11.1361181649
 20
11.4261678263
 30
0.0
 10
11.1535327657
 20
11.4206928254
 30
0.0
 10
11.1671930214
 20
11.41568033
 30
0.0
 10
11.1774296087
 20
11.4114408034
 30
0.0
 10
11.1846167943
 20
11.4082175196
 30
0.0
 10
11.1914337292
 20
11.4049015927
 30
0.0
 10
11.1978702616
 20
11.4014977788
 30
0.0
 10
11.2039168889
 20
11.3980112374
 30
0.0
 10
11.2095645877
 20
11.3944469751
 30
0.0
 10
11.2148051398
 20
11.3908102598
 30
0.0
 10
11.2196305181
 20
11.3871063872
 30
0.0
 10
11.224034413
 20
11.3833400698
 30
0.0
 10
11.2292043544
 20
11.3783679105
 30
0.0
 10
11.2326393996
 20
11.3743777098
 30
0.0
 10
11.2346428509
 20
11.3716231029
 30
0.0
  0
SPLINE
  5
413
100
AcDbEntity
  8
0
100
AcDbSpline
 62
9
  6
CONTINUOUS
 70
0
 71
3
 72
54
 73
50
 74
0
 42
0.0000001
 43
0.0000001
 44
0.0000000001
 40
0.0
 40
0.0
 40
0.0
 40
0.0
 40
0.0106598401
 40
0.0218697237
 40
0.0336326191
 40
0.0459497261
 40
0.058818737
 40
0.0722333708
 40
0.0861846558
 40
0.1006612453
 40
0.1156494797
 40
0.1311337566
 40
0.1635168478
 40
0.1976545344
 40
0.2333667696
 40
0.2704556282
 40
0.3087084944
 40
0.3479008987
 40
0.3877991276
 40
0.4281626913
 40
0.468746705
 40
0.5093042216
 40
0.5495885424
 40
0.5893555293
 40
0.628365944
 40
0.6663878435
 40
0.7031990728
 40
0.7385899153
 40
0.7723659923
 40
0.7885937251
 40
0.8043536478
 40
0.8196272736
 40
0.8343980008
 40
0.8486509142
 40
0.8623734023
 40
0.8755550058
 40
0.8881880719
 40
0.9002678079
 40
0.9117929084
 40
0.9227659535
 40
0.9331940096
 40
0.9430894622
 40
0.9524706486
 40
0.9613631066
 40
0.9698002711
 40
0.9778248568
 40
0.9854893615
 40
0.9928567728
 40
1.0
 40
1.0
 40
1.0
 40
1.0
 10
10.6503550276
 20
11.3706591005
 30
0.0
 10
10.6521623477
 20
11.3720547399
 30
0.0
 10
10.6559503116
 20
11.3748154512
 30
0.0
 10
10.6619747454
 20
11.3787709375
 30
0.0
 10
10.6684733884
 20
11.3826372815
 30
0.0
 10
10.6754346695
 20
11.386407853
 30
0.0
 10
10.6828469851
 20
11.3900763808
 30
0.0
 10
10.6906977316
 20
11.3936366634
 30
0.0
 10
10.6989734946
 20
11.3970825704
 30
0.0
 10
10.70766011
 20
11.4004081753
 30
0.0
 10
10.7167427303
 20
11.4036078809
 30
0.0
 10
10.7295519548
 20
11.4077607608
 30
0.0
 10
10.7464520316
 20
11.4125770574
 30
0.0
 10
10.7677519839
 20
11.4176903187
 30
0.0
 10
10.7902195818
 20
11.4221848497
 30
0.0
 10
10.8137005516
 20
11.426029421
 30
0.0
 10
10.8380339644
 20
11.4291972742
 30
0.0
 10
10.8630526784
 20
11.4316663599
 30
0.0
 10
10.888584756
 20
11.4334194892
 30
0.0
 10
10.9144546291
 20
11.4344444575
 30
0.0
 10
10.9404843581
 20
11.4347341317
 30
0.0
 10
10.966494879
 20
11.4342864961
 30
0.0
 10
10.9923072646
 20
11.4331046671
 30
0.0
 10
11.0177439774
 20
11.4311968714
 30
0.0
 10
11.042630133
 20
11.4285763903
 30
0.0
 10
11.0667946892
 20
11.4252614623
 30
0.0
 10
11.0900718435
 20
11.421275171
 30
0.0
 10
11.1123016097
 20
11.4166452139
 30
0.0
 10
11.1300568294
 20
11.4122204093
 30
0.0
 10
11.1436082204
 20
11.4083677677
 30
0.0
 10
11.1532813536
 20
11.4053771178
 30
0.0
 10
11.1625832328
 20
11.4022519041
 30
0.0
 10
11.1714979552
 20
11.3989975959
 30
0.0
 10
11.1800102047
 20
11.3956196561
 30
0.0
 10
11.1881054546
 20
11.3921240269
 30
0.0
 10
11.1957698376
 20
11.3885165567
 30
0.0
 10
11.2029903241
 20
11.3848035088
 30
0.0
 10
11.2097546058
 20
11.3809910975
 30
0.0
 10
11.2160512242
 20
11.3770857834
 30
0.0
 10
11.2218695268
 20
11.3730940746
 30
0.0
 10
11.2271996521
 20
11.3690224928
 30
0.0
 10
11.2320326406
 20
11.3648777128
 30
0.0
 10
11.2363601572
 20
11.3606661789
 30
0.0
 10
11.2401748211
 20
11.356394584
 30
0.0
 10
11.2434695808
 20
11.3520692414
 30
0.0
 10
11.2462382646
 20
11.3476969325
 30
0.0
 10
11.2484747607
 20
11.343284004
 30
0.0
 10
11.2501736288
 20
11.3388386571
 30
0.0
 10
11.2509538413
 20
11.3358213974
 30
0.0
 10
11.2512481054
 20
11.3343197937
 30
0.0
  0
SPLINE
  5
414
100
AcDbEntity
  8
0
100
AcDbSpline
 62
9
  6
CONTINUOUS
 70
0
 71
3
 72
61
 73
57
 74
0
 42
0.0000001
 43
0.0000001
 44
0.0000000001
 40
0.0
 40
0.0
 40
0.0
 40
0.0
 40
0.0115746847
 40
0.0238530798
 40
0.036838808
 40
0.0505315111
 40
0.0649237765
 40
0.0800027785
 40
0.0957513119
 40
0.1121482091
 40
0.1291688818
 40
0.1467855298
 40
0.164967726
 40
0.1836825773
 40
0.2225655556
 40
0.263133961
 40
0.3050598788
 40
0.3479963523
 40
0.3915827688
 40
0.4354499226
 40
0.4792249252
 40
0.5225360933
 40
0.5650178486
 40
0.6063156823
 40
0.6460913324
 40
0.6653096066
 40
0.6840307664
 40
0.7022197488
 40
0.7198435533
 40
0.7368717049
 40
0.75327648
 40
0.769033113
 40
0.7841204679
 40
0.7985212515
 40
0.8122226752
 40
0.8252173
 40
0.8375036229
 40
0.8490874369
 40
0.8599830674
 40
0.8702148902
 40
0.8798195515
 40
0.8888478599
 40
0.8973670276
 40
0.9054623683
 40
0.9132374252
 40
0.9208121887
 40
0.928318223
 40
0.9358913345
 40
0.9436631558
 40
0.9517538689
 40
0.96026735
 40
0.9647114301
 40
0.9692916043
 40
0.9788886942
 40
0.9891133481
 40
1.0
 40
1.0
 40
1.0
 40
1.0
 10
10.676815869
 20
11.3211148576
 30
0.0
 10
10.6787644884
 20
11.3226196104
 30
0.0
 10
10.6828831125
 20
11.3255888646
 30
0.0
 10
10.6894913115
 20
11.3298061216
 30
0.0
 10
10.6966952766
 20
11.3339072397
 30
0.0
 10
10.7044773944
 20
11.3378823667
 30
0.0
 10
10.7128195021
 20
11.3417224109
 30
0.0
 10
10.7217018226
 20
11.345418083
 30
0.0
 10
10.7311031655
 20
11.3489606145
 30
0.0
 10
10.7410010965
 20
11.3523415429
 30
0.0
 10
10.7513719746
 20
11.3555526533
 30
0.0
 10
10.7621909277
 20
11.3585862801
 30
0.0
 10
10.7734320613
 20
11.3614351284
 30
0.0
 10
10.7891476186
 20
11.3650235205
 30
0.0
 10
10.8096572695
 20
11.3689784491
 30
0.0
 10
10.8351916988
 20
11.3728337366
 30
0.0
 10
10.8617099551
 20
11.3758191002
 30
0.0
 10
10.8889574058
 20
11.3779054868
 30
0.0
 10
10.9166727567
 20
11.3790725199
 30
0.0
 10
10.9445899179
 20
11.3793088067
 30
0.0
 10
10.9724408585
 20
11.3786120197
 30
0.0
 10
10.9999581513
 20
11.3769889765
 30
0.0
 10
11.0268778184
 20
11.3744555418
 30
0.0
 10
11.052941284
 20
11.3710363817
 30
0.0
 10
11.0739746214
 20
11.3674368684
 30
0.0
 10
11.0901707376
 20
11.3641237179
 30
0.0
 10
11.1018117332
 20
11.3614689621
 30
0.0
 10
11.1130578719
 20
11.3586225096
 30
0.0
 10
11.12388219
 20
11.3555911039
 30
0.0
 10
11.1342587271
 20
11.3523821
 30
0.0
 10
11.1441626429
 20
11.3490032641
 30
0.0
 10
11.1535702295
 20
11.3454626352
 30
0.0
 10
11.1624590591
 20
11.3417687904
 30
0.0
 10
11.1708079658
 20
11.3379305244
 30
0.0
 10
11.1785971173
 20
11.3339569076
 30
0.0
 10
11.1858081441
 20
11.3298573935
 30
0.0
 10
11.1924240313
 20
11.3256414243
 30
0.0
 10
11.1984292768
 20
11.3213186706
 30
0.0
 10
11.2038098527
 20
11.3168988252
 30
0.0
 10
11.2085529791
 20
11.3123913319
 30
0.0
 10
11.2126472668
 20
11.3078056855
 30
0.0
 10
11.2160821846
 20
11.3031510858
 30
0.0
 10
11.218847775
 20
11.2984368111
 30
0.0
 10
11.2209346859
 20
11.2936728806
 30
0.0
 10
11.2223338121
 20
11.2888706376
 30
0.0
 10
11.2230377299
 20
11.2840438374
 30
0.0
 10
11.2230420971
 20
11.2792084412
 30
0.0
 10
11.2223466972
 20
11.2743814497
 30
0.0
 10
11.2209560769
 20
11.2695787851
 30
0.0
 10
11.2188777335
 20
11.2648144213
 30
0.0
 10
11.2166125697
 20
11.2609412196
 30
0.0
 10
11.2144838904
 20
11.257876353
 30
0.0
 10
11.2120648059
 20
11.2547381841
 30
0.0
 10
11.2086071638
 20
11.2508571565
 30
0.0
 10
11.2038722088
 20
11.2463490988
 30
0.0
 10
11.2004016044
 20
11.2434932189
 30
0.0
 10
11.1985688165
 20
11.2420779129
 30
0.0
  0
SPLINE
  5
415
100
AcDbEntity
  8
0
100
AcDbSpline
 62
9
  6
CONTINUOUS
 70
0
 71
3
 72
61
 73
57
 74
0
 42
0.0000001
 43
0.0000001
 44
0.0000000001
 40
0.0
 40
0.0
 40
0.0
 40
0.0
 40
0.0115745937
 40
0.0238530091
 40
0.036838748
 40
0.0505314183
 40
0.0649236828
 40
0.080002709
 40
0.0957512254
 40
0.1121481295
 40
0.1291687996
 40
0.1467854325
 40
0.1649676535
 40
0.1836824914
 40
0.2225654881
 40
0.2631338997
 40
0.305059811
 40
0.3479962926
 40
0.3915827225
 40
0.4354498857
 40
0.4792249013
 40
0.522536084
 40
0.565017838
 40
0.6063156674
 40
0.646091342
 40
0.6653096059
 40
0.6840308061
 40
0.7022197511
 40
0.7198435833
 40
0.7368717426
 40
0.7532764842
 40
0.7690331695
 40
0.7841204907
 40
0.7985212787
 40
0.8122227302
 40
0.8252173132
 40
0.8375036768
 40
0.8490874753
 40
0.8599830892
 40
0.870214945
 40
0.8798195777
 40
0.8888478992
 40
0.8973670695
 40
0.9054623991
 40
0.9132374676
 40
0.9208122282
 40
0.9283182626
 40
0.9358913724
 40
0.9436631998
 40
0.9517539182
 40
0.9602674133
 40
0.9647114806
 40
0.9692916463
 40
0.9788887483
 40
0.9891134392
 40
1.0
 40
1.0
 40
1.0
 40
1.0
 10
10.6908226587
 20
11.3176019141
 30
0.0
 10
10.6926666398
 20
11.3190258636
 30
0.0
 10
10.696564121
 20
11.3218356822
 30
0.0
 10
10.702817501
 20
11.3258265123
 30
0.0
 10
10.709634676
 20
11.3297074358
 30
0.0
 10
10.7169989588
 20
11.3334691288
 30
0.0
 10
10.7248931616
 20
11.3371030059
 30
0.0
 10
10.7332985848
 20
11.340600242
 30
0.0
 10
10.7421951542
 20
11.3439525873
 30
0.0
 10
10.7515616535
 20
11.3471519794
 30
0.0
 10
10.7613757035
 20
11.3501906806
 30
0.0
 10
10.7716137697
 20
11.3530614467
 30
0.0
 10
10.7822513577
 20
11.3557573129
 30
0.0
 10
10.7971231262
 20
11.3591530676
 30
0.0
 10
10.8165315946
 20
11.3628956309
 30
0.0
 10
10.8406950501
 20
11.3665439275
 30
0.0
 10
10.8657895071
 20
11.3693690209
 30
0.0
 10
10.8915740105
 20
11.3713433874
 30
0.0
 10
10.9178012955
 20
11.37244775
 30
0.0
 10
10.9442195557
 20
11.3726713434
 30
0.0
 10
10.9705751515
 20
11.3720119848
 30
0.0
 10
10.9966150117
 20
11.3704760935
 30
0.0
 10
11.0220893286
 20
11.3680786701
 30
0.0
 10
11.0467534137
 20
11.3648430685
 30
0.0
 10
11.0666574521
 20
11.3614368473
 30
0.0
 10
11.0819839829
 20
11.3583015547
 30
0.0
 10
11.092999967
 20
11.3557893788
 30
0.0
 10
11.1036422803
 20
11.3530957068
 30
0.0
 10
11.1138854341
 20
11.3502270903
 30
0.0
 10
11.1237048438
 20
11.347190385
 30
0.0
 10
11.1330769974
 20
11.343992924
 30
0.0
 10
11.1419794952
 20
11.3406424485
 30
0.0
 10
11.1503910611
 20
11.3371468903
 30
0.0
 10
11.1582917047
 20
11.3335147102
 30
0.0
 10
11.1656626605
 20
11.3297544705
 30
0.0
 10
11.1724864943
 20
11.3258750132
 30
0.0
 10
11.1787471906
 20
11.3218854506
 30
0.0
 10
11.1844299968
 20
11.3177947709
 30
0.0
 10
11.1895216634
 20
11.3136122125
 30
0.0
 10
11.1940101633
 20
11.3093467738
 30
0.0
 10
11.1978845814
 20
11.3050072937
 30
0.0
 10
11.2011350958
 20
11.3006026277
 30
0.0
 10
11.2037522042
 20
11.2961414668
 30
0.0
 10
11.2057270215
 20
11.2916333006
 30
0.0
 10
11.2070510813
 20
11.2870889123
 30
0.0
 10
11.2077171613
 20
11.2825212585
 30
0.0
 10
11.2077212958
 20
11.2779454852
 30
0.0
 10
11.207063251
 20
11.2733776554
 30
0.0
 10
11.2057472617
 20
11.26883286
 30
0.0
 10
11.2037805285
 20
11.2643242865
 30
0.0
 10
11.2016369617
 20
11.2606590531
 30
0.0
 10
11.1996225873
 20
11.2577587359
 30
0.0
 10
11.1973333767
 20
11.2547890689
 30
0.0
 10
11.1940613799
 20
11.2511164081
 30
0.0
 10
11.1895806456
 20
11.2468504109
 30
0.0
 10
11.1862963954
 20
11.2441478688
 30
0.0
 10
11.1845620268
 20
11.2428085636
 30
0.0
  0
SPLINE
  5
416
100
AcDbEntity
  8
0
100
AcDbSpline
 62
9
  6
CONTINUOUS
 70
0
 71
3
 72
15
 73
11
 74
0
 42
0.0000001
 43
0.0000001
 44
0.0000000001
 40
0.0
 40
0.0
 40
0.0
 40
0.0
 40
0.1494835688
 40
0.2908773514
 40
0.4245235366
 40
0.5509378138
 40
0.6707816984
 40
0.7848763134
 40
0.8942240933
 40
1.0
 40
1.0
 40
1.0
 40
1.0
 10
10.6219529849
 20
11.7064138875
 30
0.0
 10
10.6199745765
 20
11.7048861312
 30
0.0
 10
10.6162058343
 20
11.7018058639
 30
0.0
 10
10.6110014391
 20
11.6969706029
 30
0.0
 10
10.6064158233
 20
11.6920591849
 30
0.0
 10
10.6024583751
 20
11.6870802455
 30
0.0
 10
10.5991371259
 20
11.682041979
 30
0.0
 10
10.5964600547
 20
11.6769523359
 30
0.0
 10
10.5944344856
 20
11.6718215875
 30
0.0
 10
10.5935110224
 20
11.6683341737
 30
0.0
 10
10.5931660142
 20
11.6665993891
 30
0.0
  0
SPLINE
  5
417
100
AcDbEntity
  8
0
100
AcDbSpline
 62
9
  6
CONTINUOUS
 70
0
 71
3
 72
15
 73
11
 74
0
 42
0.0000001
 43
0.0000001
 44
0.0000000001
 40
0.0
 40
0.0
 40
0.0
 40
0.0
 40
0.1490357887
 40
0.2901667762
 40
0.4237365446
 40
0.550222533
 40
0.6702400774
 40
0.7845583588
 40
0.8941127053
 40
1.0
 40
1.0
 40
1.0
 40
1.0
 10
10.6217905819
 20
11.7055110875
 30
0.0
 10
10.6198533732
 20
11.7040146746
 30
0.0
 10
10.6161590029
 20
11.7009987956
 30
0.0
 10
10.6110463859
 20
11.6962695703
 30
0.0
 10
10.6065263098
 20
11.6914668317
 30
0.0
 10
10.6026070185
 20
11.6865990786
 30
0.0
 10
10.5992961039
 20
11.6816741108
 30
0.0
 10
10.5966010722
 20
11.6766993605
 30
0.0
 10
10.5945287744
 20
11.6716843365
 30
0.0
 10
10.5935533604
 20
11.6682729176
 30
0.0
 10
10.5931776048
 20
11.6665748319
 30
0.0
  0
SPLINE
  5
418
100
AcDbEntity
  8
0
100
AcDbSpline
 62
9
  6
CONTINUOUS
 70
0
 71
3
 72
24
 73
20
 74
0
 42
0.0000001
 43
0.0000001
 44
0.0000000001
 40
0.0
 40
0.0
 40
0.0
 40
0.0
 40
0.0791709069
 40
0.1539594408
 40
0.2245578163
 40
0.2912567784
 40
0.3544306539
 40
0.4145451476
 40
0.4721689822
 40
0.5279676668
 40
0.582688531
 40
0.6371318229
 40
0.6645187964
 40
0.6921403624
 40
0.748444988
 40
0.8067976586
 40
0.8678334853
 40
0.9320889068
 40
1.0
 40
1.0
 40
1.0
 40
1.0
 10
10.6336768979
 20
11.6564648474
 30
0.0
 10
10.631729048
 20
11.6549606888
 30
0.0
 10
10.6280226221
 20
11.6519275256
 30
0.0
 10
10.6229155449
 20
11.6471612521
 30
0.0
 10
10.6184325158
 20
11.6423184303
 30
0.0
 10
10.6145831914
 20
11.6374079395
 30
0.0
 10
10.6113758291
 20
11.6324380861
 30
0.0
 10
10.6088187472
 20
11.6274173748
 30
0.0
 10
10.606919342
 20
11.6223553885
 30
0.0
 10
10.6056846614
 20
11.6172625599
 30
0.0
 10
10.6051196369
 20
11.6121517245
 30
0.0
 10
10.6052094035
 20
11.6078948337
 30
0.0
 10
10.605612024
 20
11.6045144316
 30
0.0
 10
10.6062404361
 20
11.6011096824
 30
0.0
 10
10.6074548939
 20
11.5968443796
 30
0.0
 10
10.6095654657
 20
11.5917948959
 30
0.0
 10
10.6123314231
 20
11.5867893015
 30
0.0
 10
10.6157448396
 20
11.5818377556
 30
0.0
 10
10.6183702219
 20
11.5786703939
 30
0.0
 10
10.6197787624
 20
11.5770980166
 30
0.0
  0
SPLINE
  5
419
100
AcDbEntity
  8
0
100
AcDbSpline
 62
9
  6
CONTINUOUS
 70
0
 71
3
 72
24
 73
20
 74
0
 42
0.0000001
 43
0.0000001
 44
0.0000000001
 40
0.0
 40
0.0
 40
0.0
 40
0.0
 40
0.0795316056
 40
0.1548117344
 40
0.226015117
 40
0.2934069815
 40
0.3573278077
 40
0.4181991316
 40
0.476534745
 40
0.5329378588
 40
0.5880902867
 40
0.6427296474
 40
0.6976183333
 40
0.7535067504
 40
0.811098992
 40
0.8710271368
 40
0.9020505119
 40
0.9338547278
 40
1.0
 40
1.0
 40
1.0
 40
1.0
 10
10.6354891898
 20
11.6539387627
 30
0.0
 10
10.6336178753
 20
11.6524937059
 30
0.0
 10
10.6300510571
 20
11.6495803804
 30
0.0
 10
10.625119838
 20
11.6450096821
 30
0.0
 10
10.6207665039
 20
11.6403676903
 30
0.0
 10
10.6169997216
 20
11.6356624927
 30
0.0
 10
10.61382694
 20
11.6309015368
 30
0.0
 10
10.6112554684
 20
11.6260925029
 30
0.0
 10
10.60929195
 20
11.6212437753
 30
0.0
 10
10.6079426978
 20
11.6163645109
 30
0.0
 10
10.6072123875
 20
11.6114652761
 30
0.0
 10
10.6071043607
 20
11.6065577306
 30
0.0
 10
10.6076188305
 20
11.6016542367
 30
0.0
 10
10.6087537946
 20
11.5967667537
 30
0.0
 10
10.6105046774
 20
11.591906467
 30
0.0
 10
10.6124499028
 20
11.5879324809
 30
0.0
 10
10.6142934768
 20
11.5847817669
 30
0.0
 10
10.6163858876
 20
11.5815675712
 30
0.0
 10
10.6181413061
 20
11.5792383785
 30
0.0
 10
10.6193859738
 20
11.5777160734
 30
0.0
  0
SPLINE
  5
41A
100
AcDbEntity
  8
0
100
AcDbSpline
 62
9
  6
CONTINUOUS
 70
0
 71
3
 72
23
 73
19
 74
0
 42
0.0000001
 43
0.0000001
 44
0.0000000001
 40
0.0
 40
0.0
 40
0.0
 40
0.0
 40
0.0801413905
 40
0.1564738756
 40
0.2291221923
 40
0.2982791542
 40
0.3641923771
 40
0.4271634133
 40
0.4875537285
 40
0.5457920388
 40
0.6023684415
 40
0.6578275806
 40
0.7127534084
 40
0.7677503905
 40
0.8234203145
 40
0.880339442
 40
0.9390408119
 40
1.0
 40
1.0
 40
1.0
 40
1.0
 10
10.6420279165
 20
11.6445400028
 30
0.0
 10
10.6403953888
 20
11.6432797497
 30
0.0
 10
10.6372675127
 20
11.6407403781
 30
0.0
 10
10.6328991068
 20
11.636775502
 30
0.0
 10
10.628976061
 20
11.6327549163
 30
0.0
 10
10.6255046138
 20
11.6286842683
 30
0.0
 10
10.6224903347
 20
11.6245684723
 30
0.0
 10
10.6199378598
 20
11.6204131127
 30
0.0
 10
10.6178520394
 20
11.6162236444
 30
0.0
 10
10.6162368459
 20
11.6120061333
 30
0.0
 10
10.6150963057
 20
11.6077668583
 30
0.0
 10
10.6144330901
 20
11.6035129448
 30
0.0
 10
10.6142494566
 20
11.599251977
 30
0.0
 10
10.6145456301
 20
11.5949919436
 30
0.0
 10
10.6153210361
 20
11.590740824
 30
0.0
 10
10.6165731954
 20
11.5865059651
 30
0.0
 10
10.6182990153
 20
11.5822947411
 30
0.0
 10
10.6197327612
 20
11.5795639202
 30
0.0
 10
10.6205205139
 20
11.5782073159
 30
0.0
  0
LINE
  5
41B
100
AcDbEntity
  8
0
100
AcDbLine
 62
9
  6
CONTINUOUS
 10
10.6207479878
 20
11.5778192163
 11
10.6235785366
 21
11.5734841913
  0
SPLINE
  5
41C
100
AcDbEntity
  8
0
100
AcDbSpline
 62
9
  6
CONTINUOUS
 70
0
 71
3
 72
17
 73
13
 74
0
 42
0.0000001
 43
0.0000001
 44
0.0000000001
 40
0.0
 40
0.0
 40
0.0
 40
0.0
 40
0.1530190187
 40
0.2961654455
 40
0.4300131825
 40
0.5554244646
 40
0.6735303484
 40
0.7857674094
 40
0.8402536547
 40
0.8939491017
 40
0.9471095541
 40
1.0
 40
1.0
 40
1.0
 40
1.0
 10
10.6785455649
 20
11.4744261689
 30
0.0
 10
10.6766162596
 20
11.4729363308
 30
0.0
 10
10.6729749733
 20
11.4699288506
 30
0.0
 10
10.6680409423
 20
11.4651662355
 30
0.0
 10
10.6638343909
 20
11.4603165078
 30
0.0
 10
10.6603681788
 20
11.4553906279
 30
0.0
 10
10.6576540647
 20
11.4504002169
 30
0.0
 10
10.6560124618
 20
11.4461537597
 30
0.0
 10
10.6551028261
 20
11.4427596418
 30
0.0
 10
10.6546196186
 20
11.4402328099
 30
0.0
 10
10.6543294852
 20
11.4377023548
 30
0.0
 10
10.6542649659
 20
11.43601226
 30
0.0
 10
10.654264974
 20
11.4351697169
 30
0.0
  0
SPLINE
  5
41D
100
AcDbEntity
  8
0
100
AcDbSpline
 62
9
  6
CONTINUOUS
 70
0
 71
3
 72
15
 73
11
 74
0
 42
0.0000001
 43
0.0000001
 44
0.0000000001
 40
0.0
 40
0.0
 40
0.0
 40
0.0
 40
0.1523754672
 40
0.2952518481
 40
0.4291468643
 40
0.5548400356
 40
0.673349304
 40
0.7859620085
 40
0.894244224
 40
1.0
 40
1.0
 40
1.0
 40
1.0
 10
10.6780769998
 20
11.4498771915
 30
0.0
 10
10.6762081231
 20
11.4484340172
 30
0.0
 10
10.6726740452
 20
11.4455214475
 30
0.0
 10
10.6678658255
 20
11.4409176518
 30
0.0
 10
10.6637369319
 20
11.4362320576
 30
0.0
 10
10.6602990407
 20
11.4314749252
 30
0.0
 10
10.6575624743
 20
11.4266562003
 30
0.0
 10
10.6555377044
 20
11.4217861394
 30
0.0
 10
10.6542345017
 20
11.4168788254
 30
0.0
 10
10.6538494794
 20
11.4135704096
 30
0.0
 10
10.6537812973
 20
11.4119330167
 30
0.0
  0
SPLINE
  5
41E
100
AcDbEntity
  8
0
100
AcDbSpline
 62
9
  6
CONTINUOUS
 70
0
 71
3
 72
11
 73
7
 74
0
 42
0.0000001
 43
0.0000001
 44
0.0000000001
 40
0.0
 40
0.0
 40
0.0
 40
0.0
 40
0.271147881
 40
0.5277505722
 40
0.7703957282
 40
1.0
 40
1.0
 40
1.0
 40
1.0
 10
10.6579067169
 20
11.3887419198
 30
0.0
 10
10.6561670788
 20
11.3873985838
 30
0.0
 10
10.6528519008
 20
11.384690169
 30
0.0
 10
10.6482703062
 20
11.3804400248
 30
0.0
 10
10.6442285939
 20
11.3761237434
 30
0.0
 10
10.6418365386
 20
11.3731282977
 30
0.0
 10
10.640741833
 20
11.3716231082
 30
0.0
  0
SPLINE
  5
41F
100
AcDbEntity
  8
0
100
AcDbSpline
 62
9
  6
CONTINUOUS
 70
0
 71
3
 72
15
 73
11
 74
0
 42
0.0000001
 43
0.0000001
 44
0.0000000001
 40
0.0
 40
0.0
 40
0.0
 40
0.0
 40
0.1495410003
 40
0.2909679759
 40
0.4246238023
 40
0.5510281654
 40
0.6708489828
 40
0.7849148547
 40
0.8942367734
 40
1.0
 40
1.0
 40
1.0
 40
1.0
 10
10.6503550276
 20
11.3706591005
 30
0.0
 10
10.6485496254
 20
11.3692649422
 30
0.0
 10
10.6451109024
 20
11.3664539617
 30
0.0
 10
10.6403635015
 20
11.3620408661
 30
0.0
 10
10.6361824618
 20
11.3575580759
 30
0.0
 10
10.6325763877
 20
11.3530135494
 30
0.0
 10
10.6295526704
 20
11.3484147731
 30
0.0
 10
10.6271185932
 20
11.3437690622
 30
0.0
 10
10.625280907
 20
11.3390858393
 30
0.0
 10
10.6244468265
 20
11.335902955
 30
0.0
 10
10.6241365875
 20
11.3343197935
 30
0.0
  0
SPLINE
  5
420
100
AcDbEntity
  8
0
100
AcDbSpline
 62
9
  6
CONTINUOUS
 70
0
 71
3
 72
61
 73
57
 74
0
 42
0.0000001
 43
0.0000001
 44
0.0000000001
 40
0.0
 40
0.0
 40
0.0
 40
0.0
 40
0.0108866519
 40
0.0211113058
 40
0.0307083957
 40
0.0352885699
 40
0.03973265
 40
0.0482461311
 40
0.0563368442
 40
0.0641086655
 40
0.071681777
 40
0.0791878113
 40
0.0867625748
 40
0.0945376317
 40
0.1026329724
 40
0.1111521401
 40
0.1201804485
 40
0.1297851098
 40
0.1400169326
 40
0.1509125631
 40
0.1624963771
 40
0.1747827
 40
0.1877773248
 40
0.2014787485
 40
0.2158795321
 40
0.230966887
 40
0.24672352
 40
0.2631282951
 40
0.2801564467
 40
0.2977802512
 40
0.3159692336
 40
0.3346903934
 40
0.3539086676
 40
0.3936843177
 40
0.4349821514
 40
0.4774639067
 40
0.5207750748
 40
0.5645500774
 40
0.6084172312
 40
0.6520036477
 40
0.6949401212
 40
0.736866039
 40
0.7774344444
 40
0.8163174227
 40
0.835032274
 40
0.8532144702
 40
0.8708311182
 40
0.8878517909
 40
0.9042486881
 40
0.9199972215
 40
0.9350762235
 40
0.9494684889
 40
0.963161192
 40
0.9761469202
 40
0.9884253153
 40
1.0
 40
1.0
 40
1.0
 40
1.0
 10
10.676815869
 20
11.3211148576
 30
0.0
 10
10.6749830811
 20
11.3196995516
 30
0.0
 10
10.6715124767
 20
11.3168436717
 30
0.0
 10
10.6667775216
 20
11.312335614
 30
0.0
 10
10.6633198795
 20
11.3084545864
 30
0.0
 10
10.660900795
 20
11.3053164175
 30
0.0
 10
10.6587721157
 20
11.3022515509
 30
0.0
 10
10.6565069519
 20
11.2983783492
 30
0.0
 10
10.6544286085
 20
11.2936139854
 30
0.0
 10
10.6530379882
 20
11.2888113208
 30
0.0
 10
10.6523425883
 20
11.2839843293
 30
0.0
 10
10.6523469556
 20
11.2791489331
 30
0.0
 10
10.6530508733
 20
11.2743221329
 30
0.0
 10
10.6544499995
 20
11.2695198899
 30
0.0
 10
10.6565369104
 20
11.2647559594
 30
0.0
 10
10.6593025008
 20
11.2600416847
 30
0.0
 10
10.6627374186
 20
11.255387085
 30
0.0
 10
10.6668317063
 20
11.2508014386
 30
0.0
 10
10.6715748327
 20
11.2462939453
 30
0.0
 10
10.6769554087
 20
11.2418740999
 30
0.0
 10
10.6829606542
 20
11.2375513462
 30
0.0
 10
10.6895765414
 20
11.233335377
 30
0.0
 10
10.6967875681
 20
11.2292358629
 30
0.0
 10
10.7045767196
 20
11.2252622461
 30
0.0
 10
10.7129256263
 20
11.2214239801
 30
0.0
 10
10.721814456
 20
11.2177301353
 30
0.0
 10
10.7312220425
 20
11.2141895064
 30
0.0
 10
10.7411259584
 20
11.2108106705
 30
0.0
 10
10.7515024954
 20
11.2076016666
 30
0.0
 10
10.7623268135
 20
11.2045702609
 30
0.0
 10
10.7735729523
 20
11.2017238084
 30
0.0
 10
10.7852139478
 20
11.1990690526
 30
0.0
 10
10.801410064
 20
11.1957559021
 30
0.0
 10
10.8224434015
 20
11.1921563888
 30
0.0
 10
10.848506867
 20
11.1887372287
 30
0.0
 10
10.8754265341
 20
11.186203794
 30
0.0
 10
10.9029438269
 20
11.1845807508
 30
0.0
 10
10.9307947676
 20
11.1838839638
 30
0.0
 10
10.9587119287
 20
11.1841202506
 30
0.0
 10
10.9864272797
 20
11.1852872837
 30
0.0
 10
11.0136747303
 20
11.1873736703
 30
0.0
 10
11.0401929866
 20
11.1903590339
 30
0.0
 10
11.0657274159
 20
11.1942143214
 30
0.0
 10
11.0862370668
 20
11.19816925
 30
0.0
 10
11.1019526241
 20
11.2017576421
 30
0.0
 10
11.1131937577
 20
11.2046064904
 30
0.0
 10
11.1240127109
 20
11.2076401172
 30
0.0
 10
11.134383589
 20
11.2108512276
 30
0.0
 10
11.1442815199
 20
11.214232156
 30
0.0
 10
11.1536828628
 20
11.2177746875
 30
0.0
 10
11.1625651833
 20
11.2214703596
 30
0.0
 10
11.170907291
 20
11.2253104038
 30
0.0
 10
11.1786894088
 20
11.2292855308
 30
0.0
 10
11.1858933739
 20
11.2333866489
 30
0.0
 10
11.192501573
 20
11.2376039059
 30
0.0
 10
11.196620197
 20
11.2405731601
 30
0.0
 10
11.1985688165
 20
11.2420779129
 30
0.0
  0
SPLINE
  5
421
100
AcDbEntity
  8
0
100
AcDbSpline
 62
9
  6
CONTINUOUS
 70
0
 71
3
 72
61
 73
57
 74
0
 42
0.0000001
 43
0.0000001
 44
0.0000000001
 40
0.0
 40
0.0
 40
0.0
 40
0.0
 40
0.0108865608
 40
0.0211112517
 40
0.0307083537
 40
0.0352885194
 40
0.0397325867
 40
0.0482460818
 40
0.0563368002
 40
0.0641086276
 40
0.0716817374
 40
0.0791877718
 40
0.0867625324
 40
0.0945376009
 40
0.1026329305
 40
0.1111521008
 40
0.1201804223
 40
0.129785055
 40
0.1400169108
 40
0.1509125247
 40
0.1624963232
 40
0.1747826868
 40
0.1877772698
 40
0.2014787213
 40
0.2158795093
 40
0.2309668305
 40
0.2467235158
 40
0.2631282574
 40
0.2801564167
 40
0.2977802489
 40
0.3159691939
 40
0.3346903941
 40
0.353908658
 40
0.3936843326
 40
0.434982162
 40
0.477463916
 40
0.5207750987
 40
0.5645501143
 40
0.6084172775
 40
0.6520037074
 40
0.694940189
 40
0.7368661003
 40
0.7774345119
 40
0.8163175086
 40
0.8350323465
 40
0.8532145675
 40
0.8708312004
 40
0.8878518705
 40
0.9042487746
 40
0.919997291
 40
0.9350763172
 40
0.9494685817
 40
0.963161252
 40
0.9761469909
 40
0.9884254063
 40
1.0
 40
1.0
 40
1.0
 40
1.0
 10
10.6908226587
 20
11.3176019141
 30
0.0
 10
10.68908829
 20
11.3162626089
 30
0.0
 10
10.6858040399
 20
11.3135600667
 30
0.0
 10
10.6813233056
 20
11.3092940695
 30
0.0
 10
10.6780513088
 20
11.3056214087
 30
0.0
 10
10.6757620981
 20
11.3026517417
 30
0.0
 10
10.6737477238
 20
11.2997514245
 30
0.0
 10
10.6716041569
 20
11.2960861911
 30
0.0
 10
10.6696374237
 20
11.2915776176
 30
0.0
 10
10.6683214344
 20
11.2870328223
 30
0.0
 10
10.6676633896
 20
11.2824649925
 30
0.0
 10
10.6676675241
 20
11.2778892191
 30
0.0
 10
10.6683336041
 20
11.2733215653
 30
0.0
 10
10.6696576639
 20
11.268777177
 30
0.0
 10
10.6716324813
 20
11.2642690109
 30
0.0
 10
10.6742495897
 20
11.2598078499
 30
0.0
 10
10.677500104
 20
11.2554031839
 30
0.0
 10
10.6813745222
 20
11.2510637038
 30
0.0
 10
10.685863022
 20
11.2467982651
 30
0.0
 10
10.6909546887
 20
11.2426157067
 30
0.0
 10
10.6966374949
 20
11.2385250271
 30
0.0
 10
10.7028981911
 20
11.2345354645
 30
0.0
 10
10.709722025
 20
11.2306560071
 30
0.0
 10
10.7170929807
 20
11.2268957674
 30
0.0
 10
10.7249936244
 20
11.2232635874
 30
0.0
 10
10.7334051902
 20
11.2197680291
 30
0.0
 10
10.7423076881
 20
11.2164175536
 30
0.0
 10
10.7516798416
 20
11.2132200926
 30
0.0
 10
10.7614992514
 20
11.2101833873
 30
0.0
 10
10.7717424052
 20
11.2073147709
 30
0.0
 10
10.7823847184
 20
11.2046210989
 30
0.0
 10
10.7934007025
 20
11.2021089229
 30
0.0
 10
10.8087272334
 20
11.1989736303
 30
0.0
 10
10.8286312717
 20
11.1955674091
 30
0.0
 10
10.8532953569
 20
11.1923318076
 30
0.0
 10
10.8787696737
 20
11.1899343841
 30
0.0
 10
10.9048095339
 20
11.1883984928
 30
0.0
 10
10.9311651297
 20
11.1877391343
 30
0.0
 10
10.9575833899
 20
11.1879627276
 30
0.0
 10
10.983810675
 20
11.1890670903
 30
0.0
 10
11.0095951784
 20
11.1910414568
 30
0.0
 10
11.0346896353
 20
11.1938665502
 30
0.0
 10
11.0588530908
 20
11.1975148468
 30
0.0
 10
11.0782615592
 20
11.20125741
 30
0.0
 10
11.0931333277
 20
11.2046531647
 30
0.0
 10
11.1037709158
 20
11.2073490309
 30
0.0
 10
11.114008982
 20
11.2102197971
 30
0.0
 10
11.123823032
 20
11.2132584982
 30
0.0
 10
11.1331895313
 20
11.2164578904
 30
0.0
 10
11.1420861007
 20
11.2198102356
 30
0.0
 10
11.1504915238
 20
11.2233074717
 30
0.0
 10
11.1583857266
 20
11.2269413489
 30
0.0
 10
11.1657500094
 20
11.2307030418
 30
0.0
 10
11.1725671844
 20
11.2345839654
 30
0.0
 10
11.1788205644
 20
11.2385747955
 30
0.0
 10
11.1827180456
 20
11.241384614
 30
0.0
 10
11.1845620268
 20
11.2428085636
 30
0.0
  0
ENDSEC
  0
SECTION
  2
OBJECTS
  0
DICTIONARY
  5
C
100
AcDbDictionary
280
0
281
1
  3
ACAD_GROUP
350
D
  3
ACAD_MLINESTYLE
350
17
  3
ACAD_LAYOUT
350
1A
  3
ACAD_PLOTSETTINGS
350
19
  3
ACAD_PLOTSTYLENAME
350
E
  0
DICTIONARY
  5
D
102
{ACAD_REACTORS
330
C
102
}
100
AcDbDictionary
280
0
281
1
  0
ACDBDICTIONARYWDFLT
  5
E
102
{ACAD_REACTORS
330
C
102
}
100
AcDbDictionary
281
1
  3
Normal
350
F
100
AcDbDictionaryWithDefault
340
F
  0
DICTIONARY
  5
17
102
{ACAD_REACTORS
330
C
102
}
100
AcDbDictionary
280
0
281
1
  3
Standard
350
18
  0
DICTIONARY
  5
19
102
{ACAD_REACTORS
330
C
102
}
100
AcDbDictionary
281
1
  0
DICTIONARY
  5
1A
102
{ACAD_REACTORS
330
C
102
}
100
AcDbDictionary
281
1
  3
Model
350
422
  3
Layout1
350
423
  0
ACDBPLACEHOLDER
  5
F
102
{ACAD_REACTORS
330
E
102
}
  0
MLINESTYLE
  5
18
102
{ACAD_REACTORS
330
17
102
}
100
AcDbMlineStyle
  2
STANDARD
 70
0
  3

 62
256
 51
90.0
 52
90.0
 71
2
 49
0.5
 62
256
  6
BYLAYER
 49
-0.5
 62
256
  6
BYLAYER
  0
LAYOUT
  5
422
102
{ACAD_REACTORS
330
1A
102
}
100
AcDbPlotSettings
  1

  2
none_device
  4
ANSI_C_(22.00_x_17.00_Inches)
  6

 40
0.0
 41
0.0
 42
0.0
 43
0.0
 44
558.8
 45
431.8
 46
0.0
 47
0.0
 48
0.0
 49
0.0
140
0.0
141
0.0
142
1.0
143
1.0
 70
1024
 72
0
 73
0
 74
0
  7

 75
0
147
1.0
148
0.0
149
0.0
100
AcDbLayout
  1
Model
 70
0
 71
0
 10
0.0
 20
0.0
 11
22.0
 21
17.0
 12
0.0
 22
0.0
 32
0.0
 14
0.0
 24
0.0
 34
0.0
 15
0.0
 25
0.0
 35
0.0
146
0.0
 13
0.0
 23
0.0
 33
0.0
 16
1.0
 26
0.0
 36
0.0
 17
0.0
 27
1.0
 37
0.0
 76
0
330
205
345
0
346
0
  0
LAYOUT
  5
423
102
{ACAD_REACTORS
330
1A
102
}
100
AcDbPlotSettings
  1

  2
none_device
  4
ANSI_C_(22.00_x_17.00_Inches)
  6

 40
0.0
 41
0.0
 42
0.0
 43
0.0
 44
558.8
 45
431.8
 46
0.0
 47
0.0
 48
0.0
 49
0.0
140
0.0
141
0.0
142
1.0
143
1.0
 70
0
 72
0
 73
0
 74
0
  7

 75
0
147
1.0
148
0.0
149
0.0
100
AcDbLayout
  1
Layout1
 70
0
 71
1
 10
0.0
 20
0.0
 11
22.0
 21
17.0
 12
0.0
 22
0.0
 32
0.0
 14
0.0
 24
0.0
 34
0.0
 15
0.0
 25
0.0
 35
0.0
146
0.0
 13
0.0
 23
0.0
 33
0.0
 16
1.0
 26
0.0
 36
0.0
 17
0.0
 27
1.0
 37
0.0
 76
0
330
206
345
0
346
0
  0
ENDSEC
  0
EOF
