999
DXF file: E:\BT Custom\CADOUTPUT\_RIGHT.dxf
999
Pro/ENGINEER 2018400 by Parametric Technology Corporation
  0
SECTION
  2
HEADER
  9
$ACADVER
  1
AC1018
  9
$DWGCODEPAGE
  3
ANSI_1252
  9
$EXTMAX
 10
22.0
 20
17.0
 30
0.0
  9
$EXTMIN
 10
0.0
 20
0.0
 30
0.0
  9
$LIMMIN
 10
0.0
 20
0.0
  9
$LIMMAX
 10
22.0
 20
17.0
  9
$VIEWCTR
 10
11.0
 20
8.5
  9
$VIEWSIZE
 40
17.0
  9
$CLAYER
  8
0
  9
$LTSCALE
 40
1.21
  9
$CELTYPE
  6
BYLAYER
  9
$DIMSCALE
 40
1.0
  9
$DIMASZ
 40
0.1
  9
$DIMEXO
 40
0.0625
  9
$DIMDLI
 40
0.836
  9
$DIMEXE
 40
0.125
  9
$DIMCEN
 40
0.198
  9
$DIMLFAC
 40
1.0
  9
$DIMBLK
  1
_FILLED
  9
$DIMALT
 70
1
  9
$DIMALTD
 70
2
  9
$DIMALTTD
 70
2
  9
$DIMALTF
 40
25.4
  9
$DIMTXT
 40
0.08
  9
$DIMTOL
 70
1
  9
$DIMLIM
 70
0
  9
$DIMTFAC
 40
1.0
  9
$DIMTP
 40
0.001
  9
$DIMTM
 40
0.001
  9
$DIMGAP
 40
0.09
  9
$DIMDSEP
 70
46
  9
$AUNITS
 70
0
  9
$PDMODE
 70
3
  9
$PDSIZE
 40
0.06
  9
$HANDSEED
  5
3CE
  9
$TILEMODE
 70
1
  9
$MEASUREMENT
 70
0
  9
$INSUNITS
 70
1
  0
ENDSEC
  0
SECTION
  2
CLASSES
  0
CLASS
  1
ACDBDICTIONARYWDFLT
  2
AcDbDictionaryWithDefault
  3
AutoCAD 2000
 90
0
 91
1
280
0
281
0
  0
CLASS
  1
ACDBPLACEHOLDER
  2
AcDbPlaceHolder
  3
AutoCAD 2000
 90
0
 91
1
280
0
281
0
  0
CLASS
  1
LAYOUT
  2
AcDbLayout
  3
AutoCAD 2000
 90
0
 91
0
280
0
281
0
  0
ENDSEC
  0
SECTION
  2
TABLES
  0
TABLE
  2
VPORT
  5
8
100
AcDbSymbolTable
 70
2
  0
VPORT
  5
1F4
100
AcDbSymbolTableRecord
100
AcDbViewportTableRecord
  2
*ACTIVE
 70
0
 10
0.0
 20
0.0
 11
1.0
 21
1.0
 12
11.0
 22
8.5
 13
0.0
 23
0.0
 14
1.0
 24
1.0
 15
0.0
 25
0.0
 16
0.0
 26
0.0
 36
1.0
 17
0.0
 27
0.0
 37
0.0
 40
17.0
 41
1.2941176471
 42
50.0
 43
0.0
 44
0.0
 50
0.0
 51
0.0
 71
0
 72
100
 73
1
 74
1
 75
0
 76
0
 77
0
 78
0
  0
ENDTAB
  0
TABLE
  2
LTYPE
  5
5
100
AcDbSymbolTable
 70
6
  0
LTYPE
  5
14
100
AcDbSymbolTableRecord
100
AcDbLinetypeTableRecord
  2
BYBLOCK
 70
0
  3

 72
65
 73
0
 40
0.0
  0
LTYPE
  5
15
100
AcDbSymbolTableRecord
100
AcDbLinetypeTableRecord
  2
BYLAYER
 70
0
  3

 72
65
 73
0
 40
0.0
  0
LTYPE
  5
16
100
AcDbSymbolTableRecord
100
AcDbLinetypeTableRecord
  2
CONTINUOUS
 70
64
  3
Solid line
 72
65
 73
0
 40
0.0
  0
LTYPE
  5
1F5
100
AcDbSymbolTableRecord
100
AcDbLinetypeTableRecord
  2
CENTER
 70
64
  3
____ _ ____ _ ____ _ ____ _ ____ _ ____ _ ____
 72
65
 73
4
 40
0.6
 49
0.375
 74
0
 49
-0.075
 74
0
 49
0.075
 74
0
 49
-0.075
 74
0
  0
LTYPE
  5
1F6
100
AcDbSymbolTableRecord
100
AcDbLinetypeTableRecord
  2
HIDDEN
 70
64
  3
- - - - - - - - - - - - - - - - - - - -
 72
65
 73
2
 40
0.2
 49
0.1
 74
0
 49
-0.1
 74
0
  0
LTYPE
  5
1F7
100
AcDbSymbolTableRecord
100
AcDbLinetypeTableRecord
  2
PHANTOM
 70
64
  3
_____ _ _ _____ _ _ _____ _ _ _____
 72
65
 73
6
 40
0.8
 49
0.45
 74
0
 49
-0.05
 74
0
 49
0.1
 74
0
 49
-0.05
 74
0
 49
0.1
 74
0
 49
-0.05
 74
0
  0
LTYPE
  5
1F8
100
AcDbSymbolTableRecord
100
AcDbLinetypeTableRecord
  2
DOT
 70
64
  3
. . . . . . . . . . . . . . . . . . . .
 72
65
 73
2
 40
0.2
 49
0.1
 74
0
 49
-0.1
 74
0
  0
LTYPE
  5
1F9
100
AcDbSymbolTableRecord
100
AcDbLinetypeTableRecord
  2
DASHED
 70
64
  3
- - - - - - - - - - - - - - - - - - - -
 72
65
 73
2
 40
0.2
 49
0.1
 74
0
 49
-0.1
 74
0
  0
ENDTAB
  0
TABLE
  2
LAYER
  5
2
100
AcDbSymbolTable
 70
36
  0
LAYER
  5
10
100
AcDbSymbolTableRecord
100
AcDbLayerTableRecord
  2
0
 70
0
 62
7
  6
CONTINUOUS
370
-3
390
F
  0
LAYER
  5
1FA
100
AcDbSymbolTableRecord
100
AcDbLayerTableRecord
  2
DEFAULT_1
 70
0
 62
7
  6
CENTER
370
-3
390
F
  0
LAYER
  5
1FB
100
AcDbSymbolTableRecord
100
AcDbLayerTableRecord
  2
DEFAULT_2
 70
0
 62
8
  6
HIDDEN
370
-3
390
F
  0
LAYER
  5
1FC
100
AcDbSymbolTableRecord
100
AcDbLayerTableRecord
  2
DEFAULT_3
 70
0
 62
7
  6
PHANTOM
370
-3
390
F
  0
LAYER
  5
1FD
100
AcDbSymbolTableRecord
100
AcDbLayerTableRecord
  2
ALL_FEATURES
 70
0
 62
7
  6
CONTINUOUS
370
-3
390
F
  0
LAYER
  5
1FE
100
AcDbSymbolTableRecord
100
AcDbLayerTableRecord
  2
AXES_FEATURES
 70
0
 62
7
  6
CONTINUOUS
370
-3
390
F
  0
LAYER
  5
1FF
100
AcDbSymbolTableRecord
100
AcDbLayerTableRecord
  2
DEFAULT_COORDINATE_SYSTEM
 70
0
 62
7
  6
CONTINUOUS
370
-3
390
F
  0
LAYER
  5
200
100
AcDbSymbolTableRecord
100
AcDbLayerTableRecord
  2
DEFAULT_DATUM_AXES
 70
0
 62
7
  6
CONTINUOUS
370
-3
390
F
  0
LAYER
  5
201
100
AcDbSymbolTableRecord
100
AcDbLayerTableRecord
  2
DEFAULT_DATUM_PLANES
 70
0
 62
7
  6
CONTINUOUS
370
-3
390
F
  0
LAYER
  5
202
100
AcDbSymbolTableRecord
100
AcDbLayerTableRecord
  2
DIMENSIONS
 70
0
 62
7
  6
CONTINUOUS
370
-3
390
F
  0
ENDTAB
  0
TABLE
  2
STYLE
  5
3
100
AcDbSymbolTable
 70
1
  0
STYLE
  5
11
100
AcDbSymbolTableRecord
100
AcDbTextStyleTableRecord
  2
STANDARD
 70
0
 40
0.0
 41
0.8
 50
0.0
 71
0
 42
0.2
  3
txt
  4

  0
STYLE
  5
203
100
AcDbSymbolTableRecord
100
AcDbTextStyleTableRecord
  2
TEXTSTYLE_1
 70
0
 40
0.0
 41
0.8
 50
0.0
 71
0
 42
0.2
  3
gdt
  4

  0
ENDTAB
  0
TABLE
  2
VIEW
  5
6
100
AcDbSymbolTable
 70
0
  0
ENDTAB
  0
TABLE
  2
UCS
  5
7
100
AcDbSymbolTable
 70
0
  0
ENDTAB
  0
TABLE
  2
APPID
  5
9
100
AcDbSymbolTable
 70
1
  0
APPID
  5
204
100
AcDbSymbolTableRecord
100
AcDbRegAppTableRecord
  2
ACAD
 70
0
  0
ENDTAB
  0
TABLE
  2
BLOCK_RECORD
  5
1
100
AcDbSymbolTable
 70
0
  0
BLOCK_RECORD
  5
205
100
AcDbSymbolTableRecord
100
AcDbBlockTableRecord
  2
*Model_Space
  0
BLOCK_RECORD
  5
206
100
AcDbSymbolTableRecord
100
AcDbBlockTableRecord
  2
*Paper_Space
  0
BLOCK_RECORD
  5
207
100
AcDbSymbolTableRecord
100
AcDbBlockTableRecord
  2
_FILLED
  0
ENDTAB
  0
TABLE
  2
DIMSTYLE
  5
A
100
AcDbSymbolTable
 70
1
100
AcDbDimStyleTable
 71
0
  0
DIMSTYLE
105
208
100
AcDbSymbolTableRecord
100
AcDbDimStyleTableRecord
  2
STANDARD
 70
0
  3

  4

 40
1.0
 41
0.1
 42
0.0625
 43
0.38
 44
0.125
 45
0.0
 46
0.0
 47
0.001
 48
0.001
140
0.08
141
0.09
142
0.0
143
25.4
144
1.0
145
0.0
146
1.0
147
0.09
 71
1.0
 72
0.0
 73
1
 74
1
 75
0
 76
0
 77
0
 78
4
 79
1
170
1
171
2
172
0
173
0
174
0
175
0
176
0
177
0
178
0
270
2
179
3
271
3
272
3
273
2
274
2
275
0
280
0
281
0
282
0
283
1
284
4
285
0
286
0
287
3
288
0
340
11
278
46
341
207
342
207
343
207
344
207
  0
ENDTAB
  0
ENDSEC
  0
SECTION
  2
BLOCKS
  0
BLOCK
  5
20
100
AcDbEntity
  8
0
100
AcDbBlockBegin
  2
*Model_Space
 70
0
 10
0.0
 20
0.0
 30
0.0
  3
*Model_Space
  1

  0
ENDBLK
  5
21
100
AcDbEntity
  8
0
100
AcDbBlockEnd
  0
BLOCK
  5
1C
100
AcDbEntity
  8
0
100
AcDbBlockBegin
  2
*Paper_Space
 70
0
 10
0.0
 20
0.0
 30
0.0
  3
*Paper_Space
  1

  0
ENDBLK
  5
1D
100
AcDbEntity
  8
0
100
AcDbBlockEnd
  0
BLOCK
  5
209
100
AcDbEntity
  8
0
100
AcDbBlockBegin
  2
_FILLED
 70
64
 10
0.0
 20
0.0
  3
_FILLED
  1

  0
SOLID
  5
20A
100
AcDbEntity
  8
0
  6
BYBLOCK
 62
0
100
AcDbTrace
 10
0.0
 20
0.0
 11
-1.0
 21
0.2
 12
-1.0
 22
-0.2
 13
-1.0
 23
-0.2
  0
ENDBLK
  5
20B
100
AcDbEntity
  8
0
  6
BYBLOCK
 62
0
100
AcDbBlockEnd
  0
ENDSEC
  0
SECTION
  2
ENTITIES
  0
LINE
  5
20C
100
AcDbEntity
  8
0
100
AcDbLine
 62
7
  6
CONTINUOUS
 10
11.7241679548
 20
4.2239410273
 11
13.7241679548
 21
4.2239410273
  0
LINE
  5
20D
100
AcDbEntity
  8
0
100
AcDbLine
 62
7
  6
CONTINUOUS
 10
13.7241679548
 20
4.3039410273
 11
11.7241679548
 21
4.3039410273
  0
LINE
  5
20E
100
AcDbEntity
  8
0
100
AcDbLine
 62
7
  6
CONTINUOUS
 10
11.7721679548
 20
4.3519410273
 11
13.6761679548
 21
4.3519410273
  0
LINE
  5
20F
100
AcDbEntity
  8
0
100
AcDbLine
 62
7
  6
CONTINUOUS
 10
13.7239679348
 20
4.6089410273
 11
11.7243679748
 21
4.6089410273
  0
LINE
  5
210
100
AcDbEntity
  8
0
100
AcDbLine
 62
7
  6
CONTINUOUS
 10
11.7243679748
 20
4.6689410273
 11
13.7239679348
 21
4.6689410273
  0
LINE
  5
211
100
AcDbEntity
  8
0
100
AcDbLine
 62
7
  6
CONTINUOUS
 10
13.5861679548
 20
4.7239410273
 11
11.8621679548
 21
4.7239410273
  0
LINE
  5
212
100
AcDbEntity
  8
0
100
AcDbLine
 62
7
  6
CONTINUOUS
 10
7.7934391259
 20
11.5189141098
 11
7.7929346753
 21
11.5180474512
  0
LINE
  5
213
100
AcDbEntity
  8
0
100
AcDbLine
 62
7
  6
CONTINUOUS
 10
8.1249364029
 20
12.1509913856
 11
7.8957829068
 21
11.5213973297
  0
LINE
  5
214
100
AcDbEntity
  8
0
100
AcDbLine
 62
7
  6
CONTINUOUS
 10
7.7608425376
 20
11.2498852118
 11
7.7702850288
 21
11.2743298956
  0
LINE
  5
215
100
AcDbEntity
  8
0
100
AcDbLine
 62
7
  6
CONTINUOUS
 10
13.1383828814
 20
5.9128464649
 11
13.1182095136
 21
5.9074410273
  0
LINE
  5
216
100
AcDbEntity
  8
0
100
AcDbLine
 62
7
  6
CONTINUOUS
 10
12.4966679548
 20
5.7408994686
 11
12.476494587
 21
5.735494031
  0
LINE
  5
217
100
AcDbEntity
  8
0
100
AcDbLine
 62
7
  6
CONTINUOUS
 10
13.117449852
 20
5.8775903922
 11
13.096882135
 21
5.8739637488
  0
LINE
  5
218
100
AcDbEntity
  8
0
100
AcDbLine
 62
7
  6
CONTINUOUS
 10
12.4631906763
 20
5.7622268472
 11
12.4426229593
 21
5.7586002037
  0
LINE
  5
219
100
AcDbEntity
  8
0
100
AcDbLine
 62
7
  6
CONTINUOUS
 10
13.0935237099
 20
5.8442929132
 11
13.0727181765
 21
5.8424726649
  0
LINE
  5
21A
100
AcDbEntity
  8
0
100
AcDbLine
 62
7
  6
CONTINUOUS
 10
12.4316995924
 20
5.7863908057
 11
12.410894059
 21
5.7845705574
  0
LINE
  5
21B
100
AcDbEntity
  8
0
100
AcDbLine
 62
7
  6
CONTINUOUS
 10
8.5947827133
 20
11.979981314
 11
8.3656292172
 21
11.350387258
  0
LINE
  5
21C
100
AcDbEntity
  8
0
100
AcDbLine
 62
7
  6
CONTINUOUS
 10
8.4003877599
 20
11.2313761635
 11
8.4101682013
 21
11.2373385022
  0
LINE
  5
21D
100
AcDbEntity
  8
0
100
AcDbLine
 62
7
  6
CONTINUOUS
 10
8.412850258
 20
11.2389121387
 11
8.4101682014
 21
11.2373385019
  0
LINE
  5
21E
100
AcDbEntity
  8
0
100
AcDbLine
 62
7
  6
CONTINUOUS
 10
12.3099530283
 20
6.3570355897
 11
12.3301263961
 21
6.3624410273
  0
LINE
  5
21F
100
AcDbEntity
  8
0
100
AcDbLine
 62
7
  6
CONTINUOUS
 10
12.9516679548
 20
6.528982586
 11
12.9718413226
 21
6.5343880236
  0
LINE
  5
220
100
AcDbEntity
  8
0
100
AcDbLine
 62
7
  6
CONTINUOUS
 10
13.0667865474
 20
5.8132074419
 11
13.0459015403
 21
5.8132074419
  0
LINE
  5
221
100
AcDbEntity
  8
0
100
AcDbLine
 62
7
  6
CONTINUOUS
 10
12.4024343694
 20
5.8132074419
 11
12.3815493622
 21
5.8132074419
  0
LINE
  5
222
100
AcDbEntity
  8
0
100
AcDbLine
 62
7
  6
CONTINUOUS
 10
13.0374418507
 20
5.7845705574
 11
13.0166363172
 21
5.7863908057
  0
LINE
  5
223
100
AcDbEntity
  8
0
100
AcDbLine
 62
7
  6
CONTINUOUS
 10
12.3756177332
 20
5.8424726649
 11
12.3548121998
 21
5.8442929132
  0
LINE
  5
224
100
AcDbEntity
  8
0
100
AcDbLine
 62
7
  6
CONTINUOUS
 10
8.4424329189
 20
11.2826996869
 11
8.4422622731
 21
11.2817115333
  0
LINE
  5
225
100
AcDbEntity
  8
0
100
AcDbLine
 62
7
  6
CONTINUOUS
 10
8.2944749119
 20
11.0556589115
 11
8.3029542839
 21
11.0804541421
  0
LINE
  5
226
100
AcDbEntity
  8
0
100
AcDbLine
 62
7
  6
CONTINUOUS
 10
12.3308860577
 20
6.3922916624
 11
12.3514537747
 21
6.3959183058
  0
LINE
  5
227
100
AcDbEntity
  8
0
100
AcDbLine
 62
7
  6
CONTINUOUS
 10
12.9851452334
 20
6.5076552075
 11
13.0057129504
 21
6.5112818509
  0
LINE
  5
228
100
AcDbEntity
  8
0
100
AcDbLine
 62
7
  6
CONTINUOUS
 10
12.3548121998
 20
6.4255891414
 11
12.3756177332
 21
6.4274093897
  0
LINE
  5
229
100
AcDbEntity
  8
0
100
AcDbLine
 62
7
  6
CONTINUOUS
 10
13.0166363172
 20
6.4834912489
 11
13.0374418507
 21
6.4853114972
  0
LINE
  5
22A
100
AcDbEntity
  8
0
100
AcDbLine
 62
7
  6
CONTINUOUS
 10
13.0057129504
 20
5.7586002037
 11
12.9851452334
 21
5.7622268472
  0
LINE
  5
22B
100
AcDbEntity
  8
0
100
AcDbLine
 62
7
  6
CONTINUOUS
 10
12.3514537747
 20
5.8739637488
 11
12.3308860577
 21
5.8775903922
  0
LINE
  5
22C
100
AcDbEntity
  8
0
100
AcDbLine
 62
7
  6
CONTINUOUS
 10
12.3815493622
 20
6.4566746127
 11
12.4024343694
 21
6.4566746127
  0
LINE
  5
22D
100
AcDbEntity
  8
0
100
AcDbLine
 62
7
  6
CONTINUOUS
 10
13.0459015403
 20
6.4566746127
 11
13.0667865474
 21
6.4566746127
  0
LINE
  5
22E
100
AcDbEntity
  8
0
100
AcDbLine
 62
7
  6
CONTINUOUS
 10
12.4741682229
 20
6.7479410273
 11
12.9741676868
 21
6.7479410273
  0
LINE
  5
22F
100
AcDbEntity
  8
0
100
AcDbLine
 62
7
  6
CONTINUOUS
 10
12.410894059
 20
6.4853114972
 11
12.4316995924
 21
6.4834912489
  0
LINE
  5
230
100
AcDbEntity
  8
0
100
AcDbLine
 62
7
  6
CONTINUOUS
 10
13.0727181765
 20
6.4274093897
 11
13.0935237099
 21
6.4255891414
  0
LINE
  5
231
100
AcDbEntity
  8
0
100
AcDbLine
 62
7
  6
CONTINUOUS
 10
12.9718413226
 20
5.735494031
 11
12.9516679548
 21
5.7408994686
  0
LINE
  5
232
100
AcDbEntity
  8
0
100
AcDbLine
 62
7
  6
CONTINUOUS
 10
12.3301263961
 20
5.9074410273
 11
12.3099530283
 21
5.9128464649
  0
LINE
  5
233
100
AcDbEntity
  8
0
100
AcDbLine
 62
7
  6
CONTINUOUS
 10
12.936084751
 20
5.7154278911
 11
12.9164592639
 21
5.7225709842
  0
LINE
  5
234
100
AcDbEntity
  8
0
100
AcDbLine
 62
7
  6
CONTINUOUS
 10
12.3117979117
 20
5.9426497182
 11
12.2921724246
 21
5.9497928114
  0
LINE
  5
235
100
AcDbEntity
  8
0
100
AcDbLine
 62
7
  6
CONTINUOUS
 10
12.4741682229
 20
6.8499410273
 11
12.9741676868
 21
6.8499410273
  0
LINE
  5
236
100
AcDbEntity
  8
0
100
AcDbLine
 62
7
  6
CONTINUOUS
 10
13.5541679548
 20
7.0639410273
 11
12.9581679548
 21
7.0639410273
  0
LINE
  5
237
100
AcDbEntity
  8
0
100
AcDbLine
 62
7
  6
CONTINUOUS
 10
12.4901679548
 20
7.0639410273
 11
11.8941679548
 21
7.0639410273
  0
LINE
  5
238
100
AcDbEntity
  8
0
100
AcDbLine
 62
7
  6
CONTINUOUS
 10
13.5891679548
 20
7.0989410273
 11
12.9581679548
 21
7.0989410273
  0
LINE
  5
239
100
AcDbEntity
  8
0
100
AcDbLine
 62
7
  6
CONTINUOUS
 10
12.4901679548
 20
7.0989410273
 11
11.8591679548
 21
7.0989410273
  0
LINE
  5
23A
100
AcDbEntity
  8
0
100
AcDbLine
 62
7
  6
CONTINUOUS
 10
13.6391679548
 20
7.1289410273
 11
12.9581679548
 21
7.1289410273
  0
LINE
  5
23B
100
AcDbEntity
  8
0
100
AcDbLine
 62
7
  6
CONTINUOUS
 10
12.4901679548
 20
7.1289410273
 11
11.8091679548
 21
7.1289410273
  0
LINE
  5
23C
100
AcDbEntity
  8
0
100
AcDbLine
 62
7
  6
CONTINUOUS
 10
12.4426229593
 20
6.5112818509
 11
12.4631906763
 21
6.5076552075
  0
LINE
  5
23D
100
AcDbEntity
  8
0
100
AcDbLine
 62
7
  6
CONTINUOUS
 10
13.096882135
 20
6.3959183058
 11
13.117449852
 21
6.3922916624
  0
LINE
  5
23E
100
AcDbEntity
  8
0
100
AcDbLine
 62
7
  6
CONTINUOUS
 10
12.476494587
 20
6.5343880236
 11
12.4966679548
 21
6.528982586
  0
LINE
  5
23F
100
AcDbEntity
  8
0
100
AcDbLine
 62
7
  6
CONTINUOUS
 10
13.1182095136
 20
6.3624410273
 11
13.1383828814
 21
6.3570355897
  0
LINE
  5
240
100
AcDbEntity
  8
0
100
AcDbLine
 62
7
  6
CONTINUOUS
 10
12.8987153647
 20
5.6985544994
 11
12.87978712
 21
5.7073808849
  0
LINE
  5
241
100
AcDbEntity
  8
0
100
AcDbLine
 62
7
  6
CONTINUOUS
 10
12.2966078124
 20
5.9793218621
 11
12.2776795678
 21
5.9881482475
  0
LINE
  5
242
100
AcDbEntity
  8
0
100
AcDbLine
 62
7
  6
CONTINUOUS
 10
7.7879546655
 20
11.4663555339
 11
7.7889977258
 21
11.4634260655
  0
LINE
  5
243
100
AcDbEntity
  8
0
100
AcDbLine
 62
7
  6
CONTINUOUS
 10
7.7926574613
 20
11.4525719026
 11
7.7889977261
 21
11.4634260656
  0
LINE
  5
244
100
AcDbEntity
  8
0
100
AcDbLine
 62
7
  6
CONTINUOUS
 10
13.6391679548
 20
7.3539410273
 11
12.9581679548
 21
7.3539410273
  0
LINE
  5
245
100
AcDbEntity
  8
0
100
AcDbLine
 62
7
  6
CONTINUOUS
 10
12.4901679548
 20
7.3539410273
 11
11.8091679548
 21
7.3539410273
  0
LINE
  5
246
100
AcDbEntity
  8
0
100
AcDbLine
 62
7
  6
CONTINUOUS
 10
13.5891679548
 20
7.3839410273
 11
12.9581679548
 21
7.3839410273
  0
LINE
  5
247
100
AcDbEntity
  8
0
100
AcDbLine
 62
7
  6
CONTINUOUS
 10
12.4901679548
 20
7.3839410273
 11
11.8591679548
 21
7.3839410273
  0
LINE
  5
248
100
AcDbEntity
  8
0
100
AcDbLine
 62
7
  6
CONTINUOUS
 10
13.5241679548
 20
7.4489410273
 11
12.9581679548
 21
7.4489410273
  0
LINE
  5
249
100
AcDbEntity
  8
0
100
AcDbLine
 62
7
  6
CONTINUOUS
 10
12.4901679548
 20
7.4489410273
 11
11.9241679548
 21
7.4489410273
  0
LINE
  5
24A
100
AcDbEntity
  8
0
100
AcDbLine
 62
7
  6
CONTINUOUS
 10
12.5122511586
 20
6.5544541636
 11
12.5318766457
 21
6.5473110704
  0
LINE
  5
24B
100
AcDbEntity
  8
0
100
AcDbLine
 62
7
  6
CONTINUOUS
 10
13.1365379979
 20
6.3272323364
 11
13.1561634851
 21
6.3200892433
  0
LINE
  5
24C
100
AcDbEntity
  8
0
100
AcDbLine
 62
7
  6
CONTINUOUS
 10
12.8600175671
 20
5.6850022728
 11
12.8419306204
 21
5.6954447763
  0
LINE
  5
24D
100
AcDbEntity
  8
0
100
AcDbLine
 62
7
  6
CONTINUOUS
 10
12.2846717039
 20
6.0171783618
 11
12.2665847571
 21
6.0276208654
  0
LINE
  5
24E
100
AcDbEntity
  8
0
100
AcDbLine
 62
7
  6
CONTINUOUS
 10
12.820285872
 20
5.6748743517
 11
12.8031778757
 21
5.6868534997
  0
LINE
  5
24F
100
AcDbEntity
  8
0
100
AcDbLine
 62
7
  6
CONTINUOUS
 10
12.2760804272
 20
6.0559311065
 11
12.2589724309
 21
6.0679102545
  0
LINE
  5
250
100
AcDbEntity
  8
0
100
AcDbLine
 62
7
  6
CONTINUOUS
 10
12.549620545
 20
6.5713275552
 11
12.5531679548
 21
6.5696733708
  0
LINE
  5
251
100
AcDbEntity
  8
0
100
AcDbLine
 62
7
  6
CONTINUOUS
 10
13.1517280973
 20
6.2905601925
 11
13.1706563419
 21
6.2817338071
  0
LINE
  5
252
100
AcDbEntity
  8
0
100
AcDbLine
 62
7
  6
CONTINUOUS
 10
13.1636642058
 20
6.2527036928
 11
13.1817511526
 21
6.2422611892
  0
LINE
  5
253
100
AcDbEntity
  8
0
100
AcDbLine
 62
7
  6
CONTINUOUS
 10
12.7798226615
 20
5.6682478158
 11
12.7638238178
 21
5.6816724397
  0
LINE
  5
254
100
AcDbEntity
  8
0
100
AcDbLine
 62
7
  6
CONTINUOUS
 10
12.2708993672
 20
6.0952851644
 11
12.2549005235
 21
6.1087097882
  0
LINE
  5
255
100
AcDbEntity
  8
0
100
AcDbLine
 62
7
  6
CONTINUOUS
 10
13.6761679548
 20
4.3519410273
 11
13.7241679548
 21
4.3039410273
  0
LINE
  5
256
100
AcDbEntity
  8
0
100
AcDbLine
 62
7
  6
CONTINUOUS
 10
13.1722554825
 20
6.2139509481
 11
13.1893634788
 21
6.2019718002
  0
LINE
  5
257
100
AcDbEntity
  8
0
100
AcDbLine
 62
7
  6
CONTINUOUS
 10
12.738935885
 20
5.6651730971
 11
12.7241679548
 21
5.6799410273
  0
LINE
  5
258
100
AcDbEntity
  8
0
100
AcDbLine
 62
7
  6
CONTINUOUS
 10
12.2691679548
 20
6.1349410273
 11
12.2544000246
 21
6.1497089575
  0
LINE
  5
259
100
AcDbEntity
  8
0
100
AcDbLine
 62
7
  6
CONTINUOUS
 10
12.4741682229
 20
8.6479410273
 11
12.9741676868
 21
8.6479410273
  0
LINE
  5
25A
100
AcDbEntity
  8
0
100
AcDbLine
 62
7
  6
CONTINUOUS
 10
13.1774365425
 20
6.1745968903
 11
13.1934353862
 21
6.1611722664
  0
LINE
  5
25B
100
AcDbEntity
  8
0
100
AcDbLine
 62
7
  6
CONTINUOUS
 10
11.8941679548
 20
7.0639410273
 11
11.8591679548
 21
7.0989410273
  0
LINE
  5
25C
100
AcDbEntity
  8
0
100
AcDbLine
 62
7
  6
CONTINUOUS
 10
12.6979367157
 20
5.665673596
 11
12.6845120919
 21
5.6816724397
  0
LINE
  5
25D
100
AcDbEntity
  8
0
100
AcDbLine
 62
7
  6
CONTINUOUS
 10
12.2708993672
 20
6.1745968903
 11
12.2574747434
 21
6.1905957339
  0
LINE
  5
25E
100
AcDbEntity
  8
0
100
AcDbLine
 62
7
  6
CONTINUOUS
 10
12.4741682229
 20
8.7479410273
 11
12.974163839
 21
8.7479410273
  0
LINE
  5
25F
100
AcDbEntity
  8
0
100
AcDbLine
 62
7
  6
CONTINUOUS
 10
13.1791679548
 20
6.1349410273
 11
13.193935885
 21
6.1201730971
  0
LINE
  5
260
100
AcDbEntity
  8
0
100
AcDbLine
 62
7
  6
CONTINUOUS
 10
13.1774365425
 20
6.0952851644
 11
13.1908611663
 21
6.0792863207
  0
LINE
  5
261
100
AcDbEntity
  8
0
100
AcDbLine
 62
7
  6
CONTINUOUS
 10
12.657137182
 20
5.6697455034
 11
12.645158034
 21
5.6868534997
  0
LINE
  5
262
100
AcDbEntity
  8
0
100
AcDbLine
 62
7
  6
CONTINUOUS
 10
12.2760804272
 20
6.2139509481
 11
12.2641012792
 21
6.2310589445
  0
LINE
  5
263
100
AcDbEntity
  8
0
100
AcDbLine
 62
7
  6
CONTINUOUS
 10
12.6168477929
 20
5.6773578296
 11
12.6064052893
 21
5.6954447763
  0
LINE
  5
264
100
AcDbEntity
  8
0
100
AcDbLine
 62
7
  6
CONTINUOUS
 10
12.2846717039
 20
6.2527036928
 11
12.2742292003
 21
6.2707906396
  0
LINE
  5
265
100
AcDbEntity
  8
0
100
AcDbLine
 62
7
  6
CONTINUOUS
 10
13.1722554825
 20
6.0559311065
 11
13.1842346304
 21
6.0388231102
  0
LINE
  5
266
100
AcDbEntity
  8
0
100
AcDbLine
 62
7
  6
CONTINUOUS
 10
12.577375175
 20
5.6884526402
 11
12.5685487896
 21
5.7073808849
  0
LINE
  5
267
100
AcDbEntity
  8
0
100
AcDbLine
 62
7
  6
CONTINUOUS
 10
12.2966078124
 20
6.2905601925
 11
12.287781427
 21
6.3094884371
  0
LINE
  5
268
100
AcDbEntity
  8
0
100
AcDbLine
 62
7
  6
CONTINUOUS
 10
13.1636642058
 20
6.0171783618
 11
13.1741067094
 21
5.999091415
  0
LINE
  5
269
100
AcDbEntity
  8
0
100
AcDbLine
 62
7
  6
CONTINUOUS
 10
12.5390197389
 20
5.7029454971
 11
12.5318766457
 21
5.7225709842
  0
LINE
  5
26A
100
AcDbEntity
  8
0
100
AcDbLine
 62
7
  6
CONTINUOUS
 10
12.3117979117
 20
6.3272323364
 11
12.3046548186
 21
6.3468578235
  0
LINE
  5
26B
100
AcDbEntity
  8
0
100
AcDbLine
 62
7
  6
CONTINUOUS
 10
11.7241679548
 20
4.3039410273
 11
11.7241679548
 21
4.2239410273
  0
LINE
  5
26C
100
AcDbEntity
  8
0
100
AcDbLine
 62
7
  6
CONTINUOUS
 10
11.7243679748
 20
4.6689410273
 11
11.7243679748
 21
4.6089410273
  0
LINE
  5
26D
100
AcDbEntity
  8
0
100
AcDbLine
 62
7
  6
CONTINUOUS
 10
11.7246914468
 20
4.6689410273
 11
11.7246914468
 21
4.6089410273
  0
LINE
  5
26E
100
AcDbEntity
  8
0
100
AcDbLine
 62
7
  6
CONTINUOUS
 10
11.7267848851
 20
4.6689410273
 11
11.7267848851
 21
4.6089410273
  0
LINE
  5
26F
100
AcDbEntity
  8
0
100
AcDbLine
 62
7
  6
CONTINUOUS
 10
11.7277544145
 20
4.6689410273
 11
11.7277544145
 21
4.6089410273
  0
LINE
  5
270
100
AcDbEntity
  8
0
100
AcDbLine
 62
7
  6
CONTINUOUS
 10
11.731935553
 20
4.6689410273
 11
11.731935553
 21
4.6089410273
  0
LINE
  5
271
100
AcDbEntity
  8
0
100
AcDbLine
 62
7
  6
CONTINUOUS
 10
11.7335484824
 20
4.6689410273
 11
11.7335484824
 21
4.6089410273
  0
LINE
  5
272
100
AcDbEntity
  8
0
100
AcDbLine
 62
7
  6
CONTINUOUS
 10
11.739805861
 20
4.6689410273
 11
11.739805861
 21
4.6089410273
  0
LINE
  5
273
100
AcDbEntity
  8
0
100
AcDbLine
 62
7
  6
CONTINUOUS
 10
11.7420577694
 20
4.6689410273
 11
11.7420577694
 21
4.6089410273
  0
LINE
  5
274
100
AcDbEntity
  8
0
100
AcDbLine
 62
7
  6
CONTINUOUS
 10
11.750374237
 20
4.6689410273
 11
11.750374237
 21
4.6089410273
  0
LINE
  5
275
100
AcDbEntity
  8
0
100
AcDbLine
 62
7
  6
CONTINUOUS
 10
11.7532589521
 20
4.6689410273
 11
11.7532589521
 21
4.6089410273
  0
LINE
  5
276
100
AcDbEntity
  8
0
100
AcDbLine
 62
7
  6
CONTINUOUS
 10
11.7636117139
 20
4.6689410273
 11
11.7636117139
 21
4.6089410273
  0
LINE
  5
277
100
AcDbEntity
  8
0
100
AcDbLine
 62
7
  6
CONTINUOUS
 10
11.767121329
 20
4.6689410273
 11
11.767121329
 21
4.6089410273
  0
LINE
  5
278
100
AcDbEntity
  8
0
100
AcDbLine
 62
7
  6
CONTINUOUS
 10
11.7721679548
 20
4.6089410273
 11
11.7721679548
 21
4.3519410273
  0
LINE
  5
279
100
AcDbEntity
  8
0
100
AcDbLine
 62
7
  6
CONTINUOUS
 10
11.7794820088
 20
4.6689410273
 11
11.7794820088
 21
4.6089410273
  0
LINE
  5
27A
100
AcDbEntity
  8
0
100
AcDbLine
 62
7
  6
CONTINUOUS
 10
11.7836069041
 20
4.6689410273
 11
11.7836069041
 21
4.6089410273
  0
LINE
  5
27B
100
AcDbEntity
  8
0
100
AcDbLine
 62
7
  6
CONTINUOUS
 10
11.7979416221
 20
4.6689410273
 11
11.7979416221
 21
4.6089410273
  0
LINE
  5
27C
100
AcDbEntity
  8
0
100
AcDbLine
 62
7
  6
CONTINUOUS
 10
11.8026704917
 20
4.6689410273
 11
11.8026704917
 21
4.6089410273
  0
LINE
  5
27D
100
AcDbEntity
  8
0
100
AcDbLine
 62
7
  6
CONTINUOUS
 10
11.8091679548
 20
7.1289410273
 11
11.8091679548
 21
7.3539410273
  0
LINE
  5
27E
100
AcDbEntity
  8
0
100
AcDbLine
 62
7
  6
CONTINUOUS
 10
11.8189399574
 20
4.6689410273
 11
11.8189399574
 21
4.6089410273
  0
LINE
  5
27F
100
AcDbEntity
  8
0
100
AcDbLine
 62
7
  6
CONTINUOUS
 10
11.8242598398
 20
4.6689410273
 11
11.8242598398
 21
4.6089410273
  0
LINE
  5
280
100
AcDbEntity
  8
0
100
AcDbLine
 62
7
  6
CONTINUOUS
 10
11.8424194598
 20
4.6689410273
 11
11.8424194598
 21
4.6089410273
  0
LINE
  5
281
100
AcDbEntity
  8
0
100
AcDbLine
 62
7
  6
CONTINUOUS
 10
11.8483157735
 20
4.6689410273
 11
11.8483157735
 21
4.6089410273
  0
LINE
  5
282
100
AcDbEntity
  8
0
100
AcDbLine
 62
7
  6
CONTINUOUS
 10
11.8591679548
 20
7.0989410273
 11
11.8591679548
 21
7.1289410273
  0
LINE
  5
283
100
AcDbEntity
  8
0
100
AcDbLine
 62
7
  6
CONTINUOUS
 10
11.8591679548
 20
7.3539410273
 11
11.8591679548
 21
7.3839410273
  0
LINE
  5
284
100
AcDbEntity
  8
0
100
AcDbLine
 62
7
  6
CONTINUOUS
 10
11.8683157735
 20
4.6689410273
 11
11.8683157735
 21
4.6089410273
  0
LINE
  5
285
100
AcDbEntity
  8
0
100
AcDbLine
 62
7
  6
CONTINUOUS
 10
11.8747723571
 20
4.6689410273
 11
11.8747723571
 21
4.6089410273
  0
LINE
  5
286
100
AcDbEntity
  8
0
100
AcDbLine
 62
7
  6
CONTINUOUS
 10
7.7265003859
 20
11.1147729086
 11
8.2339340121
 21
10.9300821728
  0
LINE
  5
287
100
AcDbEntity
  8
0
100
AcDbLine
 62
9
  6
CONTINUOUS
 10
7.7126112374
 20
11.1214035829
 11
8.2488358324
 21
10.9262337914
  0
LINE
  5
288
100
AcDbEntity
  8
0
100
AcDbLine
 62
9
  6
CONTINUOUS
 10
7.6989043097
 20
11.137632149
 11
8.2697674693
 21
10.929854951
  0
LINE
  5
289
100
AcDbEntity
  8
0
100
AcDbLine
 62
9
  6
CONTINUOUS
 10
7.7019901612
 20
11.1768375344
 11
8.292604306
 21
10.9618715658
  0
LINE
  5
28A
100
AcDbEntity
  8
0
100
AcDbLine
 62
9
  6
CONTINUOUS
 10
7.7167492849
 20
11.1932394849
 11
8.2918411318
 21
10.9839231707
  0
LINE
  5
28B
100
AcDbEntity
  8
0
100
AcDbLine
 62
9
  6
CONTINUOUS
 10
7.7608425376
 20
11.2498852118
 11
8.2944749119
 21
11.0556589115
  0
LINE
  5
28C
100
AcDbEntity
  8
0
100
AcDbLine
 62
9
  6
CONTINUOUS
 10
7.7702850307
 20
11.274329895
 11
8.3029542821
 21
11.0804541427
  0
LINE
  5
28D
100
AcDbEntity
  8
0
100
AcDbLine
 62
7
  6
CONTINUOUS
 10
13.1517280973
 20
5.9793218621
 11
13.1605544827
 21
5.9603936175
  0
LINE
  5
28E
100
AcDbEntity
  8
0
100
AcDbLine
 62
7
  6
CONTINUOUS
 10
12.5020733924
 20
5.7207261008
 11
12.4966679548
 21
5.7408994686
  0
LINE
  5
28F
100
AcDbEntity
  8
0
100
AcDbLine
 62
7
  6
CONTINUOUS
 10
12.3301263961
 20
6.3624410273
 11
12.3247209585
 21
6.3826143951
  0
LINE
  5
290
100
AcDbEntity
  8
0
100
AcDbLine
 62
7
  6
CONTINUOUS
 10
12.4668173197
 20
5.7416591302
 11
12.4631906763
 21
5.7622268472
  0
LINE
  5
291
100
AcDbEntity
  8
0
100
AcDbLine
 62
7
  6
CONTINUOUS
 10
12.3514537747
 20
6.3959183058
 11
12.3478271312
 21
6.4164860228
  0
LINE
  5
292
100
AcDbEntity
  8
0
100
AcDbLine
 62
7
  6
CONTINUOUS
 10
12.4335198407
 20
5.7655852723
 11
12.4316995924
 21
5.7863908057
  0
LINE
  5
293
100
AcDbEntity
  8
0
100
AcDbLine
 62
7
  6
CONTINUOUS
 10
12.3756177332
 20
6.4274093897
 11
12.3737974849
 21
6.4482149231
  0
LINE
  5
294
100
AcDbEntity
  8
0
100
AcDbLine
 62
7
  6
CONTINUOUS
 10
11.8965579185
 20
4.6689410273
 11
11.8965579185
 21
4.6089410273
  0
LINE
  5
295
100
AcDbEntity
  8
0
100
AcDbLine
 62
7
  6
CONTINUOUS
 10
11.903557075
 20
4.6689410273
 11
11.903557075
 21
4.6089410273
  0
LINE
  5
296
100
AcDbEntity
  8
0
100
AcDbLine
 62
7
  6
CONTINUOUS
 10
11.9191679548
 20
4.7239410273
 11
11.9191679548
 21
7.0639410273
  0
LINE
  5
297
100
AcDbEntity
  8
0
100
AcDbLine
 62
7
  6
CONTINUOUS
 10
11.9270684851
 20
4.6689410273
 11
11.9270684851
 21
4.6089410273
  0
LINE
  5
298
100
AcDbEntity
  8
0
100
AcDbLine
 62
7
  6
CONTINUOUS
 10
11.9345910303
 20
4.6689410273
 11
11.9345910303
 21
4.6089410273
  0
LINE
  5
299
100
AcDbEntity
  8
0
100
AcDbLine
 62
7
  6
CONTINUOUS
 10
11.9597638459
 20
4.6689410273
 11
11.9597638459
 21
4.6089410273
  0
LINE
  5
29A
100
AcDbEntity
  8
0
100
AcDbLine
 62
7
  6
CONTINUOUS
 10
11.9677891611
 20
4.6689410273
 11
11.9677891611
 21
4.6089410273
  0
LINE
  5
29B
100
AcDbEntity
  8
0
100
AcDbLine
 62
7
  6
CONTINUOUS
 10
11.9945543853
 20
4.6689410273
 11
11.9945543853
 21
4.6089410273
  0
LINE
  5
29C
100
AcDbEntity
  8
0
100
AcDbLine
 62
7
  6
CONTINUOUS
 10
12.0030604735
 20
4.6689410273
 11
12.0030604735
 21
4.6089410273
  0
LINE
  5
29D
100
AcDbEntity
  8
0
100
AcDbLine
 62
7
  6
CONTINUOUS
 10
12.0313447448
 20
4.6689410273
 11
12.0313447448
 21
4.6089410273
  0
LINE
  5
29E
100
AcDbEntity
  8
0
100
AcDbLine
 62
7
  6
CONTINUOUS
 10
12.0403082915
 20
4.6689410273
 11
12.0403082915
 21
4.6089410273
  0
LINE
  5
29F
100
AcDbEntity
  8
0
100
AcDbLine
 62
7
  6
CONTINUOUS
 10
12.0685538001
 20
4.6689410273
 11
12.0685538001
 21
4.6089410273
  0
LINE
  5
2A0
100
AcDbEntity
  8
0
100
AcDbLine
 62
7
  6
CONTINUOUS
 10
12.0700340845
 20
4.6689410273
 11
12.0700340845
 21
4.6089410273
  0
LINE
  5
2A1
100
AcDbEntity
  8
0
100
AcDbLine
 62
7
  6
CONTINUOUS
 10
12.0794305212
 20
4.6689410273
 11
12.0794305212
 21
4.6089410273
  0
LINE
  5
2A2
100
AcDbEntity
  8
0
100
AcDbLine
 62
7
  6
CONTINUOUS
 10
12.1075598483
 20
4.6689410273
 11
12.1075598483
 21
4.6089410273
  0
LINE
  5
2A3
100
AcDbEntity
  8
0
100
AcDbLine
 62
7
  6
CONTINUOUS
 10
12.1105163597
 20
4.6689410273
 11
12.1105163597
 21
4.6089410273
  0
LINE
  5
2A4
100
AcDbEntity
  8
0
100
AcDbLine
 62
7
  6
CONTINUOUS
 10
12.1203199315
 20
4.6689410273
 11
12.1203199315
 21
4.6089410273
  0
LINE
  5
2A5
100
AcDbEntity
  8
0
100
AcDbLine
 62
7
  6
CONTINUOUS
 10
12.1482559764
 20
4.6689410273
 11
12.1482559764
 21
4.6089410273
  0
LINE
  5
2A6
100
AcDbEntity
  8
0
100
AcDbLine
 62
7
  6
CONTINUOUS
 10
12.1526806112
 20
4.6689410273
 11
12.1526806112
 21
4.6089410273
  0
LINE
  5
2A7
100
AcDbEntity
  8
0
100
AcDbLine
 62
7
  6
CONTINUOUS
 10
12.1628644472
 20
4.6689410273
 11
12.1628644472
 21
4.6089410273
  0
LINE
  5
2A8
100
AcDbEntity
  8
0
100
AcDbLine
 62
7
  6
CONTINUOUS
 10
12.1905306392
 20
4.6689410273
 11
12.1905306392
 21
4.6089410273
  0
LINE
  5
2A9
100
AcDbEntity
  8
0
100
AcDbLine
 62
7
  6
CONTINUOUS
 10
12.1964112699
 20
4.6689410273
 11
12.1964112699
 21
4.6089410273
  0
LINE
  5
2AA
100
AcDbEntity
  8
0
100
AcDbLine
 62
7
  6
CONTINUOUS
 10
12.2069474568
 20
4.6689410273
 11
12.2069474568
 21
4.6089410273
  0
LINE
  5
2AB
100
AcDbEntity
  8
0
100
AcDbLine
 62
7
  6
CONTINUOUS
 10
12.2342679648
 20
4.6689410273
 11
12.2342679648
 21
4.6089410273
  0
LINE
  5
2AC
100
AcDbEntity
  8
0
100
AcDbLine
 62
7
  6
CONTINUOUS
 10
12.2415884729
 20
4.6689410273
 11
12.2415884729
 21
4.6089410273
  0
LINE
  5
2AD
100
AcDbEntity
  8
0
100
AcDbLine
 62
7
  6
CONTINUOUS
 10
12.2524481318
 20
4.6689410273
 11
12.2524481318
 21
4.6089410273
  0
LINE
  5
2AE
100
AcDbEntity
  8
0
100
AcDbLine
 62
9
  6
CONTINUOUS
 10
7.7957270713
 20
11.3599179975
 11
8.3384795201
 21
11.1623722616
  0
LINE
  5
2AF
100
AcDbEntity
  8
0
100
AcDbLine
 62
9
  6
CONTINUOUS
 10
7.7926574613
 20
11.4525719026
 11
8.4003877599
 21
11.2313761635
  0
LINE
  5
2B0
100
AcDbEntity
  8
0
100
AcDbLine
 62
9
  6
CONTINUOUS
 10
7.7889977258
 20
11.4634260655
 11
8.4101682014
 21
11.2373385019
  0
LINE
  5
2B1
100
AcDbEntity
  8
0
100
AcDbLine
 62
9
  6
CONTINUOUS
 10
7.7879546651
 20
11.4663555338
 11
8.4128502582
 21
11.2389121384
  0
LINE
  5
2B2
100
AcDbEntity
  8
0
100
AcDbLine
 62
9
  6
CONTINUOUS
 10
7.7929346753
 20
11.5180474512
 11
8.4422622731
 21
11.2817115333
  0
LINE
  5
2B3
100
AcDbEntity
  8
0
100
AcDbLine
 62
9
  6
CONTINUOUS
 10
7.7934391312
 20
11.5189141067
 11
8.4424329129
 21
11.2826996879
  0
LINE
  5
2B4
100
AcDbEntity
  8
0
100
AcDbLine
 62
9
  6
CONTINUOUS
 10
7.8064840196
 20
11.5323707407
 11
8.4410897062
 21
11.3013931603
  0
LINE
  5
2B5
100
AcDbEntity
  8
0
100
AcDbLine
 62
7
  6
CONTINUOUS
 10
7.8520873786
 20
11.5373012013
 11
8.4093247454
 21
11.3344833864
  0
LINE
  5
2B6
100
AcDbEntity
  8
0
100
AcDbLine
 62
7
  6
CONTINUOUS
 10
12.9093161708
 20
6.5669365575
 11
12.9164592639
 21
6.5473110704
  0
LINE
  5
2B7
100
AcDbEntity
  8
0
100
AcDbLine
 62
7
  6
CONTINUOUS
 10
13.1365379979
 20
5.9426497182
 11
13.1436810911
 21
5.9230242311
  0
LINE
  5
2B8
100
AcDbEntity
  8
0
100
AcDbLine
 62
7
  6
CONTINUOUS
 10
12.9462625172
 20
6.5491559538
 11
12.9516679548
 21
6.528982586
  0
LINE
  5
2B9
100
AcDbEntity
  8
0
100
AcDbLine
 62
7
  6
CONTINUOUS
 10
13.1182095136
 20
5.9074410273
 11
13.1236149512
 21
5.8872676595
  0
LINE
  5
2BA
100
AcDbEntity
  8
0
100
AcDbLine
 62
7
  6
CONTINUOUS
 10
12.2793480723
 20
4.6689410273
 11
12.2793480723
 21
4.6089410273
  0
LINE
  5
2BB
100
AcDbEntity
  8
0
100
AcDbLine
 62
7
  6
CONTINUOUS
 10
12.2880883928
 20
4.6689410273
 11
12.2880883928
 21
4.6089410273
  0
LINE
  5
2BC
100
AcDbEntity
  8
0
100
AcDbLine
 62
7
  6
CONTINUOUS
 10
12.2992417581
 20
4.6689410273
 11
12.2992417581
 21
4.6089410273
  0
LINE
  5
2BD
100
AcDbEntity
  8
0
100
AcDbLine
 62
7
  6
CONTINUOUS
 10
12.3256474001
 20
4.6689410273
 11
12.3256474001
 21
4.6089410273
  0
LINE
  5
2BE
100
AcDbEntity
  8
0
100
AcDbLine
 62
7
  6
CONTINUOUS
 10
12.3357835764
 20
4.6689410273
 11
12.3357835764
 21
4.6089410273
  0
LINE
  5
2BF
100
AcDbEntity
  8
0
100
AcDbLine
 62
7
  6
CONTINUOUS
 10
12.3472000775
 20
4.6689410273
 11
12.3472000775
 21
4.6089410273
  0
LINE
  5
2C0
100
AcDbEntity
  8
0
100
AcDbLine
 62
7
  6
CONTINUOUS
 10
12.373039045
 20
4.6689410273
 11
12.373039045
 21
4.6089410273
  0
LINE
  5
2C1
100
AcDbEntity
  8
0
100
AcDbLine
 62
7
  6
CONTINUOUS
 10
12.3845432946
 20
4.6689410273
 11
12.3845432946
 21
4.6089410273
  0
LINE
  5
2C2
100
AcDbEntity
  8
0
100
AcDbLine
 62
7
  6
CONTINUOUS
 10
12.3961916397
 20
4.6689410273
 11
12.3961916397
 21
4.6089410273
  0
LINE
  5
2C3
100
AcDbEntity
  8
0
100
AcDbLine
 62
7
  6
CONTINUOUS
 10
12.4024343694
 20
5.7923224347
 11
12.4024343694
 21
5.8132074419
  0
LINE
  5
2C4
100
AcDbEntity
  8
0
100
AcDbLine
 62
7
  6
CONTINUOUS
 10
12.4024343694
 20
6.4566746127
 11
12.4024343694
 21
6.4775596199
  0
LINE
  5
2C5
100
AcDbEntity
  8
0
100
AcDbLine
 62
7
  6
CONTINUOUS
 10
12.4213931099
 20
4.6689410273
 11
12.4213931099
 21
4.6089410273
  0
LINE
  5
2C6
100
AcDbEntity
  8
0
100
AcDbLine
 62
7
  6
CONTINUOUS
 10
12.4342339004
 20
4.6689410273
 11
12.4342339004
 21
4.6089410273
  0
LINE
  5
2C7
100
AcDbEntity
  8
0
100
AcDbLine
 62
7
  6
CONTINUOUS
 10
12.4460821622
 20
4.6689410273
 11
12.4460821622
 21
4.6089410273
  0
LINE
  5
2C8
100
AcDbEntity
  8
0
100
AcDbLine
 62
7
  6
CONTINUOUS
 10
12.4705770596
 20
4.6689410273
 11
12.4705770596
 21
4.6089410273
  0
LINE
  5
2C9
100
AcDbEntity
  8
0
100
AcDbLine
 62
7
  6
CONTINUOUS
 10
12.4741679548
 20
7.4489410273
 11
12.4741679548
 21
8.6479410273
  0
LINE
  5
2CA
100
AcDbEntity
  8
0
100
AcDbLine
 62
7
  6
CONTINUOUS
 10
12.4741679548
 20
8.7479410273
 11
12.4741679548
 21
11.2959410273
  0
LINE
  5
2CB
100
AcDbEntity
  8
0
100
AcDbLine
 62
7
  6
CONTINUOUS
 10
12.4847191952
 20
4.6689410273
 11
12.4847191952
 21
4.6089410273
  0
LINE
  5
2CC
100
AcDbEntity
  8
0
100
AcDbLine
 62
7
  6
CONTINUOUS
 10
12.4901679548
 20
6.8499410273
 11
12.4901679548
 21
8.6479410273
  0
LINE
  5
2CD
100
AcDbEntity
  8
0
100
AcDbLine
 62
7
  6
CONTINUOUS
 10
12.4967348985
 20
4.6689410273
 11
12.4967348985
 21
4.6089410273
  0
LINE
  5
2CE
100
AcDbEntity
  8
0
100
AcDbLine
 62
7
  6
CONTINUOUS
 10
12.5204560843
 20
4.6689410273
 11
12.5204560843
 21
4.6089410273
  0
LINE
  5
2CF
100
AcDbEntity
  8
0
100
AcDbLine
 62
7
  6
CONTINUOUS
 10
12.5358608025
 20
4.6689410273
 11
12.5358608025
 21
4.6089410273
  0
LINE
  5
2D0
100
AcDbEntity
  8
0
100
AcDbLine
 62
7
  6
CONTINUOUS
 10
12.548011013
 20
4.6689410273
 11
12.548011013
 21
4.6089410273
  0
LINE
  5
2D1
100
AcDbEntity
  8
0
100
AcDbLine
 62
7
  6
CONTINUOUS
 10
12.5531679548
 20
6.5508766456
 11
12.5531679548
 21
6.7479410273
  0
LINE
  5
2D2
100
AcDbEntity
  8
0
100
AcDbLine
 62
7
  6
CONTINUOUS
 10
12.5708934691
 20
4.6689410273
 11
12.5708934691
 21
4.6089410273
  0
LINE
  5
2D3
100
AcDbEntity
  8
0
100
AcDbLine
 62
7
  6
CONTINUOUS
 10
12.5875185466
 20
4.6689410273
 11
12.5875185466
 21
4.6089410273
  0
LINE
  5
2D4
100
AcDbEntity
  8
0
100
AcDbLine
 62
7
  6
CONTINUOUS
 10
12.5997699614
 20
4.6689410273
 11
12.5997699614
 21
4.6089410273
  0
LINE
  5
2D5
100
AcDbEntity
  8
0
100
AcDbLine
 62
7
  6
CONTINUOUS
 10
12.6217509686
 20
4.6689410273
 11
12.6217509686
 21
4.6089410273
  0
LINE
  5
2D6
100
AcDbEntity
  8
0
100
AcDbLine
 62
7
  6
CONTINUOUS
 10
12.6395508373
 20
4.6689410273
 11
12.6395508373
 21
4.6089410273
  0
LINE
  5
2D7
100
AcDbEntity
  8
0
100
AcDbLine
 62
7
  6
CONTINUOUS
 10
12.3737974849
 20
5.8216671315
 11
12.3756177332
 21
5.8424726649
  0
LINE
  5
2D8
100
AcDbEntity
  8
0
100
AcDbLine
 62
7
  6
CONTINUOUS
 10
12.4316995924
 20
6.4834912489
 11
12.4335198407
 21
6.5042967823
  0
LINE
  5
2D9
100
AcDbEntity
  8
0
100
AcDbLine
 62
7
  6
CONTINUOUS
 10
12.9815185899
 20
6.5282229244
 11
12.9851452334
 21
6.5076552075
  0
LINE
  5
2DA
100
AcDbEntity
  8
0
100
AcDbLine
 62
7
  6
CONTINUOUS
 10
13.096882135
 20
5.8739637488
 11
13.1005087784
 21
5.8533960318
  0
LINE
  5
2DB
100
AcDbEntity
  8
0
100
AcDbLine
 62
7
  6
CONTINUOUS
 10
13.0148160689
 20
6.5042967823
 11
13.0166363172
 21
6.4834912489
  0
LINE
  5
2DC
100
AcDbEntity
  8
0
100
AcDbLine
 62
7
  6
CONTINUOUS
 10
13.0727181765
 20
5.8424726649
 11
13.0745384248
 21
5.8216671315
  0
LINE
  5
2DD
100
AcDbEntity
  8
0
100
AcDbLine
 62
7
  6
CONTINUOUS
 10
12.6518698761
 20
4.6689410273
 11
12.6518698761
 21
4.6089410273
  0
LINE
  5
2DE
100
AcDbEntity
  8
0
100
AcDbLine
 62
7
  6
CONTINUOUS
 10
12.672889186
 20
4.6689410273
 11
12.672889186
 21
4.6089410273
  0
LINE
  5
2DF
100
AcDbEntity
  8
0
100
AcDbLine
 62
7
  6
CONTINUOUS
 10
12.6918150575
 20
4.6689410273
 11
12.6918150575
 21
4.6089410273
  0
LINE
  5
2E0
100
AcDbEntity
  8
0
100
AcDbLine
 62
7
  6
CONTINUOUS
 10
12.7041679548
 20
4.6689410273
 11
12.7041679548
 21
4.6089410273
  0
LINE
  5
2E1
100
AcDbEntity
  8
0
100
AcDbLine
 62
7
  6
CONTINUOUS
 10
12.7241679548
 20
4.6689410273
 11
12.7241679548
 21
4.6089410273
  0
LINE
  5
2E2
100
AcDbEntity
  8
0
100
AcDbLine
 62
7
  6
CONTINUOUS
 10
12.7441679548
 20
4.6689410273
 11
12.7441679548
 21
4.6089410273
  0
LINE
  5
2E3
100
AcDbEntity
  8
0
100
AcDbLine
 62
7
  6
CONTINUOUS
 10
12.7565208521
 20
4.6689410273
 11
12.7565208521
 21
4.6089410273
  0
LINE
  5
2E4
100
AcDbEntity
  8
0
100
AcDbLine
 62
7
  6
CONTINUOUS
 10
12.7754467237
 20
4.6689410273
 11
12.7754467237
 21
4.6089410273
  0
LINE
  5
2E5
100
AcDbEntity
  8
0
100
AcDbLine
 62
7
  6
CONTINUOUS
 10
12.7964660335
 20
4.6689410273
 11
12.7964660335
 21
4.6089410273
  0
LINE
  5
2E6
100
AcDbEntity
  8
0
100
AcDbLine
 62
7
  6
CONTINUOUS
 10
12.8087850724
 20
4.6689410273
 11
12.8087850724
 21
4.6089410273
  0
LINE
  5
2E7
100
AcDbEntity
  8
0
100
AcDbLine
 62
7
  6
CONTINUOUS
 10
12.8265849411
 20
4.6689410273
 11
12.8265849411
 21
4.6089410273
  0
LINE
  5
2E8
100
AcDbEntity
  8
0
100
AcDbLine
 62
7
  6
CONTINUOUS
 10
12.8485659482
 20
4.6689410273
 11
12.8485659482
 21
4.6089410273
  0
LINE
  5
2E9
100
AcDbEntity
  8
0
100
AcDbLine
 62
7
  6
CONTINUOUS
 10
12.860817363
 20
4.6689410273
 11
12.860817363
 21
4.6089410273
  0
LINE
  5
2EA
100
AcDbEntity
  8
0
100
AcDbLine
 62
7
  6
CONTINUOUS
 10
12.8774424406
 20
4.6689410273
 11
12.8774424406
 21
4.6089410273
  0
LINE
  5
2EB
100
AcDbEntity
  8
0
100
AcDbLine
 62
7
  6
CONTINUOUS
 10
12.8951679548
 20
6.5508766456
 11
12.8951679548
 21
6.7479410273
  0
LINE
  5
2EC
100
AcDbEntity
  8
0
100
AcDbLine
 62
7
  6
CONTINUOUS
 10
12.9003248967
 20
4.6689410273
 11
12.9003248967
 21
4.6089410273
  0
LINE
  5
2ED
100
AcDbEntity
  8
0
100
AcDbLine
 62
7
  6
CONTINUOUS
 10
12.9124751071
 20
4.6689410273
 11
12.9124751071
 21
4.6089410273
  0
LINE
  5
2EE
100
AcDbEntity
  8
0
100
AcDbLine
 62
7
  6
CONTINUOUS
 10
12.9278798253
 20
4.6689410273
 11
12.9278798253
 21
4.6089410273
  0
LINE
  5
2EF
100
AcDbEntity
  8
0
100
AcDbLine
 62
7
  6
CONTINUOUS
 10
12.9516010112
 20
4.6689410273
 11
12.9516010112
 21
4.6089410273
  0
LINE
  5
2F0
100
AcDbEntity
  8
0
100
AcDbLine
 62
7
  6
CONTINUOUS
 10
12.9581679548
 20
6.8499410273
 11
12.9581679548
 21
8.6479410273
  0
LINE
  5
2F1
100
AcDbEntity
  8
0
100
AcDbLine
 62
7
  6
CONTINUOUS
 10
12.9636167144
 20
4.6689410273
 11
12.9636167144
 21
4.6089410273
  0
LINE
  5
2F2
100
AcDbEntity
  8
0
100
AcDbLine
 62
7
  6
CONTINUOUS
 10
12.9741679548
 20
7.4489410273
 11
12.9741679548
 21
8.6479410273
  0
LINE
  5
2F3
100
AcDbEntity
  8
0
100
AcDbLine
 62
7
  6
CONTINUOUS
 10
12.9741679548
 20
8.7479410273
 11
12.9741679548
 21
11.2959410273
  0
LINE
  5
2F4
100
AcDbEntity
  8
0
100
AcDbLine
 62
7
  6
CONTINUOUS
 10
12.9777588501
 20
4.6689410273
 11
12.9777588501
 21
4.6089410273
  0
LINE
  5
2F5
100
AcDbEntity
  8
0
100
AcDbLine
 62
7
  6
CONTINUOUS
 10
13.0022537475
 20
4.6689410273
 11
13.0022537475
 21
4.6089410273
  0
LINE
  5
2F6
100
AcDbEntity
  8
0
100
AcDbLine
 62
7
  6
CONTINUOUS
 10
13.0141020093
 20
4.6689410273
 11
13.0141020093
 21
4.6089410273
  0
LINE
  5
2F7
100
AcDbEntity
  8
0
100
AcDbLine
 62
7
  6
CONTINUOUS
 10
12.3478271312
 20
5.8533960318
 11
12.3514537747
 21
5.8739637488
  0
LINE
  5
2F8
100
AcDbEntity
  8
0
100
AcDbLine
 62
7
  6
CONTINUOUS
 10
12.4631906763
 20
6.5076552075
 11
12.4668173197
 21
6.5282229244
  0
LINE
  5
2F9
100
AcDbEntity
  8
0
100
AcDbLine
 62
9
  6
CONTINUOUS
 10
12.4741679548
 20
11.2959410273
 11
12.9741679548
 21
11.2959410273
  0
LINE
  5
2FA
100
AcDbEntity
  8
0
100
AcDbLine
 62
9
  6
CONTINUOUS
 10
8.5947827133
 20
11.979981314
 11
8.1249364029
 21
12.1509913856
  0
LINE
  5
2FB
100
AcDbEntity
  8
0
100
AcDbLine
 62
7
  6
CONTINUOUS
 10
13.0269427997
 20
4.6689410273
 11
13.0269427997
 21
4.6089410273
  0
LINE
  5
2FC
100
AcDbEntity
  8
0
100
AcDbLine
 62
7
  6
CONTINUOUS
 10
13.0459015403
 20
6.4775596199
 11
13.0459015403
 21
6.4566746127
  0
LINE
  5
2FD
100
AcDbEntity
  8
0
100
AcDbLine
 62
7
  6
CONTINUOUS
 10
13.0459015403
 20
5.8132074419
 11
13.0459015403
 21
5.7923224347
  0
LINE
  5
2FE
100
AcDbEntity
  8
0
100
AcDbLine
 62
7
  6
CONTINUOUS
 10
13.05214427
 20
4.6689410273
 11
13.05214427
 21
4.6089410273
  0
LINE
  5
2FF
100
AcDbEntity
  8
0
100
AcDbLine
 62
7
  6
CONTINUOUS
 10
13.0637926151
 20
4.6689410273
 11
13.0637926151
 21
4.6089410273
  0
LINE
  5
300
100
AcDbEntity
  8
0
100
AcDbLine
 62
7
  6
CONTINUOUS
 10
13.0752968646
 20
4.6689410273
 11
13.0752968646
 21
4.6089410273
  0
LINE
  5
301
100
AcDbEntity
  8
0
100
AcDbLine
 62
7
  6
CONTINUOUS
 10
13.1011358322
 20
4.6689410273
 11
13.1011358322
 21
4.6089410273
  0
LINE
  5
302
100
AcDbEntity
  8
0
100
AcDbLine
 62
7
  6
CONTINUOUS
 10
13.1125523333
 20
4.6689410273
 11
13.1125523333
 21
4.6089410273
  0
LINE
  5
303
100
AcDbEntity
  8
0
100
AcDbLine
 62
7
  6
CONTINUOUS
 10
13.1226885096
 20
4.6689410273
 11
13.1226885096
 21
4.6089410273
  0
LINE
  5
304
100
AcDbEntity
  8
0
100
AcDbLine
 62
7
  6
CONTINUOUS
 10
13.1490941516
 20
4.6689410273
 11
13.1490941516
 21
4.6089410273
  0
LINE
  5
305
100
AcDbEntity
  8
0
100
AcDbLine
 62
7
  6
CONTINUOUS
 10
13.1602475169
 20
4.6689410273
 11
13.1602475169
 21
4.6089410273
  0
LINE
  5
306
100
AcDbEntity
  8
0
100
AcDbLine
 62
7
  6
CONTINUOUS
 10
13.1689878374
 20
4.6689410273
 11
13.1689878374
 21
4.6089410273
  0
LINE
  5
307
100
AcDbEntity
  8
0
100
AcDbLine
 62
7
  6
CONTINUOUS
 10
13.1958877779
 20
4.6689410273
 11
13.1958877779
 21
4.6089410273
  0
LINE
  5
308
100
AcDbEntity
  8
0
100
AcDbLine
 62
7
  6
CONTINUOUS
 10
13.2067474368
 20
4.6689410273
 11
13.2067474368
 21
4.6089410273
  0
LINE
  5
309
100
AcDbEntity
  8
0
100
AcDbLine
 62
7
  6
CONTINUOUS
 10
13.2140679448
 20
4.6689410273
 11
13.2140679448
 21
4.6089410273
  0
LINE
  5
30A
100
AcDbEntity
  8
0
100
AcDbLine
 62
7
  6
CONTINUOUS
 10
13.2413884529
 20
4.6689410273
 11
13.2413884529
 21
4.6089410273
  0
LINE
  5
30B
100
AcDbEntity
  8
0
100
AcDbLine
 62
7
  6
CONTINUOUS
 10
13.2519246398
 20
4.6689410273
 11
13.2519246398
 21
4.6089410273
  0
LINE
  5
30C
100
AcDbEntity
  8
0
100
AcDbLine
 62
7
  6
CONTINUOUS
 10
13.2578052704
 20
4.6689410273
 11
13.2578052704
 21
4.6089410273
  0
LINE
  5
30D
100
AcDbEntity
  8
0
100
AcDbLine
 62
7
  6
CONTINUOUS
 10
13.2854714625
 20
4.6689410273
 11
13.2854714625
 21
4.6089410273
  0
LINE
  5
30E
100
AcDbEntity
  8
0
100
AcDbLine
 62
7
  6
CONTINUOUS
 10
13.2956552984
 20
4.6689410273
 11
13.2956552984
 21
4.6089410273
  0
LINE
  5
30F
100
AcDbEntity
  8
0
100
AcDbLine
 62
7
  6
CONTINUOUS
 10
13.3000799333
 20
4.6689410273
 11
13.3000799333
 21
4.6089410273
  0
LINE
  5
310
100
AcDbEntity
  8
0
100
AcDbLine
 62
7
  6
CONTINUOUS
 10
13.3280159782
 20
4.6689410273
 11
13.3280159782
 21
4.6089410273
  0
LINE
  5
311
100
AcDbEntity
  8
0
100
AcDbLine
 62
7
  6
CONTINUOUS
 10
13.33781955
 20
4.6689410273
 11
13.33781955
 21
4.6089410273
  0
LINE
  5
312
100
AcDbEntity
  8
0
100
AcDbLine
 62
7
  6
CONTINUOUS
 10
13.3407760614
 20
4.6689410273
 11
13.3407760614
 21
4.6089410273
  0
LINE
  5
313
100
AcDbEntity
  8
0
100
AcDbLine
 62
7
  6
CONTINUOUS
 10
13.3689053884
 20
4.6689410273
 11
13.3689053884
 21
4.6089410273
  0
LINE
  5
314
100
AcDbEntity
  8
0
100
AcDbLine
 62
7
  6
CONTINUOUS
 10
13.3783018252
 20
4.6689410273
 11
13.3783018252
 21
4.6089410273
  0
LINE
  5
315
100
AcDbEntity
  8
0
100
AcDbLine
 62
7
  6
CONTINUOUS
 10
13.3797821096
 20
4.6689410273
 11
13.3797821096
 21
4.6089410273
  0
LINE
  5
316
100
AcDbEntity
  8
0
100
AcDbLine
 62
7
  6
CONTINUOUS
 10
13.0745384248
 20
6.4482149231
 11
13.0727181765
 21
6.4274093897
  0
LINE
  5
317
100
AcDbEntity
  8
0
100
AcDbLine
 62
7
  6
CONTINUOUS
 10
13.0166363172
 20
5.7863908057
 11
13.0148160689
 21
5.7655852723
  0
LINE
  5
318
100
AcDbEntity
  8
0
100
AcDbLine
 62
7
  6
CONTINUOUS
 10
12.3247209585
 20
5.8872676595
 11
12.3301263961
 21
5.9074410273
  0
LINE
  5
319
100
AcDbEntity
  8
0
100
AcDbLine
 62
7
  6
CONTINUOUS
 10
12.4966679548
 20
6.528982586
 11
12.5020733924
 21
6.5491559538
  0
LINE
  5
31A
100
AcDbEntity
  8
0
100
AcDbLine
 62
7
  6
CONTINUOUS
 10
12.3046548186
 20
5.9230242311
 11
12.3117979117
 21
5.9426497182
  0
LINE
  5
31B
100
AcDbEntity
  8
0
100
AcDbLine
 62
7
  6
CONTINUOUS
 10
12.5318766457
 20
6.5473110704
 11
12.5390197389
 21
6.5669365575
  0
LINE
  5
31C
100
AcDbEntity
  8
0
100
AcDbLine
 62
7
  6
CONTINUOUS
 10
13.4080276182
 20
4.6689410273
 11
13.4080276182
 21
4.6089410273
  0
LINE
  5
31D
100
AcDbEntity
  8
0
100
AcDbLine
 62
7
  6
CONTINUOUS
 10
13.4169911649
 20
4.6689410273
 11
13.4169911649
 21
4.6089410273
  0
LINE
  5
31E
100
AcDbEntity
  8
0
100
AcDbLine
 62
7
  6
CONTINUOUS
 10
13.4452754361
 20
4.6689410273
 11
13.4452754361
 21
4.6089410273
  0
LINE
  5
31F
100
AcDbEntity
  8
0
100
AcDbLine
 62
7
  6
CONTINUOUS
 10
13.4537815244
 20
4.6689410273
 11
13.4537815244
 21
4.6089410273
  0
LINE
  5
320
100
AcDbEntity
  8
0
100
AcDbLine
 62
7
  6
CONTINUOUS
 10
13.4805467486
 20
4.6689410273
 11
13.4805467486
 21
4.6089410273
  0
LINE
  5
321
100
AcDbEntity
  8
0
100
AcDbLine
 62
7
  6
CONTINUOUS
 10
13.4885720637
 20
4.6689410273
 11
13.4885720637
 21
4.6089410273
  0
LINE
  5
322
100
AcDbEntity
  8
0
100
AcDbLine
 62
7
  6
CONTINUOUS
 10
13.5137448794
 20
4.6689410273
 11
13.5137448794
 21
4.6089410273
  0
LINE
  5
323
100
AcDbEntity
  8
0
100
AcDbLine
 62
7
  6
CONTINUOUS
 10
13.5212674246
 20
4.6689410273
 11
13.5212674246
 21
4.6089410273
  0
LINE
  5
324
100
AcDbEntity
  8
0
100
AcDbLine
 62
7
  6
CONTINUOUS
 10
13.5291679548
 20
4.7239410273
 11
13.5291679548
 21
7.0639410273
  0
LINE
  5
325
100
AcDbEntity
  8
0
100
AcDbLine
 62
7
  6
CONTINUOUS
 10
13.5447788347
 20
4.6689410273
 11
13.5447788347
 21
4.6089410273
  0
LINE
  5
326
100
AcDbEntity
  8
0
100
AcDbLine
 62
7
  6
CONTINUOUS
 10
13.5517779912
 20
4.6689410273
 11
13.5517779912
 21
4.6089410273
  0
LINE
  5
327
100
AcDbEntity
  8
0
100
AcDbLine
 62
7
  6
CONTINUOUS
 10
13.5735635526
 20
4.6689410273
 11
13.5735635526
 21
4.6089410273
  0
LINE
  5
328
100
AcDbEntity
  8
0
100
AcDbLine
 62
7
  6
CONTINUOUS
 10
13.5800201362
 20
4.6689410273
 11
13.5800201362
 21
4.6089410273
  0
LINE
  5
329
100
AcDbEntity
  8
0
100
AcDbLine
 62
7
  6
CONTINUOUS
 10
13.5891679548
 20
7.0989410273
 11
13.5891679548
 21
7.1289410273
  0
LINE
  5
32A
100
AcDbEntity
  8
0
100
AcDbLine
 62
7
  6
CONTINUOUS
 10
13.5891679548
 20
7.3539410273
 11
13.5891679548
 21
7.3839410273
  0
LINE
  5
32B
100
AcDbEntity
  8
0
100
AcDbLine
 62
7
  6
CONTINUOUS
 10
13.6000201362
 20
4.6689410273
 11
13.6000201362
 21
4.6089410273
  0
LINE
  5
32C
100
AcDbEntity
  8
0
100
AcDbLine
 62
7
  6
CONTINUOUS
 10
13.6059164499
 20
4.6689410273
 11
13.6059164499
 21
4.6089410273
  0
LINE
  5
32D
100
AcDbEntity
  8
0
100
AcDbLine
 62
7
  6
CONTINUOUS
 10
13.6240760699
 20
4.6689410273
 11
13.6240760699
 21
4.6089410273
  0
LINE
  5
32E
100
AcDbEntity
  8
0
100
AcDbLine
 62
7
  6
CONTINUOUS
 10
13.6293959523
 20
4.6689410273
 11
13.6293959523
 21
4.6089410273
  0
LINE
  5
32F
100
AcDbEntity
  8
0
100
AcDbLine
 62
7
  6
CONTINUOUS
 10
13.6391679548
 20
7.1289410273
 11
13.6391679548
 21
7.3539410273
  0
LINE
  5
330
100
AcDbEntity
  8
0
100
AcDbLine
 62
7
  6
CONTINUOUS
 10
13.645665418
 20
4.6689410273
 11
13.645665418
 21
4.6089410273
  0
LINE
  5
331
100
AcDbEntity
  8
0
100
AcDbLine
 62
7
  6
CONTINUOUS
 10
13.6503942876
 20
4.6689410273
 11
13.6503942876
 21
4.6089410273
  0
LINE
  5
332
100
AcDbEntity
  8
0
100
AcDbLine
 62
7
  6
CONTINUOUS
 10
13.6647290056
 20
4.6689410273
 11
13.6647290056
 21
4.6089410273
  0
LINE
  5
333
100
AcDbEntity
  8
0
100
AcDbLine
 62
7
  6
CONTINUOUS
 10
13.6688539009
 20
4.6689410273
 11
13.6688539009
 21
4.6089410273
  0
LINE
  5
334
100
AcDbEntity
  8
0
100
AcDbLine
 62
7
  6
CONTINUOUS
 10
13.6761679548
 20
4.6089410273
 11
13.6761679548
 21
4.3519410273
  0
LINE
  5
335
100
AcDbEntity
  8
0
100
AcDbLine
 62
7
  6
CONTINUOUS
 10
13.6812145807
 20
4.6689410273
 11
13.6812145807
 21
4.6089410273
  0
LINE
  5
336
100
AcDbEntity
  8
0
100
AcDbLine
 62
7
  6
CONTINUOUS
 10
13.6847241957
 20
4.6689410273
 11
13.6847241957
 21
4.6089410273
  0
LINE
  5
337
100
AcDbEntity
  8
0
100
AcDbLine
 62
7
  6
CONTINUOUS
 10
13.6950769575
 20
4.6689410273
 11
13.6950769575
 21
4.6089410273
  0
LINE
  5
338
100
AcDbEntity
  8
0
100
AcDbLine
 62
7
  6
CONTINUOUS
 10
13.6979616727
 20
4.6689410273
 11
13.6979616727
 21
4.6089410273
  0
LINE
  5
339
100
AcDbEntity
  8
0
100
AcDbLine
 62
7
  6
CONTINUOUS
 10
13.7062781403
 20
4.6689410273
 11
13.7062781403
 21
4.6089410273
  0
LINE
  5
33A
100
AcDbEntity
  8
0
100
AcDbLine
 62
7
  6
CONTINUOUS
 10
13.7085300487
 20
4.6689410273
 11
13.7085300487
 21
4.6089410273
  0
LINE
  5
33B
100
AcDbEntity
  8
0
100
AcDbLine
 62
7
  6
CONTINUOUS
 10
13.7147874273
 20
4.6689410273
 11
13.7147874273
 21
4.6089410273
  0
LINE
  5
33C
100
AcDbEntity
  8
0
100
AcDbLine
 62
7
  6
CONTINUOUS
 10
13.7164003567
 20
4.6689410273
 11
13.7164003567
 21
4.6089410273
  0
LINE
  5
33D
100
AcDbEntity
  8
0
100
AcDbLine
 62
7
  6
CONTINUOUS
 10
13.7205814952
 20
4.6689410273
 11
13.7205814952
 21
4.6089410273
  0
LINE
  5
33E
100
AcDbEntity
  8
0
100
AcDbLine
 62
7
  6
CONTINUOUS
 10
13.7215510246
 20
4.6689410273
 11
13.7215510246
 21
4.6089410273
  0
LINE
  5
33F
100
AcDbEntity
  8
0
100
AcDbLine
 62
7
  6
CONTINUOUS
 10
13.7236444628
 20
4.6689410273
 11
13.7236444628
 21
4.6089410273
  0
LINE
  5
340
100
AcDbEntity
  8
0
100
AcDbLine
 62
7
  6
CONTINUOUS
 10
13.7239679348
 20
4.6689410273
 11
13.7239679348
 21
4.6089410273
  0
LINE
  5
341
100
AcDbEntity
  8
0
100
AcDbLine
 62
7
  6
CONTINUOUS
 10
13.7241679548
 20
4.3039410273
 11
13.7241679548
 21
4.2239410273
  0
LINE
  5
342
100
AcDbEntity
  8
0
100
AcDbLine
 62
7
  6
CONTINUOUS
 10
13.1005087784
 20
6.4164860228
 11
13.096882135
 21
6.3959183058
  0
LINE
  5
343
100
AcDbEntity
  8
0
100
AcDbLine
 62
7
  6
CONTINUOUS
 10
12.9851452334
 20
5.7622268472
 11
12.9815185899
 21
5.7416591302
  0
LINE
  5
344
100
AcDbEntity
  8
0
100
AcDbLine
 62
7
  6
CONTINUOUS
 10
13.1236149512
 20
6.3826143951
 11
13.1182095136
 21
6.3624410273
  0
LINE
  5
345
100
AcDbEntity
  8
0
100
AcDbLine
 62
7
  6
CONTINUOUS
 10
12.9516679548
 20
5.7408994686
 11
12.9462625172
 21
5.7207261008
  0
LINE
  5
346
100
AcDbEntity
  8
0
100
AcDbLine
 62
7
  6
CONTINUOUS
 10
12.287781427
 20
5.9603936175
 11
12.2966078124
 21
5.9793218621
  0
LINE
  5
347
100
AcDbEntity
  8
0
100
AcDbLine
 62
7
  6
CONTINUOUS
 10
12.2742292003
 20
5.999091415
 11
12.2846717039
 21
6.0171783618
  0
LINE
  5
348
100
AcDbEntity
  8
0
100
AcDbLine
 62
7
  6
CONTINUOUS
 10
12.2641012792
 20
6.0388231102
 11
12.2760804272
 21
6.0559311065
  0
LINE
  5
349
100
AcDbEntity
  8
0
100
AcDbLine
 62
7
  6
CONTINUOUS
 10
13.1436810911
 20
6.3468578235
 11
13.1365379979
 21
6.3272323364
  0
LINE
  5
34A
100
AcDbEntity
  8
0
100
AcDbLine
 62
7
  6
CONTINUOUS
 10
12.9164592639
 20
5.7225709842
 11
12.9093161708
 21
5.7029454971
  0
LINE
  5
34B
100
AcDbEntity
  8
0
100
AcDbLine
 62
7
  6
CONTINUOUS
 10
13.1605544827
 20
6.3094884371
 11
13.1517280973
 21
6.2905601925
  0
LINE
  5
34C
100
AcDbEntity
  8
0
100
AcDbLine
 62
7
  6
CONTINUOUS
 10
12.87978712
 20
5.7073808849
 11
12.8709607346
 21
5.6884526402
  0
LINE
  5
34D
100
AcDbEntity
  8
0
100
AcDbLine
 62
7
  6
CONTINUOUS
 10
12.2574747434
 20
6.0792863207
 11
12.2708993672
 21
6.0952851644
  0
LINE
  5
34E
100
AcDbEntity
  8
0
100
AcDbLine
 62
7
  6
CONTINUOUS
 10
12.2544000246
 20
6.1201730971
 11
12.2691679548
 21
6.1349410273
  0
LINE
  5
34F
100
AcDbEntity
  8
0
100
AcDbLine
 62
7
  6
CONTINUOUS
 10
13.5541679548
 20
7.0639410273
 11
13.5891679548
 21
7.0989410273
  0
LINE
  5
350
100
AcDbEntity
  8
0
100
AcDbLine
 62
7
  6
CONTINUOUS
 10
12.2549005235
 20
6.1611722664
 11
12.2708993672
 21
6.1745968903
  0
LINE
  5
351
100
AcDbEntity
  8
0
100
AcDbLine
 62
7
  6
CONTINUOUS
 10
12.2589724309
 20
6.2019718002
 11
12.2760804272
 21
6.2139509481
  0
LINE
  5
352
100
AcDbEntity
  8
0
100
AcDbLine
 62
7
  6
CONTINUOUS
 10
12.2665847571
 20
6.2422611892
 11
12.2846717039
 21
6.2527036928
  0
LINE
  5
353
100
AcDbEntity
  8
0
100
AcDbLine
 62
7
  6
CONTINUOUS
 10
12.2776795678
 20
6.2817338071
 11
12.2966078124
 21
6.2905601925
  0
LINE
  5
354
100
AcDbEntity
  8
0
100
AcDbLine
 62
7
  6
CONTINUOUS
 10
12.8951679548
 20
6.5696733708
 11
12.8987153647
 21
6.5713275552
  0
LINE
  5
355
100
AcDbEntity
  8
0
100
AcDbLine
 62
7
  6
CONTINUOUS
 10
12.2921724246
 20
6.3200892433
 11
12.3117979117
 21
6.3272323364
  0
LINE
  5
356
100
AcDbEntity
  8
0
100
AcDbLine
 62
7
  6
CONTINUOUS
 10
12.9164592639
 20
6.5473110704
 11
12.936084751
 21
6.5544541636
  0
LINE
  5
357
100
AcDbEntity
  8
0
100
AcDbLine
 62
7
  6
CONTINUOUS
 10
13.1741067094
 20
6.2707906396
 11
13.1636642058
 21
6.2527036928
  0
LINE
  5
358
100
AcDbEntity
  8
0
100
AcDbLine
 62
7
  6
CONTINUOUS
 10
12.8419306204
 20
5.6954447763
 11
12.8314881168
 21
5.6773578296
  0
LINE
  5
359
100
AcDbEntity
  8
0
100
AcDbLine
 62
7
  6
CONTINUOUS
 10
13.1842346304
 20
6.2310589445
 11
13.1722554825
 21
6.2139509481
  0
LINE
  5
35A
100
AcDbEntity
  8
0
100
AcDbLine
 62
7
  6
CONTINUOUS
 10
12.8031778757
 20
5.6868534997
 11
12.7911987277
 21
5.6697455034
  0
LINE
  5
35B
100
AcDbEntity
  8
0
100
AcDbLine
 62
7
  6
CONTINUOUS
 10
13.1908611663
 20
6.1905957339
 11
13.1774365425
 21
6.1745968903
  0
LINE
  5
35C
100
AcDbEntity
  8
0
100
AcDbLine
 62
7
  6
CONTINUOUS
 10
12.7638238178
 20
5.6816724397
 11
12.750399194
 21
5.665673596
  0
LINE
  5
35D
100
AcDbEntity
  8
0
100
AcDbLine
 62
7
  6
CONTINUOUS
 10
13.193935885
 20
6.1497089575
 11
13.1791679548
 21
6.1349410273
  0
LINE
  5
35E
100
AcDbEntity
  8
0
100
AcDbLine
 62
7
  6
CONTINUOUS
 10
12.7241679548
 20
5.6799410273
 11
12.7094000246
 21
5.6651730971
  0
LINE
  5
35F
100
AcDbEntity
  8
0
100
AcDbLine
 62
7
  6
CONTINUOUS
 10
13.1934353862
 20
6.1087097882
 11
13.1774365425
 21
6.0952851644
  0
LINE
  5
360
100
AcDbEntity
  8
0
100
AcDbLine
 62
7
  6
CONTINUOUS
 10
12.6845120919
 20
5.6816724397
 11
12.6685132482
 21
5.6682478158
  0
LINE
  5
361
100
AcDbEntity
  8
0
100
AcDbLine
 62
7
  6
CONTINUOUS
 10
13.1817511526
 20
6.0276208654
 11
13.1636642058
 21
6.0171783618
  0
LINE
  5
362
100
AcDbEntity
  8
0
100
AcDbLine
 62
7
  6
CONTINUOUS
 10
12.6064052893
 20
5.6954447763
 11
12.5883183425
 21
5.6850022728
  0
LINE
  5
363
100
AcDbEntity
  8
0
100
AcDbLine
 62
7
  6
CONTINUOUS
 10
13.1706563419
 20
5.9881482475
 11
13.1517280973
 21
5.9793218621
  0
LINE
  5
364
100
AcDbEntity
  8
0
100
AcDbLine
 62
7
  6
CONTINUOUS
 10
12.5685487896
 20
5.7073808849
 11
12.549620545
 21
5.6985544994
  0
LINE
  5
365
100
AcDbEntity
  8
0
100
AcDbLine
 62
7
  6
CONTINUOUS
 10
13.1561634851
 20
5.9497928114
 11
13.1365379979
 21
5.9426497182
  0
LINE
  5
366
100
AcDbEntity
  8
0
100
AcDbLine
 62
7
  6
CONTINUOUS
 10
12.5318766457
 20
5.7225709842
 11
12.5122511586
 21
5.7154278911
  0
LINE
  5
367
100
AcDbEntity
  8
0
100
AcDbLine
 62
7
  6
CONTINUOUS
 10
11.7721679548
 20
4.3519410273
 11
11.7241679548
 21
4.3039410273
  0
LINE
  5
368
100
AcDbEntity
  8
0
100
AcDbLine
 62
7
  6
CONTINUOUS
 10
13.1893634788
 20
6.0679102545
 11
13.1722554825
 21
6.0559311065
  0
LINE
  5
369
100
AcDbEntity
  8
0
100
AcDbLine
 62
7
  6
CONTINUOUS
 10
12.645158034
 20
5.6868534997
 11
12.6280500377
 21
5.6748743517
  0
ARC
  5
36A
100
AcDbEntity
  8
0
100
AcDbCircle
 62
7
  6
CONTINUOUS
 10
7.072093413
 20
11.5284508604
 40
0.743
100
AcDbArc
 50
340.0000000876
 51
346.8896325181
  0
ARC
  5
36B
100
AcDbEntity
  8
0
100
AcDbCircle
 62
7
  6
CONTINUOUS
 10
9.0011458989
 20
10.8263331752
 40
0.743
100
AcDbArc
 50
153.1103674819
 51
159.9999999124
  0
ARC
  5
36C
100
AcDbEntity
  8
0
100
AcDbCircle
 62
7
  6
CONTINUOUS
 10
7.6213927164
 20
11.4005201276
 40
0.1790000008
100
AcDbArc
 50
346.8896325181
 51
16.9053801535
  0
ARC
  5
36D
100
AcDbEntity
  8
0
100
AcDbCircle
 62
7
  6
CONTINUOUS
 10
8.4981259301
 20
11.0814153344
 40
0.1790000008
100
AcDbArc
 50
123.0946198465
 51
153.1103674819
  0
ARC
  5
36E
100
AcDbEntity
  8
0
100
AcDbCircle
 62
7
  6
CONTINUOUS
 10
7.6377378183
 20
11.3002263451
 40
0.1330000004
100
AcDbArc
 50
306.446446623
 51
337.7589061849
  0
ARC
  5
36F
100
AcDbEntity
  8
0
100
AcDbCircle
 62
7
  6
CONTINUOUS
 10
8.4211372549
 20
11.0150922687
 40
0.1330000004
100
AcDbArc
 50
162.2410938151
 51
193.553553377
  0
ARC
  5
370
100
AcDbEntity
  8
0
100
AcDbCircle
 62
7
  6
CONTINUOUS
 10
7.7538618032
 20
11.1899483889
 40
0.08
100
AcDbArc
 50
238.9602859501
 51
250.0
  0
ARC
  5
371
100
AcDbEntity
  8
0
100
AcDbCircle
 62
7
  6
CONTINUOUS
 10
8.2612958176
 20
11.0052575118
 40
0.08
100
AcDbArc
 50
250.0
 51
261.0397140499
  0
ARC
  5
372
100
AcDbEntity
  8
0
100
AcDbCircle
 62
7
  6
CONTINUOUS
 10
7.847580354
 20
11.4866970369
 40
0.0629999962
100
AcDbArc
 50
150.1569580478
 51
198.8372465634
  0
ARC
  5
373
100
AcDbEntity
  8
0
100
AcDbCircle
 62
7
  6
CONTINUOUS
 10
8.3802495967
 20
11.2928212879
 40
0.0629999962
100
AcDbArc
 50
301.1627534366
 51
349.8430419521
  0
ARC
  5
374
100
AcDbEntity
  8
0
100
AcDbCircle
 62
7
  6
CONTINUOUS
 10
7.7494232005
 20
11.1489967973
 40
0.0549999988
100
AcDbArc
 50
126.446446623
 51
149.5892732909
  0
ARC
  5
375
100
AcDbEntity
  8
0
100
AcDbCircle
 62
7
  6
CONTINUOUS
 10
8.2383728089
 20
10.9710336938
 40
0.0549999988
100
AcDbArc
 50
350.4107267091
 51
13.553553377
  0
ARC
  5
376
100
AcDbEntity
  8
0
100
AcDbCircle
 62
7
  6
CONTINUOUS
 10
7.8343021511
 20
11.4884372506
 40
0.052
100
AcDbArc
 50
70.0
 51
122.3414746971
  0
ARC
  5
377
100
AcDbEntity
  8
0
100
AcDbCircle
 62
7
  6
CONTINUOUS
 10
8.391539878
 20
11.2856193046
 40
0.052
100
AcDbArc
 50
17.6585253029
 51
70.0
  0
ARC
  5
378
100
AcDbEntity
  8
0
100
AcDbCircle
 62
7
  6
CONTINUOUS
 10
7.740799024
 20
11.1540587422
 40
0.0450000005
100
AcDbArc
 50
149.5892732909
 51
201.4097613307
  0
ARC
  5
379
100
AcDbEntity
  8
0
100
AcDbCircle
 62
7
  6
CONTINUOUS
 10
8.2482330669
 20
10.9693678548
 40
0.0450000005
100
AcDbArc
 50
298.5902386693
 51
350.4107267091
  0
ARC
  5
37A
100
AcDbEntity
  8
0
100
AcDbCircle
 62
7
  6
CONTINUOUS
 10
7.8278825825
 20
11.498575748
 40
0.0400000021
100
AcDbArc
 50
122.3414746971
 51
149.438765149
  0
ARC
  5
37B
100
AcDbEntity
  8
0
100
AcDbCircle
 62
7
  6
CONTINUOUS
 10
8.4029744535
 20
11.289259425
 40
0.0400000021
100
AcDbArc
 50
350.561234851
 51
17.6585253029
  0
ARC
  5
37C
100
AcDbEntity
  8
0
100
AcDbCircle
 62
7
  6
CONTINUOUS
 10
7.729627096
 20
11.1496783157
 40
0.0329999994
100
AcDbArc
 50
201.4097613307
 51
238.9602859501
  0
ARC
  5
37D
100
AcDbEntity
  8
0
100
AcDbCircle
 62
7
  6
CONTINUOUS
 10
8.2539755763
 20
10.9588310765
 40
0.0329999994
100
AcDbArc
 50
261.0397140499
 51
298.5902386693
  0
ARC
  5
37E
100
AcDbEntity
  8
0
100
AcDbCircle
 62
7
  6
CONTINUOUS
 10
11.8071679548
 20
4.7239410273
 40
0.055
100
AcDbArc
 50
272.370112479
 51
360.0
  0
ARC
  5
37F
100
AcDbEntity
  8
0
100
AcDbCircle
 62
7
  6
CONTINUOUS
 10
11.8591679548
 20
7.4489410273
 40
0.065
100
AcDbArc
 50
270.0
 51
360.0
  0
ARC
  5
380
100
AcDbEntity
  8
0
100
AcDbCircle
 62
7
  6
CONTINUOUS
 10
12.4741679548
 20
6.7989410273
 40
0.051
100
AcDbArc
 50
90.0
 51
270.0
  0
ARC
  5
381
100
AcDbEntity
  8
0
100
AcDbCircle
 62
7
  6
CONTINUOUS
 10
13.6411679548
 20
4.7239410273
 40
0.055
100
AcDbArc
 50
180.0
 51
267.629887521
  0
ARC
  5
382
100
AcDbEntity
  8
0
100
AcDbCircle
 62
7
  6
CONTINUOUS
 10
12.7241679548
 20
6.1349410273
 40
0.595
100
AcDbArc
 50
106.7110302978
 51
73.2889697022
  0
ARC
  5
383
100
AcDbEntity
  8
0
100
AcDbCircle
 62
7
  6
CONTINUOUS
 10
12.7241679548
 20
6.1349410273
 40
0.55
100
AcDbArc
 50
108.1239073207
 51
71.8760926793
  0
ARC
  5
384
100
AcDbEntity
  8
0
100
AcDbCircle
 62
7
  6
CONTINUOUS
 10
12.7241679548
 20
6.1349410273
 40
0.47
100
AcDbArc
 50
181.8005943929
 51
183.1994056071
  0
ARC
  5
385
100
AcDbEntity
  8
0
100
AcDbCircle
 62
7
  6
CONTINUOUS
 10
12.7241679548
 20
6.1349410273
 40
0.47
100
AcDbArc
 50
186.8005943929
 51
188.1994056071
  0
ARC
  5
386
100
AcDbEntity
  8
0
100
AcDbCircle
 62
7
  6
CONTINUOUS
 10
12.7241679548
 20
6.1349410273
 40
0.47
100
AcDbArc
 50
191.8005943929
 51
193.1994056071
  0
ARC
  5
387
100
AcDbEntity
  8
0
100
AcDbCircle
 62
7
  6
CONTINUOUS
 10
12.7241679548
 20
6.1349410273
 40
0.47
100
AcDbArc
 50
196.8005943929
 51
198.1994056071
  0
ARC
  5
388
100
AcDbEntity
  8
0
100
AcDbCircle
 62
7
  6
CONTINUOUS
 10
12.7241679548
 20
6.1349410273
 40
0.47
100
AcDbArc
 50
201.8005943929
 51
203.1994056071
  0
ARC
  5
389
100
AcDbEntity
  8
0
100
AcDbCircle
 62
7
  6
CONTINUOUS
 10
12.7241679548
 20
6.1349410273
 40
0.47
100
AcDbArc
 50
206.8005943929
 51
208.1994056071
  0
ARC
  5
38A
100
AcDbEntity
  8
0
100
AcDbCircle
 62
7
  6
CONTINUOUS
 10
12.7241679548
 20
6.1349410273
 40
0.47
100
AcDbArc
 50
211.8005943929
 51
213.1994056071
  0
ARC
  5
38B
100
AcDbEntity
  8
0
100
AcDbCircle
 62
7
  6
CONTINUOUS
 10
12.7241679548
 20
6.1349410273
 40
0.47
100
AcDbArc
 50
216.8005943929
 51
218.1994056071
  0
ARC
  5
38C
100
AcDbEntity
  8
0
100
AcDbCircle
 62
7
  6
CONTINUOUS
 10
12.7241679548
 20
6.1349410273
 40
0.47
100
AcDbArc
 50
221.8005943929
 51
223.1994056071
  0
ARC
  5
38D
100
AcDbEntity
  8
0
100
AcDbCircle
 62
7
  6
CONTINUOUS
 10
12.7241679548
 20
6.1349410273
 40
0.47
100
AcDbArc
 50
226.8005943929
 51
228.1994056071
  0
ARC
  5
38E
100
AcDbEntity
  8
0
100
AcDbCircle
 62
7
  6
CONTINUOUS
 10
12.7241679548
 20
6.1349410273
 40
0.47
100
AcDbArc
 50
231.8005943929
 51
233.1994056071
  0
ARC
  5
38F
100
AcDbEntity
  8
0
100
AcDbCircle
 62
7
  6
CONTINUOUS
 10
12.7241679548
 20
6.1349410273
 40
0.47
100
AcDbArc
 50
236.8005943929
 51
238.1994056071
  0
ARC
  5
390
100
AcDbEntity
  8
0
100
AcDbCircle
 62
7
  6
CONTINUOUS
 10
12.7241679548
 20
6.1349410273
 40
0.47
100
AcDbArc
 50
241.8005943929
 51
243.1994056071
  0
ARC
  5
391
100
AcDbEntity
  8
0
100
AcDbCircle
 62
7
  6
CONTINUOUS
 10
12.7241679548
 20
6.1349410273
 40
0.47
100
AcDbArc
 50
246.8005943929
 51
248.1994056071
  0
ARC
  5
392
100
AcDbEntity
  8
0
100
AcDbCircle
 62
7
  6
CONTINUOUS
 10
12.7241679548
 20
6.1349410273
 40
0.47
100
AcDbArc
 50
251.8005943929
 51
253.1994056071
  0
ARC
  5
393
100
AcDbEntity
  8
0
100
AcDbCircle
 62
7
  6
CONTINUOUS
 10
12.7241679548
 20
6.1349410273
 40
0.47
100
AcDbArc
 50
256.8005943929
 51
258.1994056071
  0
ARC
  5
394
100
AcDbEntity
  8
0
100
AcDbCircle
 62
7
  6
CONTINUOUS
 10
12.7241679548
 20
6.1349410273
 40
0.47
100
AcDbArc
 50
261.8005943929
 51
263.1994056071
  0
ARC
  5
395
100
AcDbEntity
  8
0
100
AcDbCircle
 62
7
  6
CONTINUOUS
 10
12.7241679548
 20
6.1349410273
 40
0.47
100
AcDbArc
 50
266.8005943929
 51
268.1994056071
  0
ARC
  5
396
100
AcDbEntity
  8
0
100
AcDbCircle
 62
7
  6
CONTINUOUS
 10
12.7241679548
 20
6.1349410273
 40
0.47
100
AcDbArc
 50
271.8005943929
 51
273.1994056071
  0
ARC
  5
397
100
AcDbEntity
  8
0
100
AcDbCircle
 62
7
  6
CONTINUOUS
 10
12.7241679548
 20
6.1349410273
 40
0.47
100
AcDbArc
 50
276.8005943929
 51
278.1994056071
  0
ARC
  5
398
100
AcDbEntity
  8
0
100
AcDbCircle
 62
7
  6
CONTINUOUS
 10
12.7241679548
 20
6.1349410273
 40
0.47
100
AcDbArc
 50
281.8005943929
 51
283.1994056071
  0
ARC
  5
399
100
AcDbEntity
  8
0
100
AcDbCircle
 62
7
  6
CONTINUOUS
 10
12.7241679548
 20
6.1349410273
 40
0.47
100
AcDbArc
 50
286.8005943929
 51
288.1994056071
  0
ARC
  5
39A
100
AcDbEntity
  8
0
100
AcDbCircle
 62
7
  6
CONTINUOUS
 10
12.7241679548
 20
6.1349410273
 40
0.47
100
AcDbArc
 50
291.8005943929
 51
293.1994056071
  0
ARC
  5
39B
100
AcDbEntity
  8
0
100
AcDbCircle
 62
7
  6
CONTINUOUS
 10
12.7241679548
 20
6.1349410273
 40
0.47
100
AcDbArc
 50
296.8005943929
 51
298.1994056071
  0
ARC
  5
39C
100
AcDbEntity
  8
0
100
AcDbCircle
 62
7
  6
CONTINUOUS
 10
12.7241679548
 20
6.1349410273
 40
0.47
100
AcDbArc
 50
301.8005943929
 51
303.1994056071
  0
ARC
  5
39D
100
AcDbEntity
  8
0
100
AcDbCircle
 62
7
  6
CONTINUOUS
 10
12.7241679548
 20
6.1349410273
 40
0.47
100
AcDbArc
 50
306.8005943929
 51
308.1994056071
  0
ARC
  5
39E
100
AcDbEntity
  8
0
100
AcDbCircle
 62
7
  6
CONTINUOUS
 10
12.7241679548
 20
6.1349410273
 40
0.47
100
AcDbArc
 50
311.8005943929
 51
313.1994056071
  0
ARC
  5
39F
100
AcDbEntity
  8
0
100
AcDbCircle
 62
7
  6
CONTINUOUS
 10
12.7241679548
 20
6.1349410273
 40
0.47
100
AcDbArc
 50
316.8005943929
 51
318.1994056071
  0
ARC
  5
3A0
100
AcDbEntity
  8
0
100
AcDbCircle
 62
7
  6
CONTINUOUS
 10
12.7241679548
 20
6.1349410273
 40
0.47
100
AcDbArc
 50
321.8005943929
 51
323.1994056071
  0
ARC
  5
3A1
100
AcDbEntity
  8
0
100
AcDbCircle
 62
7
  6
CONTINUOUS
 10
12.7241679548
 20
6.1349410273
 40
0.47
100
AcDbArc
 50
326.8005943929
 51
328.1994056071
  0
ARC
  5
3A2
100
AcDbEntity
  8
0
100
AcDbCircle
 62
7
  6
CONTINUOUS
 10
12.7241679548
 20
6.1349410273
 40
0.47
100
AcDbArc
 50
331.8005943929
 51
333.1994056071
  0
ARC
  5
3A3
100
AcDbEntity
  8
0
100
AcDbCircle
 62
7
  6
CONTINUOUS
 10
12.7241679548
 20
6.1349410273
 40
0.47
100
AcDbArc
 50
336.8005943929
 51
338.1994056071
  0
ARC
  5
3A4
100
AcDbEntity
  8
0
100
AcDbCircle
 62
7
  6
CONTINUOUS
 10
12.7241679548
 20
6.1349410273
 40
0.47
100
AcDbArc
 50
341.8005943929
 51
343.1994056071
  0
ARC
  5
3A5
100
AcDbEntity
  8
0
100
AcDbCircle
 62
7
  6
CONTINUOUS
 10
12.7241679548
 20
6.1349410273
 40
0.47
100
AcDbArc
 50
346.8005943929
 51
348.1994056071
  0
ARC
  5
3A6
100
AcDbEntity
  8
0
100
AcDbCircle
 62
7
  6
CONTINUOUS
 10
12.7241679548
 20
6.1349410273
 40
0.47
100
AcDbArc
 50
351.8005943929
 51
353.1994056071
  0
ARC
  5
3A7
100
AcDbEntity
  8
0
100
AcDbCircle
 62
7
  6
CONTINUOUS
 10
12.7241679548
 20
6.1349410273
 40
0.47
100
AcDbArc
 50
356.8005943929
 51
358.1994056071
  0
ARC
  5
3A8
100
AcDbEntity
  8
0
100
AcDbCircle
 62
7
  6
CONTINUOUS
 10
12.7241679548
 20
6.1349410273
 40
0.47
100
AcDbArc
 50
1.8005943929
 51
3.1994056071
  0
ARC
  5
3A9
100
AcDbEntity
  8
0
100
AcDbCircle
 62
7
  6
CONTINUOUS
 10
12.7241679548
 20
6.1349410273
 40
0.47
100
AcDbArc
 50
6.8005943929
 51
8.1994056071
  0
ARC
  5
3AA
100
AcDbEntity
  8
0
100
AcDbCircle
 62
7
  6
CONTINUOUS
 10
12.7241679548
 20
6.1349410273
 40
0.47
100
AcDbArc
 50
11.8005943929
 51
13.1994056071
  0
ARC
  5
3AB
100
AcDbEntity
  8
0
100
AcDbCircle
 62
7
  6
CONTINUOUS
 10
12.7241679548
 20
6.1349410273
 40
0.47
100
AcDbArc
 50
16.8005943929
 51
18.1994056071
  0
ARC
  5
3AC
100
AcDbEntity
  8
0
100
AcDbCircle
 62
7
  6
CONTINUOUS
 10
12.7241679548
 20
6.1349410273
 40
0.47
100
AcDbArc
 50
21.8005943929
 51
23.1994056071
  0
ARC
  5
3AD
100
AcDbEntity
  8
0
100
AcDbCircle
 62
7
  6
CONTINUOUS
 10
12.7241679548
 20
6.1349410273
 40
0.47
100
AcDbArc
 50
26.8005943929
 51
28.1994056071
  0
ARC
  5
3AE
100
AcDbEntity
  8
0
100
AcDbCircle
 62
7
  6
CONTINUOUS
 10
12.7241679548
 20
6.1349410273
 40
0.47
100
AcDbArc
 50
31.8005943929
 51
33.1994056071
  0
ARC
  5
3AF
100
AcDbEntity
  8
0
100
AcDbCircle
 62
7
  6
CONTINUOUS
 10
12.7241679548
 20
6.1349410273
 40
0.47
100
AcDbArc
 50
36.8005943929
 51
38.1994056071
  0
ARC
  5
3B0
100
AcDbEntity
  8
0
100
AcDbCircle
 62
7
  6
CONTINUOUS
 10
12.7241679548
 20
6.1349410273
 40
0.47
100
AcDbArc
 50
41.8005943929
 51
43.1994056071
  0
ARC
  5
3B1
100
AcDbEntity
  8
0
100
AcDbCircle
 62
7
  6
CONTINUOUS
 10
12.7241679548
 20
6.1349410273
 40
0.47
100
AcDbArc
 50
46.8005943929
 51
48.1994056071
  0
ARC
  5
3B2
100
AcDbEntity
  8
0
100
AcDbCircle
 62
7
  6
CONTINUOUS
 10
12.7241679548
 20
6.1349410273
 40
0.47
100
AcDbArc
 50
51.8005943929
 51
53.1994056071
  0
ARC
  5
3B3
100
AcDbEntity
  8
0
100
AcDbCircle
 62
7
  6
CONTINUOUS
 10
12.7241679548
 20
6.1349410273
 40
0.47
100
AcDbArc
 50
56.8005943929
 51
58.1994056071
  0
ARC
  5
3B4
100
AcDbEntity
  8
0
100
AcDbCircle
 62
7
  6
CONTINUOUS
 10
12.7241679548
 20
6.1349410273
 40
0.47
100
AcDbArc
 50
61.8005943929
 51
63.1994056071
  0
ARC
  5
3B5
100
AcDbEntity
  8
0
100
AcDbCircle
 62
7
  6
CONTINUOUS
 10
12.7241679548
 20
6.1349410273
 40
0.47
100
AcDbArc
 50
66.8005943929
 51
68.1994056071
  0
ARC
  5
3B6
100
AcDbEntity
  8
0
100
AcDbCircle
 62
7
  6
CONTINUOUS
 10
12.7241679548
 20
6.1349410273
 40
0.47
100
AcDbArc
 50
111.8005943929
 51
113.1994056071
  0
ARC
  5
3B7
100
AcDbEntity
  8
0
100
AcDbCircle
 62
7
  6
CONTINUOUS
 10
12.7241679548
 20
6.1349410273
 40
0.47
100
AcDbArc
 50
116.8005943929
 51
118.1994056071
  0
ARC
  5
3B8
100
AcDbEntity
  8
0
100
AcDbCircle
 62
7
  6
CONTINUOUS
 10
12.7241679548
 20
6.1349410273
 40
0.47
100
AcDbArc
 50
121.8005943929
 51
123.1994056071
  0
ARC
  5
3B9
100
AcDbEntity
  8
0
100
AcDbCircle
 62
7
  6
CONTINUOUS
 10
12.7241679548
 20
6.1349410273
 40
0.47
100
AcDbArc
 50
126.8005943929
 51
128.1994056071
  0
ARC
  5
3BA
100
AcDbEntity
  8
0
100
AcDbCircle
 62
7
  6
CONTINUOUS
 10
12.7241679548
 20
6.1349410273
 40
0.47
100
AcDbArc
 50
131.8005943929
 51
133.1994056071
  0
ARC
  5
3BB
100
AcDbEntity
  8
0
100
AcDbCircle
 62
7
  6
CONTINUOUS
 10
12.7241679548
 20
6.1349410273
 40
0.47
100
AcDbArc
 50
136.8005943929
 51
138.1994056071
  0
ARC
  5
3BC
100
AcDbEntity
  8
0
100
AcDbCircle
 62
7
  6
CONTINUOUS
 10
12.7241679548
 20
6.1349410273
 40
0.47
100
AcDbArc
 50
141.8005943929
 51
143.1994056071
  0
ARC
  5
3BD
100
AcDbEntity
  8
0
100
AcDbCircle
 62
7
  6
CONTINUOUS
 10
12.7241679548
 20
6.1349410273
 40
0.47
100
AcDbArc
 50
146.8005943929
 51
148.1994056071
  0
ARC
  5
3BE
100
AcDbEntity
  8
0
100
AcDbCircle
 62
7
  6
CONTINUOUS
 10
12.7241679548
 20
6.1349410273
 40
0.47
100
AcDbArc
 50
151.8005943929
 51
153.1994056071
  0
ARC
  5
3BF
100
AcDbEntity
  8
0
100
AcDbCircle
 62
7
  6
CONTINUOUS
 10
12.7241679548
 20
6.1349410273
 40
0.47
100
AcDbArc
 50
156.8005943929
 51
158.1994056071
  0
ARC
  5
3C0
100
AcDbEntity
  8
0
100
AcDbCircle
 62
7
  6
CONTINUOUS
 10
12.7241679548
 20
6.1349410273
 40
0.47
100
AcDbArc
 50
161.8005943929
 51
163.1994056071
  0
ARC
  5
3C1
100
AcDbEntity
  8
0
100
AcDbCircle
 62
7
  6
CONTINUOUS
 10
12.7241679548
 20
6.1349410273
 40
0.47
100
AcDbArc
 50
166.8005943929
 51
168.1994056071
  0
ARC
  5
3C2
100
AcDbEntity
  8
0
100
AcDbCircle
 62
7
  6
CONTINUOUS
 10
12.7241679548
 20
6.1349410273
 40
0.47
100
AcDbArc
 50
171.8005943929
 51
173.1994056071
  0
ARC
  5
3C3
100
AcDbEntity
  8
0
100
AcDbCircle
 62
7
  6
CONTINUOUS
 10
12.7241679548
 20
6.1349410273
 40
0.47
100
AcDbArc
 50
176.8005943929
 51
178.1994056071
  0
CIRCLE
  5
3C4
100
AcDbEntity
  8
0
100
AcDbCircle
 62
7
  6
CONTINUOUS
 10
12.7241679548
 20
6.1349410273
 40
0.45
  0
CIRCLE
  5
3C5
100
AcDbEntity
  8
0
100
AcDbCircle
 62
9
  6
CONTINUOUS
 10
12.7241679548
 20
6.1349410273
 40
0.4
  0
ARC
  5
3C6
100
AcDbEntity
  8
0
100
AcDbCircle
 62
7
  6
CONTINUOUS
 10
12.9741679548
 20
6.7989410273
 40
0.051
100
AcDbArc
 50
270.0
 51
90.0
  0
ARC
  5
3C7
100
AcDbEntity
  8
0
100
AcDbCircle
 62
7
  6
CONTINUOUS
 10
13.5891679548
 20
7.4489410273
 40
0.065
100
AcDbArc
 50
180.0
 51
270.0
  0
ARC
  5
3C8
100
AcDbEntity
  8
0
100
AcDbCircle
 62
7
  6
CONTINUOUS
 10
10.4741679548
 20
11.2959410273
 40
2.5
100
AcDbArc
 50
0.0
 51
160.0
  0
ARC
  5
3C9
100
AcDbEntity
  8
0
100
AcDbCircle
 62
7
  6
CONTINUOUS
 10
10.4741679548
 20
11.2959410273
 40
2.0
100
AcDbArc
 50
0.0
 51
160.0
  0
ARC
  5
3CA
100
AcDbEntity
  8
0
100
AcDbCircle
 62
7
  6
CONTINUOUS
 10
12.4741679548
 20
8.6979410273
 40
0.05
100
AcDbArc
 50
90.0
 51
270.0
  0
ARC
  5
3CB
100
AcDbEntity
  8
0
100
AcDbCircle
 62
7
  6
CONTINUOUS
 10
12.9741679548
 20
8.6979410273
 40
0.05
100
AcDbArc
 50
270.0
 51
90.0
  0
ENDSEC
  0
SECTION
  2
OBJECTS
  0
DICTIONARY
  5
C
100
AcDbDictionary
280
0
281
1
  3
ACAD_GROUP
350
D
  3
ACAD_MLINESTYLE
350
17
  3
ACAD_LAYOUT
350
1A
  3
ACAD_PLOTSETTINGS
350
19
  3
ACAD_PLOTSTYLENAME
350
E
  0
DICTIONARY
  5
D
102
{ACAD_REACTORS
330
C
102
}
100
AcDbDictionary
280
0
281
1
  0
ACDBDICTIONARYWDFLT
  5
E
102
{ACAD_REACTORS
330
C
102
}
100
AcDbDictionary
281
1
  3
Normal
350
F
100
AcDbDictionaryWithDefault
340
F
  0
DICTIONARY
  5
17
102
{ACAD_REACTORS
330
C
102
}
100
AcDbDictionary
280
0
281
1
  3
Standard
350
18
  0
DICTIONARY
  5
19
102
{ACAD_REACTORS
330
C
102
}
100
AcDbDictionary
281
1
  0
DICTIONARY
  5
1A
102
{ACAD_REACTORS
330
C
102
}
100
AcDbDictionary
281
1
  3
Model
350
3CC
  3
Layout1
350
3CD
  0
ACDBPLACEHOLDER
  5
F
102
{ACAD_REACTORS
330
E
102
}
  0
MLINESTYLE
  5
18
102
{ACAD_REACTORS
330
17
102
}
100
AcDbMlineStyle
  2
STANDARD
 70
0
  3

 62
256
 51
90.0
 52
90.0
 71
2
 49
0.5
 62
256
  6
BYLAYER
 49
-0.5
 62
256
  6
BYLAYER
  0
LAYOUT
  5
3CC
102
{ACAD_REACTORS
330
1A
102
}
100
AcDbPlotSettings
  1

  2
none_device
  4
ANSI_C_(22.00_x_17.00_Inches)
  6

 40
0.0
 41
0.0
 42
0.0
 43
0.0
 44
558.8
 45
431.8
 46
0.0
 47
0.0
 48
0.0
 49
0.0
140
0.0
141
0.0
142
1.0
143
1.0
 70
1024
 72
0
 73
0
 74
0
  7

 75
0
147
1.0
148
0.0
149
0.0
100
AcDbLayout
  1
Model
 70
0
 71
0
 10
0.0
 20
0.0
 11
22.0
 21
17.0
 12
0.0
 22
0.0
 32
0.0
 14
0.0
 24
0.0
 34
0.0
 15
0.0
 25
0.0
 35
0.0
146
0.0
 13
0.0
 23
0.0
 33
0.0
 16
1.0
 26
0.0
 36
0.0
 17
0.0
 27
1.0
 37
0.0
 76
0
330
205
345
0
346
0
  0
LAYOUT
  5
3CD
102
{ACAD_REACTORS
330
1A
102
}
100
AcDbPlotSettings
  1

  2
none_device
  4
ANSI_C_(22.00_x_17.00_Inches)
  6

 40
0.0
 41
0.0
 42
0.0
 43
0.0
 44
558.8
 45
431.8
 46
0.0
 47
0.0
 48
0.0
 49
0.0
140
0.0
141
0.0
142
1.0
143
1.0
 70
0
 72
0
 73
0
 74
0
  7

 75
0
147
1.0
148
0.0
149
0.0
100
AcDbLayout
  1
Layout1
 70
0
 71
1
 10
0.0
 20
0.0
 11
22.0
 21
17.0
 12
0.0
 22
0.0
 32
0.0
 14
0.0
 24
0.0
 34
0.0
 15
0.0
 25
0.0
 35
0.0
146
0.0
 13
0.0
 23
0.0
 33
0.0
 16
1.0
 26
0.0
 36
0.0
 17
0.0
 27
1.0
 37
0.0
 76
0
330
206
345
0
346
0
  0
ENDSEC
  0
EOF
