999
DXF file: 2940-5711_front.dxf
999
Pro/ENGINEER 2018400 by Parametric Technology Corporation
  0
SECTION
  2
HEADER
  9
$ACADVER
  1
AC1027
  9
$DWGCODEPAGE
  3
ANSI_1252
  9
$EXTMAX
 10
11.0
 20
8.5
 30
0.0
  9
$EXTMIN
 10
0.0
 20
0.0
 30
0.0
  9
$LIMMIN
 10
0.0
 20
0.0
  9
$LIMMAX
 10
11.0
 20
8.5
  9
$VIEWCTR
 10
5.5
 20
4.25
  9
$VIEWSIZE
 40
8.5
  9
$CLAYER
  8
0
  9
$LTSCALE
 40
0.605
  9
$CELTYPE
  6
BYLAYER
  9
$DIMSCALE
 40
1.0
  9
$DIMASZ
 40
0.1
  9
$DIMEXO
 40
0.0625
  9
$DIMDLI
 40
0.418
  9
$DIMEXE
 40
0.125
  9
$DIMCEN
 40
0.099
  9
$DIMLFAC
 40
1.0
  9
$DIMBLK
  1
_FILLED
  9
$DIMALT
 70
1
  9
$DIMALTD
 70
1
  9
$DIMALTTD
 70
2
  9
$DIMALTF
 40
25.4
  9
$DIMTXT
 40
0.08
  9
$DIMTOL
 70
1
  9
$DIMLIM
 70
0
  9
$DIMTFAC
 40
1.0
  9
$DIMTP
 40
0.01
  9
$DIMTM
 40
0.01
  9
$DIMGAP
 40
0.09
  9
$DIMDSEP
 70
46
  9
$AUNITS
 70
0
  9
$PDMODE
 70
3
  9
$PDSIZE
 40
0.3125
  9
$HANDSEED
  5
45F
  9
$TILEMODE
 70
1
  9
$MEASUREMENT
 70
0
  9
$INSUNITS
 70
1
  0
ENDSEC
  0
SECTION
  2
CLASSES
  0
CLASS
  1
ACDBDICTIONARYWDFLT
  2
AcDbDictionaryWithDefault
  3
AutoCAD 2000
 90
0
 91
1
280
0
281
0
  0
CLASS
  1
ACDBPLACEHOLDER
  2
AcDbPlaceHolder
  3
AutoCAD 2000
 90
0
 91
1
280
0
281
0
  0
CLASS
  1
LAYOUT
  2
AcDbLayout
  3
AutoCAD 2000
 90
0
 91
0
280
0
281
0
  0
ENDSEC
  0
SECTION
  2
TABLES
  0
TABLE
  2
VPORT
  5
8
100
AcDbSymbolTable
 70
2
  0
VPORT
  5
1F4
100
AcDbSymbolTableRecord
100
AcDbViewportTableRecord
  2
*ACTIVE
 70
0
 10
0.0
 20
0.0
 11
1.0
 21
1.0
 12
5.5
 22
4.25
 13
0.0
 23
0.0
 14
1.0
 24
1.0
 15
0.0
 25
0.0
 16
0.0
 26
0.0
 36
1.0
 17
0.0
 27
0.0
 37
0.0
 40
8.5
 41
1.2941176471
 42
50.0
 43
0.0
 44
0.0
 50
0.0
 51
0.0
 71
0
 72
100
 73
1
 74
1
 75
0
 76
0
 77
0
 78
0
  0
ENDTAB
  0
TABLE
  2
LTYPE
  5
5
100
AcDbSymbolTable
 70
6
  0
LTYPE
  5
14
100
AcDbSymbolTableRecord
100
AcDbLinetypeTableRecord
  2
BYBLOCK
 70
0
  3

 72
65
 73
0
 40
0.0
  0
LTYPE
  5
15
100
AcDbSymbolTableRecord
100
AcDbLinetypeTableRecord
  2
BYLAYER
 70
0
  3

 72
65
 73
0
 40
0.0
  0
LTYPE
  5
16
100
AcDbSymbolTableRecord
100
AcDbLinetypeTableRecord
  2
CONTINUOUS
 70
64
  3
Solid line
 72
65
 73
0
 40
0.0
  0
LTYPE
  5
1F5
100
AcDbSymbolTableRecord
100
AcDbLinetypeTableRecord
  2
CENTER
 70
64
  3
____ _ ____ _ ____ _ ____ _ ____ _ ____ _ ____
 72
65
 73
4
 40
0.6
 49
0.375
 74
0
 49
-0.075
 74
0
 49
0.075
 74
0
 49
-0.075
 74
0
  0
LTYPE
  5
1F6
100
AcDbSymbolTableRecord
100
AcDbLinetypeTableRecord
  2
HIDDEN
 70
64
  3
- - - - - - - - - - - - - - - - - - - -
 72
65
 73
2
 40
0.2
 49
0.1
 74
0
 49
-0.1
 74
0
  0
LTYPE
  5
1F7
100
AcDbSymbolTableRecord
100
AcDbLinetypeTableRecord
  2
PHANTOM
 70
64
  3
_____ _ _ _____ _ _ _____ _ _ _____
 72
65
 73
6
 40
0.8
 49
0.45
 74
0
 49
-0.05
 74
0
 49
0.1
 74
0
 49
-0.05
 74
0
 49
0.1
 74
0
 49
-0.05
 74
0
  0
LTYPE
  5
1F8
100
AcDbSymbolTableRecord
100
AcDbLinetypeTableRecord
  2
DOT
 70
64
  3
. . . . . . . . . . . . . . . . . . . .
 72
65
 73
2
 40
0.2
 49
0.1
 74
0
 49
-0.1
 74
0
  0
LTYPE
  5
1F9
100
AcDbSymbolTableRecord
100
AcDbLinetypeTableRecord
  2
DASHED
 70
64
  3
- - - - - - - - - - - - - - - - - - - -
 72
65
 73
2
 40
0.2
 49
0.1
 74
0
 49
-0.1
 74
0
  0
ENDTAB
  0
TABLE
  2
LAYER
  5
2
100
AcDbSymbolTable
 70
36
  0
LAYER
  5
10
100
AcDbSymbolTableRecord
100
AcDbLayerTableRecord
  2
0
 70
0
 62
7
  6
CONTINUOUS
370
-3
390
F
  0
LAYER
  5
1FA
100
AcDbSymbolTableRecord
100
AcDbLayerTableRecord
  2
DEFAULT_1
 70
0
 62
7
  6
CENTER
370
-3
390
F
  0
LAYER
  5
1FB
100
AcDbSymbolTableRecord
100
AcDbLayerTableRecord
  2
DEFAULT_2
 70
0
 62
8
  6
HIDDEN
370
-3
390
F
  0
LAYER
  5
1FC
100
AcDbSymbolTableRecord
100
AcDbLayerTableRecord
  2
DEFAULT_3
 70
0
 62
7
  6
PHANTOM
370
-3
390
F
  0
LAYER
  5
1FD
100
AcDbSymbolTableRecord
100
AcDbLayerTableRecord
  2
DEFAULT_COORDINATE_SYSTEM
 70
0
 62
7
  6
CONTINUOUS
370
-3
390
F
  0
LAYER
  5
1FE
100
AcDbSymbolTableRecord
100
AcDbLayerTableRecord
  2
DEFAULT_DATUM_AXES
 70
0
 62
7
  6
CONTINUOUS
370
-3
390
F
  0
LAYER
  5
1FF
100
AcDbSymbolTableRecord
100
AcDbLayerTableRecord
  2
DEFAULT_DATUM_PLANES
 70
0
 62
7
  6
CONTINUOUS
370
-3
390
F
  0
ENDTAB
  0
TABLE
  2
STYLE
  5
3
100
AcDbSymbolTable
 70
1
  0
STYLE
  5
11
100
AcDbSymbolTableRecord
100
AcDbTextStyleTableRecord
  2
STANDARD
 70
0
 40
0.0
 41
0.8
 50
0.0
 71
0
 42
0.2
  3
txt
  4

  0
STYLE
  5
200
100
AcDbSymbolTableRecord
100
AcDbTextStyleTableRecord
  2
TEXTSTYLE_1
 70
0
 40
0.0
 41
0.8
 50
0.0
 71
0
 42
0.2
  3
gdt
  4

  0
ENDTAB
  0
TABLE
  2
VIEW
  5
6
100
AcDbSymbolTable
 70
0
  0
ENDTAB
  0
TABLE
  2
UCS
  5
7
100
AcDbSymbolTable
 70
0
  0
ENDTAB
  0
TABLE
  2
APPID
  5
9
100
AcDbSymbolTable
 70
1
  0
APPID
  5
201
100
AcDbSymbolTableRecord
100
AcDbRegAppTableRecord
  2
ACAD
 70
0
  0
ENDTAB
  0
TABLE
  2
BLOCK_RECORD
  5
1
100
AcDbSymbolTable
 70
0
  0
BLOCK_RECORD
  5
202
100
AcDbSymbolTableRecord
100
AcDbBlockTableRecord
  2
*Model_Space
  0
BLOCK_RECORD
  5
203
100
AcDbSymbolTableRecord
100
AcDbBlockTableRecord
  2
*Paper_Space
  0
BLOCK_RECORD
  5
204
100
AcDbSymbolTableRecord
100
AcDbBlockTableRecord
  2
_FILLED
  0
ENDTAB
  0
TABLE
  2
DIMSTYLE
  5
A
100
AcDbSymbolTable
 70
1
100
AcDbDimStyleTable
 71
0
  0
DIMSTYLE
105
205
100
AcDbSymbolTableRecord
100
AcDbDimStyleTableRecord
  2
STANDARD
 70
0
  3

  4

 40
1.0
 41
0.1
 42
0.0625
 43
0.38
 44
0.125
 45
0.0
 46
0.0
 47
0.01
 48
0.01
140
0.08
141
0.09
142
0.0
143
25.4
144
1.0
145
0.0
146
1.0
147
0.09
 71
1.0
 72
0.0
 73
1
 74
1
 75
0
 76
0
 77
0
 78
4
 79
1
170
1
171
1
172
0
173
0
174
0
175
0
176
0
177
0
178
0
270
2
179
2
271
2
272
2
273
2
274
2
275
0
280
0
281
0
282
0
283
1
284
4
285
0
286
0
287
3
288
0
340
11
278
46
341
204
342
204
343
204
344
204
  0
ENDTAB
  0
ENDSEC
  0
SECTION
  2
BLOCKS
  0
BLOCK
  5
20
100
AcDbEntity
  8
0
100
AcDbBlockBegin
  2
*Model_Space
 70
0
 10
0.0
 20
0.0
 30
0.0
  3
*Model_Space
  1

  0
ENDBLK
  5
21
100
AcDbEntity
  8
0
100
AcDbBlockEnd
  0
BLOCK
  5
1C
100
AcDbEntity
  8
0
100
AcDbBlockBegin
  2
*Paper_Space
 70
0
 10
0.0
 20
0.0
 30
0.0
  3
*Paper_Space
  1

  0
ENDBLK
  5
1D
100
AcDbEntity
  8
0
100
AcDbBlockEnd
  0
BLOCK
  5
206
100
AcDbEntity
  8
0
100
AcDbBlockBegin
  2
_FILLED
 70
64
 10
0.0
 20
0.0
  3
_FILLED
  1

  0
SOLID
  5
207
100
AcDbEntity
  8
0
  6
BYBLOCK
 62
0
100
AcDbTrace
 10
0.0
 20
0.0
 11
-1.0
 21
0.2
 12
-1.0
 22
-0.2
 13
-1.0
 23
-0.2
  0
ENDBLK
  5
208
100
AcDbEntity
  8
0
  6
BYBLOCK
 62
0
100
AcDbBlockEnd
  0
ENDSEC
  0
SECTION
  2
ENTITIES
  0
MTEXT
  5
209
100
AcDbEntity
  8
0
100
AcDbMText
 62
2
  6
CONTINUOUS
  7
STANDARD
 71
3
 72
1
 10
5.2463509317
 20
1.6142546584
 30
0.0
 11
1.0
 21
0.0
 31
0.0
 73
2
 44
0.9
  1
SCALE  .500
 40
0.08
 41
0.704
  0
LINE
  5
20A
100
AcDbEntity
  8
0
100
AcDbLine
 62
7
  6
CONTINUOUS
 10
0.0
 20
0.0
 11
0.0
 21
8.5
  0
LINE
  5
20B
100
AcDbEntity
  8
0
100
AcDbLine
 62
7
  6
CONTINUOUS
 10
0.0
 20
0.0
 11
11.0
 21
0.0
  0
LINE
  5
20C
100
AcDbEntity
  8
0
100
AcDbLine
 62
7
  6
CONTINUOUS
 10
0.0
 20
8.5
 11
11.0
 21
8.5
  0
LINE
  5
20D
100
AcDbEntity
  8
0
100
AcDbLine
 62
7
  6
CONTINUOUS
 10
11.0
 20
0.0
 11
11.0
 21
8.5
  0
LINE
  5
20E
100
AcDbEntity
  8
0
100
AcDbLine
 62
7
  6
CONTINUOUS
 10
4.9989806137
 20
2.4240838509
 11
5.3039806137
 21
2.4240838509
  0
LINE
  5
20F
100
AcDbEntity
  8
0
100
AcDbLine
 62
7
  6
CONTINUOUS
 10
4.9989806137
 20
2.4388338509
 11
5.3039806137
 21
2.4388338509
  0
LINE
  5
210
100
AcDbEntity
  8
0
100
AcDbLine
 62
7
  6
CONTINUOUS
 10
4.9989806137
 20
2.4683338509
 11
5.3039806137
 21
2.4683338509
  0
LINE
  5
211
100
AcDbEntity
  8
0
100
AcDbLine
 62
7
  6
CONTINUOUS
 10
4.9989806137
 20
2.5468338509
 11
5.3039806137
 21
2.5468338509
  0
LINE
  5
212
100
AcDbEntity
  8
0
100
AcDbLine
 62
7
  6
CONTINUOUS
 10
4.9989806137
 20
2.5763338509
 11
5.3039806137
 21
2.5763338509
  0
LINE
  5
213
100
AcDbEntity
  8
0
100
AcDbLine
 62
7
  6
CONTINUOUS
 10
4.9989806137
 20
2.6548338509
 11
5.3039806137
 21
2.6548338509
  0
LINE
  5
214
100
AcDbEntity
  8
0
100
AcDbLine
 62
7
  6
CONTINUOUS
 10
4.6143683055
 20
2.5705397197
 11
4.2273748804
 21
2.7509977174
  0
LINE
  5
215
100
AcDbEntity
  8
0
100
AcDbLine
 62
7
  6
CONTINUOUS
 10
4.9989806137
 20
2.6843338509
 11
5.3039806137
 21
2.6843338509
  0
LINE
  5
216
100
AcDbEntity
  8
0
100
AcDbLine
 62
7
  6
CONTINUOUS
 10
4.9989806137
 20
2.7628338509
 11
5.3039806137
 21
2.7628338509
  0
LINE
  5
217
100
AcDbEntity
  8
0
100
AcDbLine
 62
7
  6
CONTINUOUS
 10
4.9989806137
 20
2.7923338509
 11
5.3039806137
 21
2.7923338509
  0
LINE
  5
218
100
AcDbEntity
  8
0
100
AcDbLine
 62
7
  6
CONTINUOUS
 10
4.2437718941
 20
2.7861612269
 11
4.6307653192
 21
2.6057032291
  0
LINE
  5
219
100
AcDbEntity
  8
0
100
AcDbLine
 62
7
  6
CONTINUOUS
 10
4.6725634149
 20
2.6953395347
 11
4.2855699899
 21
2.8757975324
  0
LINE
  5
21A
100
AcDbEntity
  8
0
100
AcDbLine
 62
7
  6
CONTINUOUS
 10
4.9989806137
 20
2.8708338509
 11
5.3039806137
 21
2.8708338509
  0
LINE
  5
21B
100
AcDbEntity
  8
0
100
AcDbLine
 62
7
  6
CONTINUOUS
 10
4.9989806137
 20
2.9003338509
 11
5.3039806137
 21
2.9003338509
  0
LINE
  5
21C
100
AcDbEntity
  8
0
100
AcDbLine
 62
7
  6
CONTINUOUS
 10
4.6888753302
 20
2.7303205498
 11
4.3018819051
 21
2.9107785476
  0
LINE
  5
21D
100
AcDbEntity
  8
0
100
AcDbLine
 62
7
  6
CONTINUOUS
 10
4.7306734259
 20
2.8199568554
 11
4.3436800008
 21
3.0004148531
  0
LINE
  5
21E
100
AcDbEntity
  8
0
100
AcDbLine
 62
7
  6
CONTINUOUS
 10
4.9989806137
 20
2.9788338509
 11
5.3039806137
 21
2.9788338509
  0
LINE
  5
21F
100
AcDbEntity
  8
0
100
AcDbLine
 62
7
  6
CONTINUOUS
 10
4.9989806137
 20
3.0083338509
 11
5.3039806137
 21
3.0083338509
  0
LINE
  5
220
100
AcDbEntity
  8
0
100
AcDbLine
 62
7
  6
CONTINUOUS
 10
4.7469853412
 20
2.8549378705
 11
4.3599919161
 21
3.0353958683
  0
LINE
  5
221
100
AcDbEntity
  8
0
100
AcDbLine
 62
7
  6
CONTINUOUS
 10
4.7887834369
 20
2.9445741761
 11
4.4017900118
 21
3.1250321739
  0
LINE
  5
222
100
AcDbEntity
  8
0
100
AcDbLine
 62
7
  6
CONTINUOUS
 10
4.8050953522
 20
2.9795551912
 11
4.4181019271
 21
3.160013189
  0
LINE
  5
223
100
AcDbEntity
  8
0
100
AcDbLine
 62
7
  6
CONTINUOUS
 10
4.9030892682
 20
3.1937598259
 11
5.0013898079
 21
3.1937598259
  0
LINE
  5
224
100
AcDbEntity
  8
0
100
AcDbLine
 62
7
  6
CONTINUOUS
 10
4.8468934479
 20
3.0691914968
 11
4.4599000228
 21
3.2496494946
  0
LINE
  5
225
100
AcDbEntity
  8
0
100
AcDbLine
 62
7
  6
CONTINUOUS
 10
4.8632053631
 20
3.104172512
 11
4.4762119381
 21
3.2846305097
  0
LINE
  5
226
100
AcDbEntity
  8
0
100
AcDbLine
 62
7
  6
CONTINUOUS
 10
4.9034499194
 20
3.1945332449
 11
4.5180100338
 21
3.3742668153
  0
LINE
  5
227
100
AcDbEntity
  8
0
100
AcDbLine
 62
7
  6
CONTINUOUS
 10
4.5343219491
 20
3.4092478304
 11
4.9197618346
 21
3.22951426
  0
LINE
  5
228
100
AcDbEntity
  8
0
100
AcDbLine
 62
7
  6
CONTINUOUS
 10
4.5354806137
 20
5.5818338509
 11
4.5114806137
 21
5.5578338509
  0
LINE
  5
229
100
AcDbEntity
  8
0
100
AcDbLine
 62
7
  6
CONTINUOUS
 10
5.0779237616
 20
3.6757470496
 11
4.7334877235
 21
3.836360212
  0
LINE
  5
22A
100
AcDbEntity
  8
0
100
AcDbLine
 62
7
  6
CONTINUOUS
 10
5.3039806137
 20
3.9140838509
 11
5.3033536048
 21
3.9140838509
  0
LINE
  5
22B
100
AcDbEntity
  8
0
100
AcDbLine
 62
7
  6
CONTINUOUS
 10
5.3039806137
 20
3.9273338509
 11
4.7189806137
 21
3.9273338509
  0
LINE
  5
22C
100
AcDbEntity
  8
0
100
AcDbLine
 62
7
  6
CONTINUOUS
 10
4.5114806137
 20
5.5578338509
 11
4.5114806137
 21
5.5178338509
  0
LINE
  5
22D
100
AcDbEntity
  8
0
100
AcDbLine
 62
7
  6
CONTINUOUS
 10
4.5115806237
 20
5.7028338509
 11
4.5115806237
 21
5.6728338509
  0
LINE
  5
22E
100
AcDbEntity
  8
0
100
AcDbLine
 62
7
  6
CONTINUOUS
 10
4.5117423597
 20
5.7028338509
 11
4.5117423597
 21
5.6728338509
  0
LINE
  5
22F
100
AcDbEntity
  8
0
100
AcDbLine
 62
7
  6
CONTINUOUS
 10
4.5127890788
 20
5.7028338509
 11
4.5127890788
 21
5.6728338509
  0
LINE
  5
230
100
AcDbEntity
  8
0
100
AcDbLine
 62
7
  6
CONTINUOUS
 10
4.5132738435
 20
5.7028338509
 11
4.5132738435
 21
5.6728338509
  0
LINE
  5
231
100
AcDbEntity
  8
0
100
AcDbLine
 62
7
  6
CONTINUOUS
 10
4.5153644128
 20
5.7028338509
 11
4.5153644128
 21
5.6728338509
  0
LINE
  5
232
100
AcDbEntity
  8
0
100
AcDbLine
 62
7
  6
CONTINUOUS
 10
4.5161708775
 20
5.7028338509
 11
4.5161708775
 21
5.6728338509
  0
LINE
  5
233
100
AcDbEntity
  8
0
100
AcDbLine
 62
7
  6
CONTINUOUS
 10
4.5192995668
 20
5.7028338509
 11
4.5192995668
 21
5.6728338509
  0
LINE
  5
234
100
AcDbEntity
  8
0
100
AcDbLine
 62
7
  6
CONTINUOUS
 10
4.520425521
 20
5.7028338509
 11
4.520425521
 21
5.6728338509
  0
LINE
  5
235
100
AcDbEntity
  8
0
100
AcDbLine
 62
7
  6
CONTINUOUS
 10
4.5245837548
 20
5.7028338509
 11
4.5245837548
 21
5.6728338509
  0
LINE
  5
236
100
AcDbEntity
  8
0
100
AcDbLine
 62
7
  6
CONTINUOUS
 10
4.5260261124
 20
5.7028338509
 11
4.5260261124
 21
5.6728338509
  0
LINE
  5
237
100
AcDbEntity
  8
0
100
AcDbLine
 62
7
  6
CONTINUOUS
 10
4.5312024933
 20
5.7028338509
 11
4.5312024933
 21
5.6728338509
  0
LINE
  5
238
100
AcDbEntity
  8
0
100
AcDbLine
 62
7
  6
CONTINUOUS
 10
4.5329573008
 20
5.7028338509
 11
4.5329573008
 21
5.6728338509
  0
LINE
  5
239
100
AcDbEntity
  8
0
100
AcDbLine
 62
7
  6
CONTINUOUS
 10
4.5354806137
 20
5.6728338509
 11
4.5354806137
 21
5.5818338509
  0
LINE
  5
23A
100
AcDbEntity
  8
0
100
AcDbLine
 62
7
  6
CONTINUOUS
 10
4.5391376407
 20
5.7028338509
 11
4.5391376407
 21
5.6728338509
  0
LINE
  5
23B
100
AcDbEntity
  8
0
100
AcDbLine
 62
7
  6
CONTINUOUS
 10
4.5412000883
 20
5.7028338509
 11
4.5412000883
 21
5.6728338509
  0
LINE
  5
23C
100
AcDbEntity
  8
0
100
AcDbLine
 62
7
  6
CONTINUOUS
 10
4.5483674473
 20
5.7028338509
 11
4.5483674473
 21
5.6728338509
  0
LINE
  5
23D
100
AcDbEntity
  8
0
100
AcDbLine
 62
7
  6
CONTINUOUS
 10
4.5507318821
 20
5.7028338509
 11
4.5507318821
 21
5.6728338509
  0
LINE
  5
23E
100
AcDbEntity
  8
0
100
AcDbLine
 62
7
  6
CONTINUOUS
 10
4.558866615
 20
5.7028338509
 11
4.558866615
 21
5.6728338509
  0
LINE
  5
23F
100
AcDbEntity
  8
0
100
AcDbLine
 62
7
  6
CONTINUOUS
 10
4.5614806137
 20
4.9928338509
 11
4.5614806137
 21
5.0578338509
  0
LINE
  5
240
100
AcDbEntity
  8
0
100
AcDbLine
 62
7
  6
CONTINUOUS
 10
4.5615265562
 20
5.7028338509
 11
4.5615265562
 21
5.6728338509
  0
LINE
  5
241
100
AcDbEntity
  8
0
100
AcDbLine
 62
7
  6
CONTINUOUS
 10
4.5706063662
 20
5.7028338509
 11
4.5706063662
 21
5.6728338509
  0
LINE
  5
242
100
AcDbEntity
  8
0
100
AcDbLine
 62
7
  6
CONTINUOUS
 10
4.5714806137
 20
4.9678338509
 11
4.5714806137
 21
4.9928338509
  0
LINE
  5
243
100
AcDbEntity
  8
0
100
AcDbLine
 62
7
  6
CONTINUOUS
 10
4.573554523
 20
5.7028338509
 11
4.573554523
 21
5.6728338509
  0
LINE
  5
244
100
AcDbEntity
  8
0
100
AcDbLine
 62
7
  6
CONTINUOUS
 10
4.6027306137
 20
5.7924041929
 11
4.5943291302
 21
5.7338338509
  0
LINE
  5
245
100
AcDbEntity
  8
0
100
AcDbLine
 62
7
  6
CONTINUOUS
 10
4.583554523
 20
5.7028338509
 11
4.583554523
 21
5.6728338509
  0
LINE
  5
246
100
AcDbEntity
  8
0
100
AcDbLine
 62
7
  6
CONTINUOUS
 10
4.5867828148
 20
5.7028338509
 11
4.5867828148
 21
5.6728338509
  0
LINE
  5
247
100
AcDbEntity
  8
0
100
AcDbLine
 62
7
  6
CONTINUOUS
 10
4.5941325908
 20
5.7303338509
 11
4.5941325908
 21
5.7338338509
  0
LINE
  5
248
100
AcDbEntity
  8
0
100
AcDbLine
 62
7
  6
CONTINUOUS
 10
4.5976755955
 20
5.7028338509
 11
4.5976755955
 21
5.6728338509
  0
LINE
  5
249
100
AcDbEntity
  8
0
100
AcDbLine
 62
7
  6
CONTINUOUS
 10
4.6011751738
 20
5.7028338509
 11
4.6011751738
 21
5.6728338509
  0
LINE
  5
24A
100
AcDbEntity
  8
0
100
AcDbLine
 62
7
  6
CONTINUOUS
 10
4.6027306137
 20
6.7103338509
 11
4.6027306137
 21
5.7924041929
  0
LINE
  5
24B
100
AcDbEntity
  8
0
100
AcDbLine
 62
7
  6
CONTINUOUS
 10
4.6129308788
 20
5.7028338509
 11
4.6129308788
 21
5.6728338509
  0
LINE
  5
24C
100
AcDbEntity
  8
0
100
AcDbLine
 62
7
  6
CONTINUOUS
 10
4.6139806137
 20
4.9278338509
 11
4.6139806137
 21
4.7728338509
  0
LINE
  5
24D
100
AcDbEntity
  8
0
100
AcDbLine
 62
7
  6
CONTINUOUS
 10
4.6166921514
 20
5.7028338509
 11
4.6166921514
 21
5.6728338509
  0
LINE
  5
24E
100
AcDbEntity
  8
0
100
AcDbLine
 62
7
  6
CONTINUOUS
 10
4.6292785593
 20
5.7028338509
 11
4.6292785593
 21
5.6728338509
  0
LINE
  5
24F
100
AcDbEntity
  8
0
100
AcDbLine
 62
7
  6
CONTINUOUS
 10
4.6332912168
 20
5.7028338509
 11
4.6332912168
 21
5.6728338509
  0
LINE
  5
250
100
AcDbEntity
  8
0
100
AcDbLine
 62
7
  6
CONTINUOUS
 10
4.6466738289
 20
5.7028338509
 11
4.6466738289
 21
5.6728338509
  0
LINE
  5
251
100
AcDbEntity
  8
0
100
AcDbLine
 62
7
  6
CONTINUOUS
 10
4.6509268731
 20
5.7028338509
 11
4.6509268731
 21
5.6728338509
  0
LINE
  5
252
100
AcDbEntity
  8
0
100
AcDbLine
 62
7
  6
CONTINUOUS
 10
4.6650690087
 20
5.7028338509
 11
4.6650690087
 21
5.6728338509
  0
LINE
  5
253
100
AcDbEntity
  8
0
100
AcDbLine
 62
7
  6
CONTINUOUS
 10
4.669550782
 20
5.7028338509
 11
4.669550782
 21
5.6728338509
  0
LINE
  5
254
100
AcDbEntity
  8
0
100
AcDbLine
 62
7
  6
CONTINUOUS
 10
4.6836735363
 20
5.7028338509
 11
4.6836735363
 21
5.6728338509
  0
LINE
  5
255
100
AcDbEntity
  8
0
100
AcDbLine
 62
7
  6
CONTINUOUS
 10
4.6844136785
 20
5.7028338509
 11
4.6844136785
 21
5.6728338509
  0
LINE
  5
256
100
AcDbEntity
  8
0
100
AcDbLine
 62
7
  6
CONTINUOUS
 10
4.6891118969
 20
5.7028338509
 11
4.6891118969
 21
5.6728338509
  0
LINE
  5
257
100
AcDbEntity
  8
0
100
AcDbLine
 62
7
  6
CONTINUOUS
 10
4.6967306137
 20
5.5033459831
 11
4.6967306137
 21
5.4926717188
  0
LINE
  5
258
100
AcDbEntity
  8
0
100
AcDbLine
 62
7
  6
CONTINUOUS
 10
4.6967306137
 20
5.4688959831
 11
4.6967306137
 21
5.4582217188
  0
LINE
  5
259
100
AcDbEntity
  8
0
100
AcDbLine
 62
7
  6
CONTINUOUS
 10
4.6967306137
 20
5.4344459831
 11
4.6967306137
 21
5.4237717188
  0
LINE
  5
25A
100
AcDbEntity
  8
0
100
AcDbLine
 62
7
  6
CONTINUOUS
 10
4.6967306137
 20
5.3999959831
 11
4.6967306137
 21
5.3893217188
  0
LINE
  5
25B
100
AcDbEntity
  8
0
100
AcDbLine
 62
7
  6
CONTINUOUS
 10
4.6967306137
 20
5.3655459831
 11
4.6967306137
 21
5.3548717188
  0
LINE
  5
25C
100
AcDbEntity
  8
0
100
AcDbLine
 62
7
  6
CONTINUOUS
 10
4.6967306137
 20
5.3310959831
 11
4.6967306137
 21
5.3204217188
  0
LINE
  5
25D
100
AcDbEntity
  8
0
100
AcDbLine
 62
7
  6
CONTINUOUS
 10
4.6967306137
 20
5.2966459831
 11
4.6967306137
 21
5.2859717188
  0
LINE
  5
25E
100
AcDbEntity
  8
0
100
AcDbLine
 62
7
  6
CONTINUOUS
 10
4.6967306137
 20
5.2621959831
 11
4.6967306137
 21
5.2515217188
  0
LINE
  5
25F
100
AcDbEntity
  8
0
100
AcDbLine
 62
7
  6
CONTINUOUS
 10
4.6967306137
 20
5.2277459831
 11
4.6967306137
 21
5.2170717188
  0
LINE
  5
260
100
AcDbEntity
  8
0
100
AcDbLine
 62
7
  6
CONTINUOUS
 10
4.6967306137
 20
5.1932959831
 11
4.6967306137
 21
5.1826217188
  0
LINE
  5
261
100
AcDbEntity
  8
0
100
AcDbLine
 62
7
  6
CONTINUOUS
 10
4.6967306137
 20
5.1588459831
 11
4.6967306137
 21
5.1481717188
  0
LINE
  5
262
100
AcDbEntity
  8
0
100
AcDbLine
 62
7
  6
CONTINUOUS
 10
4.6967306137
 20
5.1243959831
 11
4.6967306137
 21
5.1137217188
  0
LINE
  5
263
100
AcDbEntity
  8
0
100
AcDbLine
 62
7
  6
CONTINUOUS
 10
4.6967306137
 20
5.0899459831
 11
4.6967306137
 21
5.0792717188
  0
LINE
  5
264
100
AcDbEntity
  8
0
100
AcDbLine
 62
7
  6
CONTINUOUS
 10
4.6967306137
 20
4.7454459831
 11
4.6967306137
 21
4.7347717188
  0
LINE
  5
265
100
AcDbEntity
  8
0
100
AcDbLine
 62
7
  6
CONTINUOUS
 10
4.7031765604
 20
5.7028338509
 11
4.7031765604
 21
5.6728338509
  0
LINE
  5
266
100
AcDbEntity
  8
0
100
AcDbLine
 62
7
  6
CONTINUOUS
 10
4.7046548161
 20
5.7028338509
 11
4.7046548161
 21
5.6728338509
  0
LINE
  5
267
100
AcDbEntity
  8
0
100
AcDbLine
 62
7
  6
CONTINUOUS
 10
4.709556602
 20
5.7028338509
 11
4.709556602
 21
5.6728338509
  0
LINE
  5
268
100
AcDbEntity
  8
0
100
AcDbLine
 62
7
  6
CONTINUOUS
 10
4.7170806137
 20
5.5178338509
 11
4.7170806137
 21
5.5088058488
  0
LINE
  5
269
100
AcDbEntity
  8
0
100
AcDbLine
 62
7
  6
CONTINUOUS
 10
4.7170806137
 20
5.4874088509
 11
4.7170806137
 21
5.4743558488
  0
LINE
  5
26A
100
AcDbEntity
  8
0
100
AcDbLine
 62
7
  6
CONTINUOUS
 10
4.7170806137
 20
5.4529588509
 11
4.7170806137
 21
5.4399058488
  0
LINE
  5
26B
100
AcDbEntity
  8
0
100
AcDbLine
 62
7
  6
CONTINUOUS
 10
4.7170806137
 20
5.4185088509
 11
4.7170806137
 21
5.4054558488
  0
LINE
  5
26C
100
AcDbEntity
  8
0
100
AcDbLine
 62
7
  6
CONTINUOUS
 10
4.7170806137
 20
5.3840588509
 11
4.7170806137
 21
5.3710058488
  0
LINE
  5
26D
100
AcDbEntity
  8
0
100
AcDbLine
 62
7
  6
CONTINUOUS
 10
4.7170806137
 20
5.3496088509
 11
4.7170806137
 21
5.3365558488
  0
LINE
  5
26E
100
AcDbEntity
  8
0
100
AcDbLine
 62
7
  6
CONTINUOUS
 10
4.7170806137
 20
5.3151588509
 11
4.7170806137
 21
5.3021058488
  0
LINE
  5
26F
100
AcDbEntity
  8
0
100
AcDbLine
 62
7
  6
CONTINUOUS
 10
4.7170806137
 20
5.2807088509
 11
4.7170806137
 21
5.2676558488
  0
LINE
  5
270
100
AcDbEntity
  8
0
100
AcDbLine
 62
7
  6
CONTINUOUS
 10
4.7170806137
 20
5.2462588509
 11
4.7170806137
 21
5.2332058488
  0
LINE
  5
271
100
AcDbEntity
  8
0
100
AcDbLine
 62
7
  6
CONTINUOUS
 10
4.7170806137
 20
5.2118088509
 11
4.7170806137
 21
5.1987558488
  0
LINE
  5
272
100
AcDbEntity
  8
0
100
AcDbLine
 62
7
  6
CONTINUOUS
 10
4.7170806137
 20
5.1773588509
 11
4.7170806137
 21
5.1643058488
  0
LINE
  5
273
100
AcDbEntity
  8
0
100
AcDbLine
 62
7
  6
CONTINUOUS
 10
4.7170806137
 20
5.1429088509
 11
4.7170806137
 21
5.1298558488
  0
LINE
  5
274
100
AcDbEntity
  8
0
100
AcDbLine
 62
7
  6
CONTINUOUS
 10
4.7170806137
 20
5.1084588509
 11
4.7170806137
 21
5.0954058488
  0
LINE
  5
275
100
AcDbEntity
  8
0
100
AcDbLine
 62
7
  6
CONTINUOUS
 10
4.7170806137
 20
5.0740088509
 11
4.7170806137
 21
5.0609558488
  0
LINE
  5
276
100
AcDbEntity
  8
0
100
AcDbLine
 62
7
  6
CONTINUOUS
 10
4.7170806137
 20
4.7528338509
 11
4.7170806137
 21
4.7509058488
  0
LINE
  5
277
100
AcDbEntity
  8
0
100
AcDbLine
 62
7
  6
CONTINUOUS
 10
4.7170806137
 20
4.7295088509
 11
4.7170806137
 21
4.7225838509
  0
LINE
  5
278
100
AcDbEntity
  8
0
100
AcDbLine
 62
7
  6
CONTINUOUS
 10
4.7189806137
 20
4.7225838509
 11
4.7189806137
 21
3.9273338509
  0
LINE
  5
279
100
AcDbEntity
  8
0
100
AcDbLine
 62
7
  6
CONTINUOUS
 10
4.7235246245
 20
5.7028338509
 11
4.7235246245
 21
5.6728338509
  0
LINE
  5
27A
100
AcDbEntity
  8
0
100
AcDbLine
 62
7
  6
CONTINUOUS
 10
4.7257369419
 20
5.7028338509
 11
4.7257369419
 21
5.6728338509
  0
LINE
  5
27B
100
AcDbEntity
  8
0
100
AcDbLine
 62
7
  6
CONTINUOUS
 10
4.7308288599
 20
5.7028338509
 11
4.7308288599
 21
5.6728338509
  0
LINE
  5
27C
100
AcDbEntity
  8
0
100
AcDbLine
 62
7
  6
CONTINUOUS
 10
4.7446619559
 20
5.7028338509
 11
4.7446619559
 21
5.6728338509
  0
LINE
  5
27D
100
AcDbEntity
  8
0
100
AcDbLine
 62
7
  6
CONTINUOUS
 10
4.7476022712
 20
5.7028338509
 11
4.7476022712
 21
5.6728338509
  0
LINE
  5
27E
100
AcDbEntity
  8
0
100
AcDbLine
 62
7
  6
CONTINUOUS
 10
4.7528703647
 20
5.7028338509
 11
4.7528703647
 21
5.6728338509
  0
LINE
  5
27F
100
AcDbEntity
  8
0
100
AcDbLine
 62
7
  6
CONTINUOUS
 10
4.7665306187
 20
5.7028338509
 11
4.7665306187
 21
5.6728338509
  0
LINE
  5
280
100
AcDbEntity
  8
0
100
AcDbLine
 62
7
  6
CONTINUOUS
 10
4.7701908727
 20
5.7028338509
 11
4.7701908727
 21
5.6728338509
  0
LINE
  5
281
100
AcDbEntity
  8
0
100
AcDbLine
 62
7
  6
CONTINUOUS
 10
4.7756207022
 20
5.7028338509
 11
4.7756207022
 21
5.6728338509
  0
LINE
  5
282
100
AcDbEntity
  8
0
100
AcDbLine
 62
7
  6
CONTINUOUS
 10
4.7890706724
 20
5.7028338509
 11
4.7890706724
 21
5.6728338509
  0
LINE
  5
283
100
AcDbEntity
  8
0
100
AcDbLine
 62
7
  6
CONTINUOUS
 10
4.7934408327
 20
5.7028338509
 11
4.7934408327
 21
5.6728338509
  0
LINE
  5
284
100
AcDbEntity
  8
0
100
AcDbLine
 62
7
  6
CONTINUOUS
 10
4.7940371451
 20
4.9278338509
 11
4.7940371451
 21
4.7728338509
  0
LINE
  5
285
100
AcDbEntity
  8
0
100
AcDbLine
 62
7
  6
CONTINUOUS
 10
4.7990175153
 20
5.7028338509
 11
4.7990175153
 21
5.6728338509
  0
LINE
  5
286
100
AcDbEntity
  8
0
100
AcDbLine
 62
7
  6
CONTINUOUS
 10
4.8122203363
 20
5.7028338509
 11
4.8122203363
 21
5.6728338509
  0
LINE
  5
287
100
AcDbEntity
  8
0
100
AcDbLine
 62
7
  6
CONTINUOUS
 10
4.8172884245
 20
5.7028338509
 11
4.8172884245
 21
5.6728338509
  0
LINE
  5
288
100
AcDbEntity
  8
0
100
AcDbLine
 62
7
  6
CONTINUOUS
 10
4.822996675
 20
5.7028338509
 11
4.822996675
 21
5.6728338509
  0
LINE
  5
289
100
AcDbEntity
  8
0
100
AcDbLine
 62
7
  6
CONTINUOUS
 10
4.8329461685
 20
4.9278338509
 11
4.8329461685
 21
4.7728338509
  0
LINE
  5
28A
100
AcDbEntity
  8
0
100
AcDbLine
 62
7
  6
CONTINUOUS
 10
4.8359161588
 20
5.7028338509
 11
4.8359161588
 21
5.6728338509
  0
LINE
  5
28B
100
AcDbEntity
  8
0
100
AcDbLine
 62
7
  6
CONTINUOUS
 10
4.8416682836
 20
5.7028338509
 11
4.8416682836
 21
5.6728338509
  0
LINE
  5
28C
100
AcDbEntity
  8
0
100
AcDbLine
 62
7
  6
CONTINUOUS
 10
4.8474924561
 20
5.7028338509
 11
4.8474924561
 21
5.6728338509
  0
LINE
  5
28D
100
AcDbEntity
  8
0
100
AcDbLine
 62
7
  6
CONTINUOUS
 10
4.8600931913
 20
5.7028338509
 11
4.8600931913
 21
5.6728338509
  0
LINE
  5
28E
100
AcDbEntity
  8
0
100
AcDbLine
 62
7
  6
CONTINUOUS
 10
4.8665135865
 20
5.7028338509
 11
4.8665135865
 21
5.6728338509
  0
LINE
  5
28F
100
AcDbEntity
  8
0
100
AcDbLine
 62
7
  6
CONTINUOUS
 10
4.8724377174
 20
5.7028338509
 11
4.8724377174
 21
5.6728338509
  0
LINE
  5
290
100
AcDbEntity
  8
0
100
AcDbLine
 62
7
  6
CONTINUOUS
 10
4.8846851661
 20
5.7028338509
 11
4.8846851661
 21
5.6728338509
  0
LINE
  5
291
100
AcDbEntity
  8
0
100
AcDbLine
 62
7
  6
CONTINUOUS
 10
5.3051202026
 20
4.7463396903
 11
5.3255190184
 21
4.7516279621
  0
LINE
  5
292
100
AcDbEntity
  8
0
100
AcDbLine
 62
7
  6
CONTINUOUS
 10
4.8917562339
 20
5.7028338509
 11
4.8917562339
 21
5.6728338509
  0
LINE
  5
293
100
AcDbEntity
  8
0
100
AcDbLine
 62
7
  6
CONTINUOUS
 10
4.8977640855
 20
5.7028338509
 11
4.8977640855
 21
5.6728338509
  0
LINE
  5
294
100
AcDbEntity
  8
0
100
AcDbLine
 62
7
  6
CONTINUOUS
 10
4.9096246785
 20
5.7028338509
 11
4.9096246785
 21
5.6728338509
  0
LINE
  5
295
100
AcDbEntity
  8
0
100
AcDbLine
 62
7
  6
CONTINUOUS
 10
4.9173270376
 20
5.7028338509
 11
4.9173270376
 21
5.6728338509
  0
LINE
  5
296
100
AcDbEntity
  8
0
100
AcDbLine
 62
7
  6
CONTINUOUS
 10
4.9234021428
 20
5.7028338509
 11
4.9234021428
 21
5.6728338509
  0
LINE
  5
297
100
AcDbEntity
  8
0
100
AcDbLine
 62
7
  6
CONTINUOUS
 10
4.9348433708
 20
5.7028338509
 11
4.9348433708
 21
5.6728338509
  0
LINE
  5
298
100
AcDbEntity
  8
0
100
AcDbLine
 62
7
  6
CONTINUOUS
 10
4.9431559096
 20
5.7028338509
 11
4.9431559096
 21
5.6728338509
  0
LINE
  5
299
100
AcDbEntity
  8
0
100
AcDbLine
 62
7
  6
CONTINUOUS
 10
4.949281617
 20
5.7028338509
 11
4.949281617
 21
5.6728338509
  0
LINE
  5
29A
100
AcDbEntity
  8
0
100
AcDbLine
 62
7
  6
CONTINUOUS
 10
4.9602721206
 20
5.7028338509
 11
4.9602721206
 21
5.6728338509
  0
LINE
  5
29B
100
AcDbEntity
  8
0
100
AcDbLine
 62
7
  6
CONTINUOUS
 10
4.9691720549
 20
5.7028338509
 11
4.9691720549
 21
5.6728338509
  0
LINE
  5
29C
100
AcDbEntity
  8
0
100
AcDbLine
 62
7
  6
CONTINUOUS
 10
4.9753315744
 20
5.7028338509
 11
4.9753315744
 21
5.6728338509
  0
LINE
  5
29D
100
AcDbEntity
  8
0
100
AcDbLine
 62
7
  6
CONTINUOUS
 10
4.9858412293
 20
5.7028338509
 11
4.9858412293
 21
5.6728338509
  0
LINE
  5
29E
100
AcDbEntity
  8
0
100
AcDbLine
 62
7
  6
CONTINUOUS
 10
4.9953041651
 20
5.7028338509
 11
4.9953041651
 21
5.6728338509
  0
LINE
  5
29F
100
AcDbEntity
  8
0
100
AcDbLine
 62
7
  6
CONTINUOUS
 10
4.9989806137
 20
2.4240838509
 11
4.9989806137
 21
2.4388338509
  0
LINE
  5
2A0
100
AcDbEntity
  8
0
100
AcDbLine
 62
7
  6
CONTINUOUS
 10
4.9989806137
 20
2.4683338509
 11
4.9989806137
 21
2.5468338509
  0
LINE
  5
2A1
100
AcDbEntity
  8
0
100
AcDbLine
 62
7
  6
CONTINUOUS
 10
4.9989806137
 20
2.5763338509
 11
4.9989806137
 21
2.6548338509
  0
LINE
  5
2A2
100
AcDbEntity
  8
0
100
AcDbLine
 62
7
  6
CONTINUOUS
 10
4.9989806137
 20
2.6843338509
 11
4.9989806137
 21
2.7628338509
  0
LINE
  5
2A3
100
AcDbEntity
  8
0
100
AcDbLine
 62
7
  6
CONTINUOUS
 10
4.9989806137
 20
2.7923338509
 11
4.9989806137
 21
2.8708338509
  0
LINE
  5
2A4
100
AcDbEntity
  8
0
100
AcDbLine
 62
7
  6
CONTINUOUS
 10
4.9989806137
 20
2.9003338509
 11
4.9989806137
 21
2.9788338509
  0
LINE
  5
2A5
100
AcDbEntity
  8
0
100
AcDbLine
 62
7
  6
CONTINUOUS
 10
4.9989806137
 20
3.0083338509
 11
4.9989806137
 21
3.1937598259
  0
LINE
  5
2A6
100
AcDbEntity
  8
0
100
AcDbLine
 62
7
  6
CONTINUOUS
 10
5.0013898079
 20
3.1937598259
 11
5.0013898079
 21
3.4045660135
  0
LINE
  5
2A7
100
AcDbEntity
  8
0
100
AcDbLine
 62
7
  6
CONTINUOUS
 10
5.0014806137
 20
5.7028338509
 11
5.0014806137
 21
5.6728338509
  0
LINE
  5
2A8
100
AcDbEntity
  8
0
100
AcDbLine
 62
7
  6
CONTINUOUS
 10
5.0114806137
 20
5.7028338509
 11
5.0114806137
 21
5.6728338509
  0
LINE
  5
2A9
100
AcDbEntity
  8
0
100
AcDbLine
 62
7
  6
CONTINUOUS
 10
5.0214806137
 20
5.7028338509
 11
5.0214806137
 21
5.6728338509
  0
LINE
  5
2AA
100
AcDbEntity
  8
0
100
AcDbLine
 62
7
  6
CONTINUOUS
 10
5.0276570624
 20
5.7028338509
 11
5.0276570624
 21
5.6728338509
  0
LINE
  5
2AB
100
AcDbEntity
  8
0
100
AcDbLine
 62
7
  6
CONTINUOUS
 10
5.0371199981
 20
5.7028338509
 11
5.0371199981
 21
5.6728338509
  0
LINE
  5
2AC
100
AcDbEntity
  8
0
100
AcDbLine
 62
7
  6
CONTINUOUS
 10
4.7178410247
 20
4.7511030115
 11
4.697442209
 21
4.7458147397
  0
LINE
  5
2AD
100
AcDbEntity
  8
0
100
AcDbLine
 62
7
  6
CONTINUOUS
 10
5.3262306137
 20
4.7225838509
 11
4.7170811554
 21
4.7225838509
  0
LINE
  5
2AE
100
AcDbEntity
  8
0
100
AcDbLine
 62
7
  6
CONTINUOUS
 10
5.3889806137
 20
4.7528338509
 11
4.6339806137
 21
4.7528338509
  0
LINE
  5
2AF
100
AcDbEntity
  8
0
100
AcDbLine
 62
7
  6
CONTINUOUS
 10
5.2289240823
 20
4.7728338509
 11
5.1900150589
 21
4.7728338509
  0
LINE
  5
2B0
100
AcDbEntity
  8
0
100
AcDbLine
 62
7
  6
CONTINUOUS
 10
4.8329461685
 20
4.7728338509
 11
4.7940371451
 21
4.7728338509
  0
LINE
  5
2B1
100
AcDbEntity
  8
0
100
AcDbLine
 62
7
  6
CONTINUOUS
 10
4.697442209
 20
4.7344029621
 11
4.7170327541
 21
4.7293242629
  0
LINE
  5
2B2
100
AcDbEntity
  8
0
100
AcDbLine
 62
7
  6
CONTINUOUS
 10
5.0476296531
 20
5.7028338509
 11
5.0476296531
 21
5.6728338509
  0
LINE
  5
2B3
100
AcDbEntity
  8
0
100
AcDbLine
 62
7
  6
CONTINUOUS
 10
5.0537891725
 20
5.7028338509
 11
5.0537891725
 21
5.6728338509
  0
LINE
  5
2B4
100
AcDbEntity
  8
0
100
AcDbLine
 62
7
  6
CONTINUOUS
 10
5.0626891068
 20
5.7028338509
 11
5.0626891068
 21
5.6728338509
  0
LINE
  5
2B5
100
AcDbEntity
  8
0
100
AcDbLine
 62
7
  6
CONTINUOUS
 10
5.0736796104
 20
5.7028338509
 11
5.0736796104
 21
5.6728338509
  0
LINE
  5
2B6
100
AcDbEntity
  8
0
100
AcDbLine
 62
7
  6
CONTINUOUS
 10
5.0798053178
 20
5.7028338509
 11
5.0798053178
 21
5.6728338509
  0
LINE
  5
2B7
100
AcDbEntity
  8
0
100
AcDbLine
 62
7
  6
CONTINUOUS
 10
5.0881178566
 20
5.7028338509
 11
5.0881178566
 21
5.6728338509
  0
LINE
  5
2B8
100
AcDbEntity
  8
0
100
AcDbLine
 62
7
  6
CONTINUOUS
 10
5.0995590846
 20
5.7028338509
 11
5.0995590846
 21
5.6728338509
  0
LINE
  5
2B9
100
AcDbEntity
  8
0
100
AcDbLine
 62
7
  6
CONTINUOUS
 10
5.1056341899
 20
5.7028338509
 11
5.1056341899
 21
5.6728338509
  0
LINE
  5
2BA
100
AcDbEntity
  8
0
100
AcDbLine
 62
7
  6
CONTINUOUS
 10
5.113336549
 20
5.7028338509
 11
5.113336549
 21
5.6728338509
  0
LINE
  5
2BB
100
AcDbEntity
  8
0
100
AcDbLine
 62
7
  6
CONTINUOUS
 10
5.1251971419
 20
5.7028338509
 11
5.1251971419
 21
5.6728338509
  0
LINE
  5
2BC
100
AcDbEntity
  8
0
100
AcDbLine
 62
7
  6
CONTINUOUS
 10
5.1312049935
 20
5.7028338509
 11
5.1312049935
 21
5.6728338509
  0
LINE
  5
2BD
100
AcDbEntity
  8
0
100
AcDbLine
 62
7
  6
CONTINUOUS
 10
5.1382760613
 20
5.7028338509
 11
5.1382760613
 21
5.6728338509
  0
LINE
  5
2BE
100
AcDbEntity
  8
0
100
AcDbLine
 62
7
  6
CONTINUOUS
 10
5.15052351
 20
5.7028338509
 11
5.15052351
 21
5.6728338509
  0
LINE
  5
2BF
100
AcDbEntity
  8
0
100
AcDbLine
 62
7
  6
CONTINUOUS
 10
5.1564476409
 20
5.7028338509
 11
5.1564476409
 21
5.6728338509
  0
LINE
  5
2C0
100
AcDbEntity
  8
0
100
AcDbLine
 62
7
  6
CONTINUOUS
 10
5.1628680362
 20
5.7028338509
 11
5.1628680362
 21
5.6728338509
  0
LINE
  5
2C1
100
AcDbEntity
  8
0
100
AcDbLine
 62
7
  6
CONTINUOUS
 10
5.1754687713
 20
5.7028338509
 11
5.1754687713
 21
5.6728338509
  0
LINE
  5
2C2
100
AcDbEntity
  8
0
100
AcDbLine
 62
7
  6
CONTINUOUS
 10
5.1812929438
 20
5.7028338509
 11
5.1812929438
 21
5.6728338509
  0
LINE
  5
2C3
100
AcDbEntity
  8
0
100
AcDbLine
 62
7
  6
CONTINUOUS
 10
5.1870450686
 20
5.7028338509
 11
5.1870450686
 21
5.6728338509
  0
LINE
  5
2C4
100
AcDbEntity
  8
0
100
AcDbLine
 62
7
  6
CONTINUOUS
 10
5.1900150589
 20
4.9278338509
 11
5.1900150589
 21
4.7728338509
  0
LINE
  5
2C5
100
AcDbEntity
  8
0
100
AcDbLine
 62
7
  6
CONTINUOUS
 10
4.7334877235
 20
3.836360212
 11
4.5343219491
 21
3.4092478304
  0
LINE
  5
2C6
100
AcDbEntity
  8
0
100
AcDbLine
 62
7
  6
CONTINUOUS
 10
4.2437718941
 20
2.7861612269
 11
4.2855699899
 21
2.8757975324
  0
LINE
  5
2C7
100
AcDbEntity
  8
0
100
AcDbLine
 62
7
  6
CONTINUOUS
 10
4.3018819051
 20
2.9107785476
 11
4.3436800008
 21
3.0004148531
  0
LINE
  5
2C8
100
AcDbEntity
  8
0
100
AcDbLine
 62
7
  6
CONTINUOUS
 10
4.3599919161
 20
3.0353958683
 11
4.4017900118
 21
3.1250321739
  0
LINE
  5
2C9
100
AcDbEntity
  8
0
100
AcDbLine
 62
7
  6
CONTINUOUS
 10
4.4181019271
 20
3.160013189
 11
4.4599000228
 21
3.2496494946
  0
LINE
  5
2CA
100
AcDbEntity
  8
0
100
AcDbLine
 62
7
  6
CONTINUOUS
 10
4.4762119381
 20
3.2846305097
 11
4.5180100338
 21
3.3742668153
  0
LINE
  5
2CB
100
AcDbEntity
  8
0
100
AcDbLine
 62
7
  6
CONTINUOUS
 10
5.3106902077
 20
5.0578338509
 11
5.3255190184
 21
5.0616779621
  0
LINE
  5
2CC
100
AcDbEntity
  8
0
100
AcDbLine
 62
7
  6
CONTINUOUS
 10
4.6114816032
 20
4.9278338509
 11
5.4114796242
 21
4.9278338509
  0
LINE
  5
2CD
100
AcDbEntity
  8
0
100
AcDbLine
 62
7
  6
CONTINUOUS
 10
5.3255190184
 20
4.7285897397
 11
5.3058806137
 21
4.7336808488
  0
LINE
  5
2CE
100
AcDbEntity
  8
0
100
AcDbLine
 62
7
  6
CONTINUOUS
 10
5.1999645524
 20
5.7028338509
 11
5.1999645524
 21
5.6728338509
  0
LINE
  5
2CF
100
AcDbEntity
  8
0
100
AcDbLine
 62
7
  6
CONTINUOUS
 10
5.2056728029
 20
5.7028338509
 11
5.2056728029
 21
5.6728338509
  0
LINE
  5
2D0
100
AcDbEntity
  8
0
100
AcDbLine
 62
7
  6
CONTINUOUS
 10
5.2107408911
 20
5.7028338509
 11
5.2107408911
 21
5.6728338509
  0
LINE
  5
2D1
100
AcDbEntity
  8
0
100
AcDbLine
 62
7
  6
CONTINUOUS
 10
5.2239437121
 20
5.7028338509
 11
5.2239437121
 21
5.6728338509
  0
LINE
  5
2D2
100
AcDbEntity
  8
0
100
AcDbLine
 62
7
  6
CONTINUOUS
 10
5.2289240823
 20
4.9278338509
 11
5.2289240823
 21
4.7728338509
  0
LINE
  5
2D3
100
AcDbEntity
  8
0
100
AcDbLine
 62
7
  6
CONTINUOUS
 10
5.2295203947
 20
5.7028338509
 11
5.2295203947
 21
5.6728338509
  0
LINE
  5
2D4
100
AcDbEntity
  8
0
100
AcDbLine
 62
7
  6
CONTINUOUS
 10
5.233890555
 20
5.7028338509
 11
5.233890555
 21
5.6728338509
  0
LINE
  5
2D5
100
AcDbEntity
  8
0
100
AcDbLine
 62
7
  6
CONTINUOUS
 10
5.2473405252
 20
5.7028338509
 11
5.2473405252
 21
5.6728338509
  0
LINE
  5
2D6
100
AcDbEntity
  8
0
100
AcDbLine
 62
7
  6
CONTINUOUS
 10
5.2527703547
 20
5.7028338509
 11
5.2527703547
 21
5.6728338509
  0
LINE
  5
2D7
100
AcDbEntity
  8
0
100
AcDbLine
 62
7
  6
CONTINUOUS
 10
5.2564306087
 20
5.7028338509
 11
5.2564306087
 21
5.6728338509
  0
LINE
  5
2D8
100
AcDbEntity
  8
0
100
AcDbLine
 62
7
  6
CONTINUOUS
 10
5.2700908627
 20
5.7028338509
 11
5.2700908627
 21
5.6728338509
  0
LINE
  5
2D9
100
AcDbEntity
  8
0
100
AcDbLine
 62
7
  6
CONTINUOUS
 10
5.2753589562
 20
5.7028338509
 11
5.2753589562
 21
5.6728338509
  0
LINE
  5
2DA
100
AcDbEntity
  8
0
100
AcDbLine
 62
7
  6
CONTINUOUS
 10
5.2782992715
 20
5.7028338509
 11
5.2782992715
 21
5.6728338509
  0
LINE
  5
2DB
100
AcDbEntity
  8
0
100
AcDbLine
 62
7
  6
CONTINUOUS
 10
5.2921323675
 20
5.7028338509
 11
5.2921323675
 21
5.6728338509
  0
LINE
  5
2DC
100
AcDbEntity
  8
0
100
AcDbLine
 62
7
  6
CONTINUOUS
 10
5.2972242855
 20
5.7028338509
 11
5.2972242855
 21
5.6728338509
  0
LINE
  5
2DD
100
AcDbEntity
  8
0
100
AcDbLine
 62
7
  6
CONTINUOUS
 10
5.2994366029
 20
5.7028338509
 11
5.2994366029
 21
5.6728338509
  0
LINE
  5
2DE
100
AcDbEntity
  8
0
100
AcDbLine
 62
7
  6
CONTINUOUS
 10
5.3039806137
 20
4.7225838509
 11
5.3039806137
 21
3.9273338509
  0
LINE
  5
2DF
100
AcDbEntity
  8
0
100
AcDbLine
 62
7
  6
CONTINUOUS
 10
5.3039806137
 20
2.4240838509
 11
5.3039806137
 21
2.4388338509
  0
LINE
  5
2E0
100
AcDbEntity
  8
0
100
AcDbLine
 62
7
  6
CONTINUOUS
 10
5.3039806137
 20
2.4683338509
 11
5.3039806137
 21
2.5468338509
  0
LINE
  5
2E1
100
AcDbEntity
  8
0
100
AcDbLine
 62
7
  6
CONTINUOUS
 10
5.3039806137
 20
2.5763338509
 11
5.3039806137
 21
2.6548338509
  0
LINE
  5
2E2
100
AcDbEntity
  8
0
100
AcDbLine
 62
7
  6
CONTINUOUS
 10
5.3039806137
 20
2.6843338509
 11
5.3039806137
 21
2.7628338509
  0
LINE
  5
2E3
100
AcDbEntity
  8
0
100
AcDbLine
 62
7
  6
CONTINUOUS
 10
5.3039806137
 20
2.7923338509
 11
5.3039806137
 21
2.8708338509
  0
LINE
  5
2E4
100
AcDbEntity
  8
0
100
AcDbLine
 62
7
  6
CONTINUOUS
 10
5.3039806137
 20
2.9003338509
 11
5.3039806137
 21
2.9788338509
  0
LINE
  5
2E5
100
AcDbEntity
  8
0
100
AcDbLine
 62
7
  6
CONTINUOUS
 10
5.3039806137
 20
3.0083338509
 11
5.3039806137
 21
3.9140838509
  0
LINE
  5
2E6
100
AcDbEntity
  8
0
100
AcDbLine
 62
7
  6
CONTINUOUS
 10
5.3058806137
 20
4.7334838509
 11
5.3058806137
 21
4.7465368539
  0
LINE
  5
2E7
100
AcDbEntity
  8
0
100
AcDbLine
 62
7
  6
CONTINUOUS
 10
5.3058806137
 20
5.0779838509
 11
5.3058806137
 21
5.0910368539
  0
LINE
  5
2E8
100
AcDbEntity
  8
0
100
AcDbLine
 62
7
  6
CONTINUOUS
 10
5.3058806137
 20
5.1124338509
 11
5.3058806137
 21
5.1254868539
  0
LINE
  5
2E9
100
AcDbEntity
  8
0
100
AcDbLine
 62
7
  6
CONTINUOUS
 10
5.3058806137
 20
5.1468838509
 11
5.3058806137
 21
5.1599368539
  0
LINE
  5
2EA
100
AcDbEntity
  8
0
100
AcDbLine
 62
7
  6
CONTINUOUS
 10
5.3058806137
 20
5.1813338509
 11
5.3058806137
 21
5.1943868539
  0
LINE
  5
2EB
100
AcDbEntity
  8
0
100
AcDbLine
 62
7
  6
CONTINUOUS
 10
5.3058806137
 20
5.2157838509
 11
5.3058806137
 21
5.2288368539
  0
LINE
  5
2EC
100
AcDbEntity
  8
0
100
AcDbLine
 62
7
  6
CONTINUOUS
 10
5.3058806137
 20
5.2502338509
 11
5.3058806137
 21
5.2632868539
  0
LINE
  5
2ED
100
AcDbEntity
  8
0
100
AcDbLine
 62
7
  6
CONTINUOUS
 10
5.3058806137
 20
5.2846838509
 11
5.3058806137
 21
5.2977368539
  0
LINE
  5
2EE
100
AcDbEntity
  8
0
100
AcDbLine
 62
7
  6
CONTINUOUS
 10
5.3058806137
 20
5.3191338509
 11
5.3058806137
 21
5.3321868539
  0
LINE
  5
2EF
100
AcDbEntity
  8
0
100
AcDbLine
 62
7
  6
CONTINUOUS
 10
5.3058806137
 20
5.3535838509
 11
5.3058806137
 21
5.3666368539
  0
LINE
  5
2F0
100
AcDbEntity
  8
0
100
AcDbLine
 62
7
  6
CONTINUOUS
 10
5.3058806137
 20
5.3880338509
 11
5.3058806137
 21
5.4010868539
  0
LINE
  5
2F1
100
AcDbEntity
  8
0
100
AcDbLine
 62
7
  6
CONTINUOUS
 10
5.3058806137
 20
5.4224838509
 11
5.3058806137
 21
5.4355368539
  0
LINE
  5
2F2
100
AcDbEntity
  8
0
100
AcDbLine
 62
7
  6
CONTINUOUS
 10
5.3058806137
 20
5.4569338509
 11
5.3058806137
 21
5.4699868539
  0
LINE
  5
2F3
100
AcDbEntity
  8
0
100
AcDbLine
 62
7
  6
CONTINUOUS
 10
5.3058806137
 20
5.4913838509
 11
5.3058806137
 21
5.5044368539
  0
LINE
  5
2F4
100
AcDbEntity
  8
0
100
AcDbLine
 62
7
  6
CONTINUOUS
 10
5.3134046254
 20
5.7028338509
 11
5.3134046254
 21
5.6728338509
  0
LINE
  5
2F5
100
AcDbEntity
  8
0
100
AcDbLine
 62
7
  6
CONTINUOUS
 10
5.3183064113
 20
5.7028338509
 11
5.3183064113
 21
5.6728338509
  0
LINE
  5
2F6
100
AcDbEntity
  8
0
100
AcDbLine
 62
7
  6
CONTINUOUS
 10
5.319784667
 20
5.7028338509
 11
5.319784667
 21
5.6728338509
  0
LINE
  5
2F7
100
AcDbEntity
  8
0
100
AcDbLine
 62
7
  6
CONTINUOUS
 10
5.3262306137
 20
5.4861209831
 11
5.3262306137
 21
5.4754467188
  0
LINE
  5
2F8
100
AcDbEntity
  8
0
100
AcDbLine
 62
7
  6
CONTINUOUS
 10
5.3262306137
 20
5.4516709831
 11
5.3262306137
 21
5.4409967188
  0
LINE
  5
2F9
100
AcDbEntity
  8
0
100
AcDbLine
 62
7
  6
CONTINUOUS
 10
5.3262306137
 20
5.4172209831
 11
5.3262306137
 21
5.4065467188
  0
LINE
  5
2FA
100
AcDbEntity
  8
0
100
AcDbLine
 62
7
  6
CONTINUOUS
 10
5.3262306137
 20
5.3827709831
 11
5.3262306137
 21
5.3720967188
  0
LINE
  5
2FB
100
AcDbEntity
  8
0
100
AcDbLine
 62
7
  6
CONTINUOUS
 10
5.3262306137
 20
5.3483209831
 11
5.3262306137
 21
5.3376467188
  0
LINE
  5
2FC
100
AcDbEntity
  8
0
100
AcDbLine
 62
7
  6
CONTINUOUS
 10
5.3262306137
 20
5.3138709831
 11
5.3262306137
 21
5.3031967188
  0
LINE
  5
2FD
100
AcDbEntity
  8
0
100
AcDbLine
 62
7
  6
CONTINUOUS
 10
5.3262306137
 20
5.2794209831
 11
5.3262306137
 21
5.2687467188
  0
LINE
  5
2FE
100
AcDbEntity
  8
0
100
AcDbLine
 62
7
  6
CONTINUOUS
 10
5.3262306137
 20
5.2449709831
 11
5.3262306137
 21
5.2342967188
  0
LINE
  5
2FF
100
AcDbEntity
  8
0
100
AcDbLine
 62
7
  6
CONTINUOUS
 10
5.3262306137
 20
5.2105209831
 11
5.3262306137
 21
5.1998467188
  0
LINE
  5
300
100
AcDbEntity
  8
0
100
AcDbLine
 62
7
  6
CONTINUOUS
 10
5.3262306137
 20
5.1760709831
 11
5.3262306137
 21
5.1653967188
  0
LINE
  5
301
100
AcDbEntity
  8
0
100
AcDbLine
 62
7
  6
CONTINUOUS
 10
5.3262306137
 20
5.1416209831
 11
5.3262306137
 21
5.1309467188
  0
LINE
  5
302
100
AcDbEntity
  8
0
100
AcDbLine
 62
7
  6
CONTINUOUS
 10
5.3262306137
 20
5.1071709831
 11
5.3262306137
 21
5.0964967188
  0
LINE
  5
303
100
AcDbEntity
  8
0
100
AcDbLine
 62
7
  6
CONTINUOUS
 10
5.3262306137
 20
5.0727209831
 11
5.3262306137
 21
5.0620467188
  0
LINE
  5
304
100
AcDbEntity
  8
0
100
AcDbLine
 62
7
  6
CONTINUOUS
 10
5.3262306137
 20
4.7282209831
 11
5.3262306137
 21
4.7225838509
  0
LINE
  5
305
100
AcDbEntity
  8
0
100
AcDbLine
 62
7
  6
CONTINUOUS
 10
5.3262306137
 20
4.7519967188
 11
5.3262306137
 21
4.7528338509
  0
LINE
  5
306
100
AcDbEntity
  8
0
100
AcDbLine
 62
7
  6
CONTINUOUS
 10
5.3262306137
 20
5.5098967188
 11
5.3262306137
 21
5.5178338509
  0
LINE
  5
307
100
AcDbEntity
  8
0
100
AcDbLine
 62
7
  6
CONTINUOUS
 10
5.3338493305
 20
5.7028338509
 11
5.3338493305
 21
5.6728338509
  0
LINE
  5
308
100
AcDbEntity
  8
0
100
AcDbLine
 62
7
  6
CONTINUOUS
 10
5.3348636103
 20
6.1703338509
 11
5.3348636103
 21
6.1678338509
  0
LINE
  5
309
100
AcDbEntity
  8
0
100
AcDbLine
 62
7
  6
CONTINUOUS
 10
5.3385475489
 20
5.7028338509
 11
5.3385475489
 21
5.6728338509
  0
LINE
  5
30A
100
AcDbEntity
  8
0
100
AcDbLine
 62
7
  6
CONTINUOUS
 10
5.3392876911
 20
5.7028338509
 11
5.3392876911
 21
5.6728338509
  0
LINE
  5
30B
100
AcDbEntity
  8
0
100
AcDbLine
 62
7
  6
CONTINUOUS
 10
5.3051202026
 20
5.0908396903
 11
5.3255190184
 21
5.0961279621
  0
LINE
  5
30C
100
AcDbEntity
  8
0
100
AcDbLine
 62
7
  6
CONTINUOUS
 10
5.3051202026
 20
5.1252896903
 11
5.3255190184
 21
5.1305779621
  0
LINE
  5
30D
100
AcDbEntity
  8
0
100
AcDbLine
 62
7
  6
CONTINUOUS
 10
5.3051202026
 20
5.1597396903
 11
5.3255190184
 21
5.1650279621
  0
LINE
  5
30E
100
AcDbEntity
  8
0
100
AcDbLine
 62
7
  6
CONTINUOUS
 10
5.3051202026
 20
5.1941896903
 11
5.3255190184
 21
5.1994779621
  0
LINE
  5
30F
100
AcDbEntity
  8
0
100
AcDbLine
 62
7
  6
CONTINUOUS
 10
4.7178410247
 20
5.0611530115
 11
4.7050385462
 21
5.0578338509
  0
LINE
  5
310
100
AcDbEntity
  8
0
100
AcDbLine
 62
7
  6
CONTINUOUS
 10
5.3051202026
 20
5.2286396903
 11
5.3255190184
 21
5.2339279621
  0
LINE
  5
311
100
AcDbEntity
  8
0
100
AcDbLine
 62
7
  6
CONTINUOUS
 10
4.5714806137
 20
4.9678338509
 11
5.4514806137
 21
4.9678338509
  0
LINE
  5
312
100
AcDbEntity
  8
0
100
AcDbLine
 62
7
  6
CONTINUOUS
 10
4.5614806137
 20
4.9928338509
 11
5.4614806137
 21
4.9928338509
  0
LINE
  5
313
100
AcDbEntity
  8
0
100
AcDbLine
 62
7
  6
CONTINUOUS
 10
4.5614806137
 20
5.0578338509
 11
5.4614806137
 21
5.0578338509
  0
LINE
  5
314
100
AcDbEntity
  8
0
100
AcDbLine
 62
7
  6
CONTINUOUS
 10
4.697442209
 20
5.0789029621
 11
4.7170327541
 21
5.0738242629
  0
LINE
  5
315
100
AcDbEntity
  8
0
100
AcDbLine
 62
7
  6
CONTINUOUS
 10
4.697442209
 20
5.1133529621
 11
4.7170327541
 21
5.1082742629
  0
LINE
  5
316
100
AcDbEntity
  8
0
100
AcDbLine
 62
7
  6
CONTINUOUS
 10
4.697442209
 20
5.1478029621
 11
4.7170327541
 21
5.1427242629
  0
LINE
  5
317
100
AcDbEntity
  8
0
100
AcDbLine
 62
7
  6
CONTINUOUS
 10
5.3534104454
 20
5.7028338509
 11
5.3534104454
 21
5.6728338509
  0
LINE
  5
318
100
AcDbEntity
  8
0
100
AcDbLine
 62
7
  6
CONTINUOUS
 10
5.3578922187
 20
5.7028338509
 11
5.3578922187
 21
5.6728338509
  0
LINE
  5
319
100
AcDbEntity
  8
0
100
AcDbLine
 62
7
  6
CONTINUOUS
 10
5.3720343544
 20
5.7028338509
 11
5.3720343544
 21
5.6728338509
  0
LINE
  5
31A
100
AcDbEntity
  8
0
100
AcDbLine
 62
7
  6
CONTINUOUS
 10
5.3762873985
 20
5.7028338509
 11
5.3762873985
 21
5.6728338509
  0
LINE
  5
31B
100
AcDbEntity
  8
0
100
AcDbLine
 62
7
  6
CONTINUOUS
 10
5.3853225756
 20
6.1678338509
 11
5.3853225756
 21
6.1703338509
  0
LINE
  5
31C
100
AcDbEntity
  8
0
100
AcDbLine
 62
7
  6
CONTINUOUS
 10
5.3896700106
 20
5.7028338509
 11
5.3896700106
 21
5.6728338509
  0
LINE
  5
31D
100
AcDbEntity
  8
0
100
AcDbLine
 62
7
  6
CONTINUOUS
 10
5.3907171
 20
6.1703338509
 11
5.3907171
 21
6.1678338509
  0
LINE
  5
31E
100
AcDbEntity
  8
0
100
AcDbLine
 62
7
  6
CONTINUOUS
 10
5.3936826682
 20
5.7028338509
 11
5.3936826682
 21
5.6728338509
  0
LINE
  5
31F
100
AcDbEntity
  8
0
100
AcDbLine
 62
7
  6
CONTINUOUS
 10
5.3998365233
 20
6.1303338509
 11
5.3998365233
 21
6.2113338509
  0
LINE
  5
320
100
AcDbEntity
  8
0
100
AcDbLine
 62
7
  6
CONTINUOUS
 10
5.4020174437
 20
6.2009934266
 11
5.4020174437
 21
6.1785891692
  0
LINE
  5
321
100
AcDbEntity
  8
0
100
AcDbLine
 62
7
  6
CONTINUOUS
 10
5.4020174437
 20
6.1682487449
 11
5.4020174437
 21
6.1303338509
  0
LINE
  5
322
100
AcDbEntity
  8
0
100
AcDbLine
 62
7
  6
CONTINUOUS
 10
5.4048438124
 20
6.1682487449
 11
5.4048438124
 21
6.1785891692
  0
LINE
  5
323
100
AcDbEntity
  8
0
100
AcDbLine
 62
7
  6
CONTINUOUS
 10
5.4058716257
 20
6.2009934266
 11
5.4058716257
 21
6.2113338509
  0
LINE
  5
324
100
AcDbEntity
  8
0
100
AcDbLine
 62
7
  6
CONTINUOUS
 10
5.406269076
 20
5.7028338509
 11
5.406269076
 21
5.6728338509
  0
LINE
  5
325
100
AcDbEntity
  8
0
100
AcDbLine
 62
7
  6
CONTINUOUS
 10
5.4089806137
 20
4.9278338509
 11
5.4089806137
 21
4.7728338509
  0
LINE
  5
326
100
AcDbEntity
  8
0
100
AcDbLine
 62
7
  6
CONTINUOUS
 10
5.4099741596
 20
6.1785891692
 11
5.4099741596
 21
6.1682487449
  0
LINE
  5
327
100
AcDbEntity
  8
0
100
AcDbLine
 62
7
  6
CONTINUOUS
 10
5.4100303486
 20
5.7028338509
 11
5.4100303486
 21
5.6728338509
  0
LINE
  5
328
100
AcDbEntity
  8
0
100
AcDbLine
 62
7
  6
CONTINUOUS
 10
5.4109887743
 20
6.2113338509
 11
5.4109887743
 21
6.2009934266
  0
LINE
  5
329
100
AcDbEntity
  8
0
100
AcDbLine
 62
7
  6
CONTINUOUS
 10
5.4128546823
 20
6.2113338509
 11
5.4128546823
 21
6.1303338509
  0
LINE
  5
32A
100
AcDbEntity
  8
0
100
AcDbLine
 62
7
  6
CONTINUOUS
 10
5.4136019095
 20
6.1303338509
 11
5.4136019095
 21
6.1406742764
  0
LINE
  5
32B
100
AcDbEntity
  8
0
100
AcDbLine
 62
7
  6
CONTINUOUS
 10
5.414112685
 20
6.2113338509
 11
5.414112685
 21
6.1406742764
  0
LINE
  5
32C
100
AcDbEntity
  8
0
100
AcDbLine
 62
7
  6
CONTINUOUS
 10
5.4186219117
 20
6.1406742764
 11
5.4186219117
 21
6.1303338509
  0
LINE
  5
32D
100
AcDbEntity
  8
0
100
AcDbLine
 62
7
  6
CONTINUOUS
 10
5.4202306137
 20
6.7103338509
 11
5.4202306137
 21
5.7924041929
  0
LINE
  5
32E
100
AcDbEntity
  8
0
100
AcDbLine
 62
7
  6
CONTINUOUS
 10
5.4217860536
 20
5.7028338509
 11
5.4217860536
 21
5.6728338509
  0
LINE
  5
32F
100
AcDbEntity
  8
0
100
AcDbLine
 62
7
  6
CONTINUOUS
 10
5.4252856319
 20
5.7028338509
 11
5.4252856319
 21
5.6728338509
  0
LINE
  5
330
100
AcDbEntity
  8
0
100
AcDbLine
 62
7
  6
CONTINUOUS
 10
5.4288286366
 20
5.7303338509
 11
5.4288286366
 21
5.7338338509
  0
LINE
  5
331
100
AcDbEntity
  8
0
100
AcDbLine
 62
7
  6
CONTINUOUS
 10
5.4361784126
 20
5.7028338509
 11
5.4361784126
 21
5.6728338509
  0
LINE
  5
332
100
AcDbEntity
  8
0
100
AcDbLine
 62
7
  6
CONTINUOUS
 10
5.4394067044
 20
5.7028338509
 11
5.4394067044
 21
5.6728338509
  0
LINE
  5
333
100
AcDbEntity
  8
0
100
AcDbLine
 62
7
  6
CONTINUOUS
 10
5.4494067044
 20
5.7028338509
 11
5.4494067044
 21
5.6728338509
  0
LINE
  5
334
100
AcDbEntity
  8
0
100
AcDbLine
 62
7
  6
CONTINUOUS
 10
5.4514806137
 20
4.9678338509
 11
5.4514806137
 21
4.9928338509
  0
LINE
  5
335
100
AcDbEntity
  8
0
100
AcDbLine
 62
7
  6
CONTINUOUS
 10
5.4523548612
 20
5.7028338509
 11
5.4523548612
 21
5.6728338509
  0
LINE
  5
336
100
AcDbEntity
  8
0
100
AcDbLine
 62
7
  6
CONTINUOUS
 10
5.4614346712
 20
5.7028338509
 11
5.4614346712
 21
5.6728338509
  0
LINE
  5
337
100
AcDbEntity
  8
0
100
AcDbLine
 62
7
  6
CONTINUOUS
 10
5.4614806137
 20
4.9928338509
 11
5.4614806137
 21
5.0578338509
  0
LINE
  5
338
100
AcDbEntity
  8
0
100
AcDbLine
 62
7
  6
CONTINUOUS
 10
5.4640946124
 20
5.7028338509
 11
5.4640946124
 21
5.6728338509
  0
LINE
  5
339
100
AcDbEntity
  8
0
100
AcDbLine
 62
7
  6
CONTINUOUS
 10
5.4722293453
 20
5.7028338509
 11
5.4722293453
 21
5.6728338509
  0
LINE
  5
33A
100
AcDbEntity
  8
0
100
AcDbLine
 62
7
  6
CONTINUOUS
 10
5.4745937801
 20
5.7028338509
 11
5.4745937801
 21
5.6728338509
  0
LINE
  5
33B
100
AcDbEntity
  8
0
100
AcDbLine
 62
7
  6
CONTINUOUS
 10
5.4817611391
 20
5.7028338509
 11
5.4817611391
 21
5.6728338509
  0
LINE
  5
33C
100
AcDbEntity
  8
0
100
AcDbLine
 62
7
  6
CONTINUOUS
 10
5.4838235867
 20
5.7028338509
 11
5.4838235867
 21
5.6728338509
  0
LINE
  5
33D
100
AcDbEntity
  8
0
100
AcDbLine
 62
7
  6
CONTINUOUS
 10
5.4874806137
 20
5.6728338509
 11
5.4874806137
 21
5.5818338509
  0
LINE
  5
33E
100
AcDbEntity
  8
0
100
AcDbLine
 62
7
  6
CONTINUOUS
 10
5.4900039266
 20
5.7028338509
 11
5.4900039266
 21
5.6728338509
  0
LINE
  5
33F
100
AcDbEntity
  8
0
100
AcDbLine
 62
7
  6
CONTINUOUS
 10
5.4917587342
 20
5.7028338509
 11
5.4917587342
 21
5.6728338509
  0
LINE
  5
340
100
AcDbEntity
  8
0
100
AcDbLine
 62
7
  6
CONTINUOUS
 10
5.4969351151
 20
5.7028338509
 11
5.4969351151
 21
5.6728338509
  0
LINE
  5
341
100
AcDbEntity
  8
0
100
AcDbLine
 62
7
  6
CONTINUOUS
 10
4.7178410247
 20
5.0956030115
 11
4.697442209
 21
5.0903147397
  0
LINE
  5
342
100
AcDbEntity
  8
0
100
AcDbLine
 62
7
  6
CONTINUOUS
 10
5.3051202026
 20
5.2630896903
 11
5.3255190184
 21
5.2683779621
  0
LINE
  5
343
100
AcDbEntity
  8
0
100
AcDbLine
 62
7
  6
CONTINUOUS
 10
4.7178410247
 20
5.1300530115
 11
4.697442209
 21
5.1247647397
  0
LINE
  5
344
100
AcDbEntity
  8
0
100
AcDbLine
 62
7
  6
CONTINUOUS
 10
5.3051202026
 20
5.2975396903
 11
5.3255190184
 21
5.3028279621
  0
LINE
  5
345
100
AcDbEntity
  8
0
100
AcDbLine
 62
7
  6
CONTINUOUS
 10
4.7178410247
 20
5.1645030115
 11
4.697442209
 21
5.1592147397
  0
LINE
  5
346
100
AcDbEntity
  8
0
100
AcDbLine
 62
7
  6
CONTINUOUS
 10
5.3051202026
 20
5.3319896903
 11
5.3255190184
 21
5.3372779621
  0
LINE
  5
347
100
AcDbEntity
  8
0
100
AcDbLine
 62
7
  6
CONTINUOUS
 10
4.7178410247
 20
5.1989530115
 11
4.697442209
 21
5.1936647397
  0
LINE
  5
348
100
AcDbEntity
  8
0
100
AcDbLine
 62
7
  6
CONTINUOUS
 10
5.3051202026
 20
5.3664396903
 11
5.3255190184
 21
5.3717279621
  0
LINE
  5
349
100
AcDbEntity
  8
0
100
AcDbLine
 62
7
  6
CONTINUOUS
 10
4.7178410247
 20
5.2334030115
 11
4.697442209
 21
5.2281147397
  0
LINE
  5
34A
100
AcDbEntity
  8
0
100
AcDbLine
 62
7
  6
CONTINUOUS
 10
4.697442209
 20
5.1822529621
 11
4.7170327541
 21
5.1771742629
  0
LINE
  5
34B
100
AcDbEntity
  8
0
100
AcDbLine
 62
7
  6
CONTINUOUS
 10
4.697442209
 20
5.2167029621
 11
4.7170327541
 21
5.2116242629
  0
LINE
  5
34C
100
AcDbEntity
  8
0
100
AcDbLine
 62
7
  6
CONTINUOUS
 10
5.3255190184
 20
5.0730897397
 11
5.3058806137
 21
5.0781808488
  0
LINE
  5
34D
100
AcDbEntity
  8
0
100
AcDbLine
 62
7
  6
CONTINUOUS
 10
4.697442209
 20
5.2511529621
 11
4.7170327541
 21
5.2460742629
  0
LINE
  5
34E
100
AcDbEntity
  8
0
100
AcDbLine
 62
7
  6
CONTINUOUS
 10
5.3255190184
 20
5.1075397397
 11
5.3058806137
 21
5.1126308488
  0
LINE
  5
34F
100
AcDbEntity
  8
0
100
AcDbLine
 62
7
  6
CONTINUOUS
 10
4.697442209
 20
5.2856029621
 11
4.7170327541
 21
5.2805242629
  0
LINE
  5
350
100
AcDbEntity
  8
0
100
AcDbLine
 62
7
  6
CONTINUOUS
 10
5.3255190184
 20
5.1419897397
 11
5.3058806137
 21
5.1470808488
  0
LINE
  5
351
100
AcDbEntity
  8
0
100
AcDbLine
 62
7
  6
CONTINUOUS
 10
4.697442209
 20
5.3200529621
 11
4.7170327541
 21
5.3149742629
  0
LINE
  5
352
100
AcDbEntity
  8
0
100
AcDbLine
 62
7
  6
CONTINUOUS
 10
5.4983774726
 20
5.7028338509
 11
5.4983774726
 21
5.6728338509
  0
LINE
  5
353
100
AcDbEntity
  8
0
100
AcDbLine
 62
7
  6
CONTINUOUS
 10
5.5025357064
 20
5.7028338509
 11
5.5025357064
 21
5.6728338509
  0
LINE
  5
354
100
AcDbEntity
  8
0
100
AcDbLine
 62
7
  6
CONTINUOUS
 10
5.5036616606
 20
5.7028338509
 11
5.5036616606
 21
5.6728338509
  0
LINE
  5
355
100
AcDbEntity
  8
0
100
AcDbLine
 62
7
  6
CONTINUOUS
 10
5.5067903499
 20
5.7028338509
 11
5.5067903499
 21
5.6728338509
  0
LINE
  5
356
100
AcDbEntity
  8
0
100
AcDbLine
 62
7
  6
CONTINUOUS
 10
5.5075968146
 20
5.7028338509
 11
5.5075968146
 21
5.6728338509
  0
LINE
  5
357
100
AcDbEntity
  8
0
100
AcDbLine
 62
7
  6
CONTINUOUS
 10
5.5096873839
 20
5.7028338509
 11
5.5096873839
 21
5.6728338509
  0
LINE
  5
358
100
AcDbEntity
  8
0
100
AcDbLine
 62
7
  6
CONTINUOUS
 10
5.5101721486
 20
5.7028338509
 11
5.5101721486
 21
5.6728338509
  0
LINE
  5
359
100
AcDbEntity
  8
0
100
AcDbLine
 62
7
  6
CONTINUOUS
 10
5.5112188677
 20
5.7028338509
 11
5.5112188677
 21
5.6728338509
  0
LINE
  5
35A
100
AcDbEntity
  8
0
100
AcDbLine
 62
7
  6
CONTINUOUS
 10
5.5113806037
 20
5.7028338509
 11
5.5113806037
 21
5.6728338509
  0
LINE
  5
35B
100
AcDbEntity
  8
0
100
AcDbLine
 62
7
  6
CONTINUOUS
 10
5.5114806137
 20
5.5578338509
 11
5.5114806137
 21
5.5178338509
  0
LINE
  5
35C
100
AcDbEntity
  8
0
100
AcDbLine
 62
7
  6
CONTINUOUS
 10
5.0013898079
 20
3.4045660135
 11
4.9197618346
 21
3.22951426
  0
LINE
  5
35D
100
AcDbEntity
  8
0
100
AcDbLine
 62
7
  6
CONTINUOUS
 10
4.9034499194
 20
3.1945332449
 11
4.9030892682
 21
3.1937598259
  0
LINE
  5
35E
100
AcDbEntity
  8
0
100
AcDbLine
 62
7
  6
CONTINUOUS
 10
4.6307653192
 20
2.6057032291
 11
4.6725634149
 21
2.6953395347
  0
LINE
  5
35F
100
AcDbEntity
  8
0
100
AcDbLine
 62
7
  6
CONTINUOUS
 10
4.6888753302
 20
2.7303205498
 11
4.7306734259
 21
2.8199568554
  0
LINE
  5
360
100
AcDbEntity
  8
0
100
AcDbLine
 62
7
  6
CONTINUOUS
 10
4.7469853412
 20
2.8549378705
 11
4.7887834369
 21
2.9445741761
  0
LINE
  5
361
100
AcDbEntity
  8
0
100
AcDbLine
 62
7
  6
CONTINUOUS
 10
4.8050953522
 20
2.9795551912
 11
4.8468934479
 21
3.0691914968
  0
LINE
  5
362
100
AcDbEntity
  8
0
100
AcDbLine
 62
7
  6
CONTINUOUS
 10
4.8632053631
 20
3.104172512
 11
4.9049806137
 21
3.1937598259
  0
LINE
  5
363
100
AcDbEntity
  8
0
100
AcDbLine
 62
7
  6
CONTINUOUS
 10
5.3051202026
 20
5.4008896903
 11
5.3255190184
 21
5.4061779621
  0
LINE
  5
364
100
AcDbEntity
  8
0
100
AcDbLine
 62
7
  6
CONTINUOUS
 10
4.7178410247
 20
5.2678530115
 11
4.697442209
 21
5.2625647397
  0
LINE
  5
365
100
AcDbEntity
  8
0
100
AcDbLine
 62
7
  6
CONTINUOUS
 10
5.3051202026
 20
5.4353396903
 11
5.3255190184
 21
5.4406279621
  0
LINE
  5
366
100
AcDbEntity
  8
0
100
AcDbLine
 62
7
  6
CONTINUOUS
 10
4.7178410247
 20
5.3023030115
 11
4.697442209
 21
5.2970147397
  0
LINE
  5
367
100
AcDbEntity
  8
0
100
AcDbLine
 62
7
  6
CONTINUOUS
 10
5.3051202026
 20
5.4697896903
 11
5.3255190184
 21
5.4750779621
  0
LINE
  5
368
100
AcDbEntity
  8
0
100
AcDbLine
 62
7
  6
CONTINUOUS
 10
4.7178410247
 20
5.3367530115
 11
4.697442209
 21
5.3314647397
  0
LINE
  5
369
100
AcDbEntity
  8
0
100
AcDbLine
 62
7
  6
CONTINUOUS
 10
5.3051202026
 20
5.5042396903
 11
5.3255190184
 21
5.5095279621
  0
LINE
  5
36A
100
AcDbEntity
  8
0
100
AcDbLine
 62
7
  6
CONTINUOUS
 10
4.7178410247
 20
5.3712030115
 11
4.697442209
 21
5.3659147397
  0
LINE
  5
36B
100
AcDbEntity
  8
0
100
AcDbLine
 62
7
  6
CONTINUOUS
 10
5.3255190184
 20
5.1764397397
 11
5.3058806137
 21
5.1815308488
  0
LINE
  5
36C
100
AcDbEntity
  8
0
100
AcDbLine
 62
7
  6
CONTINUOUS
 10
4.697442209
 20
5.3545029621
 11
4.7170327541
 21
5.3494242629
  0
LINE
  5
36D
100
AcDbEntity
  8
0
100
AcDbLine
 62
7
  6
CONTINUOUS
 10
5.3255190184
 20
5.2108897397
 11
5.3058806137
 21
5.2159808488
  0
LINE
  5
36E
100
AcDbEntity
  8
0
100
AcDbLine
 62
7
  6
CONTINUOUS
 10
4.697442209
 20
5.3889529621
 11
4.7170327541
 21
5.3838742629
  0
LINE
  5
36F
100
AcDbEntity
  8
0
100
AcDbLine
 62
7
  6
CONTINUOUS
 10
5.3255190184
 20
5.2453397397
 11
5.3058806137
 21
5.2504308488
  0
LINE
  5
370
100
AcDbEntity
  8
0
100
AcDbLine
 62
7
  6
CONTINUOUS
 10
4.697442209
 20
5.4234029621
 11
4.7170327541
 21
5.4183242629
  0
LINE
  5
371
100
AcDbEntity
  8
0
100
AcDbLine
 62
7
  6
CONTINUOUS
 10
5.3255190184
 20
5.2797897397
 11
5.3058806137
 21
5.2848808488
  0
LINE
  5
372
100
AcDbEntity
  8
0
100
AcDbLine
 62
7
  6
CONTINUOUS
 10
4.697442209
 20
5.4578529621
 11
4.7170327541
 21
5.4527742629
  0
LINE
  5
373
100
AcDbEntity
  8
0
100
AcDbLine
 62
7
  6
CONTINUOUS
 10
5.3255190184
 20
5.3142397397
 11
5.3058806137
 21
5.3193308488
  0
LINE
  5
374
100
AcDbEntity
  8
0
100
AcDbLine
 62
7
  6
CONTINUOUS
 10
5.4202306137
 20
5.7924041929
 11
5.4286320972
 21
5.7338338509
  0
LINE
  5
375
100
AcDbEntity
  8
0
100
AcDbLine
 62
7
  6
CONTINUOUS
 10
4.7178410247
 20
5.4056530115
 11
4.697442209
 21
5.4003647397
  0
LINE
  5
376
100
AcDbEntity
  8
0
100
AcDbLine
 62
7
  6
CONTINUOUS
 10
4.7178410247
 20
5.4401030115
 11
4.697442209
 21
5.4348147397
  0
LINE
  5
377
100
AcDbEntity
  8
0
100
AcDbLine
 62
7
  6
CONTINUOUS
 10
4.7178410247
 20
5.4745530115
 11
4.697442209
 21
5.4692647397
  0
LINE
  5
378
100
AcDbEntity
  8
0
100
AcDbLine
 62
7
  6
CONTINUOUS
 10
4.7178410247
 20
5.5090030115
 11
4.697442209
 21
5.5037147397
  0
LINE
  5
379
100
AcDbEntity
  8
0
100
AcDbLine
 62
7
  6
CONTINUOUS
 10
5.0443000318
 20
5.5178338509
 11
5.0114920192
 21
5.5172215619
  0
LINE
  5
37A
100
AcDbEntity
  8
0
100
AcDbLine
 62
7
  6
CONTINUOUS
 10
4.5114815815
 20
5.5178338509
 11
5.5114796459
 21
5.5178338509
  0
LINE
  5
37B
100
AcDbEntity
  8
0
100
AcDbLine
 62
7
  6
CONTINUOUS
 10
5.5114806137
 20
5.5578338509
 11
4.5114806137
 21
5.5578338509
  0
LINE
  5
37C
100
AcDbEntity
  8
0
100
AcDbLine
 62
7
  6
CONTINUOUS
 10
4.697442209
 20
5.4923029621
 11
4.7170327541
 21
5.4872242629
  0
LINE
  5
37D
100
AcDbEntity
  8
0
100
AcDbLine
 62
7
  6
CONTINUOUS
 10
5.3255190184
 20
5.3486897397
 11
5.3058806137
 21
5.3537808488
  0
LINE
  5
37E
100
AcDbEntity
  8
0
100
AcDbLine
 62
7
  6
CONTINUOUS
 10
5.3255190184
 20
5.3831397397
 11
5.3058806137
 21
5.3882308488
  0
LINE
  5
37F
100
AcDbEntity
  8
0
100
AcDbLine
 62
7
  6
CONTINUOUS
 10
5.3255190184
 20
5.4175897397
 11
5.3058806137
 21
5.4226808488
  0
LINE
  5
380
100
AcDbEntity
  8
0
100
AcDbLine
 62
7
  6
CONTINUOUS
 10
5.3255190184
 20
5.4520397397
 11
5.3058806137
 21
5.4571308488
  0
LINE
  5
381
100
AcDbEntity
  8
0
100
AcDbLine
 62
7
  6
CONTINUOUS
 10
4.5354806137
 20
5.5818338509
 11
5.4874806137
 21
5.5818338509
  0
LINE
  5
382
100
AcDbEntity
  8
0
100
AcDbLine
 62
7
  6
CONTINUOUS
 10
5.5113806037
 20
5.6728338509
 11
4.5117423597
 21
5.6728338509
  0
LINE
  5
383
100
AcDbEntity
  8
0
100
AcDbLine
 62
7
  6
CONTINUOUS
 10
4.5115948252
 20
5.6728338509
 11
4.5115806237
 21
5.6728338509
  0
LINE
  5
384
100
AcDbEntity
  8
0
100
AcDbLine
 62
7
  6
CONTINUOUS
 10
4.5115806237
 20
5.7028338509
 11
5.5112188677
 21
5.7028338509
  0
LINE
  5
385
100
AcDbEntity
  8
0
100
AcDbLine
 62
7
  6
CONTINUOUS
 10
5.5113664022
 20
5.7028338509
 11
5.5113806037
 21
5.7028338509
  0
LINE
  5
386
100
AcDbEntity
  8
0
100
AcDbLine
 62
7
  6
CONTINUOUS
 10
5.3255190184
 20
5.4864897397
 11
5.3058806137
 21
5.4915808488
  0
LINE
  5
387
100
AcDbEntity
  8
0
100
AcDbLine
 62
7
  6
CONTINUOUS
 10
5.4424806137
 20
5.7303338509
 11
4.5804806137
 21
5.7303338509
  0
LINE
  5
388
100
AcDbEntity
  8
0
100
AcDbLine
 62
7
  6
CONTINUOUS
 10
4.5941339171
 20
5.7338338509
 11
5.4288273103
 21
5.7338338509
  0
LINE
  5
389
100
AcDbEntity
  8
0
100
AcDbLine
 62
7
  6
CONTINUOUS
 10
4.6027306137
 20
5.7924041929
 11
5.4202306137
 21
5.7924041929
  0
LINE
  5
38A
100
AcDbEntity
  8
0
100
AcDbLine
 62
7
  6
CONTINUOUS
 10
5.4874806137
 20
5.5818338509
 11
5.5114806137
 21
5.5578338509
  0
LINE
  5
38B
100
AcDbEntity
  8
0
100
AcDbLine
 62
7
  6
CONTINUOUS
 10
5.2094806137
 20
6.0703338509
 11
4.8174806137
 21
6.0703338509
  0
LINE
  5
38C
100
AcDbEntity
  8
0
100
AcDbLine
 62
7
  6
CONTINUOUS
 10
5.4186219117
 20
6.1303338509
 11
5.4128546823
 21
6.1303338509
  0
LINE
  5
38D
100
AcDbEntity
  8
0
100
AcDbLine
 62
7
  6
CONTINUOUS
 10
5.4020174437
 20
6.1303338509
 11
5.3998365233
 21
6.1303338509
  0
LINE
  5
38E
100
AcDbEntity
  8
0
100
AcDbLine
 62
7
  6
CONTINUOUS
 10
5.4128546823
 20
6.1406742764
 11
5.4186219117
 21
6.1406742764
  0
LINE
  5
38F
100
AcDbEntity
  8
0
100
AcDbLine
 62
7
  6
CONTINUOUS
 10
5.3907171
 20
6.1678338509
 11
5.3348636103
 21
6.1678338509
  0
LINE
  5
390
100
AcDbEntity
  8
0
100
AcDbLine
 62
7
  6
CONTINUOUS
 10
5.2094806137
 20
6.1678338509
 11
4.8174806137
 21
6.1678338509
  0
LINE
  5
391
100
AcDbEntity
  8
0
100
AcDbLine
 62
7
  6
CONTINUOUS
 10
5.3998365233
 20
6.1682487449
 11
5.4099741596
 21
6.1682487449
  0
LINE
  5
392
100
AcDbEntity
  8
0
100
AcDbLine
 62
7
  6
CONTINUOUS
 10
5.3907171
 20
6.1703338509
 11
5.3348636103
 21
6.1703338509
  0
LINE
  5
393
100
AcDbEntity
  8
0
100
AcDbLine
 62
7
  6
CONTINUOUS
 10
5.3998365233
 20
6.1785891692
 11
5.4099741596
 21
6.1785891692
  0
LINE
  5
394
100
AcDbEntity
  8
0
100
AcDbLine
 62
7
  6
CONTINUOUS
 10
5.3998365233
 20
6.2009934266
 11
5.4109887743
 21
6.2009934266
  0
LINE
  5
395
100
AcDbEntity
  8
0
100
AcDbLine
 62
7
  6
CONTINUOUS
 10
5.414112685
 20
6.2113338509
 11
5.4128546823
 21
6.2113338509
  0
LINE
  5
396
100
AcDbEntity
  8
0
100
AcDbLine
 62
7
  6
CONTINUOUS
 10
5.3998365233
 20
6.2113338509
 11
5.4109887743
 21
6.2113338509
  0
LINE
  5
397
100
AcDbEntity
  8
0
100
AcDbLine
 62
7
  6
CONTINUOUS
 10
5.2094806137
 20
6.2673338509
 11
4.8174806137
 21
6.2673338509
  0
LINE
  5
398
100
AcDbEntity
  8
0
100
AcDbLine
 62
7
  6
CONTINUOUS
 10
5.2094806137
 20
6.3648338509
 11
4.8174806137
 21
6.3648338509
  0
LINE
  5
399
100
AcDbEntity
  8
0
100
AcDbLine
 62
7
  6
CONTINUOUS
 10
4.6027306137
 20
6.7103338509
 11
5.4202306137
 21
6.7103338509
  0
LINE
  5
39A
100
AcDbEntity
  8
0
100
AcDbLine
 62
7
  6
CONTINUOUS
 10
5.3052296649
 20
6.8253338509
 11
4.7177306137
 21
6.8253338509
  0
ARC
  5
39B
100
AcDbEntity
  8
0
100
AcDbCircle
 62
7
  6
CONTINUOUS
 10
4.6178512457
 20
2.5904314674
 40
0.02
100
AcDbArc
 50
260.0684881595
 51
49.7815448422
  0
ARC
  5
39C
100
AcDbEntity
  8
0
100
AcDbCircle
 62
7
  6
CONTINUOUS
 10
4.2403740524
 20
2.7664519734
 40
0.02
100
AcDbArc
 50
80.2184551578
 51
229.9315118405
  0
ARC
  5
39D
100
AcDbEntity
  8
0
100
AcDbCircle
 62
7
  6
CONTINUOUS
 10
4.2984840634
 20
2.8910692941
 40
0.02
100
AcDbArc
 50
80.2184551578
 51
229.7815448422
  0
ARC
  5
39E
100
AcDbEntity
  8
0
100
AcDbCircle
 62
7
  6
CONTINUOUS
 10
4.6759612567
 20
2.7150487881
 40
0.02
100
AcDbArc
 50
260.2184551578
 51
49.7815448422
  0
ARC
  5
39F
100
AcDbEntity
  8
0
100
AcDbCircle
 62
7
  6
CONTINUOUS
 10
4.3565940744
 20
3.0156866148
 40
0.02
100
AcDbArc
 50
80.2184551578
 51
229.7815448422
  0
ARC
  5
3A0
100
AcDbEntity
  8
0
100
AcDbCircle
 62
7
  6
CONTINUOUS
 10
4.7340712677
 20
2.8396661088
 40
0.02
100
AcDbArc
 50
260.2184551578
 51
49.7815448422
  0
ARC
  5
3A1
100
AcDbEntity
  8
0
100
AcDbCircle
 62
7
  6
CONTINUOUS
 10
4.4147040853
 20
3.1403039356
 40
0.02
100
AcDbArc
 50
80.2184551578
 51
229.7815448422
  0
ARC
  5
3A2
100
AcDbEntity
  8
0
100
AcDbCircle
 62
7
  6
CONTINUOUS
 10
4.7921812786
 20
2.9642834295
 40
0.02
100
AcDbArc
 50
260.2184551578
 51
49.7815448422
  0
ARC
  5
3A3
100
AcDbEntity
  8
0
100
AcDbCircle
 62
7
  6
CONTINUOUS
 10
4.4728140963
 20
3.2649212563
 40
0.02
100
AcDbArc
 50
80.2184551578
 51
229.7815448422
  0
ARC
  5
3A4
100
AcDbEntity
  8
0
100
AcDbCircle
 62
7
  6
CONTINUOUS
 10
4.8502912896
 20
3.0889007503
 40
0.02
100
AcDbArc
 50
260.2184551578
 51
49.7815448422
  0
ARC
  5
3A5
100
AcDbEntity
  8
0
100
AcDbCircle
 62
7
  6
CONTINUOUS
 10
4.5309241073
 20
3.389538577
 40
0.02
100
AcDbArc
 50
80.2184551578
 51
229.7815448422
  0
ARC
  5
3A6
100
AcDbEntity
  8
0
100
AcDbCircle
 62
7
  6
CONTINUOUS
 10
4.7177306137
 20
6.7103338509
 40
0.115
100
AcDbArc
 50
90.0
 51
180.0
  0
ARC
  5
3A7
100
AcDbEntity
  8
0
100
AcDbCircle
 62
7
  6
CONTINUOUS
 10
4.8174806137
 20
6.3160838509
 40
0.04875
100
AcDbArc
 50
90.0
 51
270.0
  0
ARC
  5
3A8
100
AcDbEntity
  8
0
100
AcDbCircle
 62
7
  6
CONTINUOUS
 10
4.8174806137
 20
6.1190838509
 40
0.04875
100
AcDbArc
 50
90.0
 51
270.0
  0
ARC
  5
3A9
100
AcDbEntity
  8
0
100
AcDbCircle
 62
7
  6
CONTINUOUS
 10
4.6114806137
 20
4.9678338509
 40
0.04
100
AcDbArc
 50
180.0
 51
270.0
  0
ARC
  5
3AA
100
AcDbEntity
  8
0
100
AcDbCircle
 62
7
  6
CONTINUOUS
 10
4.5529806137
 20
5.7303338509
 40
0.0275
100
AcDbArc
 50
273.75
 51
360.0
  0
ARC
  5
3AB
100
AcDbEntity
  8
0
100
AcDbCircle
 62
7
  6
CONTINUOUS
 10
4.6339806137
 20
4.7728338509
 40
0.02
100
AcDbArc
 50
180.0
 51
270.0
  0
ARC
  5
3AC
100
AcDbEntity
  8
0
100
AcDbCircle
 62
7
  6
CONTINUOUS
 10
5.0114806137
 20
3.9273338509
 40
0.2925
100
AcDbArc
 50
180.0
 51
198.1207707255
  0
ARC
  5
3AD
100
AcDbEntity
  8
0
100
AcDbCircle
 62
7
  6
CONTINUOUS
 10
5.0114806137
 20
3.9273338509
 40
0.2925
100
AcDbArc
 50
357.4036616889
 51
360.0
  0
ARC
  5
3AE
100
AcDbEntity
  8
0
100
AcDbCircle
 62
7
  6
CONTINUOUS
 10
5.300597635
 20
2.4535838509
 40
0.0151329787
100
AcDbArc
 50
282.9176327574
 51
77.0823672426
  0
ARC
  5
3AF
100
AcDbEntity
  8
0
100
AcDbCircle
 62
7
  6
CONTINUOUS
 10
5.0023635924
 20
2.4535838509
 40
0.0151329787
100
AcDbArc
 50
102.9176327574
 51
257.0823672426
  0
ARC
  5
3B0
100
AcDbEntity
  8
0
100
AcDbCircle
 62
7
  6
CONTINUOUS
 10
5.300597635
 20
2.5615838509
 40
0.0151329787
100
AcDbArc
 50
282.9176327574
 51
77.0823672426
  0
ARC
  5
3B1
100
AcDbEntity
  8
0
100
AcDbCircle
 62
7
  6
CONTINUOUS
 10
5.0023635924
 20
2.5615838509
 40
0.0151329787
100
AcDbArc
 50
102.9176327574
 51
257.0823672426
  0
ARC
  5
3B2
100
AcDbEntity
  8
0
100
AcDbCircle
 62
7
  6
CONTINUOUS
 10
5.300597635
 20
2.6695838509
 40
0.0151329787
100
AcDbArc
 50
282.9176327574
 51
77.0823672426
  0
ARC
  5
3B3
100
AcDbEntity
  8
0
100
AcDbCircle
 62
7
  6
CONTINUOUS
 10
5.0023635924
 20
2.6695838509
 40
0.0151329787
100
AcDbArc
 50
102.9176327574
 51
257.0823672426
  0
ARC
  5
3B4
100
AcDbEntity
  8
0
100
AcDbCircle
 62
7
  6
CONTINUOUS
 10
5.300597635
 20
2.7775838509
 40
0.0151329787
100
AcDbArc
 50
282.9176327574
 51
77.0823672426
  0
ARC
  5
3B5
100
AcDbEntity
  8
0
100
AcDbCircle
 62
7
  6
CONTINUOUS
 10
5.0023635924
 20
2.7775838509
 40
0.0151329787
100
AcDbArc
 50
102.9176327574
 51
257.0823672426
  0
ARC
  5
3B6
100
AcDbEntity
  8
0
100
AcDbCircle
 62
7
  6
CONTINUOUS
 10
5.300597635
 20
2.8855838509
 40
0.0151329787
100
AcDbArc
 50
282.9176327574
 51
77.0823672426
  0
ARC
  5
3B7
100
AcDbEntity
  8
0
100
AcDbCircle
 62
7
  6
CONTINUOUS
 10
5.0023635924
 20
2.8855838509
 40
0.0151329787
100
AcDbArc
 50
102.9176327574
 51
257.0823672426
  0
ARC
  5
3B8
100
AcDbEntity
  8
0
100
AcDbCircle
 62
7
  6
CONTINUOUS
 10
5.300597635
 20
2.9935838509
 40
0.0151329787
100
AcDbArc
 50
282.9176327574
 51
77.0823672426
  0
ARC
  5
3B9
100
AcDbEntity
  8
0
100
AcDbCircle
 62
7
  6
CONTINUOUS
 10
5.0023635924
 20
2.9935838509
 40
0.0151329787
100
AcDbArc
 50
102.9176327574
 51
257.0823672426
  0
ARC
  5
3BA
100
AcDbEntity
  8
0
100
AcDbCircle
 62
7
  6
CONTINUOUS
 10
5.3052306137
 20
6.7103338509
 40
0.115
100
AcDbArc
 50
0.0
 51
90.0
  0
ARC
  5
3BB
100
AcDbEntity
  8
0
100
AcDbCircle
 62
7
  6
CONTINUOUS
 10
5.2094806137
 20
6.1190838509
 40
0.04875
100
AcDbArc
 50
270.0
 51
90.0
  0
ARC
  5
3BC
100
AcDbEntity
  8
0
100
AcDbCircle
 62
7
  6
CONTINUOUS
 10
5.2094806137
 20
6.3160838509
 40
0.04875
100
AcDbArc
 50
270.0
 51
90.0
  0
ARC
  5
3BD
100
AcDbEntity
  8
0
100
AcDbCircle
 62
7
  6
CONTINUOUS
 10
5.4114806137
 20
4.9678338509
 40
0.04
100
AcDbArc
 50
270.0
 51
360.0
  0
ARC
  5
3BE
100
AcDbEntity
  8
0
100
AcDbCircle
 62
7
  6
CONTINUOUS
 10
5.4699806137
 20
5.7303338509
 40
0.0275
100
AcDbArc
 50
180.0
 51
266.25
  0
ARC
  5
3BF
100
AcDbEntity
  8
0
100
AcDbCircle
 62
7
  6
CONTINUOUS
 10
5.3889806137
 20
4.7728338509
 40
0.02
100
AcDbArc
 50
270.0
 51
360.0
  0
ARC
  5
3C0
100
AcDbEntity
  8
0
100
AcDbCircle
 62
7
  6
CONTINUOUS
 10
5.3032415724
 20
5.270347017
 40
0.0074965323
100
AcDbArc
 50
282.8635583287
 51
284.5129214769
  0
ARC
  5
3C1
100
AcDbEntity
  8
0
100
AcDbCircle
 62
7
  6
CONTINUOUS
 10
5.3032876296
 20
5.2357166072
 40
0.0073103224
100
AcDbArc
 50
283.1541382186
 51
284.5173446033
  0
ARC
  5
3C2
100
AcDbEntity
  8
0
100
AcDbCircle
 62
7
  6
CONTINUOUS
 10
5.3033343109
 20
5.2010814505
 40
0.0071193664
100
AcDbArc
 50
283.4455648152
 51
284.5269003912
  0
ARC
  5
3C3
100
AcDbEntity
  8
0
100
AcDbCircle
 62
7
  6
CONTINUOUS
 10
5.3033833305
 20
5.1664405115
 40
0.0069222626
100
AcDbArc
 50
283.7483728694
 51
284.5314080479
  0
ARC
  5
3C4
100
AcDbEntity
  8
0
100
AcDbCircle
 62
7
  6
CONTINUOUS
 10
5.3238630065
 20
5.0680688292
 40
0.0066018745
100
AcDbArc
 50
283.5491184189
 51
284.5250179595
  0
ARC
  5
3C5
100
AcDbEntity
  8
0
100
AcDbCircle
 62
7
  6
CONTINUOUS
 10
5.3238630065
 20
5.4125688292
 40
0.0066018745
100
AcDbArc
 50
283.5491184182
 51
284.5250179599
  0
ARC
  5
3C6
100
AcDbEntity
  8
0
100
AcDbCircle
 62
7
  6
CONTINUOUS
 10
5.3238630065
 20
5.2747688292
 40
0.0066018745
100
AcDbArc
 50
283.5491184186
 51
284.5250179595
  0
ARC
  5
3C7
100
AcDbEntity
  8
0
100
AcDbCircle
 62
7
  6
CONTINUOUS
 10
5.3238630065
 20
5.3092188292
 40
0.0066018745
100
AcDbArc
 50
283.5491184182
 51
284.5250179596
  0
ARC
  5
3C8
100
AcDbEntity
  8
0
100
AcDbCircle
 62
7
  6
CONTINUOUS
 10
5.3238630065
 20
5.3436688291
 40
0.0066018745
100
AcDbArc
 50
283.5491184177
 51
284.52501796
  0
ARC
  5
3C9
100
AcDbEntity
  8
0
100
AcDbCircle
 62
7
  6
CONTINUOUS
 10
5.3238630065
 20
5.1714188292
 40
0.0066018745
100
AcDbArc
 50
283.5491184175
 51
284.5250179592
  0
ARC
  5
3CA
100
AcDbEntity
  8
0
100
AcDbCircle
 62
7
  6
CONTINUOUS
 10
5.3238630065
 20
5.2058688291
 40
0.0066018745
100
AcDbArc
 50
283.5491184162
 51
284.5250179609
  0
ARC
  5
3CB
100
AcDbEntity
  8
0
100
AcDbCircle
 62
7
  6
CONTINUOUS
 10
5.3238630065
 20
5.1025188291
 40
0.0066018745
100
AcDbArc
 50
283.549118417
 51
284.5250179611
  0
ARC
  5
3CC
100
AcDbEntity
  8
0
100
AcDbCircle
 62
7
  6
CONTINUOUS
 10
5.3238630065
 20
5.4470188291
 40
0.0066018745
100
AcDbArc
 50
283.5491184166
 51
284.5250179601
  0
ARC
  5
3CD
100
AcDbEntity
  8
0
100
AcDbCircle
 62
7
  6
CONTINUOUS
 10
5.3238630065
 20
5.4814688291
 40
0.0066018745
100
AcDbArc
 50
283.5491184156
 51
284.5250179618
  0
ARC
  5
3CE
100
AcDbEntity
  8
0
100
AcDbCircle
 62
7
  6
CONTINUOUS
 10
5.3238630182
 20
5.3781187832
 40
0.0066018271
100
AcDbArc
 50
283.5491996871
 51
284.5250193793
  0
ARC
  5
3CF
100
AcDbEntity
  8
0
100
AcDbCircle
 62
7
  6
CONTINUOUS
 10
5.3238630239
 20
5.2403187613
 40
0.0066018045
100
AcDbArc
 50
283.5492381482
 51
284.525020067
  0
LINE
  5
3D0
100
AcDbEntity
  8
0
100
AcDbLine
 62
7
  6
CONTINUOUS
 10
5.3262305099
 20
5.5098967187
 11
5.3255190171
 21
5.5095279621
  0
LINE
  5
3D1
100
AcDbEntity
  8
0
100
AcDbLine
 62
7
  6
CONTINUOUS
 10
5.3255187746
 20
4.7285897396
 11
5.3262306137
 21
4.7282209831
  0
LINE
  5
3D2
100
AcDbEntity
  8
0
100
AcDbLine
 62
7
  6
CONTINUOUS
 10
4.6974424528
 20
4.7458147396
 11
4.6967306137
 21
4.7454459831
  0
LINE
  5
3D3
100
AcDbEntity
  8
0
100
AcDbLine
 62
7
  6
CONTINUOUS
 10
4.6974424207
 20
4.7344029623
 11
4.6967306137
 21
4.7347717188
  0
LINE
  5
3D4
100
AcDbEntity
  8
0
100
AcDbLine
 62
7
  6
CONTINUOUS
 10
5.3255187746
 20
5.0730897396
 11
5.3262306137
 21
5.0727209831
  0
LINE
  5
3D5
100
AcDbEntity
  8
0
100
AcDbLine
 62
7
  6
CONTINUOUS
 10
4.6974422109
 20
5.0903147397
 11
4.6967306137
 21
5.0899459831
  0
LINE
  5
3D6
100
AcDbEntity
  8
0
100
AcDbLine
 62
7
  6
CONTINUOUS
 10
5.3255187746
 20
5.1075397396
 11
5.3262306137
 21
5.1071709831
  0
LINE
  5
3D7
100
AcDbEntity
  8
0
100
AcDbLine
 62
7
  6
CONTINUOUS
 10
5.3255187746
 20
5.1419897396
 11
5.3262306137
 21
5.1416209831
  0
LINE
  5
3D8
100
AcDbEntity
  8
0
100
AcDbLine
 62
7
  6
CONTINUOUS
 10
5.3255187746
 20
5.1764397396
 11
5.3262306137
 21
5.1760709831
  0
LINE
  5
3D9
100
AcDbEntity
  8
0
100
AcDbLine
 62
7
  6
CONTINUOUS
 10
5.3255187689
 20
5.2108897396
 11
5.3262306137
 21
5.2105209831
  0
LINE
  5
3DA
100
AcDbEntity
  8
0
100
AcDbLine
 62
7
  6
CONTINUOUS
 10
4.6974424528
 20
5.1247647396
 11
4.6967306137
 21
5.1243959831
  0
LINE
  5
3DB
100
AcDbEntity
  8
0
100
AcDbLine
 62
7
  6
CONTINUOUS
 10
4.6974424528
 20
5.1592147396
 11
4.6967306137
 21
5.1588459831
  0
LINE
  5
3DC
100
AcDbEntity
  8
0
100
AcDbLine
 62
7
  6
CONTINUOUS
 10
4.6974424528
 20
5.1936647396
 11
4.6967306137
 21
5.1932959831
  0
LINE
  5
3DD
100
AcDbEntity
  8
0
100
AcDbLine
 62
7
  6
CONTINUOUS
 10
5.3255187746
 20
5.2453397396
 11
5.3262306137
 21
5.2449709831
  0
LINE
  5
3DE
100
AcDbEntity
  8
0
100
AcDbLine
 62
7
  6
CONTINUOUS
 10
5.3255187746
 20
5.2797897396
 11
5.3262306137
 21
5.2794209831
  0
LINE
  5
3DF
100
AcDbEntity
  8
0
100
AcDbLine
 62
7
  6
CONTINUOUS
 10
5.3255187746
 20
5.3142397396
 11
5.3262306137
 21
5.3138709831
  0
LINE
  5
3E0
100
AcDbEntity
  8
0
100
AcDbLine
 62
7
  6
CONTINUOUS
 10
5.325519022
 20
5.3486897397
 11
5.3262306137
 21
5.3483209831
  0
LINE
  5
3E1
100
AcDbEntity
  8
0
100
AcDbLine
 62
7
  6
CONTINUOUS
 10
4.6974424528
 20
5.2281147396
 11
4.6967306137
 21
5.2277459831
  0
LINE
  5
3E2
100
AcDbEntity
  8
0
100
AcDbLine
 62
7
  6
CONTINUOUS
 10
4.6974424528
 20
5.2625647396
 11
4.6967306137
 21
5.2621959831
  0
LINE
  5
3E3
100
AcDbEntity
  8
0
100
AcDbLine
 62
7
  6
CONTINUOUS
 10
4.6974424528
 20
5.2970147396
 11
4.6967306137
 21
5.2966459831
  0
LINE
  5
3E4
100
AcDbEntity
  8
0
100
AcDbLine
 62
7
  6
CONTINUOUS
 10
4.6974424528
 20
5.3314647396
 11
4.6967306137
 21
5.3310959831
  0
LINE
  5
3E5
100
AcDbEntity
  8
0
100
AcDbLine
 62
7
  6
CONTINUOUS
 10
5.3255187746
 20
5.3831397396
 11
5.3262306137
 21
5.3827709831
  0
LINE
  5
3E6
100
AcDbEntity
  8
0
100
AcDbLine
 62
7
  6
CONTINUOUS
 10
5.3255187746
 20
5.4175897396
 11
5.3262306137
 21
5.4172209831
  0
LINE
  5
3E7
100
AcDbEntity
  8
0
100
AcDbLine
 62
7
  6
CONTINUOUS
 10
5.3255187746
 20
5.4520397396
 11
5.3262306137
 21
5.4516709831
  0
LINE
  5
3E8
100
AcDbEntity
  8
0
100
AcDbLine
 62
7
  6
CONTINUOUS
 10
4.6974424528
 20
5.3659147396
 11
4.6967306137
 21
5.3655459831
  0
LINE
  5
3E9
100
AcDbEntity
  8
0
100
AcDbLine
 62
7
  6
CONTINUOUS
 10
4.6974424528
 20
5.4003647396
 11
4.6967306137
 21
5.3999959831
  0
LINE
  5
3EA
100
AcDbEntity
  8
0
100
AcDbLine
 62
7
  6
CONTINUOUS
 10
4.6974424528
 20
5.4348147396
 11
4.6967306137
 21
5.4344459831
  0
LINE
  5
3EB
100
AcDbEntity
  8
0
100
AcDbLine
 62
7
  6
CONTINUOUS
 10
4.697442414
 20
5.4692647396
 11
4.6967306137
 21
5.4688959831
  0
LINE
  5
3EC
100
AcDbEntity
  8
0
100
AcDbLine
 62
7
  6
CONTINUOUS
 10
5.3255187746
 20
5.4864897396
 11
5.3262306137
 21
5.4861209831
  0
LINE
  5
3ED
100
AcDbEntity
  8
0
100
AcDbLine
 62
7
  6
CONTINUOUS
 10
4.6974424251
 20
5.5037147396
 11
4.6967306137
 21
5.5033459831
  0
LINE
  5
3EE
100
AcDbEntity
  8
0
100
AcDbLine
 62
7
  6
CONTINUOUS
 10
5.3262306192
 20
4.7519967186
 11
5.3255189962
 21
4.7516279621
  0
LINE
  5
3EF
100
AcDbEntity
  8
0
100
AcDbLine
 62
7
  6
CONTINUOUS
 10
5.3262306137
 20
5.4754467188
 11
5.3255187746
 21
5.4750779623
  0
LINE
  5
3F0
100
AcDbEntity
  8
0
100
AcDbLine
 62
7
  6
CONTINUOUS
 10
5.3262306137
 20
5.4409967188
 11
5.3255187746
 21
5.4406279623
  0
LINE
  5
3F1
100
AcDbEntity
  8
0
100
AcDbLine
 62
7
  6
CONTINUOUS
 10
5.3262306137
 20
5.4065467188
 11
5.3255187746
 21
5.4061779623
  0
LINE
  5
3F2
100
AcDbEntity
  8
0
100
AcDbLine
 62
7
  6
CONTINUOUS
 10
5.3262306137
 20
5.3720967188
 11
5.3255187746
 21
5.3717279623
  0
LINE
  5
3F3
100
AcDbEntity
  8
0
100
AcDbLine
 62
7
  6
CONTINUOUS
 10
5.3262306137
 20
5.3376467188
 11
5.3255187746
 21
5.3372779623
  0
LINE
  5
3F4
100
AcDbEntity
  8
0
100
AcDbLine
 62
7
  6
CONTINUOUS
 10
5.3262306137
 20
5.3031967188
 11
5.3255187746
 21
5.3028279623
  0
LINE
  5
3F5
100
AcDbEntity
  8
0
100
AcDbLine
 62
7
  6
CONTINUOUS
 10
5.3262306137
 20
5.2687467188
 11
5.3255187746
 21
5.2683779623
  0
LINE
  5
3F6
100
AcDbEntity
  8
0
100
AcDbLine
 62
7
  6
CONTINUOUS
 10
5.3262306137
 20
5.2342967188
 11
5.3255187746
 21
5.2339279623
  0
LINE
  5
3F7
100
AcDbEntity
  8
0
100
AcDbLine
 62
7
  6
CONTINUOUS
 10
5.3262306137
 20
5.1998467188
 11
5.3255187746
 21
5.1994779623
  0
LINE
  5
3F8
100
AcDbEntity
  8
0
100
AcDbLine
 62
7
  6
CONTINUOUS
 10
5.3262306137
 20
5.1653967188
 11
5.3255187746
 21
5.1650279623
  0
LINE
  5
3F9
100
AcDbEntity
  8
0
100
AcDbLine
 62
7
  6
CONTINUOUS
 10
5.3262306137
 20
5.1309467188
 11
5.32551877
 21
5.1305779623
  0
LINE
  5
3FA
100
AcDbEntity
  8
0
100
AcDbLine
 62
7
  6
CONTINUOUS
 10
5.3262306137
 20
5.0964967188
 11
5.3255187746
 21
5.0961279623
  0
LINE
  5
3FB
100
AcDbEntity
  8
0
100
AcDbLine
 62
7
  6
CONTINUOUS
 10
5.3262306137
 20
5.0620467188
 11
5.3255187746
 21
5.0616779623
  0
LINE
  5
3FC
100
AcDbEntity
  8
0
100
AcDbLine
 62
7
  6
CONTINUOUS
 10
4.6967306137
 20
5.4926717188
 11
4.6974424528
 21
5.4923029623
  0
LINE
  5
3FD
100
AcDbEntity
  8
0
100
AcDbLine
 62
7
  6
CONTINUOUS
 10
4.6967306137
 20
5.4582217188
 11
4.6974424528
 21
5.4578529623
  0
LINE
  5
3FE
100
AcDbEntity
  8
0
100
AcDbLine
 62
7
  6
CONTINUOUS
 10
4.6967306137
 20
5.4237717188
 11
4.6974424528
 21
5.4234029623
  0
LINE
  5
3FF
100
AcDbEntity
  8
0
100
AcDbLine
 62
7
  6
CONTINUOUS
 10
4.6967306137
 20
5.3893217188
 11
4.697442442
 21
5.3889529623
  0
LINE
  5
400
100
AcDbEntity
  8
0
100
AcDbLine
 62
7
  6
CONTINUOUS
 10
4.6967306137
 20
5.3548717188
 11
4.6974424528
 21
5.3545029623
  0
LINE
  5
401
100
AcDbEntity
  8
0
100
AcDbLine
 62
7
  6
CONTINUOUS
 10
4.6967306137
 20
5.3204217188
 11
4.6974424528
 21
5.3200529623
  0
LINE
  5
402
100
AcDbEntity
  8
0
100
AcDbLine
 62
7
  6
CONTINUOUS
 10
4.6967306137
 20
5.2859717188
 11
4.6974424528
 21
5.2856029623
  0
LINE
  5
403
100
AcDbEntity
  8
0
100
AcDbLine
 62
7
  6
CONTINUOUS
 10
4.6967306137
 20
5.2515217188
 11
4.6974424458
 21
5.2511529623
  0
LINE
  5
404
100
AcDbEntity
  8
0
100
AcDbLine
 62
7
  6
CONTINUOUS
 10
4.6967306137
 20
5.2170717188
 11
4.6974424528
 21
5.2167029623
  0
LINE
  5
405
100
AcDbEntity
  8
0
100
AcDbLine
 62
7
  6
CONTINUOUS
 10
4.6967306137
 20
5.1826217188
 11
4.6974424528
 21
5.1822529623
  0
LINE
  5
406
100
AcDbEntity
  8
0
100
AcDbLine
 62
7
  6
CONTINUOUS
 10
4.6967306137
 20
5.1481717188
 11
4.6974424528
 21
5.1478029623
  0
LINE
  5
407
100
AcDbEntity
  8
0
100
AcDbLine
 62
7
  6
CONTINUOUS
 10
4.6967306137
 20
5.1137217188
 11
4.6974424528
 21
5.1133529623
  0
LINE
  5
408
100
AcDbEntity
  8
0
100
AcDbLine
 62
7
  6
CONTINUOUS
 10
4.6967306137
 20
5.0792717188
 11
4.6974424528
 21
5.0789029623
  0
SPLINE
  5
409
100
AcDbEntity
  8
0
100
AcDbSpline
 62
7
  6
CONTINUOUS
 70
0
 71
3
 72
63
 73
59
 74
0
 42
0.0000001
 43
0.0000001
 44
0.0000000001
 40
0.0
 40
0.0
 40
0.0
 40
0.0
 40
0.0010305488
 40
0.0023428763
 40
0.0039379092
 40
0.0058154627
 40
0.0079749741
 40
0.0104156864
 40
0.0161361879
 40
0.0229645197
 40
0.0308862536
 40
0.0398832882
 40
0.0499354205
 40
0.0610198261
 40
0.0731109087
 40
0.1002008843
 40
0.1309571577
 40
0.1650974078
 40
0.2023081681
 40
0.2422476303
 40
0.284548844
 40
0.3288231691
 40
0.3746637636
 40
0.4216493439
 40
0.4693481802
 40
0.5173217944
 40
0.5651293801
 40
0.6123315063
 40
0.6584944184
 40
0.7031939143
 40
0.7460192019
 40
0.7865768078
 40
0.8244940777
 40
0.8594226492
 40
0.8756647097
 40
0.8910418262
 40
0.9055184197
 40
0.9190613758
 40
0.9316397528
 40
0.9432244591
 40
0.9537894533
 40
0.9633100455
 40
0.9717652419
 40
0.979135424
 40
0.9854046854
 40
0.9905593093
 40
0.9927153186
 40
0.9945893618
 40
0.996180879
 40
0.9974896931
 40
0.9980383526
 40
0.9985168556
 40
0.9989256789
 40
0.9992656229
 40
0.9995381323
 40
0.9996499814
 40
0.9997463072
 40
1.0
 40
1.0
 40
1.0
 40
1.0
 10
5.3254096862
 20
5.1994506885
 30
0.0
 10
5.3251996109
 20
5.1993999709
 30
0.0
 10
5.3247174599
 20
5.1993038508
 30
0.0
 10
5.3239016812
 20
5.1991751152
 30
0.0
 10
5.3229065398
 20
5.199045663
 30
0.0
 10
5.3217325975
 20
5.1989156459
 30
0.0
 10
5.3203804093
 20
5.198785283
 30
0.0
 10
5.3182239089
 20
5.1986012763
 30
0.0
 10
5.3150884822
 20
5.1983760862
 30
0.0
 10
5.3108035076
 20
5.1981166048
 30
0.0
 10
5.3058303867
 20
5.1978563901
 30
0.0
 10
5.3001804555
 20
5.1975955263
 30
0.0
 10
5.293866687
 20
5.1973342751
 30
0.0
 10
5.2869035963
 20
5.1970727093
 30
0.0
 10
5.2763689292
 20
5.1967097587
 30
0.0
 10
5.2617095146
 20
5.1962623665
 30
0.0
 10
5.2424265041
 20
5.1957421548
 30
0.0
 10
5.2210204504
 20
5.1952209805
 30
0.0
 10
5.1976881409
 20
5.1946990455
 30
0.0
 10
5.1726440543
 20
5.194176604
 30
0.0
 10
5.1461184109
 20
5.1936537898
 30
0.0
 10
5.1183550494
 20
5.1931307109
 30
0.0
 10
5.0896091905
 20
5.1926074446
 30
0.0
 10
5.0601450824
 20
5.1920840529
 30
0.0
 10
5.0302336023
 20
5.1915605877
 30
0.0
 10
5.0001497181
 20
5.1910370948
 30
0.0
 10
4.9701700119
 20
5.1905136185
 30
0.0
 10
4.9405700755
 20
5.1899902041
 30
0.0
 10
4.9116220217
 20
5.1894669014
 30
0.0
 10
4.8835919621
 20
5.1889437702
 30
0.0
 10
4.856737569
 20
5.1884208807
 30
0.0
 10
4.8313057152
 20
5.1878983409
 30
0.0
 10
4.8075302014
 20
5.1873762471
 30
0.0
 10
4.7888533236
 20
5.1869316561
 30
0.0
 10
4.7749025487
 20
5.1865731787
 30
0.0
 10
4.7652396022
 20
5.1863109562
 30
0.0
 10
4.7561428881
 20
5.1860488294
 30
0.0
 10
4.7476333382
 20
5.1857868164
 30
0.0
 10
4.7397305329
 20
5.185524959
 30
0.0
 10
4.7324525829
 20
5.185263279
 30
0.0
 10
4.7258163044
 20
5.1850018738
 30
0.0
 10
4.7198368414
 20
5.1847407975
 30
0.0
 10
4.7145280332
 20
5.1844802184
 30
0.0
 10
4.7099019151
 20
5.1842203984
 30
0.0
 10
4.7059691621
 20
5.1839615297
 30
0.0
 10
4.7031301473
 20
5.1837361927
 30
0.0
 10
4.7012129385
 20
5.183551182
 30
0.0
 10
4.7000411985
 20
5.1834211807
 30
0.0
 10
4.6990483429
 20
5.1832916486
 30
0.0
 10
4.6983337492
 20
5.1831788316
 30
0.0
 10
4.6978526548
 20
5.1830863265
 30
0.0
 10
4.6975585829
 20
5.183021204
 30
0.0
 10
4.697309481
 20
5.1829563661
 30
0.0
 10
4.697105074
 20
5.1828916096
 30
0.0
 10
4.696964121
 20
5.182835276
 30
0.0
 10
4.696874141
 20
5.1827881965
 30
0.0
 10
4.6967940962
 20
5.1827378982
 30
0.0
 10
4.6967306137
 20
5.1826749193
 30
0.0
 10
4.6967306137
 20
5.1826217188
 30
0.0
  0
SPLINE
  5
40A
100
AcDbEntity
  8
0
100
AcDbSpline
 62
7
  6
CONTINUOUS
 70
0
 71
3
 72
62
 73
58
 74
0
 42
0.0000001
 43
0.0000001
 44
0.0000000001
 40
0.0
 40
0.0
 40
0.0
 40
0.0
 40
0.0010965866
 40
0.0024737159
 40
0.0041322567
 40
0.0060719814
 40
0.010792313
 40
0.0166274279
 40
0.0235646922
 40
0.0315894004
 40
0.0406835806
 40
0.050826569
 40
0.0619958286
 40
0.0741653438
 40
0.1013932681
 40
0.1322617984
 40
0.1664886916
 40
0.2037608584
 40
0.2437372605
 40
0.2860519985
 40
0.3303177299
 40
0.3761292108
 40
0.4230668885
 40
0.4707010515
 40
0.5185955006
 40
0.5663117122
 40
0.6134128343
 40
0.6594674731
 40
0.7040540408
 40
0.7467642129
 40
0.7872070963
 40
0.8250125045
 40
0.8598344494
 40
0.8913544145
 40
0.9057846547
 40
0.9192841245
 40
0.9318214074
 40
0.9433685236
 40
0.9538986866
 40
0.96338827
 40
0.9718158545
 40
0.979162273
 40
0.9854119139
 40
0.9905508626
 40
0.9927009249
 40
0.994570198
 40
0.9961580697
 40
0.9974646179
 40
0.998012813
 40
0.9984913373
 40
0.9989007222
 40
0.9992418612
 40
0.9995163631
 40
0.999727429
 40
0.9998113511
 40
0.999882873
 40
1.0
 40
1.0
 40
1.0
 40
1.0
 10
5.3049897162
 20
5.1941572169
 30
0.0
 10
5.3047805694
 20
5.1941071024
 30
0.0
 10
5.3043046406
 20
5.1940114912
 30
0.0
 10
5.303504415
 20
5.1938827622
 30
0.0
 10
5.30253714
 20
5.1937533602
 30
0.0
 10
5.3009161852
 20
5.1935678211
 30
0.0
 10
5.2984756821
 20
5.1933428263
 30
0.0
 10
5.2950545736
 20
5.1930849729
 30
0.0
 10
5.2909839167
 20
5.192825999
 30
0.0
 10
5.2862730532
 20
5.1925661114
 30
0.0
 10
5.2809326602
 20
5.1923056874
 30
0.0
 10
5.2749749163
 20
5.1920448546
 30
0.0
 10
5.2684135164
 20
5.1917837422
 30
0.0
 10
5.2585027711
 20
5.1914215915
 30
0.0
 10
5.244729105
 20
5.1909750831
 30
0.0
 10
5.2266296994
 20
5.1904557373
 30
0.0
 10
5.2065596747
 20
5.1899354532
 30
0.0
 10
5.1847028528
 20
5.1894144259
 30
0.0
 10
5.1612594048
 20
5.1888929029
 30
0.0
 10
5.1364440406
 20
5.188371015
 30
0.0
 10
5.1104840422
 20
5.1878488678
 30
0.0
 10
5.0836172019
 20
5.1873265373
 30
0.0
 10
5.0560896123
 20
5.1868040839
 30
0.0
 10
5.0281534319
 20
5.186281559
 30
0.0
 10
5.0000645363
 20
5.185759008
 30
0.0
 10
4.9720802006
 20
5.1852364747
 30
0.0
 10
4.9444567581
 20
5.1847140044
 30
0.0
 10
4.9174472234
 20
5.1841916467
 30
0.0
 10
4.8912990214
 20
5.1836694594
 30
0.0
 10
4.8662516418
 20
5.1831475175
 30
0.0
 10
4.8425345058
 20
5.1826259118
 30
0.0
 10
4.8203648247
 20
5.182104795
 30
0.0
 10
4.7999456478
 20
5.1815842968
 30
0.0
 10
4.7841105087
 20
5.1811392925
 30
0.0
 10
4.7724565355
 20
5.1807797415
 30
0.0
 10
4.764524288
 20
5.1805182074
 30
0.0
 10
4.7571578144
 20
5.1802568111
 30
0.0
 10
4.7503740799
 20
5.1799956229
 30
0.0
 10
4.7441885439
 20
5.1797346747
 30
0.0
 10
4.7386154021
 20
5.1794740816
 30
0.0
 10
4.7336674049
 20
5.1792139689
 30
0.0
 10
4.7293557695
 20
5.1789546131
 30
0.0
 10
4.7256904159
 20
5.1786962295
 30
0.0
 10
4.7230445195
 20
5.1784712658
 30
0.0
 10
4.7212578295
 20
5.1782865998
 30
0.0
 10
4.7201657406
 20
5.1781568311
 30
0.0
 10
4.7192403912
 20
5.1780275216
 30
0.0
 10
4.7185744823
 20
5.1779149122
 30
0.0
 10
4.7181262308
 20
5.1778226025
 30
0.0
 10
4.7178521155
 20
5.1777576173
 30
0.0
 10
4.7176198721
 20
5.1776928222
 30
0.0
 10
4.7174292802
 20
5.1776283159
 30
0.0
 10
4.7172802603
 20
5.1775640578
 30
0.0
 10
4.7171833291
 20
5.1775072406
 30
0.0
 10
4.7171288666
 20
5.1774598322
 30
0.0
 10
4.7170945409
 20
5.1774188633
 30
0.0
 10
4.7170806303
 20
5.1773818223
 30
0.0
 10
4.7170806429
 20
5.1773588509
 30
0.0
  0
SPLINE
  5
40B
100
AcDbEntity
  8
0
100
AcDbSpline
 62
7
  6
CONTINUOUS
 70
0
 71
3
 72
63
 73
59
 74
0
 42
0.0000001
 43
0.0000001
 44
0.0000000001
 40
0.0
 40
0.0
 40
0.0
 40
0.0
 40
0.0010305416
 40
0.0023428619
 40
0.0039378877
 40
0.0058154343
 40
0.0079749388
 40
0.0104156446
 40
0.0161361336
 40
0.0229644536
 40
0.0308861761
 40
0.0398832001
 40
0.0499353226
 40
0.0610197192
 40
0.0731107932
 40
0.1002007531
 40
0.1309570125
 40
0.1650972518
 40
0.2023080047
 40
0.2422474627
 40
0.2845486779
 40
0.3288230064
 40
0.3746636042
 40
0.4216491935
 40
0.4693480336
 40
0.5173216559
 40
0.5651292498
 40
0.6123313846
 40
0.6584943065
 40
0.7031938133
 40
0.7460191116
 40
0.7865767278
 40
0.8244940104
 40
0.8594225918
 40
0.8756646579
 40
0.8910417806
 40
0.9055183797
 40
0.9190613411
 40
0.9316397229
 40
0.9432244345
 40
0.9537894337
 40
0.96331003
 40
0.9717652302
 40
0.9791354155
 40
0.9854046798
 40
0.990559306
 40
0.9927153161
 40
0.9945893599
 40
0.9961808777
 40
0.9974896922
 40
0.9980383519
 40
0.998516855
 40
0.9989256785
 40
0.9992656227
 40
0.9995381321
 40
0.9996499813
 40
0.9997463071
 40
1.0
 40
1.0
 40
1.0
 40
1.0
 10
5.3254097005
 20
5.233900692
 30
0.0
 10
5.3251996268
 20
5.2338499743
 30
0.0
 10
5.3247174788
 20
5.2337538541
 30
0.0
 10
5.3239017047
 20
5.2336251186
 30
0.0
 10
5.3229065677
 20
5.2334956663
 30
0.0
 10
5.3217326298
 20
5.2333656492
 30
0.0
 10
5.3203804459
 20
5.2332352863
 30
0.0
 10
5.3182239509
 20
5.2330512796
 30
0.0
 10
5.3150885307
 20
5.2328260894
 30
0.0
 10
5.3108035634
 20
5.2325666079
 30
0.0
 10
5.3058304495
 20
5.2323063931
 30
0.0
 10
5.3001805249
 20
5.2320455294
 30
0.0
 10
5.2938667624
 20
5.2317842781
 30
0.0
 10
5.2869036773
 20
5.2315227122
 30
0.0
 10
5.2763690169
 20
5.2311597615
 30
0.0
 10
5.26170961
 20
5.2307123692
 30
0.0
 10
5.2424266075
 20
5.2301921575
 30
0.0
 10
5.2210205601
 20
5.229670983
 30
0.0
 10
5.1976882547
 20
5.2291490479
 30
0.0
 10
5.1726441696
 20
5.2286266063
 30
0.0
 10
5.1461185255
 20
5.228103792
 30
0.0
 10
5.1183551617
 20
5.227580713
 30
0.0
 10
5.0896092988
 20
5.2270574465
 30
0.0
 10
5.0601451867
 20
5.2265340547
 30
0.0
 10
5.0302337014
 20
5.2260105894
 30
0.0
 10
5.0001498124
 20
5.2254870965
 30
0.0
 10
4.9701701002
 20
5.2249636201
 30
0.0
 10
4.9405701575
 20
5.2244402056
 30
0.0
 10
4.9116220969
 20
5.2239169027
 30
0.0
 10
4.8835920301
 20
5.2233937714
 30
0.0
 10
4.8567376296
 20
5.222870882
 30
0.0
 10
4.8313057681
 20
5.222348342
 30
0.0
 10
4.8075302469
 20
5.2218262482
 30
0.0
 10
4.7888533628
 20
5.221381657
 30
0.0
 10
4.774902583
 20
5.2210231796
 30
0.0
 10
4.7652396327
 20
5.2207609571
 30
0.0
 10
4.7561429148
 20
5.2204988302
 30
0.0
 10
4.7476333614
 20
5.2202368171
 30
0.0
 10
4.7397305527
 20
5.2199749597
 30
0.0
 10
4.7324525993
 20
5.2197132796
 30
0.0
 10
4.7258163176
 20
5.2194518744
 30
0.0
 10
4.7198368518
 20
5.2191907979
 30
0.0
 10
4.7145280411
 20
5.2189302188
 30
0.0
 10
4.7099019209
 20
5.2186703988
 30
0.0
 10
4.705969166
 20
5.21841153
 30
0.0
 10
4.7031301498
 20
5.218186193
 30
0.0
 10
4.7012129403
 20
5.2180011822
 30
0.0
 10
4.7000411998
 20
5.2178711809
 30
0.0
 10
4.6990483439
 20
5.2177416487
 30
0.0
 10
4.6983337498
 20
5.2176288317
 30
0.0
 10
4.6978526552
 20
5.2175363266
 30
0.0
 10
4.6975585832
 20
5.2174712041
 30
0.0
 10
4.6973094813
 20
5.2174063661
 30
0.0
 10
4.6971050742
 20
5.2173416097
 30
0.0
 10
4.6969641211
 20
5.2172852761
 30
0.0
 10
4.6968741411
 20
5.2172381966
 30
0.0
 10
4.6967940962
 20
5.2171878983
 30
0.0
 10
4.6967306137
 20
5.2171249194
 30
0.0
 10
4.6967306137
 20
5.2170717188
 30
0.0
  0
SPLINE
  5
40C
100
AcDbEntity
  8
0
100
AcDbSpline
 62
7
  6
CONTINUOUS
 70
0
 71
3
 72
62
 73
58
 74
0
 42
0.0000001
 43
0.0000001
 44
0.0000000001
 40
0.0
 40
0.0
 40
0.0
 40
0.0
 40
0.0011155702
 40
0.0025112614
 40
0.0041879528
 40
0.0061457641
 40
0.01090149
 40
0.0167698863
 40
0.0237394825
 40
0.0317944185
 40
0.0409174141
 40
0.0510874682
 40
0.0622817361
 40
0.0744748853
 40
0.1017440382
 40
0.1326462569
 40
0.1668993948
 40
0.2041905477
 40
0.2441787799
 40
0.2864985507
 40
0.3307627118
 40
0.3765665082
 40
0.4234910152
 40
0.471107031
 40
0.5189791153
 40
0.5666693083
 40
0.6137414361
 40
0.6597649419
 40
0.704318897
 40
0.7469958809
 40
0.7874056214
 40
0.8251785882
 40
0.8599694746
 40
0.8914602599
 40
0.905877047
 40
0.919363477
 40
0.9318890031
 40
0.9434246087
 40
0.9539446946
 40
0.9634247696
 40
0.9718439963
 40
0.9791832122
 40
0.9854263274
 40
0.9905604351
 40
0.9927081905
 40
0.9945754032
 40
0.9961617188
 40
0.9974671962
 40
0.9980149008
 40
0.9984929248
 40
0.9989018301
 40
0.9992425437
 40
0.9995167073
 40
0.9997275515
 40
0.9998114117
 40
0.9998829017
 40
1.0
 40
1.0
 40
1.0
 40
1.0
 10
5.3049512507
 20
5.2285980977
 30
0.0
 10
5.304738256
 20
5.228548138
 30
0.0
 10
5.304254839
 20
5.2284526788
 30
0.0
 10
5.3034436093
 20
5.2283239481
 30
0.0
 10
5.3024655615
 20
5.2281945588
 30
0.0
 10
5.3008305571
 20
5.2280092192
 30
0.0
 10
5.298373127
 20
5.2277843677
 30
0.0
 10
5.2949323827
 20
5.2275265578
 30
0.0
 10
5.2908431602
 20
5.2272677216
 30
0.0
 10
5.2861146631
 20
5.2270079281
 30
0.0
 10
5.2807577171
 20
5.2267476386
 30
0.0
 10
5.2747844909
 20
5.2264869377
 30
0.0
 10
5.2682086694
 20
5.2262259478
 30
0.0
 10
5.2582809462
 20
5.2258640516
 30
0.0
 10
5.244488863
 20
5.2254177953
 30
0.0
 10
5.2263708215
 20
5.2248987112
 30
0.0
 10
5.206286659
 20
5.2243786921
 30
0.0
 10
5.1844201085
 20
5.2238579361
 30
0.0
 10
5.1609712
 20
5.2233366876
 30
0.0
 10
5.1361545004
 20
5.2228150768
 30
0.0
 10
5.1101970717
 20
5.2222932075
 30
0.0
 10
5.0833364326
 20
5.2217711558
 30
0.0
 10
5.0558183404
 20
5.2212489823
 30
0.0
 10
5.0278945643
 20
5.2207267378
 30
0.0
 10
4.9998206033
 20
5.2202044681
 30
0.0
 10
4.9718533227
 20
5.2196822165
 30
0.0
 10
4.944248631
 20
5.2191600277
 30
0.0
 10
4.9172590991
 20
5.2186379515
 30
0.0
 10
4.8911316648
 20
5.218116046
 30
0.0
 10
4.8661053731
 20
5.217594386
 30
0.0
 10
4.8424092021
 20
5.2170730627
 30
0.0
 10
4.8202599645
 20
5.2165522274
 30
0.0
 10
4.7998603363
 20
5.2160320131
 30
0.0
 10
4.7840407141
 20
5.2155872395
 30
0.0
 10
4.7723984425
 20
5.2152278915
 30
0.0
 10
4.7644742303
 20
5.2149664852
 30
0.0
 10
4.7571153718
 20
5.2147052493
 30
0.0
 10
4.7503386337
 20
5.2144441829
 30
0.0
 10
4.7441596116
 20
5.2141833934
 30
0.0
 10
4.7385923253
 20
5.2139229325
 30
0.0
 10
4.7336495779
 20
5.2136629567
 30
0.0
 10
4.7293425628
 20
5.2134037622
 30
0.0
 10
4.7256811007
 20
5.2131454812
 30
0.0
 10
4.723038061
 20
5.2129206786
 30
0.0
 10
4.7212532989
 20
5.2127360991
 30
0.0
 10
4.720162447
 20
5.2126063909
 30
0.0
 10
4.7192380806
 20
5.2124771455
 30
0.0
 10
4.7185728248
 20
5.2123646138
 30
0.0
 10
4.7181250067
 20
5.2122723558
 30
0.0
 10
4.7178511991
 20
5.2122074048
 30
0.0
 10
4.7176192489
 20
5.2121426434
 30
0.0
 10
4.7174289179
 20
5.2120781694
 30
0.0
 10
4.7172801065
 20
5.2120139419
 30
0.0
 10
4.7171833113
 20
5.2119571513
 30
0.0
 10
4.7171289123
 20
5.2119097728
 30
0.0
 10
4.7170946068
 20
5.2118688242
 30
0.0
 10
4.7170806766
 20
5.2118318153
 30
0.0
 10
4.7170806631
 20
5.211808851
 30
0.0
  0
SPLINE
  5
40D
100
AcDbEntity
  8
0
100
AcDbSpline
 62
7
  6
CONTINUOUS
 70
0
 71
3
 72
22
 73
18
 74
0
 42
0.0000001
 43
0.0000001
 44
0.0000000001
 40
0.0
 40
0.0
 40
0.0
 40
0.0
 40
0.0066200759
 40
0.0149023231
 40
0.0248529476
 40
0.0364717091
 40
0.0647018804
 40
0.0995602463
 40
0.1409873131
 40
0.1889088342
 40
0.2432402919
 40
0.3038770242
 40
0.3707094072
 40
0.4436101999
 40
0.6070580045
 40
0.7929889254
 40
1.0
 40
1.0
 40
1.0
 40
1.0
 10
5.3254096862
 20
5.0616506885
 30
0.0
 10
5.3252215134
 20
5.0616052587
 30
0.0
 10
5.3247942363
 20
5.0615184258
 30
0.0
 10
5.3240769252
 20
5.0614013463
 30
0.0
 10
5.3232119045
 20
5.0612836889
 30
0.0
 10
5.3217654371
 20
5.0611151212
 30
0.0
 10
5.3195902706
 20
5.0609106105
 30
0.0
 10
5.3165430446
 20
5.0606761885
 30
0.0
 10
5.3129186477
 20
5.0604407774
 30
0.0
 10
5.3087238817
 20
5.0602045222
 30
0.0
 10
5.3039666461
 20
5.0599678144
 30
0.0
 10
5.2986558477
 20
5.0597307253
 30
0.0
 10
5.292801583
 20
5.0594933852
 30
0.0
 10
5.2839423108
 20
5.0591639725
 30
0.0
 10
5.2716009736
 20
5.0587577657
 30
0.0
 10
5.2553382866
 20
5.0582855804
 30
0.0
 10
5.2438520869
 20
5.0579855363
 30
0.0
 10
5.2378007315
 20
5.0578338547
 30
0.0
  0
SPLINE
  5
40E
100
AcDbEntity
  8
0
100
AcDbSpline
 62
7
  6
CONTINUOUS
 70
0
 71
3
 72
63
 73
59
 74
0
 42
0.0000001
 43
0.0000001
 44
0.0000000001
 40
0.0
 40
0.0
 40
0.0
 40
0.0
 40
0.0001173503
 40
0.0001890525
 40
0.0002732121
 40
0.0004849357
 40
0.000760347
 40
0.0011026511
 40
0.0015134589
 40
0.001993666
 40
0.0025438055
 40
0.0038550342
 40
0.0054486313
 40
0.0073246263
 40
0.0094824126
 40
0.0146398492
 40
0.0209118961
 40
0.0282845239
 40
0.0367420685
 40
0.0462651087
 40
0.0568321717
 40
0.0684193404
 40
0.0809997336
 40
0.0945451252
 40
0.1090238508
 40
0.1406475701
 40
0.1755805925
 40
0.2135021135
 40
0.2540637278
 40
0.2968927526
 40
0.3415956469
 40
0.3877614815
 40
0.4349660111
 40
0.4827752024
 40
0.5307496858
 40
0.5784484692
 40
0.6254330959
 40
0.6712717809
 40
0.7155430617
 40
0.7578401292
 40
0.7977742245
 40
0.8349784779
 40
0.8691111561
 40
0.8998588123
 40
0.9269393091
 40
0.9390252547
 40
0.9501044692
 40
0.9601510046
 40
0.9691426398
 40
0.9770586189
 40
0.9838814718
 40
0.9895964651
 40
0.992034533
 40
0.9941916042
 40
0.9960669017
 40
0.997659871
 40
0.9989704647
 40
1.0
 40
1.0
 40
1.0
 40
1.0
 10
5.3058805911
 20
5.388033851
 30
0.0
 10
5.3058806029
 20
5.3880108305
 30
0.0
 10
5.3058666247
 20
5.3879737062
 30
0.0
 10
5.3058321667
 20
5.3879326701
 30
0.0
 10
5.3057774842
 20
5.3878851663
 30
0.0
 10
5.305680175
 20
5.3878282423
 30
0.0
 10
5.305530584
 20
5.3877638619
 30
0.0
 10
5.3053392608
 20
5.3876992324
 30
0.0
 10
5.3051061253
 20
5.3876343125
 30
0.0
 10
5.3048309555
 20
5.387569202
 30
0.0
 10
5.3043809704
 20
5.387476713
 30
0.0
 10
5.3037124846
 20
5.3873638864
 30
0.0
 10
5.3027835619
 20
5.3872343292
 30
0.0
 10
5.3016872652
 20
5.3871043088
 30
0.0
 10
5.2998937048
 20
5.3869192849
 30
0.0
 10
5.2972376649
 20
5.3866938889
 30
0.0
 10
5.2935583092
 20
5.3864350063
 30
0.0
 10
5.2892302739
 20
5.3861751483
 30
0.0
 10
5.2842635639
 20
5.3859145357
 30
0.0
 10
5.2786694698
 20
5.3856534366
 30
0.0
 10
5.2724608618
 20
5.3853919867
 30
0.0
 10
5.2656520253
 20
5.3851302923
 30
0.0
 10
5.2582585469
 20
5.3848683922
 30
0.0
 10
5.2502975114
 20
5.3846063528
 30
0.0
 10
5.2386020039
 20
5.3842461155
 30
0.0
 10
5.2227115946
 20
5.3838002635
 30
0.0
 10
5.2022228352
 20
5.3832787633
 30
0.0
 10
5.1799802345
 20
5.3827566435
 30
0.0
 10
5.1561883008
 20
5.3822340343
 30
0.0
 10
5.1310657786
 20
5.3817110885
 30
0.0
 10
5.1048436614
 20
5.3811878975
 30
0.0
 10
5.0777630456
 20
5.3806645362
 30
0.0
 10
5.0500729626
 20
5.3801410632
 30
0.0
 10
5.022028018
 20
5.379617528
 30
0.0
 10
4.9938860999
 20
5.3790939762
 30
0.0
 10
4.965905963
 20
5.3785704522
 30
0.0
 10
4.9383448759
 20
5.3780470019
 30
0.0
 10
4.911456279
 20
5.3775236775
 30
0.0
 10
4.8854874103
 20
5.3770005406
 30
0.0
 10
4.8606770768
 20
5.3764776685
 30
0.0
 10
4.8372533883
 20
5.3759551694
 30
0.0
 10
4.8154317103
 20
5.3754331769
 30
0.0
 10
4.7954126583
 20
5.3749119466
 30
0.0
 10
4.7773802857
 20
5.374391678
 30
0.0
 10
4.7636725622
 20
5.3739442354
 30
0.0
 10
4.7538226021
 20
5.3735812308
 30
0.0
 10
4.7473127413
 20
5.3733196454
 30
0.0
 10
4.7414104088
 20
5.373058353
 30
0.0
 10
4.7361292567
 20
5.3727974752
 30
0.0
 10
4.7314813103
 20
5.3725372204
 30
0.0
 10
4.7274772534
 20
5.3722777278
 30
0.0
 10
4.7245479574
 20
5.3720525039
 30
0.0
 10
4.7225337877
 20
5.3718684565
 30
0.0
 10
4.7212711635
 20
5.3717380745
 30
0.0
 10
4.7201752892
 20
5.3716080419
 30
0.0
 10
4.7192466925
 20
5.3714785763
 30
0.0
 10
4.7184858771
 20
5.3713498233
 30
0.0
 10
4.7180366343
 20
5.3712537051
 30
0.0
 10
4.7178411372
 20
5.3712030115
 30
0.0
  0
SPLINE
  5
40F
100
AcDbEntity
  8
0
100
AcDbSpline
 62
7
  6
CONTINUOUS
 70
0
 71
3
 72
17
 73
13
 74
0
 42
0.0000001
 43
0.0000001
 44
0.0000000001
 40
0.0
 40
0.0
 40
0.0
 40
0.0
 40
0.1976699958
 40
0.3750008782
 40
0.5317377616
 40
0.6676504517
 40
0.7825340445
 40
0.8762583902
 40
0.9151578941
 40
0.9487396834
 40
0.9770111451
 40
1.0
 40
1.0
 40
1.0
 40
1.0
 10
4.738916162
 20
4.7528338465
 30
0.0
 10
4.7375235519
 20
4.7527652229
 30
0.0
 10
4.7348819064
 20
4.7526291512
 30
0.0
 10
4.7311373289
 20
4.7524143694
 30
0.0
 10
4.7278291427
 20
4.7522000016
 30
0.0
 10
4.724962417
 20
4.7519863493
 30
0.0
 10
4.7225415534
 20
4.7517734784
 30
0.0
 10
4.7208053862
 20
4.751587963
 30
0.0
 10
4.719642939
 20
4.7514354077
 30
0.0
 10
4.7189402666
 20
4.7513285299
 30
0.0
 10
4.7183512857
 20
4.751222099
 30
0.0
 10
4.7179981032
 20
4.7511437126
 30
0.0
 10
4.7178411384
 20
4.7511030115
 30
0.0
  0
SPLINE
  5
410
100
AcDbEntity
  8
0
100
AcDbSpline
 62
7
  6
CONTINUOUS
 70
0
 71
3
 72
63
 73
59
 74
0
 42
0.0000001
 43
0.0000001
 44
0.0000000001
 40
0.0
 40
0.0
 40
0.0
 40
0.0
 40
0.0001173533
 40
0.0001890375
 40
0.0002731611
 40
0.0004847795
 40
0.0007600918
 40
0.0011023634
 40
0.0015132148
 40
0.0019935112
 40
0.0025437537
 40
0.003855097
 40
0.0054485253
 40
0.007324336
 40
0.0094822186
 40
0.0146398722
 40
0.0209116175
 40
0.0282845752
 40
0.0367418257
 40
0.046265051
 40
0.0568320451
 40
0.0684191642
 40
0.0809997558
 40
0.0945448883
 40
0.1090238661
 40
0.1406475055
 40
0.175580451
 40
0.2135018903
 40
0.2540635517
 40
0.2968926328
 40
0.341595568
 40
0.3877614181
 40
0.4349658695
 40
0.4827750723
 40
0.5307495526
 40
0.5784483454
 40
0.6254330005
 40
0.6712715813
 40
0.7155428504
 40
0.7578398986
 40
0.7977740529
 40
0.8349784146
 40
0.8691111067
 40
0.8998587328
 40
0.9269390766
 40
0.9390251805
 40
0.9501041393
 40
0.9601510057
 40
0.969142347
 40
0.9770585409
 40
0.9838812783
 40
0.9895962252
 40
0.9920345145
 40
0.9941915444
 40
0.9960666462
 40
0.997659529
 40
0.9989703153
 40
1.0
 40
1.0
 40
1.0
 40
1.0
 10
5.3058804967
 20
5.4224838509
 30
0.0
 10
5.3058804988
 20
5.4224608299
 30
0.0
 10
5.3058665226
 20
5.4224237141
 30
0.0
 10
5.3058320864
 20
5.4223826727
 30
0.0
 10
5.3057774463
 20
5.422335168
 30
0.0
 10
5.3056801949
 20
5.4222782368
 30
0.0
 10
5.3055306552
 20
5.4222138529
 30
0.0
 10
5.3053393489
 20
5.4221492261
 30
0.0
 10
5.3051061918
 20
5.4220843101
 30
0.0
 10
5.3048309738
 20
5.4220192019
 30
0.0
 10
5.3043809261
 20
5.4219267185
 30
0.0
 10
5.3037124296
 20
5.4218138997
 30
0.0
 10
5.3027835564
 20
5.4216843265
 30
0.0
 10
5.3016873112
 20
5.4215542977
 30
0.0
 10
5.2998937238
 20
5.4213692882
 30
0.0
 10
5.2972376807
 20
5.4211439036
 30
0.0
 10
5.2935582788
 20
5.4208849875
 30
0.0
 10
5.2892302933
 20
5.4206251653
 30
0.0
 10
5.2842635413
 20
5.4203645225
 30
0.0
 10
5.2786694808
 20
5.4201034431
 30
0.0
 10
5.2724608598
 20
5.4198419855
 30
0.0
 10
5.2656520073
 20
5.4195802887
 30
0.0
 10
5.2582585498
 20
5.4193183984
 30
0.0
 10
5.2502974767
 20
5.4190563452
 30
0.0
 10
5.2386019851
 20
5.4186961231
 30
0.0
 10
5.2227115566
 20
5.418250261
 30
0.0
 10
5.2022228428
 20
5.4177287634
 30
0.0
 10
5.1799802627
 20
5.4172066425
 30
0.0
 10
5.1561883235
 20
5.4166840338
 30
0.0
 10
5.1310657715
 20
5.4161610884
 30
0.0
 10
5.1048436308
 20
5.4156378976
 30
0.0
 10
5.0777630177
 20
5.4151145362
 30
0.0
 10
5.0500729432
 20
5.4145910628
 30
0.0
 10
5.0220280108
 20
5.4140675276
 30
0.0
 10
4.9938860876
 20
5.413543976
 30
0.0
 10
4.9659059423
 20
5.4130204522
 30
0.0
 10
4.9383448667
 20
5.4124970021
 30
0.0
 10
4.9114562855
 20
5.4119736774
 30
0.0
 10
4.885487442
 20
5.4114505402
 30
0.0
 10
4.8606771015
 20
5.4109276682
 30
0.0
 10
4.8372533827
 20
5.4104051689
 30
0.0
 10
4.8154316679
 20
5.4098831774
 30
0.0
 10
4.7954125967
 20
5.4093619464
 30
0.0
 10
4.7773802562
 20
5.4088416816
 30
0.0
 10
4.7636725372
 20
5.4083942271
 30
0.0
 10
4.7538226251
 20
5.4080312392
 30
0.0
 10
4.7473127189
 20
5.4077696332
 30
0.0
 10
4.7414104279
 20
5.4075083662
 30
0.0
 10
4.7361292272
 20
5.4072474631
 30
0.0
 10
4.7314813179
 20
5.4069872273
 30
0.0
 10
4.7274772504
 20
5.4067277308
 30
0.0
 10
4.7245479441
 20
5.4065024885
 30
0.0
 10
4.7225337459
 20
5.4063184644
 30
0.0
 10
4.7212711248
 20
5.4061880802
 30
0.0
 10
4.7201753152
 20
5.4060580397
 30
0.0
 10
4.719246738
 20
5.4059285616
 30
0.0
 10
4.7184858706
 20
5.4057998198
 30
0.0
 10
4.7180365562
 20
5.4057037129
 30
0.0
 10
4.7178410309
 20
5.4056530115
 30
0.0
  0
SPLINE
  5
411
100
AcDbEntity
  8
0
100
AcDbSpline
 62
7
  6
CONTINUOUS
 70
0
 71
3
 72
63
 73
59
 74
0
 42
0.0000001
 43
0.0000001
 44
0.0000000001
 40
0.0
 40
0.0
 40
0.0
 40
0.0
 40
0.0001173815
 40
0.0001890987
 40
0.0002732606
 40
0.0004849484
 40
0.0007602847
 40
0.0011025009
 40
0.0015132367
 40
0.001993417
 40
0.0025436034
 40
0.003855055
 40
0.0054486786
 40
0.0073245083
 40
0.0094821644
 40
0.0146399066
 40
0.0209117184
 40
0.0282844776
 40
0.0367420107
 40
0.0462649206
 40
0.0568322012
 40
0.0684191118
 40
0.0809997788
 40
0.0945449616
 40
0.1090238046
 40
0.1406474087
 40
0.1755803994
 40
0.2135019802
 40
0.254063649
 40
0.2968927373
 40
0.3415956066
 40
0.3877614155
 40
0.4349659154
 40
0.4827751064
 40
0.5307496379
 40
0.5784483915
 40
0.6254330165
 40
0.6712716434
 40
0.7155429381
 40
0.7578400771
 40
0.7977742389
 40
0.8349785084
 40
0.8691111184
 40
0.8998586832
 40
0.9269391115
 40
0.9390253204
 40
0.9501042952
 40
0.9601509857
 40
0.9691425986
 40
0.9770584922
 40
0.983881561
 40
0.9895962576
 40
0.992034465
 40
0.9941916915
 40
0.9960669361
 40
0.9976596877
 40
0.9989702914
 40
1.0
 40
1.0
 40
1.0
 40
1.0
 10
5.305880573
 20
5.4569338509
 30
0.0
 10
5.3058805596
 20
5.4569108243
 30
0.0
 10
5.3058665461
 20
5.4568737089
 30
0.0
 10
5.3058320752
 20
5.4568326729
 30
0.0
 10
5.3057773956
 20
5.4567851718
 30
0.0
 10
5.3056801139
 20
5.4567282448
 30
0.0
 10
5.3055305662
 20
5.4566638612
 30
0.0
 10
5.3053392924
 20
5.4565992296
 30
0.0
 10
5.305106195
 20
5.4565343086
 30
0.0
 10
5.3048310358
 20
5.4564691972
 30
0.0
 10
5.3043810018
 20
5.4563767087
 30
0.0
 10
5.3037124543
 20
5.4562638993
 30
0.0
 10
5.3027835163
 20
5.4561343348
 30
0.0
 10
5.3016872737
 20
5.4560043062
 30
0.0
 10
5.2998937126
 20
5.4558192696
 30
0.0
 10
5.2972376814
 20
5.4555939101
 30
0.0
 10
5.2935582889
 20
5.4553349924
 30
0.0
 10
5.289230275
 20
5.4550751542
 30
0.0
 10
5.2842635676
 20
5.4548145367
 30
0.0
 10
5.2786694591
 20
5.4545534302
 30
0.0
 10
5.2724608843
 20
5.4542919954
 30
0.0
 10
5.265652003
 20
5.454030283
 30
0.0
 10
5.2582585622
 20
5.4537684001
 30
0.0
 10
5.2502974917
 20
5.4535063475
 30
0.0
 10
5.238602025
 20
5.4531461206
 30
0.0
 10
5.2227116224
 20
5.4527002611
 30
0.0
 10
5.2022228809
 20
5.4521787632
 30
0.0
 10
5.1799802649
 20
5.4516566433
 30
0.0
 10
5.1561882974
 20
5.4511340345
 30
0.0
 10
5.1310657579
 20
5.4506110889
 30
0.0
 10
5.1048436394
 20
5.4500878977
 30
0.0
 10
5.0777630405
 20
5.4495645362
 30
0.0
 10
5.0500729697
 20
5.449041063
 30
0.0
 10
5.0220280228
 20
5.4485175279
 30
0.0
 10
4.9938861023
 20
5.4479939765
 30
0.0
 10
4.9659059634
 20
5.4474704524
 30
0.0
 10
4.938344895
 20
5.4469470021
 30
0.0
 10
4.9114563083
 20
5.4464236774
 30
0.0
 10
4.8854874354
 20
5.4459005403
 30
0.0
 10
4.8606770731
 20
5.4453776686
 30
0.0
 10
4.8372533554
 20
5.4448551699
 30
0.0
 10
4.8154316755
 20
5.4443331779
 30
0.0
 10
4.7954126525
 20
5.4438119462
 30
0.0
 10
4.7773803254
 20
5.443291681
 30
0.0
 10
4.7636725826
 20
5.4428442263
 30
0.0
 10
4.7538226311
 20
5.4424812392
 30
0.0
 10
4.7473127361
 20
5.4422196387
 30
0.0
 10
4.7414104245
 20
5.4419583559
 30
0.0
 10
4.7361292631
 20
5.4416974789
 30
0.0
 10
4.7314812967
 20
5.4414372095
 30
0.0
 10
4.7274772706
 20
5.4411777463
 30
0.0
 10
4.7245479657
 20
5.4409524904
 30
0.0
 10
4.7225337954
 20
5.4407684555
 30
0.0
 10
4.7212711228
 20
5.440638081
 30
0.0
 10
4.7201752706
 20
5.4405080518
 30
0.0
 10
4.7192467283
 20
5.4403785667
 30
0.0
 10
4.7184859205
 20
5.4402498119
 30
0.0
 10
4.7180366391
 20
5.4401537036
 30
0.0
 10
4.7178411065
 20
5.4401030116
 30
0.0
  0
SPLINE
  5
412
100
AcDbEntity
  8
0
100
AcDbSpline
 62
7
  6
CONTINUOUS
 70
0
 71
3
 72
63
 73
59
 74
0
 42
0.0000001
 43
0.0000001
 44
0.0000000001
 40
0.0
 40
0.0
 40
0.0
 40
0.0
 40
0.0010305488
 40
0.0023428763
 40
0.0039379092
 40
0.0058154627
 40
0.0079749741
 40
0.0104156864
 40
0.0161361879
 40
0.0229645197
 40
0.0308862536
 40
0.0398832882
 40
0.0499354205
 40
0.0610198261
 40
0.0731109087
 40
0.1002008843
 40
0.1309571577
 40
0.1650974078
 40
0.2023081681
 40
0.2422476303
 40
0.284548844
 40
0.3288231691
 40
0.3746637636
 40
0.4216493439
 40
0.4693481802
 40
0.5173217944
 40
0.5651293801
 40
0.6123315063
 40
0.6584944184
 40
0.7031939143
 40
0.7460192019
 40
0.7865768078
 40
0.8244940777
 40
0.8594226492
 40
0.8756647097
 40
0.8910418262
 40
0.9055184197
 40
0.9190613758
 40
0.9316397528
 40
0.9432244591
 40
0.9537894533
 40
0.9633100455
 40
0.9717652419
 40
0.979135424
 40
0.9854046854
 40
0.9905593093
 40
0.9927153186
 40
0.9945893618
 40
0.996180879
 40
0.9974896931
 40
0.9980383526
 40
0.9985168556
 40
0.9989256789
 40
0.9992656229
 40
0.9995381323
 40
0.9996499814
 40
0.9997463072
 40
1.0
 40
1.0
 40
1.0
 40
1.0
 10
5.3254096862
 20
5.0961006885
 30
0.0
 10
5.3251996109
 20
5.0960499709
 30
0.0
 10
5.3247174599
 20
5.0959538508
 30
0.0
 10
5.3239016812
 20
5.0958251152
 30
0.0
 10
5.3229065398
 20
5.095695663
 30
0.0
 10
5.3217325975
 20
5.0955656459
 30
0.0
 10
5.3203804093
 20
5.095435283
 30
0.0
 10
5.3182239089
 20
5.0952512763
 30
0.0
 10
5.3150884822
 20
5.0950260862
 30
0.0
 10
5.3108035076
 20
5.0947666048
 30
0.0
 10
5.3058303867
 20
5.0945063901
 30
0.0
 10
5.3001804555
 20
5.0942455263
 30
0.0
 10
5.293866687
 20
5.0939842751
 30
0.0
 10
5.2869035963
 20
5.0937227093
 30
0.0
 10
5.2763689292
 20
5.0933597587
 30
0.0
 10
5.2617095146
 20
5.0929123665
 30
0.0
 10
5.2424265041
 20
5.0923921548
 30
0.0
 10
5.2210204504
 20
5.0918709805
 30
0.0
 10
5.1976881409
 20
5.0913490455
 30
0.0
 10
5.1726440543
 20
5.090826604
 30
0.0
 10
5.1461184109
 20
5.0903037898
 30
0.0
 10
5.1183550494
 20
5.0897807109
 30
0.0
 10
5.0896091905
 20
5.0892574446
 30
0.0
 10
5.0601450824
 20
5.0887340529
 30
0.0
 10
5.0302336023
 20
5.0882105877
 30
0.0
 10
5.0001497181
 20
5.0876870948
 30
0.0
 10
4.9701700119
 20
5.0871636185
 30
0.0
 10
4.9405700755
 20
5.0866402041
 30
0.0
 10
4.9116220217
 20
5.0861169014
 30
0.0
 10
4.8835919621
 20
5.0855937702
 30
0.0
 10
4.856737569
 20
5.0850708807
 30
0.0
 10
4.8313057152
 20
5.0845483409
 30
0.0
 10
4.8075302014
 20
5.0840262471
 30
0.0
 10
4.7888533236
 20
5.0835816561
 30
0.0
 10
4.7749025487
 20
5.0832231787
 30
0.0
 10
4.7652396022
 20
5.0829609562
 30
0.0
 10
4.7561428881
 20
5.0826988294
 30
0.0
 10
4.7476333382
 20
5.0824368164
 30
0.0
 10
4.7397305329
 20
5.082174959
 30
0.0
 10
4.7324525829
 20
5.081913279
 30
0.0
 10
4.7258163044
 20
5.0816518738
 30
0.0
 10
4.7198368414
 20
5.0813907975
 30
0.0
 10
4.7145280332
 20
5.0811302184
 30
0.0
 10
4.7099019151
 20
5.0808703984
 30
0.0
 10
4.7059691621
 20
5.0806115297
 30
0.0
 10
4.7031301473
 20
5.0803861927
 30
0.0
 10
4.7012129385
 20
5.080201182
 30
0.0
 10
4.7000411985
 20
5.0800711807
 30
0.0
 10
4.6990483429
 20
5.0799416486
 30
0.0
 10
4.6983337492
 20
5.0798288316
 30
0.0
 10
4.6978526548
 20
5.0797363265
 30
0.0
 10
4.6975585829
 20
5.079671204
 30
0.0
 10
4.697309481
 20
5.0796063661
 30
0.0
 10
4.697105074
 20
5.0795416096
 30
0.0
 10
4.696964121
 20
5.079485276
 30
0.0
 10
4.696874141
 20
5.0794381965
 30
0.0
 10
4.6967940962
 20
5.0793878982
 30
0.0
 10
4.6967306137
 20
5.0793249193
 30
0.0
 10
4.6967306137
 20
5.0792717188
 30
0.0
  0
SPLINE
  5
413
100
AcDbEntity
  8
0
100
AcDbSpline
 62
7
  6
CONTINUOUS
 70
0
 71
3
 72
63
 73
59
 74
0
 42
0.0000001
 43
0.0000001
 44
0.0000000001
 40
0.0
 40
0.0
 40
0.0
 40
0.0
 40
0.0010305488
 40
0.0023428763
 40
0.0039379092
 40
0.0058154627
 40
0.0079749741
 40
0.0104156864
 40
0.0161361879
 40
0.0229645197
 40
0.0308862536
 40
0.0398832882
 40
0.0499354205
 40
0.0610198261
 40
0.0731109087
 40
0.1002008843
 40
0.1309571577
 40
0.1650974078
 40
0.2023081681
 40
0.2422476303
 40
0.284548844
 40
0.3288231691
 40
0.3746637636
 40
0.4216493439
 40
0.4693481802
 40
0.5173217944
 40
0.5651293801
 40
0.6123315063
 40
0.6584944184
 40
0.7031939143
 40
0.7460192019
 40
0.7865768078
 40
0.8244940777
 40
0.8594226492
 40
0.8756647097
 40
0.8910418262
 40
0.9055184197
 40
0.9190613758
 40
0.9316397528
 40
0.9432244591
 40
0.9537894533
 40
0.9633100455
 40
0.9717652419
 40
0.979135424
 40
0.9854046854
 40
0.9905593093
 40
0.9927153186
 40
0.9945893618
 40
0.996180879
 40
0.9974896931
 40
0.9980383526
 40
0.9985168556
 40
0.9989256789
 40
0.9992656229
 40
0.9995381323
 40
0.9996499814
 40
0.9997463072
 40
1.0
 40
1.0
 40
1.0
 40
1.0
 10
5.3254096862
 20
5.4061506885
 30
0.0
 10
5.3251996109
 20
5.4060999709
 30
0.0
 10
5.3247174599
 20
5.4060038508
 30
0.0
 10
5.3239016812
 20
5.4058751152
 30
0.0
 10
5.3229065398
 20
5.405745663
 30
0.0
 10
5.3217325975
 20
5.4056156459
 30
0.0
 10
5.3203804093
 20
5.405485283
 30
0.0
 10
5.3182239089
 20
5.4053012763
 30
0.0
 10
5.3150884822
 20
5.4050760862
 30
0.0
 10
5.3108035076
 20
5.4048166048
 30
0.0
 10
5.3058303867
 20
5.4045563901
 30
0.0
 10
5.3001804555
 20
5.4042955263
 30
0.0
 10
5.293866687
 20
5.4040342751
 30
0.0
 10
5.2869035963
 20
5.4037727093
 30
0.0
 10
5.2763689292
 20
5.4034097587
 30
0.0
 10
5.2617095146
 20
5.4029623665
 30
0.0
 10
5.2424265041
 20
5.4024421548
 30
0.0
 10
5.2210204504
 20
5.4019209805
 30
0.0
 10
5.1976881409
 20
5.4013990455
 30
0.0
 10
5.1726440543
 20
5.400876604
 30
0.0
 10
5.1461184109
 20
5.4003537898
 30
0.0
 10
5.1183550494
 20
5.3998307109
 30
0.0
 10
5.0896091905
 20
5.3993074446
 30
0.0
 10
5.0601450824
 20
5.3987840529
 30
0.0
 10
5.0302336023
 20
5.3982605877
 30
0.0
 10
5.0001497181
 20
5.3977370948
 30
0.0
 10
4.9701700119
 20
5.3972136185
 30
0.0
 10
4.9405700755
 20
5.3966902041
 30
0.0
 10
4.9116220217
 20
5.3961669014
 30
0.0
 10
4.8835919621
 20
5.3956437702
 30
0.0
 10
4.856737569
 20
5.3951208807
 30
0.0
 10
4.8313057152
 20
5.3945983409
 30
0.0
 10
4.8075302014
 20
5.3940762471
 30
0.0
 10
4.7888533236
 20
5.3936316561
 30
0.0
 10
4.7749025487
 20
5.3932731787
 30
0.0
 10
4.7652396022
 20
5.3930109562
 30
0.0
 10
4.7561428881
 20
5.3927488294
 30
0.0
 10
4.7476333382
 20
5.3924868164
 30
0.0
 10
4.7397305329
 20
5.392224959
 30
0.0
 10
4.7324525829
 20
5.391963279
 30
0.0
 10
4.7258163044
 20
5.3917018738
 30
0.0
 10
4.7198368414
 20
5.3914407975
 30
0.0
 10
4.7145280332
 20
5.3911802184
 30
0.0
 10
4.7099019151
 20
5.3909203984
 30
0.0
 10
4.7059691621
 20
5.3906615297
 30
0.0
 10
4.7031301473
 20
5.3904361927
 30
0.0
 10
4.7012129385
 20
5.390251182
 30
0.0
 10
4.7000411985
 20
5.3901211807
 30
0.0
 10
4.6990483429
 20
5.3899916486
 30
0.0
 10
4.6983337492
 20
5.3898788316
 30
0.0
 10
4.6978526548
 20
5.3897863265
 30
0.0
 10
4.6975585829
 20
5.389721204
 30
0.0
 10
4.697309481
 20
5.3896563661
 30
0.0
 10
4.697105074
 20
5.3895916096
 30
0.0
 10
4.696964121
 20
5.389535276
 30
0.0
 10
4.696874141
 20
5.3894881965
 30
0.0
 10
4.6967940962
 20
5.3894378982
 30
0.0
 10
4.6967306137
 20
5.3893749193
 30
0.0
 10
4.6967306137
 20
5.3893217188
 30
0.0
  0
LINE
  5
414
100
AcDbEntity
  8
0
100
AcDbLine
 62
7
  6
CONTINUOUS
 10
5.3051200867
 20
5.4008896903
 11
5.3047439934
 21
5.4008019193
  0
SPLINE
  5
415
100
AcDbEntity
  8
0
100
AcDbSpline
 62
7
  6
CONTINUOUS
 70
0
 71
3
 72
62
 73
58
 74
0
 42
0.0000001
 43
0.0000001
 44
0.0000000001
 40
0.0
 40
0.0
 40
0.0
 40
0.0
 40
0.0012106249
 40
0.0027005657
 40
0.0044702572
 40
0.0065192346
 40
0.0114518121
 40
0.0174901828
 40
0.0246212073
 40
0.0328297515
 40
0.0420975297
 40
0.0524035405
 40
0.0637250399
 40
0.076035826
 40
0.1035128693
 40
0.1345853974
 40
0.1689711664
 40
0.2063577145
 40
0.2464051642
 40
0.2887493777
 40
0.3330053415
 40
0.3787704166
 40
0.4256284013
 40
0.473152978
 40
0.5209119007
 40
0.5684707799
 40
0.6153969221
 40
0.6612635685
 40
0.7056533751
 40
0.7481627068
 40
0.7884049527
 40
0.8260141963
 40
0.8606485614
 40
0.8919932143
 40
0.9063415161
 40
0.9197634462
 40
0.9322279707
 40
0.9437073265
 40
0.9541753058
 40
0.9636082739
 40
0.9719853956
 40
0.9792874819
 40
0.9854992773
 40
0.9906070715
 40
0.992744012
 40
0.9946019037
 40
0.9961802096
 40
0.9974789046
 40
0.9980237945
 40
0.9984994401
 40
0.9989063818
 40
0.9992455218
 40
0.9995184762
 40
0.9997284487
 40
0.9998119893
 40
0.9998832301
 40
1.0
 40
1.0
 40
1.0
 40
1.0
 10
5.3047439934
 20
5.4008019193
 30
0.0
 10
5.3045118306
 20
5.4007526599
 30
0.0
 10
5.3039907585
 20
5.400657884
 30
0.0
 10
5.3031238323
 20
5.4005292345
 30
0.0
 10
5.3020911073
 20
5.4004000262
 30
0.0
 10
5.3003853976
 20
5.4002156218
 30
0.0
 10
5.2978426288
 20
5.3999913698
 30
0.0
 10
5.2943031907
 20
5.3997340467
 30
0.0
 10
5.290120159
 20
5.3994756987
 30
0.0
 10
5.2853030646
 20
5.3992165287
 30
0.0
 10
5.2798627794
 20
5.398956864
 30
0.0
 10
5.2738116309
 20
5.3986968195
 30
0.0
 10
5.2671634441
 20
5.3984365157
 30
0.0
 10
5.2571504471
 20
5.3980758137
 30
0.0
 10
5.2432660496
 20
5.3976308955
 30
0.0
 10
5.2250543287
 20
5.397113125
 30
0.0
 10
5.2048992663
 20
5.3965944553
 30
0.0
 10
5.1829842489
 20
5.3960750731
 30
0.0
 10
5.1595086623
 20
5.3955552137
 30
0.0
 10
5.1346860927
 20
5.3950350026
 30
0.0
 10
5.1087424105
 20
5.3945145418
 30
0.0
 10
5.0819136805
 20
5.393993904
 30
0.0
 10
5.0544440564
 20
5.3934731486
 30
0.0
 10
5.0265834906
 20
5.3929523251
 30
0.0
 10
4.9985854981
 20
5.3924314784
 30
0.0
 10
4.9707048426
 20
5.3919106517
 30
0.0
 10
4.9431952132
 20
5.3913898892
 30
0.0
 10
4.9163069601
 20
5.3908692404
 30
0.0
 10
4.8902847422
 20
5.3903487623
 30
0.0
 10
4.8653653557
 20
5.3898285298
 30
0.0
 10
4.8417755278
 20
5.3893086333
 30
0.0
 10
4.8197298939
 20
5.3887892244
 30
0.0
 10
4.7994290514
 20
5.3882704329
 30
0.0
 10
4.7836878932
 20
5.3878268732
 30
0.0
 10
4.77210454
 20
5.3874684896
 30
0.0
 10
4.7642212152
 20
5.3872078148
 30
0.0
 10
4.7569006427
 20
5.386947281
 30
0.0
 10
4.7501595503
 20
5.386686947
 30
0.0
 10
4.7440132355
 20
5.3864268635
 30
0.0
 10
4.7384756628
 20
5.3861671206
 30
0.0
 10
4.7335594674
 20
5.3859078693
 30
0.0
 10
4.7292756826
 20
5.3856493635
 30
0.0
 10
4.7256341189
 20
5.3853918265
 30
0.0
 10
4.7230054568
 20
5.3851676093
 30
0.0
 10
4.7212304466
 20
5.3849835457
 30
0.0
 10
4.7201455074
 20
5.3848542
 30
0.0
 10
4.7192262028
 20
5.3847253198
 30
0.0
 10
4.7185646444
 20
5.3846130835
 30
0.0
 10
4.7181193403
 20
5.3845210759
 30
0.0
 10
4.7178470367
 20
5.3844563034
 30
0.0
 10
4.7176163313
 20
5.3843917199
 30
0.0
 10
4.7174269999
 20
5.3843274221
 30
0.0
 10
4.7172789571
 20
5.3842633701
 30
0.0
 10
4.7171826645
 20
5.3842067344
 30
0.0
 10
4.7171285592
 20
5.3841594905
 30
0.0
 10
4.7170944348
 20
5.3841186421
 30
0.0
 10
4.717080612
 20
5.3840817425
 30
0.0
 10
4.717080618
 20
5.3840588509
 30
0.0
  0
SPLINE
  5
416
100
AcDbEntity
  8
0
100
AcDbSpline
 62
7
  6
CONTINUOUS
 70
0
 71
3
 72
63
 73
59
 74
0
 42
0.0000001
 43
0.0000001
 44
0.0000000001
 40
0.0
 40
0.0
 40
0.0
 40
0.0
 40
0.0010295224
 40
0.0023401754
 40
0.003933166
 40
0.0058084304
 40
0.0079654641
 40
0.0104035403
 40
0.0161185875
 40
0.0229413682
 40
0.0308574227
 40
0.0398489951
 40
0.0498955771
 40
0.0609747784
 40
0.0730606984
 40
0.1001411671
 40
0.13088886
 40
0.1650215358
 40
0.202225812
 40
0.2421599257
 40
0.2844569379
 40
0.3287282592
 40
0.3745668768
 40
0.4215515563
 40
0.4692503242
 40
0.5172247913
 40
0.5650340129
 40
0.6122384837
 40
0.6584043737
 40
0.7031072514
 40
0.7459362834
 40
0.7864978976
 40
0.8244193847
 40
0.8593523978
 40
0.8909761227
 40
0.9054548799
 40
0.9190002532
 40
0.9315806424
 40
0.94316787
 40
0.9537348665
 40
0.9632579639
 40
0.9717154309
 40
0.9790881196
 40
0.9853601606
 40
0.9905175873
 40
0.992675412
 40
0.9945514092
 40
0.9961449408
 40
0.9974561584
 40
0.9980063144
 40
0.998486544
 40
0.9988973741
 40
0.9992396938
 40
0.9995151082
 40
0.9997268181
 40
0.9998109648
 40
0.9998826555
 40
1.0
 40
1.0
 40
1.0
 40
1.0
 10
5.3051201076
 20
5.0908396904
 30
0.0
 10
5.3049246135
 20
5.0907889954
 30
0.0
 10
5.3044753618
 20
5.0906928745
 30
0.0
 10
5.3037145317
 20
5.0905641289
 30
0.0
 10
5.3027859259
 20
5.0904346619
 30
0.0
 10
5.3016900614
 20
5.0903046273
 30
0.0
 10
5.3004274496
 20
5.0901742438
 30
0.0
 10
5.298413275
 20
5.0899901974
 30
0.0
 10
5.2954839805
 20
5.0897649775
 30
0.0
 10
5.2914799129
 20
5.0895054774
 30
0.0
 10
5.2868319777
 20
5.0892452305
 30
0.0
 10
5.2815508142
 20
5.0889843464
 30
0.0
 10
5.2756484871
 20
5.0887230579
 30
0.0
 10
5.2691386247
 20
5.0884614708
 30
0.0
 10
5.2592886776
 20
5.0880984663
 30
0.0
 10
5.2455809571
 20
5.0876510236
 30
0.0
 10
5.227548583
 20
5.0871307555
 30
0.0
 10
5.2075295194
 20
5.086609525
 30
0.0
 10
5.1857078334
 20
5.0860875327
 30
0.0
 10
5.1622841473
 20
5.0855650335
 30
0.0
 10
5.1374738125
 20
5.0850421613
 30
0.0
 10
5.1115049596
 20
5.0845190245
 30
0.0
 10
5.0846163571
 20
5.0839956999
 30
0.0
 10
5.0570552753
 20
5.0834722499
 30
0.0
 10
5.0290751338
 20
5.0829487258
 30
0.0
 10
5.0009332154
 20
5.082425174
 30
0.0
 10
4.9728882791
 20
5.0819016389
 30
0.0
 10
4.9451981903
 20
5.0813781656
 30
0.0
 10
4.9181175779
 20
5.0808548046
 30
0.0
 10
4.8918954513
 20
5.0803316136
 30
0.0
 10
4.8667729304
 20
5.0798086679
 30
0.0
 10
4.8429810015
 20
5.0792860587
 30
0.0
 10
4.8207384089
 20
5.0787639388
 30
0.0
 10
4.8002496565
 20
5.0782424387
 30
0.0
 10
4.7843592415
 20
5.0777965857
 30
0.0
 10
4.77266373
 20
5.07743635
 30
0.0
 10
4.7647026925
 20
5.0771743103
 30
0.0
 10
4.7573092068
 20
5.0769124085
 30
0.0
 10
4.7505003724
 20
5.0766507176
 30
0.0
 10
4.7442917548
 20
5.0763892626
 30
0.0
 10
4.7386976773
 20
5.07612817
 30
0.0
 10
4.7337309596
 20
5.0758675509
 30
0.0
 10
4.7294029284
 20
5.0756076973
 30
0.0
 10
4.7257235638
 20
5.0753488136
 30
0.0
 10
4.7230675197
 20
5.0751234145
 30
0.0
 10
4.7212739529
 20
5.0749383943
 30
0.0
 10
4.7201776606
 20
5.0748083769
 30
0.0
 10
4.7192487534
 20
5.0746788139
 30
0.0
 10
4.7185802797
 20
5.0745659873
 30
0.0
 10
4.7181302887
 20
5.0744734997
 30
0.0
 10
4.7178551065
 20
5.0744083894
 30
0.0
 10
4.7176219586
 20
5.0743434698
 30
0.0
 10
4.7174306266
 20
5.0742788411
 30
0.0
 10
4.7172810343
 20
5.0742144617
 30
0.0
 10
4.7171837293
 20
5.0741575381
 30
0.0
 10
4.7171290583
 20
5.0741100321
 30
0.0
 10
4.717094613
 20
5.0740689926
 30
0.0
 10
4.7170806435
 20
5.0740318702
 30
0.0
 10
4.7170806569
 20
5.0740088509
 30
0.0
  0
SPLINE
  5
417
100
AcDbEntity
  8
0
100
AcDbSpline
 62
7
  6
CONTINUOUS
 70
0
 71
3
 72
63
 73
59
 74
0
 42
0.0000001
 43
0.0000001
 44
0.0000000001
 40
0.0
 40
0.0
 40
0.0
 40
0.0
 40
0.0010305488
 40
0.0023428763
 40
0.0039379092
 40
0.0058154627
 40
0.0079749741
 40
0.0104156864
 40
0.0161361879
 40
0.0229645197
 40
0.0308862536
 40
0.0398832882
 40
0.0499354205
 40
0.0610198261
 40
0.0731109087
 40
0.1002008843
 40
0.1309571577
 40
0.1650974078
 40
0.2023081681
 40
0.2422476303
 40
0.284548844
 40
0.3288231691
 40
0.3746637636
 40
0.4216493439
 40
0.4693481802
 40
0.5173217944
 40
0.5651293801
 40
0.6123315063
 40
0.6584944184
 40
0.7031939143
 40
0.7460192019
 40
0.7865768078
 40
0.8244940777
 40
0.8594226492
 40
0.8756647097
 40
0.8910418262
 40
0.9055184197
 40
0.9190613758
 40
0.9316397528
 40
0.9432244591
 40
0.9537894533
 40
0.9633100455
 40
0.9717652419
 40
0.979135424
 40
0.9854046854
 40
0.9905593093
 40
0.9927153186
 40
0.9945893618
 40
0.996180879
 40
0.9974896931
 40
0.9980383526
 40
0.9985168556
 40
0.9989256789
 40
0.9992656229
 40
0.9995381323
 40
0.9996499814
 40
0.9997463072
 40
1.0
 40
1.0
 40
1.0
 40
1.0
 10
5.3254096862
 20
5.4406006885
 30
0.0
 10
5.3251996109
 20
5.4405499709
 30
0.0
 10
5.3247174599
 20
5.4404538508
 30
0.0
 10
5.3239016812
 20
5.4403251152
 30
0.0
 10
5.3229065398
 20
5.440195663
 30
0.0
 10
5.3217325975
 20
5.4400656459
 30
0.0
 10
5.3203804093
 20
5.439935283
 30
0.0
 10
5.3182239089
 20
5.4397512763
 30
0.0
 10
5.3150884822
 20
5.4395260862
 30
0.0
 10
5.3108035076
 20
5.4392666048
 30
0.0
 10
5.3058303867
 20
5.4390063901
 30
0.0
 10
5.3001804555
 20
5.4387455263
 30
0.0
 10
5.293866687
 20
5.4384842751
 30
0.0
 10
5.2869035963
 20
5.4382227093
 30
0.0
 10
5.2763689292
 20
5.4378597587
 30
0.0
 10
5.2617095146
 20
5.4374123665
 30
0.0
 10
5.2424265041
 20
5.4368921548
 30
0.0
 10
5.2210204504
 20
5.4363709805
 30
0.0
 10
5.1976881409
 20
5.4358490455
 30
0.0
 10
5.1726440543
 20
5.435326604
 30
0.0
 10
5.1461184109
 20
5.4348037898
 30
0.0
 10
5.1183550494
 20
5.4342807109
 30
0.0
 10
5.0896091905
 20
5.4337574446
 30
0.0
 10
5.0601450824
 20
5.4332340529
 30
0.0
 10
5.0302336023
 20
5.4327105877
 30
0.0
 10
5.0001497181
 20
5.4321870948
 30
0.0
 10
4.9701700119
 20
5.4316636185
 30
0.0
 10
4.9405700755
 20
5.4311402041
 30
0.0
 10
4.9116220217
 20
5.4306169014
 30
0.0
 10
4.8835919621
 20
5.4300937702
 30
0.0
 10
4.856737569
 20
5.4295708807
 30
0.0
 10
4.8313057152
 20
5.4290483409
 30
0.0
 10
4.8075302014
 20
5.4285262471
 30
0.0
 10
4.7888533236
 20
5.4280816561
 30
0.0
 10
4.7749025487
 20
5.4277231787
 30
0.0
 10
4.7652396022
 20
5.4274609562
 30
0.0
 10
4.7561428881
 20
5.4271988294
 30
0.0
 10
4.7476333382
 20
5.4269368164
 30
0.0
 10
4.7397305329
 20
5.426674959
 30
0.0
 10
4.7324525829
 20
5.426413279
 30
0.0
 10
4.7258163044
 20
5.4261518738
 30
0.0
 10
4.7198368414
 20
5.4258907975
 30
0.0
 10
4.7145280332
 20
5.4256302184
 30
0.0
 10
4.7099019151
 20
5.4253703984
 30
0.0
 10
4.7059691621
 20
5.4251115297
 30
0.0
 10
4.7031301473
 20
5.4248861927
 30
0.0
 10
4.7012129385
 20
5.424701182
 30
0.0
 10
4.7000411985
 20
5.4245711807
 30
0.0
 10
4.6990483429
 20
5.4244416486
 30
0.0
 10
4.6983337492
 20
5.4243288316
 30
0.0
 10
4.6978526548
 20
5.4242363265
 30
0.0
 10
4.6975585829
 20
5.424171204
 30
0.0
 10
4.697309481
 20
5.4241063661
 30
0.0
 10
4.697105074
 20
5.4240416096
 30
0.0
 10
4.696964121
 20
5.423985276
 30
0.0
 10
4.696874141
 20
5.4239381965
 30
0.0
 10
4.6967940962
 20
5.4238878982
 30
0.0
 10
4.6967306137
 20
5.4238249193
 30
0.0
 10
4.6967306137
 20
5.4237717188
 30
0.0
  0
LINE
  5
418
100
AcDbEntity
  8
0
100
AcDbLine
 62
7
  6
CONTINUOUS
 10
5.3051201625
 20
5.4353396903
 11
5.3047000277
 21
5.4352426806
  0
SPLINE
  5
419
100
AcDbEntity
  8
0
100
AcDbSpline
 62
7
  6
CONTINUOUS
 70
0
 71
3
 72
62
 73
58
 74
0
 42
0.0000001
 43
0.0000001
 44
0.0000000001
 40
0.0
 40
0.0
 40
0.0
 40
0.0
 40
0.0012298088
 40
0.0027384684
 40
0.0045264414
 40
0.0065936185
 40
0.0115618052
 40
0.0176336646
 40
0.0247972066
 40
0.0330361442
 40
0.042332828
 40
0.0526660237
 40
0.0640126323
 40
0.0763471741
 40
0.1038655266
 40
0.1349718175
 40
0.1693838997
 40
0.2067893779
 40
0.2468486877
 40
0.2891978247
 40
0.3334521028
 40
0.3792094248
 40
0.4260540555
 40
0.473560418
 40
0.5212968255
 40
0.5688295131
 40
0.6157265892
 40
0.6615618978
 40
0.705919057
 40
0.7483950752
 40
0.7886040467
 40
0.8261807804
 40
0.8607838764
 40
0.8920993184
 40
0.9064342388
 40
0.9198430141
 40
0.9322957331
 40
0.9437636172
 40
0.9542213943
 40
0.963644981
 40
0.9720135552
 40
0.9793085456
 40
0.9855137405
 40
0.990616689
 40
0.9927514086
 40
0.9946072206
 40
0.9961838487
 40
0.99748143
 40
0.9980258812
 40
0.9985010902
 40
0.998907591
 40
0.9992463181
 40
0.9995189214
 40
0.9997286368
 40
0.9998120923
 40
0.9998832777
 40
1.0
 40
1.0
 40
1.0
 40
1.0
 10
5.3047000277
 20
5.4352426806
 30
0.0
 10
5.3044640132
 20
5.4351935529
 30
0.0
 10
5.3039354169
 20
5.4350989222
 30
0.0
 10
5.3030574261
 20
5.4349702839
 30
0.0
 10
5.3020138774
 20
5.4348410973
 30
0.0
 10
5.300294067
 20
5.4346568856
 30
0.0
 10
5.2977343084
 20
5.4344327843
 30
0.0
 10
5.2941751681
 20
5.4341755129
 30
0.0
 10
5.2899735177
 20
5.4339173056
 30
0.0
 10
5.2851387638
 20
5.4336582348
 30
0.0
 10
5.2796819173
 20
5.4333987057
 30
0.0
 10
5.2736152952
 20
5.4331387977
 30
0.0
 10
5.266952694
 20
5.4328786176
 30
0.0
 10
5.2569227672
 20
5.4325181723
 30
0.0
 10
5.2430200427
 20
5.4320735088
 30
0.0
 10
5.2247898267
 20
5.4315560049
 30
0.0
 10
5.2046208083
 20
5.4310376039
 30
0.0
 10
5.1826962651
 20
5.4305184971
 30
0.0
 10
5.1592154668
 20
5.4299989163
 30
0.0
 10
5.134391831
 20
5.4294789859
 30
0.0
 10
5.1084510141
 20
5.4289588067
 30
0.0
 10
5.0816288008
 20
5.4284384515
 30
0.0
 10
5.054168983
 20
5.4279179796
 30
0.0
 10
5.0263211477
 20
5.4273974405
 30
0.0
 10
4.998338413
 20
5.4268768789
 30
0.0
 10
4.9704751341
 20
5.4263563374
 30
0.0
 10
4.9429845826
 20
5.4258358602
 30
0.0
 10
4.9161166257
 20
5.4253154965
 30
0.0
 10
4.8901154705
 20
5.424795304
 30
0.0
 10
4.8652174422
 20
5.4242753573
 30
0.0
 10
4.841648844
 20
5.4237557468
 30
0.0
 10
4.8196239211
 20
5.4232366232
 30
0.0
 10
4.7993428597
 20
5.4227181193
 30
0.0
 10
4.7836173846
 20
5.4222747905
 30
0.0
 10
4.772045845
 20
5.4219166167
 30
0.0
 10
4.7641706398
 20
5.4216560696
 30
0.0
 10
4.7568577685
 20
5.4213956973
 30
0.0
 10
4.7501237553
 20
5.4211354919
 30
0.0
 10
4.7439839983
 20
5.4208755589
 30
0.0
 10
4.7384523636
 20
5.4206159635
 30
0.0
 10
4.7335414513
 20
5.4203568365
 30
0.0
 10
4.729262353
 20
5.4200985062
 30
0.0
 10
4.7256247061
 20
5.4198410684
 30
0.0
 10
4.7229989221
 20
5.4196170075
 30
0.0
 10
4.7212258416
 20
5.4194330411
 30
0.0
 10
4.7201421591
 20
5.4193037586
 30
0.0
 10
4.7192238824
 20
5.419174937
 30
0.0
 10
4.7185630063
 20
5.4190627735
 30
0.0
 10
4.7181181237
 20
5.4189708245
 30
0.0
 10
4.7178460983
 20
5.4189060897
 30
0.0
 10
4.7176156647
 20
5.4188415407
 30
0.0
 10
4.7174265874
 20
5.4187772764
 30
0.0
 10
4.7172787615
 20
5.4187132567
 30
0.0
 10
4.7171826213
 20
5.4186566472
 30
0.0
 10
4.7171286029
 20
5.4186094316
 30
0.0
 10
4.7170945234
 20
5.4185685984
 30
0.0
 10
4.7170807093
 20
5.4185317315
 30
0.0
 10
4.7170806971
 20
5.418508851
 30
0.0
  0
SPLINE
  5
41A
100
AcDbEntity
  8
0
100
AcDbSpline
 62
7
  6
CONTINUOUS
 70
0
 71
3
 72
63
 73
59
 74
0
 42
0.0000001
 43
0.0000001
 44
0.0000000001
 40
0.0
 40
0.0
 40
0.0
 40
0.0
 40
0.0010305488
 40
0.0023428763
 40
0.0039379092
 40
0.0058154627
 40
0.0079749741
 40
0.0104156864
 40
0.0161361879
 40
0.0229645197
 40
0.0308862536
 40
0.0398832882
 40
0.0499354205
 40
0.0610198261
 40
0.0731109087
 40
0.1002008843
 40
0.1309571577
 40
0.1650974078
 40
0.2023081681
 40
0.2422476303
 40
0.284548844
 40
0.3288231691
 40
0.3746637636
 40
0.4216493439
 40
0.4693481802
 40
0.5173217944
 40
0.5651293801
 40
0.6123315063
 40
0.6584944184
 40
0.7031939143
 40
0.7460192019
 40
0.7865768078
 40
0.8244940777
 40
0.8594226492
 40
0.8756647097
 40
0.8910418262
 40
0.9055184197
 40
0.9190613758
 40
0.9316397528
 40
0.9432244591
 40
0.9537894533
 40
0.9633100455
 40
0.9717652419
 40
0.979135424
 40
0.9854046854
 40
0.9905593093
 40
0.9927153186
 40
0.9945893618
 40
0.996180879
 40
0.9974896931
 40
0.9980383526
 40
0.9985168556
 40
0.9989256789
 40
0.9992656229
 40
0.9995381323
 40
0.9996499814
 40
0.9997463072
 40
1.0
 40
1.0
 40
1.0
 40
1.0
 10
5.3254096862
 20
5.4750506885
 30
0.0
 10
5.3251996109
 20
5.4749999709
 30
0.0
 10
5.3247174599
 20
5.4749038508
 30
0.0
 10
5.3239016812
 20
5.4747751152
 30
0.0
 10
5.3229065398
 20
5.474645663
 30
0.0
 10
5.3217325975
 20
5.4745156459
 30
0.0
 10
5.3203804093
 20
5.474385283
 30
0.0
 10
5.3182239089
 20
5.4742012763
 30
0.0
 10
5.3150884822
 20
5.4739760862
 30
0.0
 10
5.3108035076
 20
5.4737166048
 30
0.0
 10
5.3058303867
 20
5.4734563901
 30
0.0
 10
5.3001804555
 20
5.4731955263
 30
0.0
 10
5.293866687
 20
5.4729342751
 30
0.0
 10
5.2869035963
 20
5.4726727093
 30
0.0
 10
5.2763689292
 20
5.4723097587
 30
0.0
 10
5.2617095146
 20
5.4718623665
 30
0.0
 10
5.2424265041
 20
5.4713421548
 30
0.0
 10
5.2210204504
 20
5.4708209805
 30
0.0
 10
5.1976881409
 20
5.4702990455
 30
0.0
 10
5.1726440543
 20
5.469776604
 30
0.0
 10
5.1461184109
 20
5.4692537898
 30
0.0
 10
5.1183550494
 20
5.4687307109
 30
0.0
 10
5.0896091905
 20
5.4682074446
 30
0.0
 10
5.0601450824
 20
5.4676840529
 30
0.0
 10
5.0302336023
 20
5.4671605877
 30
0.0
 10
5.0001497181
 20
5.4666370948
 30
0.0
 10
4.9701700119
 20
5.4661136185
 30
0.0
 10
4.9405700755
 20
5.4655902041
 30
0.0
 10
4.9116220217
 20
5.4650669014
 30
0.0
 10
4.8835919621
 20
5.4645437702
 30
0.0
 10
4.856737569
 20
5.4640208807
 30
0.0
 10
4.8313057152
 20
5.4634983409
 30
0.0
 10
4.8075302014
 20
5.4629762471
 30
0.0
 10
4.7888533236
 20
5.4625316561
 30
0.0
 10
4.7749025487
 20
5.4621731787
 30
0.0
 10
4.7652396022
 20
5.4619109562
 30
0.0
 10
4.7561428881
 20
5.4616488294
 30
0.0
 10
4.7476333382
 20
5.4613868164
 30
0.0
 10
4.7397305329
 20
5.461124959
 30
0.0
 10
4.7324525829
 20
5.460863279
 30
0.0
 10
4.7258163044
 20
5.4606018738
 30
0.0
 10
4.7198368414
 20
5.4603407975
 30
0.0
 10
4.7145280332
 20
5.4600802184
 30
0.0
 10
4.7099019151
 20
5.4598203984
 30
0.0
 10
4.7059691621
 20
5.4595615297
 30
0.0
 10
4.7031301473
 20
5.4593361927
 30
0.0
 10
4.7012129385
 20
5.459151182
 30
0.0
 10
4.7000411985
 20
5.4590211807
 30
0.0
 10
4.6990483429
 20
5.4588916486
 30
0.0
 10
4.6983337492
 20
5.4587788316
 30
0.0
 10
4.6978526548
 20
5.4586863265
 30
0.0
 10
4.6975585829
 20
5.458621204
 30
0.0
 10
4.697309481
 20
5.4585563661
 30
0.0
 10
4.697105074
 20
5.4584916096
 30
0.0
 10
4.696964121
 20
5.458435276
 30
0.0
 10
4.696874141
 20
5.4583881965
 30
0.0
 10
4.6967940962
 20
5.4583378982
 30
0.0
 10
4.6967306137
 20
5.4582749193
 30
0.0
 10
4.6967306137
 20
5.4582217188
 30
0.0
  0
LINE
  5
41B
100
AcDbEntity
  8
0
100
AcDbLine
 62
7
  6
CONTINUOUS
 10
5.3051201645
 20
5.4697896904
 11
5.3046556947
 21
5.4696835171
  0
SPLINE
  5
41C
100
AcDbEntity
  8
0
100
AcDbSpline
 62
7
  6
CONTINUOUS
 70
0
 71
3
 72
62
 73
58
 74
0
 42
0.0000001
 43
0.0000001
 44
0.0000000001
 40
0.0
 40
0.0
 40
0.0
 40
0.0
 40
0.0012487183
 40
0.0027761981
 40
0.0045825968
 40
0.006667606
 40
0.0116707611
 40
0.0177762949
 40
0.0249714762
 40
0.0332409982
 40
0.0425659767
 40
0.0529262243
 40
0.0642978068
 40
0.0766555345
 40
0.1042147867
 40
0.1353546305
 40
0.1697928829
 40
0.2072172401
 40
0.2472881192
 40
0.2896419955
 40
0.3338945348
 40
0.3796441209
 40
0.4264756426
 40
0.4739639021
 40
0.5216779759
 40
0.5691847009
 40
0.6160529419
 40
0.6618573587
 40
0.7061821595
 40
0.7486251352
 40
0.7888010179
 40
0.826345354
 40
0.8609175981
 40
0.8922042609
 40
0.9065257218
 40
0.9199218496
 40
0.9323623958
 40
0.943819441
 40
0.9542666682
 40
0.9636812081
 40
0.9720413258
 40
0.979329044
 40
0.9855281495
 40
0.990625699
 40
0.9927584723
 40
0.9946125484
 40
0.9961874565
 40
0.9974835598
 40
0.9980274434
 40
0.998502238
 40
0.9989084563
 40
0.9992469733
 40
0.9995193813
 40
0.9997288966
 40
0.9998122615
 40
0.9998833702
 40
1.0
 40
1.0
 40
1.0
 40
1.0
 10
5.3046556947
 20
5.4696835171
 30
0.0
 10
5.3044158903
 20
5.4696345076
 30
0.0
 10
5.3038798102
 20
5.4695400122
 30
0.0
 10
5.3029907625
 20
5.4694114047
 30
0.0
 10
5.3019364156
 20
5.4692822602
 30
0.0
 10
5.3002026834
 20
5.4690982058
 30
0.0
 10
5.2976261016
 20
5.4688742442
 30
0.0
 10
5.2940475225
 20
5.4686170782
 30
0.0
 10
5.2898273605
 20
5.4683589504
 30
0.0
 10
5.2849752039
 20
5.4681000301
 30
0.0
 10
5.2795019115
 20
5.4678406012
 30
0.0
 10
5.2734199925
 20
5.4675808425
 30
0.0
 10
5.2667431462
 20
5.4673207884
 30
0.0
 10
5.2566965154
 20
5.4669605849
 30
0.0
 10
5.2427757054
 20
5.4665161827
 30
0.0
 10
5.2245271542
 20
5.4659989413
 30
0.0
 10
5.2043442693
 20
5.4654808091
 30
0.0
 10
5.1824103058
 20
5.4649619758
 30
0.0
 10
5.1589244093
 20
5.4644426703
 30
0.0
 10
5.1340998211
 20
5.4639230176
 30
0.0
 10
5.1081619227
 20
5.4634031177
 30
0.0
 10
5.0813461949
 20
5.4628830431
 30
0.0
 10
5.0538961198
 20
5.4623628529
 30
0.0
 10
5.0260609189
 20
5.461842596
 30
0.0
 10
4.9980933489
 20
5.4613223167
 30
0.0
 10
4.9702473294
 20
5.4608020578
 30
0.0
 10
4.9427756864
 20
5.4602818634
 30
0.0
 10
4.915927844
 20
5.4597617831
 30
0.0
 10
4.8899475616
 20
5.4592418742
 30
0.0
 10
4.8650707522
 20
5.4587222111
 30
0.0
 10
4.8415232784
 20
5.4582028835
 30
0.0
 10
4.8195189321
 20
5.4576840423
 30
0.0
 10
4.7992574686
 20
5.4571658204
 30
0.0
 10
4.7835475292
 20
5.4567227336
 30
0.0
 10
4.7719876378
 20
5.4563647502
 30
0.0
 10
4.7641205413
 20
5.4561043531
 30
0.0
 10
4.7568152226
 20
5.4558441081
 30
0.0
 10
4.750088305
 20
5.4555840659
 30
0.0
 10
4.7439549869
 20
5.4553242527
 30
0.0
 10
4.7384292758
 20
5.4550648189
 30
0.0
 10
4.7335235981
 20
5.4548058232
 30
0.0
 10
4.7292491065
 20
5.4545476286
 30
0.0
 10
4.7256154151
 20
5.4542903571
 30
0.0
 10
4.7229924703
 20
5.4540663819
 30
0.0
 10
4.7212213048
 20
5.453882536
 30
0.0
 10
4.7201387635
 20
5.4537533347
 30
0.0
 10
4.7192215262
 20
5.4536245765
 30
0.0
 10
4.7185614422
 20
5.4535124656
 30
0.0
 10
4.7181170776
 20
5.4534205656
 30
0.0
 10
4.7178453209
 20
5.4533558658
 30
0.0
 10
4.7176150805
 20
5.4532913554
 30
0.0
 10
4.7174261481
 20
5.4532271315
 30
0.0
 10
4.7172784475
 20
5.4531631525
 30
0.0
 10
4.7171824099
 20
5.4531065698
 30
0.0
 10
4.7171284751
 20
5.4530593765
 30
0.0
 10
4.7170944601
 20
5.453018559
 30
0.0
 10
4.7170807022
 20
5.4529817115
 30
0.0
 10
4.7170807116
 20
5.4529588509
 30
0.0
  0
SPLINE
  5
41D
100
AcDbEntity
  8
0
100
AcDbSpline
 62
7
  6
CONTINUOUS
 70
0
 71
3
 72
63
 73
59
 74
0
 42
0.0000001
 43
0.0000001
 44
0.0000000001
 40
0.0
 40
0.0
 40
0.0
 40
0.0
 40
0.0009741777
 40
0.0022304303
 40
0.0037699165
 40
0.0055928934
 40
0.0076991162
 40
0.0100876371
 40
0.0157064774
 40
0.0224383668
 40
0.0302682
 40
0.0391786076
 40
0.0491493542
 40
0.06015752
 40
0.0721781881
 40
0.0991435638
 40
0.1297975928
 40
0.1638580886
 40
0.2010113064
 40
0.2409148892
 40
0.2832010539
 40
0.3274799971
 40
0.373343495
 40
0.4203686951
 40
0.4681220282
 40
0.5161632095
 40
0.5640493006
 40
0.6113387955
 40
0.6575956931
 40
0.702393521
 40
0.7453192709
 40
0.7859772145
 40
0.8239925787
 40
0.8590150311
 40
0.8753019417
 40
0.890721933
 40
0.9052396312
 40
0.9188213384
 40
0.9314362231
 40
0.9430547903
 40
0.9536509438
 40
0.9631998828
 40
0.9716803425
 40
0.9790727664
 40
0.9853609243
 40
0.9905312167
 40
0.9926937641
 40
0.9945734771
 40
0.9961698111
 40
0.9974825962
 40
0.9980329098
 40
0.9985128437
 40
0.9989228757
 40
0.9992638069
 40
0.9995370834
 40
0.9996492344
 40
0.9997458083
 40
1.0
 40
1.0
 40
1.0
 40
1.0
 10
5.3255189962
 20
4.7516279621
 30
0.0
 10
5.3253212042
 20
4.7515767025
 30
0.0
 10
5.3248630501
 20
4.7514801821
 30
0.0
 10
5.3240828097
 20
4.7513514722
 30
0.0
 10
5.3231226417
 20
4.7512219539
 30
0.0
 10
5.3219829896
 20
4.7510918056
 30
0.0
 10
5.3206642976
 20
4.7509612977
 30
0.0
 10
5.3185510559
 20
4.7507768057
 30
0.0
 10
5.3154677231
 20
4.7505511789
 30
0.0
 10
5.3112429324
 20
4.7502914267
 30
0.0
 10
5.3063266883
 20
4.7500308523
 30
0.0
 10
5.3007303331
 20
4.7497696237
 30
0.0
 10
5.294466722
 20
4.7495079881
 30
0.0
 10
5.2875502616
 20
4.7492460167
 30
0.0
 10
5.2770706581
 20
4.7488823581
 30
0.0
 10
5.2624710167
 20
4.7484341724
 30
0.0
 10
5.2432489025
 20
4.7479131886
 30
0.0
 10
5.2218892907
 20
4.7473912186
 30
0.0
 10
5.1985891521
 20
4.7468684728
 30
0.0
 10
5.1735633535
 20
4.7463452109
 30
0.0
 10
5.1470426915
 20
4.7458215695
 30
0.0
 10
5.1192717578
 20
4.7452976587
 30
0.0
 10
5.0905066822
 20
4.744773557
 30
0.0
 10
5.0610127654
 20
4.7442493272
 30
0.0
 10
5.0310620271
 20
4.7437250219
 30
0.0
 10
5.0009306967
 20
4.7432006876
 30
0.0
 10
4.9708966673
 20
4.7426763688
 30
0.0
 10
4.9412369338
 20
4.7421521112
 30
0.0
 10
4.9122250403
 20
4.7416279649
 30
0.0
 10
4.8841285584
 20
4.7411039897
 30
0.0
 10
4.8572066205
 20
4.7405802565
 30
0.0
 10
4.8317075258
 20
4.7400568725
 30
0.0
 10
4.8078664477
 20
4.7395339361
 30
0.0
 10
4.7891365555
 20
4.7390886321
 30
0.0
 10
4.7751451934
 20
4.7387295874
 30
0.0
 10
4.7654534967
 20
4.7384669345
 30
0.0
 10
4.7563294126
 20
4.7382043882
 30
0.0
 10
4.7477939334
 20
4.7379419455
 30
0.0
 10
4.7398668263
 20
4.7376796672
 30
0.0
 10
4.7325662788
 20
4.7374175617
 30
0.0
 10
4.725909229
 20
4.7371557315
 30
0.0
 10
4.7199109154
 20
4.7368942352
 30
0.0
 10
4.7145852472
 20
4.7366332286
 30
0.0
 10
4.7099443725
 20
4.7363729948
 30
0.0
 10
4.7059990001
 20
4.7361136994
 30
0.0
 10
4.7031508544
 20
4.7358880006
 30
0.0
 10
4.7012274544
 20
4.7357026892
 30
0.0
 10
4.7000519327
 20
4.7355724772
 30
0.0
 10
4.6990558658
 20
4.735442735
 30
0.0
 10
4.698338952
 20
4.7353297386
 30
0.0
 10
4.6978562901
 20
4.735237084
 30
0.0
 10
4.6975612638
 20
4.7351718564
 30
0.0
 10
4.6973113558
 20
4.735106914
 30
0.0
 10
4.6971062887
 20
4.735042053
 30
0.0
 10
4.6969648806
 20
4.7349856288
 30
0.0
 10
4.6968746052
 20
4.7349384705
 30
0.0
 10
4.6967943352
 20
4.7348881096
 30
0.0
 10
4.6967306137
 20
4.7348250335
 30
0.0
 10
4.6967306137
 20
4.7347717188
 30
0.0
  0
SPLINE
  5
41E
100
AcDbEntity
  8
0
100
AcDbSpline
 62
7
  6
CONTINUOUS
 70
0
 71
3
 72
63
 73
59
 74
0
 42
0.0000001
 43
0.0000001
 44
0.0000000001
 40
0.0
 40
0.0
 40
0.0
 40
0.0
 40
0.0010297641
 40
0.0023404594
 40
0.0039332286
 40
0.0058083473
 40
0.0079655464
 40
0.0104038325
 40
0.0161185693
 40
0.022941538
 40
0.0308575708
 40
0.0398490232
 40
0.0498958495
 40
0.060974717
 40
0.0730609777
 40
0.1001413583
 40
0.1308889025
 40
0.165021536
 40
0.2022258653
 40
0.2421600503
 40
0.2844571638
 40
0.3287284382
 40
0.3745670345
 40
0.4215516709
 40
0.4692504273
 40
0.5172249648
 40
0.5650341447
 40
0.6122386197
 40
0.658404445
 40
0.7031073231
 40
0.7459364482
 40
0.7864981196
 40
0.8244196579
 40
0.8593525898
 40
0.890976178
 40
0.9054551547
 40
0.9190002344
 40
0.9315809471
 40
0.943167865
 40
0.9537350608
 40
0.9632581039
 40
0.971715487
 40
0.9790884066
 40
0.9853600968
 40
0.9905179006
 40
0.9926756215
 40
0.9945513847
 40
0.9961449201
 40
0.9974563715
 40
0.9980066209
 40
0.9984868682
 40
0.9988976268
 40
0.9992398295
 40
0.9995151309
 40
0.9997267779
 40
0.9998109222
 40
0.9998826265
 40
1.0
 40
1.0
 40
1.0
 40
1.0
 10
5.3051201729
 20
4.7463396903
 30
0.0
 10
5.3049246297
 20
4.7462889956
 30
0.0
 10
5.3044753181
 20
4.7461928899
 30
0.0
 10
5.303714477
 20
4.7460641391
 30
0.0
 10
5.3027859377
 20
4.7459346559
 30
0.0
 10
5.3016901137
 20
4.7458046158
 30
0.0
 10
5.3004274554
 20
4.7456742435
 30
0.0
 10
5.2984132664
 20
4.7454902151
 30
0.0
 10
5.2954839578
 20
4.7452649583
 30
0.0
 10
5.2914799165
 20
4.7450054862
 30
0.0
 10
5.286831973
 20
4.7447452303
 30
0.0
 10
5.2815507897
 20
4.744484339
 30
0.0
 10
5.2756485031
 20
4.7442230683
 30
0.0
 10
5.2691385925
 20
4.7439614593
 30
0.0
 10
5.2592886606
 20
4.7435984785
 30
0.0
 10
5.2455809206
 20
4.7431510194
 30
0.0
 10
5.2275486014
 20
4.7426307556
 30
0.0
 10
5.2075295653
 20
4.7421095235
 30
0.0
 10
5.1857078636
 20
4.7415875323
 30
0.0
 10
5.1622841337
 20
4.7410650334
 30
0.0
 10
5.1374737748
 20
4.7405421616
 30
0.0
 10
5.1115049158
 20
4.7400190244
 30
0.0
 10
5.0846163357
 20
4.7394956996
 30
0.0
 10
5.0570552694
 20
4.7389722494
 30
0.0
 10
5.0290751254
 20
4.7384487254
 30
0.0
 10
5.0009332042
 20
4.737925174
 30
0.0
 10
4.972888262
 20
4.7374016389
 30
0.0
 10
4.9451981938
 20
4.7368781655
 30
0.0
 10
4.9181175937
 20
4.7363548041
 30
0.0
 10
4.891895462
 20
4.7358316129
 30
0.0
 10
4.866772912
 20
4.7353086675
 30
0.0
 10
4.8429809441
 20
4.734786059
 30
0.0
 10
4.8207383466
 20
4.7342639386
 30
0.0
 10
4.8002496272
 20
4.7337424414
 30
0.0
 10
4.7843592125
 20
4.7332965778
 30
0.0
 10
4.7726637422
 20
4.7329363574
 30
0.0
 10
4.7647026565
 20
4.7326742997
 30
0.0
 10
4.7573092252
 20
4.7324124191
 30
0.0
 10
4.7505003498
 20
4.7321507087
 30
0.0
 10
4.7442917641
 20
4.7318892667
 30
0.0
 10
4.7386976748
 20
4.7316281724
 30
0.0
 10
4.7337309398
 20
4.7313675393
 30
0.0
 10
4.7294029466
 20
4.7311077173
 30
0.0
 10
4.725723535
 20
4.7308487875
 30
0.0
 10
4.7230675028
 20
4.7306234283
 30
0.0
 10
4.7212739289
 20
4.7304384007
 30
0.0
 10
4.7201777044
 20
4.7303083686
 30
0.0
 10
4.7192487975
 20
4.7301788002
 30
0.0
 10
4.718580256
 20
4.7300659866
 30
0.0
 10
4.7181301949
 20
4.7299735034
 30
0.0
 10
4.7178550039
 20
4.7299083962
 30
0.0
 10
4.7176218908
 20
4.7298434753
 30
0.0
 10
4.7174306222
 20
4.7297788435
 30
0.0
 10
4.7172810936
 20
4.7297144594
 30
0.0
 10
4.7171838335
 20
4.7296575306
 30
0.0
 10
4.7171291732
 20
4.7296100286
 30
0.0
 10
4.7170947163
 20
4.72956899
 30
0.0
 10
4.7170807149
 20
4.729531876
 30
0.0
 10
4.7170807041
 20
4.729508851
 30
0.0
  0
SPLINE
  5
41F
100
AcDbEntity
  8
0
100
AcDbSpline
 62
7
  6
CONTINUOUS
 70
0
 71
3
 72
39
 73
35
 74
0
 42
0.0000001
 43
0.0000001
 44
0.0000000001
 40
0.0
 40
0.0
 40
0.0
 40
0.0
 40
0.0002487114
 40
0.0005722767
 40
0.0010086651
 40
0.0015735253
 40
0.0022738299
 40
0.0031130958
 40
0.0040932793
 40
0.0052155418
 40
0.0078887896
 40
0.0111361388
 40
0.0149586188
 40
0.0193554579
 40
0.0243249251
 40
0.0298649967
 40
0.0426477602
 40
0.0576795683
 40
0.0749294123
 40
0.0943632987
 40
0.1159396223
 40
0.139614566
 40
0.1653381667
 40
0.1930563413
 40
0.2227118007
 40
0.287579512
 40
0.359396749
 40
0.4375601407
 40
0.5214129365
 40
0.6102494623
 40
0.703324088
 40
0.7998493645
 40
0.8990248855
 40
1.0
 40
1.0
 40
1.0
 40
1.0
 10
5.3058805341
 20
5.491383851
 30
0.0
 10
5.3058805452
 20
5.4913619194
 30
0.0
 10
5.3058623516
 20
5.4913115853
 30
0.0
 10
5.3057973527
 20
5.4912489172
 30
0.0
 10
5.3056976901
 20
5.4911872142
 30
0.0
 10
5.3055605042
 20
5.4911256904
 30
0.0
 10
5.3053854424
 20
5.4910637915
 30
0.0
 10
5.3051720081
 20
5.4910016916
 30
0.0
 10
5.3049201461
 20
5.4909393947
 30
0.0
 10
5.3045083643
 20
5.4908509365
 30
0.0
 10
5.3038965864
 20
5.490743006
 30
0.0
 10
5.3030463557
 20
5.4906190459
 30
0.0
 10
5.3020428288
 20
5.4904946824
 30
0.0
 10
5.3008865026
 20
5.4903699694
 30
0.0
 10
5.2995779709
 20
5.490245024
 30
0.0
 10
5.2975315044
 20
5.4900697402
 30
0.0
 10
5.2945980541
 20
5.4898544603
 30
0.0
 10
5.2906319799
 20
5.4896057916
 30
0.0
 10
5.2860784411
 20
5.4893564951
 30
0.0
 10
5.2809470728
 20
5.4891067317
 30
0.0
 10
5.2752485508
 20
5.4888566198
 30
0.0
 10
5.2689949243
 20
5.4886062773
 30
0.0
 10
5.2621993151
 20
5.4883557494
 30
0.0
 10
5.254876014
 20
5.4881050649
 30
0.0
 10
5.2441021786
 20
5.4877602906
 30
0.0
 10
5.2294403228
 20
5.4873335318
 30
0.0
 10
5.2105013727
 20
5.4868345926
 30
0.0
 10
5.1898877867
 20
5.4863350522
 30
0.0
 10
5.1677730307
 20
5.4858350393
 30
0.0
 10
5.144343082
 20
5.4853346928
 30
0.0
 10
5.1197954272
 20
5.4848341075
 30
0.0
 10
5.0943358932
 20
5.4843333339
 30
0.0
 10
5.0681795595
 20
5.4838324479
 30
0.0
 10
5.0505332312
 20
5.4835005271
 30
0.0
 10
5.0416307219
 20
5.4833338509
 30
0.0
  0
SPLINE
  5
420
100
AcDbEntity
  8
0
100
AcDbSpline
 62
7
  6
CONTINUOUS
 70
0
 71
3
 72
30
 73
26
 74
0
 42
0.0000001
 43
0.0000001
 44
0.0000000001
 40
0.0
 40
0.0
 40
0.0
 40
0.0
 40
0.001955955
 40
0.0044345856
 40
0.0074380572
 40
0.0109669449
 40
0.0150210565
 40
0.0195994343
 40
0.0303207184
 40
0.0431127656
 40
0.0579537695
 40
0.0748150256
 40
0.0936659838
 40
0.1144705196
 40
0.1371889087
 40
0.1881920033
 40
0.2462861192
 40
0.3110270125
 40
0.3819193745
 40
0.4584208008
 40
0.5399457529
 40
0.6258698406
 40
0.71553613
 40
0.8082532713
 40
1.0
 40
1.0
 40
1.0
 40
1.0
 10
5.3255190171
 20
5.5095279621
 30
0.0
 10
5.3253410634
 20
5.5094818377
 30
0.0
 10
5.3249332745
 20
5.5093942046
 30
0.0
 10
5.3242440791
 20
5.5092766134
 30
0.0
 10
5.3234053554
 20
5.5091583771
 30
0.0
 10
5.3224174326
 20
5.5090396498
 30
0.0
 10
5.3212806008
 20
5.5089206198
 30
0.0
 10
5.3194693378
 20
5.5087526815
 30
0.0
 10
5.3168369817
 20
5.5085470643
 30
0.0
 10
5.3132399215
 20
5.5083101519
 30
0.0
 10
5.3090647496
 20
5.5080725782
 30
0.0
 10
5.3043193587
 20
5.5078344055
 30
0.0
 10
5.2990128642
 20
5.5075958979
 30
0.0
 10
5.2931553905
 20
5.5073570969
 30
0.0
 10
5.2842773627
 20
5.5070255046
 30
0.0
 10
5.2718951192
 20
5.5066167189
 30
0.0
 10
5.2555635018
 20
5.5061416709
 30
0.0
 10
5.2373618732
 20
5.5056657428
 30
0.0
 10
5.2174296847
 20
5.5051891134
 30
0.0
 10
5.1959196115
 20
5.5047120126
 30
0.0
 10
5.1729964377
 20
5.5042345596
 30
0.0
 10
5.1488356921
 20
5.5037568489
 30
0.0
 10
5.1236228357
 20
5.5032789464
 30
0.0
 10
5.0884654211
 20
5.5026343488
 30
0.0
 10
5.0617337189
 20
5.5021622641
 30
0.0
 10
5.0437148072
 20
5.5018467188
 30
0.0
  0
SPLINE
  5
421
100
AcDbEntity
  8
0
100
AcDbSpline
 62
7
  6
CONTINUOUS
 70
0
 71
3
 72
29
 73
25
 74
0
 42
0.0000001
 43
0.0000001
 44
0.0000000001
 40
0.0
 40
0.0
 40
0.0
 40
0.0
 40
0.0020652299
 40
0.0046490824
 40
0.007754072
 40
0.0113810488
 40
0.0201971769
 40
0.0310858393
 40
0.0440307198
 40
0.0590077057
 40
0.0759898552
 40
0.0949460533
 40
0.1158396942
 40
0.138632736
 40
0.1897383019
 40
0.2478759512
 40
0.3126045586
 40
0.3834318274
 40
0.4598194601
 40
0.5411866769
 40
0.6269147056
 40
0.7163525003
 40
0.8088143959
 40
1.0
 40
1.0
 40
1.0
 40
1.0
 10
5.3051200967
 20
5.5042396903
 30
0.0
 10
5.3049444041
 20
5.5041941392
 30
0.0
 10
5.3045449341
 20
5.5041070624
 30
0.0
 10
5.3038735839
 20
5.50398965
 30
0.0
 10
5.3030633226
 20
5.5038716422
 30
0.0
 10
5.3017073263
 20
5.5037025699
 30
0.0
 10
5.299666866
 20
5.5034974694
 30
0.0
 10
5.296807049
 20
5.5032623346
 30
0.0
 10
5.2934043113
 20
5.5030262673
 30
0.0
 10
5.2894650317
 20
5.5027893332
 30
0.0
 10
5.2849966419
 20
5.5025519243
 30
0.0
 10
5.2800076404
 20
5.5023141676
 30
0.0
 10
5.2745074437
 20
5.5020761206
 30
0.0
 10
5.2661832239
 20
5.5017457588
 30
0.0
 10
5.2545863958
 20
5.5013383611
 30
0.0
 10
5.2393042964
 20
5.5008648187
 30
0.0
 10
5.2222882495
 20
5.5003904147
 30
0.0
 10
5.203667771
 20
5.4999153254
 30
0.0
 10
5.1835845922
 20
5.4994397742
 30
0.0
 10
5.1621915355
 20
5.4989638766
 30
0.0
 10
5.1396513114
 20
5.4984877269
 30
0.0
 10
5.1161358349
 20
5.4980113898
 30
0.0
 10
5.0833537551
 20
5.4973689436
 30
0.0
 10
5.0584300076
 20
5.4968983736
 30
0.0
 10
5.0416307219
 20
5.4965838509
 30
0.0
  0
SPLINE
  5
422
100
AcDbEntity
  8
0
100
AcDbSpline
 62
7
  6
CONTINUOUS
 70
0
 71
3
 72
23
 73
19
 74
0
 42
0.0000001
 43
0.0000001
 44
0.0000000001
 40
0.0
 40
0.0
 40
0.0
 40
0.0
 40
0.0496976446
 40
0.1004643389
 40
0.1527974848
 40
0.2071173601
 40
0.2637226708
 40
0.3227952917
 40
0.3843946707
 40
0.4484584397
 40
0.5148023244
 40
0.5831177602
 40
0.6529676483
 40
0.7237798296
 40
0.7948380225
 40
0.8652743993
 40
0.9340579285
 40
1.0
 40
1.0
 40
1.0
 40
1.0
 10
5.3033536048
 20
3.9140838509
 30
0.0
 10
5.3028232196
 20
3.9084797815
 30
0.0
 10
5.3010718762
 20
3.8972049954
 30
0.0
 10
5.2964723101
 20
3.8804855802
 30
0.0
 10
5.2899206801
 20
3.8638681419
 30
0.0
 10
5.2814744255
 20
3.8473880817
 30
0.0
 10
5.2712019739
 20
3.8310755014
 30
0.0
 10
5.2591884629
 20
3.8149632571
 30
0.0
 10
5.2455356981
 20
3.7990869537
 30
0.0
 10
5.2303653475
 20
3.7834870422
 30
0.0
 10
5.2138221942
 20
3.7682097166
 30
0.0
 10
5.1960776829
 20
3.7533080843
 30
0.0
 10
5.1773339079
 20
3.7388432328
 30
0.0
 10
5.1578278507
 20
3.7248854691
 30
0.0
 10
5.1378356264
 20
3.7115155008
 30
0.0
 10
5.1176767611
 20
3.6988259341
 30
0.0
 10
5.0977170501
 20
3.6869218459
 30
0.0
 10
5.084450376
 20
3.6793789016
 30
0.0
 10
5.0779237616
 20
3.6757470496
 30
0.0
  0
SPLINE
  5
423
100
AcDbEntity
  8
0
100
AcDbSpline
 62
7
  6
CONTINUOUS
 70
0
 71
3
 72
30
 73
26
 74
0
 42
0.0000001
 43
0.0000001
 44
0.0000000001
 40
0.0
 40
0.0
 40
0.0
 40
0.0
 40
0.1866744212
 40
0.2779653714
 40
0.3668189755
 40
0.4524573711
 40
0.5341295098
 40
0.6111195129
 40
0.6827526107
 40
0.7484012628
 40
0.8074906665
 40
0.8595038124
 40
0.8827122791
 40
0.9039862854
 40
0.9232794537
 40
0.9405506411
 40
0.9557615541
 40
0.9688812221
 40
0.9798813235
 40
0.9845799342
 40
0.9887416172
 40
0.9923647147
 40
0.9954481084
 40
0.9979923415
 40
1.0
 40
1.0
 40
1.0
 40
1.0
 10
5.0114920196
 20
5.5172215633
 30
0.0
 10
4.9932123004
 20
5.5168811223
 30
0.0
 10
4.9659930946
 20
5.5163743047
 30
0.0
 10
4.9300734157
 20
5.5156875034
 30
0.0
 10
4.9040476565
 20
5.5151763431
 30
0.0
 10
4.8789641468
 20
5.5146653769
 30
0.0
 10
4.8550428031
 20
5.5141546726
 30
0.0
 10
4.8324934581
 20
5.5136443355
 30
0.0
 10
4.811513869
 20
5.5131344935
 30
0.0
 10
4.7922880002
 20
5.5126253931
 30
0.0
 10
4.7749844244
 20
5.5121172307
 30
0.0
 10
4.7618372131
 20
5.5116801512
 30
0.0
 10
4.7523930726
 20
5.5113256055
 30
0.0
 10
4.7461521005
 20
5.511070116
 30
0.0
 10
4.7404931431
 20
5.5108149221
 30
0.0
 10
4.7354286524
 20
5.5105601308
 30
0.0
 10
4.7309696089
 20
5.5103059169
 30
0.0
 10
4.7271258561
 20
5.5100524766
 30
0.0
 10
4.7243118384
 20
5.5098324996
 30
0.0
 10
4.7223749948
 20
5.5096528201
 30
0.0
 10
4.7211589833
 20
5.5095254701
 30
0.0
 10
4.7201021144
 20
5.509398455
 30
0.0
 10
4.7192048633
 20
5.5092719517
 30
0.0
 10
4.7184676426
 20
5.5091461288
 30
0.0
 10
4.7180314685
 20
5.5090523601
 30
0.0
 10
4.7178411317
 20
5.5090030115
 30
0.0
  0
SPLINE
  5
424
100
AcDbEntity
  8
0
100
AcDbSpline
 62
7
  6
CONTINUOUS
 70
0
 71
3
 72
39
 73
35
 74
0
 42
0.0000001
 43
0.0000001
 44
0.0000000001
 40
0.0
 40
0.0
 40
0.0
 40
0.0
 40
0.0946363783
 40
0.1892554026
 40
0.2828187957
 40
0.3743076388
 40
0.4627211429
 40
0.5470939832
 40
0.626504513
 40
0.7000855403
 40
0.7344364359
 40
0.7670337145
 40
0.7977893848
 40
0.8266184875
 40
0.853443336
 40
0.8781900899
 40
0.9007920407
 40
0.9211873491
 40
0.9393210184
 40
0.9551443605
 40
0.9686150587
 40
0.9796988483
 40
0.9843365848
 40
0.9883685254
 40
0.9917931104
 40
0.9946095439
 40
0.995790065
 40
0.9968194504
 40
0.9976986742
 40
0.9984293842
 40
0.9990145749
 40
0.9992544403
 40
0.9994607175
 40
1.0
 40
1.0
 40
1.0
 40
1.0
 10
5.0416307219
 20
5.4965838509
 30
0.0
 10
5.0313850396
 20
5.4963920274
 30
0.0
 10
5.0108955154
 20
5.4960104745
 30
0.0
 10
4.9802764575
 20
5.4954401695
 30
0.0
 10
4.9499982811
 20
5.4948699327
 30
0.0
 10
4.9203921729
 20
5.4942998444
 30
0.0
 10
4.891781427
 20
5.4937299851
 30
0.0
 10
4.8644788144
 20
5.4931604793
 30
0.0
 10
4.83878266
 20
5.4925914418
 30
0.0
 10
4.8185024819
 20
5.4921074241
 30
0.0
 10
4.8032906099
 20
5.4917171278
 30
0.0
 10
4.7927148387
 20
5.4914312203
 30
0.0
 10
4.7827372089
 20
5.491145435
 30
0.0
 10
4.7733849015
 20
5.4908597594
 30
0.0
 10
4.7646835738
 20
5.4905742592
 30
0.0
 10
4.7566569217
 20
5.4902889557
 30
0.0
 10
4.7493269433
 20
5.490003937
 30
0.0
 10
4.7427136223
 20
5.4897192993
 30
0.0
 10
4.7368350396
 20
5.489435173
 30
0.0
 10
4.7317071968
 20
5.4891519156
 30
0.0
 10
4.7273440358
 20
5.4888696575
 30
0.0
 10
4.7241923963
 20
5.4886240066
 30
0.0
 10
4.7220629226
 20
5.4884222965
 30
0.0
 10
4.7207609535
 20
5.4882805457
 30
0.0
 10
4.7196575071
 20
5.4881393146
 30
0.0
 10
4.7188631602
 20
5.4880163291
 30
0.0
 10
4.7183282746
 20
5.4879154811
 30
0.0
 10
4.7180013247
 20
5.4878444885
 30
0.0
 10
4.7177243732
 20
5.48777381
 30
0.0
 10
4.7174971061
 20
5.4877032162
 30
0.0
 10
4.7173403786
 20
5.4876418092
 30
0.0
 10
4.7172402508
 20
5.4875904448
 30
0.0
 10
4.7171516804
 20
5.4875358514
 30
0.0
 10
4.7170806115
 20
5.4874672459
 30
0.0
 10
4.7170806138
 20
5.4874088509
 30
0.0
  0
SPLINE
  5
425
100
AcDbEntity
  8
0
100
AcDbSpline
 62
7
  6
CONTINUOUS
 70
0
 71
3
 72
14
 73
10
 74
0
 42
0.0000001
 43
0.0000001
 44
0.0000000001
 40
0.0
 40
0.0
 40
0.0
 40
0.0
 40
0.1337966718
 40
0.2668479003
 40
0.3989050493
 40
0.5295636589
 40
0.6581058796
 40
0.783093791
 40
1.0
 40
1.0
 40
1.0
 40
1.0
 10
5.0779237616
 20
3.6757470496
 30
0.0
 10
5.0741639128
 20
3.6637546971
 30
0.0
 10
5.066802616
 20
3.639793565
 30
0.0
 10
5.0561372679
 20
3.6038726659
 30
0.0
 10
5.0458350703
 20
3.5681527086
 30
0.0
 10
5.0358815127
 20
3.5327739414
 30
0.0
 10
5.0262990876
 20
3.4979812003
 30
0.0
 10
5.0147631963
 20
3.4553238619
 30
0.0
 10
5.0065478363
 20
3.4242769732
 30
0.0
 10
5.0013898079
 20
3.4045660135
 30
0.0
  0
SPLINE
  5
426
100
AcDbEntity
  8
0
100
AcDbSpline
 62
7
  6
CONTINUOUS
 70
0
 71
3
 72
30
 73
26
 74
0
 42
0.0000001
 43
0.0000001
 44
0.0000000001
 40
0.0
 40
0.0
 40
0.0
 40
0.0
 40
0.1816472933
 40
0.2715942378
 40
0.3597566455
 40
0.4452498581
 40
0.5272193643
 40
0.604844726
 40
0.6773495836
 40
0.7440085587
 40
0.8041553165
 40
0.8571886634
 40
0.8808693856
 40
0.9025795636
 40
0.9222647806
 40
0.939876231
 40
0.9553709187
 40
0.9687103015
 40
0.9798636603
 40
0.9846119011
 40
0.9888046934
 40
0.9924404428
 40
0.9955179901
 40
0.9980370621
 40
1.0
 40
1.0
 40
1.0
 40
1.0
 10
5.0416307219
 20
5.4833338509
 30
0.0
 10
5.0220184393
 20
5.4829666623
 30
0.0
 10
4.9926945669
 20
5.4824232863
 30
0.0
 10
4.9538520484
 20
5.4816929176
 30
0.0
 10
4.9253913803
 20
5.4811470292
 30
0.0
 10
4.8977923381
 20
5.4806013194
 30
0.0
 10
4.8713313946
 20
5.4800558777
 30
0.0
 10
4.8462733402
 20
5.4795108179
 30
0.0
 10
4.8228690412
 20
5.4789662848
 30
0.0
 10
4.8013527472
 20
5.4784225476
 30
0.0
 10
4.7819398518
 20
5.477879824
 30
0.0
 10
4.7671678447
 20
5.4774131467
 30
0.0
 10
4.7565459444
 20
5.4770344877
 30
0.0
 10
4.749523795
 20
5.4767615605
 30
0.0
 10
4.7431575787
 20
5.4764889701
 30
0.0
 10
4.7374632218
 20
5.4762167906
 30
0.0
 10
4.7324549676
 20
5.4759453119
 30
0.0
 10
4.7281452452
 20
5.4756746205
 30
0.0
 10
4.7249961884
 20
5.4754396223
 30
0.0
 10
4.7228347238
 20
5.4752474826
 30
0.0
 10
4.7214833668
 20
5.4751114787
 30
0.0
 10
4.7203134278
 20
5.4749758576
 30
0.0
 10
4.7193254965
 20
5.4748408743
 30
0.0
 10
4.7185201768
 20
5.4747066901
 30
0.0
 10
4.7180463139
 20
5.4746062194
 30
0.0
 10
4.7178411268
 20
5.4745530114
 30
0.0
  0
SPLINE
  5
427
100
AcDbEntity
  8
0
100
AcDbSpline
 62
7
  6
CONTINUOUS
 70
0
 71
3
 72
55
 73
51
 74
0
 42
0.0000001
 43
0.0000001
 44
0.0000000001
 40
0.0
 40
0.0
 40
0.0
 40
0.0
 40
0.0001128487
 40
0.0002596562
 40
0.000457645
 40
0.0007139239
 40
0.0010316698
 40
0.001412476
 40
0.0018572268
 40
0.0023664457
 40
0.003579402
 40
0.0050528135
 40
0.0067871488
 40
0.0087821368
 40
0.0110369688
 40
0.013550692
 40
0.01935056
 40
0.0261710095
 40
0.0339977836
 40
0.042815523
 40
0.0526054247
 40
0.0633473935
 40
0.0750190604
 40
0.0875956041
 40
0.1010512259
 40
0.1304836712
 40
0.1630693816
 40
0.1985345941
 40
0.2365811903
 40
0.2768891737
 40
0.3191195584
 40
0.3629172345
 40
0.4079138683
 40
0.4537309421
 40
0.4999830933
 40
0.5462811969
 40
0.6374606323
 40
0.7242078439
 40
0.7650006973
 40
0.8036105559
 40
0.8397128114
 40
0.8730038737
 40
0.9032039589
 40
0.9300593548
 40
0.9533450587
 40
0.9728658316
 40
0.9811625672
 40
0.9884605144
 40
0.9947442128
 40
1.0
 40
1.0
 40
1.0
 40
1.0
 10
5.3058805215
 20
5.112433851
 30
0.0
 10
5.3058805315
 20
5.1124119193
 30
0.0
 10
5.3058623377
 20
5.1123615867
 30
0.0
 10
5.3057973441
 20
5.1122989186
 30
0.0
 10
5.3056976902
 20
5.1122372137
 30
0.0
 10
5.3055605119
 20
5.1121756889
 30
0.0
 10
5.3053854526
 20
5.1121137909
 30
0.0
 10
5.3051720158
 20
5.1120516913
 30
0.0
 10
5.3049201476
 20
5.1119893947
 30
0.0
 10
5.3045083566
 20
5.1119009371
 30
0.0
 10
5.3038965739
 20
5.1117930076
 30
0.0
 10
5.3030463497
 20
5.1116690469
 30
0.0
 10
5.3020428326
 20
5.11154468
 30
0.0
 10
5.3008865072
 20
5.1114199689
 30
0.0
 10
5.2995779641
 20
5.1112950242
 30
0.0
 10
5.2975315004
 20
5.1111197426
 30
0.0
 10
5.2945980493
 20
5.1109044565
 30
0.0
 10
5.2906319803
 20
5.1106557939
 30
0.0
 10
5.2860784374
 20
5.1104064947
 30
0.0
 10
5.2809470642
 20
5.1101567303
 30
0.0
 10
5.2752485512
 20
5.1099066223
 30
0.0
 10
5.2689949166
 20
5.1096562746
 30
0.0
 10
5.2621993195
 20
5.1094057516
 30
0.0
 10
5.25487601
 20
5.1091550636
 30
0.0
 10
5.2441021885
 20
5.1088102917
 30
0.0
 10
5.2294403357
 20
5.108383531
 30
0.0
 10
5.2105013807
 20
5.1078845922
 30
0.0
 10
5.189887784
 20
5.1073850526
 30
0.0
 10
5.1677729988
 20
5.1068850391
 30
0.0
 10
5.1443431213
 20
5.1063846943
 30
0.0
 10
5.1197953077
 20
5.1058841042
 30
0.0
 10
5.0943360954
 20
5.1053833383
 30
0.0
 10
5.068179696
 20
5.1048824503
 30
0.0
 10
5.041546195
 20
5.1043814831
 30
0.0
 10
5.0146597152
 20
5.1038804791
 30
0.0
 10
4.9789587567
 20
5.1032158644
 30
0.0
 10
4.9353892705
 20
5.1023959212
 30
0.0
 10
4.8928902583
 20
5.1015569639
 30
0.0
 10
4.8606068536
 20
5.1008757415
 30
0.0
 10
4.8381644815
 20
5.1003756273
 30
0.0
 10
4.817180426
 20
5.099875956
 30
0.0
 10
4.7978312573
 20
5.0993768851
 30
0.0
 10
4.7802798085
 20
5.0988786312
 30
0.0
 10
4.7646736758
 20
5.0983817284
 30
0.0
 10
4.7511441744
 20
5.097886471
 30
0.0
 10
4.7412216215
 20
5.0974566595
 30
0.0
 10
4.7344061217
 20
5.0971045432
 30
0.0
 10
4.7301613913
 20
5.0968555352
 30
0.0
 10
4.7265087806
 20
5.0966073489
 30
0.0
 10
4.7242732836
 20
5.0964268303
 30
0.0
 10
4.7232560826
 20
5.0963338509
 30
0.0
  0
SPLINE
  5
428
100
AcDbEntity
  8
0
100
AcDbSpline
 62
7
  6
CONTINUOUS
 70
0
 71
3
 72
63
 73
59
 74
0
 42
0.0000001
 43
0.0000001
 44
0.0000000001
 40
0.0
 40
0.0
 40
0.0
 40
0.0
 40
0.0001173745
 40
0.0001890798
 40
0.0002732254
 40
0.000484875
 40
0.0007601778
 40
0.0011023797
 40
0.0015131344
 40
0.0019933757
 40
0.0025436221
 40
0.0038550746
 40
0.0054486151
 40
0.0073243808
 40
0.0094820952
 40
0.0146399048
 40
0.020911602
 40
0.0282845082
 40
0.0367418956
 40
0.0462649303
 40
0.0568321419
 40
0.0684190571
 40
0.080999765
 40
0.0945448434
 40
0.1090238173
 40
0.1406474136
 40
0.1755803383
 40
0.2135018912
 40
0.2540635589
 40
0.2968926829
 40
0.3415955638
 40
0.3877613838
 40
0.4349658611
 40
0.4827750457
 40
0.5307495725
 40
0.5784483418
 40
0.6254329628
 40
0.6712715674
 40
0.7155428438
 40
0.7578399464
 40
0.7977741518
 40
0.8349784573
 40
0.8691111029
 40
0.8998586425
 40
0.9269390245
 40
0.9390252918
 40
0.9501041622
 40
0.9601509772
 40
0.9691424381
 40
0.9770584625
 40
0.9838814432
 40
0.9895961727
 40
0.9920344543
 40
0.9941916581
 40
0.9960667826
 40
0.9976595481
 40
0.9989702373
 40
1.0
 40
1.0
 40
1.0
 40
1.0
 10
5.3058805251
 20
5.1468838509
 30
0.0
 10
5.3058805138
 20
5.1468608257
 30
0.0
 10
5.3058665112
 20
5.1468237116
 30
0.0
 10
5.3058320531
 20
5.1467826732
 30
0.0
 10
5.3057773915
 20
5.1467351713
 30
0.0
 10
5.3056801302
 20
5.1466782425
 30
0.0
 10
5.3055306009
 20
5.1466138585
 30
0.0
 10
5.305339333
 20
5.1465492267
 30
0.0
 10
5.3051062222
 20
5.1464843056
 30
0.0
 10
5.3048310338
 20
5.146419198
 30
0.0
 10
5.3043809743
 20
5.1463267149
 30
0.0
 10
5.3037124322
 20
5.1462139015
 30
0.0
 10
5.3027835235
 20
5.1460843335
 30
0.0
 10
5.3016872988
 20
5.1459543016
 30
0.0
 10
5.2998937246
 20
5.145769273
 30
0.0
 10
5.2972376911
 20
5.1455439146
 30
0.0
 10
5.2935582796
 20
5.1452849848
 30
0.0
 10
5.2892302869
 20
5.145025162
 30
0.0
 10
5.2842635554
 20
5.14476453
 30
0.0
 10
5.2786694638
 20
5.1445034349
 30
0.0
 10
5.2724608772
 20
5.1442419934
 30
0.0
 10
5.2656520002
 20
5.1439802826
 30
0.0
 10
5.2582585706
 20
5.1437184021
 30
0.0
 10
5.2502974868
 20
5.1434563446
 30
0.0
 10
5.2386020157
 20
5.143096124
 30
0.0
 10
5.2227116015
 20
5.1426502604
 30
0.0
 10
5.2022228792
 20
5.1421287632
 30
0.0
 10
5.1799802811
 20
5.1416066429
 30
0.0
 10
5.1561883114
 20
5.1410840343
 30
0.0
 10
5.1310657619
 20
5.1405610889
 30
0.0
 10
5.104843631
 20
5.1400378977
 30
0.0
 10
5.0777630311
 20
5.1395145363
 30
0.0
 10
5.0500729628
 20
5.1389910629
 30
0.0
 10
5.0220280215
 20
5.1384675278
 30
0.0
 10
4.9938860991
 20
5.1379439764
 30
0.0
 10
4.9659059578
 20
5.1374204525
 30
0.0
 10
4.9383448905
 20
5.1368970022
 30
0.0
 10
4.9114563115
 20
5.1363736774
 30
0.0
 10
4.8854874529
 20
5.1358505403
 30
0.0
 10
4.8606770918
 20
5.1353276684
 30
0.0
 10
4.8372533649
 20
5.1348051697
 30
0.0
 10
4.8154316615
 20
5.1342831783
 30
0.0
 10
4.7954126287
 20
5.1337619462
 30
0.0
 10
4.7773803079
 20
5.1332416825
 30
0.0
 10
4.7636725673
 20
5.1327942233
 30
0.0
 10
4.7538226334
 20
5.1324312424
 30
0.0
 10
4.7473127231
 20
5.1321696338
 30
0.0
 10
4.7414104366
 20
5.1319083625
 30
0.0
 10
4.7361292555
 20
5.1316474721
 30
0.0
 10
4.7314813097
 20
5.1313872151
 30
0.0
 10
4.727477269
 20
5.1311277439
 30
0.0
 10
4.7245479604
 20
5.1309024868
 30
0.0
 10
4.7225337729
 20
5.130718458
 30
0.0
 10
4.7212711134
 20
5.130588086
 30
0.0
 10
4.720175288
 20
5.1304580464
 30
0.0
 10
4.7192467496
 20
5.1303285629
 30
0.0
 10
4.7184859107
 20
5.1301998118
 30
0.0
 10
4.7180366006
 20
5.130103706
 30
0.0
 10
4.7178410577
 20
5.1300530116
 30
0.0
  0
SPLINE
  5
429
100
AcDbEntity
  8
0
100
AcDbSpline
 62
7
  6
CONTINUOUS
 70
0
 71
3
 72
63
 73
59
 74
0
 42
0.0000001
 43
0.0000001
 44
0.0000000001
 40
0.0
 40
0.0
 40
0.0
 40
0.0
 40
0.0001173663
 40
0.0001890828
 40
0.000273253
 40
0.0004849829
 40
0.0007603818
 40
0.0011026613
 40
0.0015134407
 40
0.0019936237
 40
0.0025437524
 40
0.0038550325
 40
0.0054486811
 40
0.007324638
 40
0.0094823644
 40
0.014639874
 40
0.0209119023
 40
0.0282845073
 40
0.0367421078
 40
0.0462650531
 40
0.0568322213
 40
0.0684193207
 40
0.0809997824
 40
0.094545136
 40
0.1090238337
 40
0.1406475465
 40
0.1755805888
 40
0.2135021239
 40
0.2540637686
 40
0.2968928005
 40
0.3415956582
 40
0.3877615192
 40
0.4349659921
 40
0.4827752395
 40
0.5307497003
 40
0.5784484736
 40
0.6254331222
 40
0.6712717446
 40
0.7155431034
 40
0.7578401465
 40
0.7977742755
 40
0.8349785097
 40
0.8691111465
 40
0.8998587946
 40
0.9269392702
 40
0.939025284
 40
0.950104473
 40
0.9601510032
 40
0.9691426957
 40
0.9770585844
 40
0.9838815307
 40
0.9895964182
 40
0.9920345063
 40
0.994191637
 40
0.9960669646
 40
0.9976598705
 40
0.9989704236
 40
1.0
 40
1.0
 40
1.0
 40
1.0
 10
5.3058806122
 20
5.1813338509
 30
0.0
 10
5.305880616
 20
5.1813108273
 30
0.0
 10
5.3058666149
 20
5.1812737049
 30
0.0
 10
5.3058321434
 20
5.1812326714
 30
0.0
 10
5.3057774517
 20
5.1811851689
 30
0.0
 10
5.3056801427
 20
5.1811282443
 30
0.0
 10
5.3055305587
 20
5.1810638623
 30
0.0
 10
5.3053392495
 20
5.1809992319
 30
0.0
 10
5.3051061298
 20
5.1809343114
 30
0.0
 10
5.3048309728
 20
5.1808692005
 30
0.0
 10
5.3043809849
 20
5.1807767088
 30
0.0
 10
5.3037124799
 20
5.1806638869
 30
0.0
 10
5.3027835441
 20
5.1805343323
 30
0.0
 10
5.301687257
 20
5.1804043084
 30
0.0
 10
5.2998937022
 20
5.1802192793
 30
0.0
 10
5.2972376625
 20
5.1799938934
 30
0.0
 10
5.2935583011
 20
5.179735005
 30
0.0
 10
5.2892302631
 20
5.179475146
 30
0.0
 10
5.284263565
 20
5.1792145384
 30
0.0
 10
5.2786694584
 20
5.1789534324
 30
0.0
 10
5.2724608617
 20
5.1786919901
 30
0.0
 10
5.2656520051
 20
5.1784302892
 30
0.0
 10
5.2582585343
 20
5.1781683934
 30
0.0
 10
5.2502974985
 20
5.1779063519
 30
0.0
 10
5.2386020054
 20
5.1775461153
 30
0.0
 10
5.2227115993
 20
5.1771002628
 30
0.0
 10
5.2022228349
 20
5.1765787629
 30
0.0
 10
5.1799802219
 20
5.1760566432
 30
0.0
 10
5.1561882785
 20
5.1755340341
 30
0.0
 10
5.1310657566
 20
5.1750110884
 30
0.0
 10
5.1048436405
 20
5.1744878972
 30
0.0
 10
5.0777630383
 20
5.173964536
 30
0.0
 10
5.0500729508
 20
5.1734410628
 30
0.0
 10
5.0220280113
 20
5.1729175278
 30
0.0
 10
4.993886089
 20
5.1723939761
 30
0.0
 10
4.9659059548
 20
5.171870452
 30
0.0
 10
4.9383448781
 20
5.1713470018
 30
0.0
 10
4.9114562743
 20
5.1708236771
 30
0.0
 10
4.885487408
 20
5.1703005405
 30
0.0
 10
4.8606770577
 20
5.1697776685
 30
0.0
 10
4.8372533716
 20
5.1692551694
 30
0.0
 10
4.8154316993
 20
5.168733177
 30
0.0
 10
4.7954126611
 20
5.1682119462
 30
0.0
 10
4.7773803027
 20
5.1676916784
 30
0.0
 10
4.7636725719
 20
5.1672442335
 30
0.0
 10
4.7538226077
 20
5.1668812321
 30
0.0
 10
4.7473127397
 20
5.1666196454
 30
0.0
 10
4.7414104022
 20
5.1663583509
 30
0.0
 10
4.7361292573
 20
5.1660974792
 30
0.0
 10
4.7314812998
 20
5.1658372146
 30
0.0
 10
4.7274772623
 20
5.1655777345
 30
0.0
 10
4.7245479655
 20
5.1653525008
 30
0.0
 10
4.7225338009
 20
5.1651684552
 30
0.0
 10
4.7212711549
 20
5.1650380747
 30
0.0
 10
4.720175275
 20
5.1649080459
 30
0.0
 10
4.7192466934
 20
5.164778576
 30
0.0
 10
4.7184858915
 20
5.1646498182
 30
0.0
 10
4.718036648
 20
5.1645537038
 30
0.0
 10
4.7178411422
 20
5.1645030115
 30
0.0
  0
SPLINE
  5
42A
100
AcDbEntity
  8
0
100
AcDbSpline
 62
7
  6
CONTINUOUS
 70
0
 71
3
 72
20
 73
16
 74
0
 42
0.0000001
 43
0.0000001
 44
0.0000000001
 40
0.0
 40
0.0
 40
0.0
 40
0.0
 40
0.2280399651
 40
0.4263428567
 40
0.5948217436
 40
0.733428161
 40
0.7915384474
 40
0.8422114898
 40
0.885499221
 40
0.9214886744
 40
0.9503351848
 40
0.9723486727
 40
0.981007232
 40
0.9883032461
 40
1.0
 40
1.0
 40
1.0
 40
1.0
 10
4.7232560826
 20
5.1095838509
 30
0.0
 10
4.7227748416
 20
5.1095398621
 30
0.0
 10
4.7218755259
 20
5.1094529861
 30
0.0
 10
4.7206226462
 20
5.1093139621
 30
0.0
 10
4.7195605965
 20
5.109175395
 30
0.0
 10
4.7187959736
 20
5.1090547466
 30
0.0
 10
4.718281093
 20
5.1089558104
 30
0.0
 10
4.717966384
 20
5.1088861854
 30
0.0
 10
4.717699825
 20
5.1088167732
 30
0.0
 10
4.7174811559
 20
5.1087477124
 30
0.0
 10
4.7173102887
 20
5.1086789354
 30
0.0
 10
4.7171989713
 20
5.1086181754
 30
0.0
 10
4.7171362165
 20
5.1085672233
 30
0.0
 10
4.7170970266
 20
5.1085237561
 30
0.0
 10
4.7170806012
 20
5.1084836379
 30
0.0
 10
4.7170805997
 20
5.1084588509
 30
0.0
  0
LINE
  5
42B
100
AcDbEntity
  8
0
100
AcDbLine
 62
7
  6
CONTINUOUS
 10
4.7232560826
 20
5.0963338509
 11
4.71784099
 21
5.0956030113
  0
SPLINE
  5
42C
100
AcDbEntity
  8
0
100
AcDbSpline
 62
7
  6
CONTINUOUS
 70
0
 71
3
 72
37
 73
33
 74
0
 42
0.0000001
 43
0.0000001
 44
0.0000000001
 40
0.0
 40
0.0
 40
0.0
 40
0.0
 40
0.0002963403
 40
0.000647559
 40
0.0010884297
 40
0.001636892
 40
0.0023022057
 40
0.0030894905
 40
0.0050406336
 40
0.0075044596
 40
0.0104871184
 40
0.013991799
 40
0.0180198014
 40
0.02257129
 40
0.0276459614
 40
0.0393621919
 40
0.0531617687
 40
0.06903252
 40
0.0869586023
 40
0.1069235521
 40
0.1289078385
 40
0.1528881286
 40
0.2067398765
 40
0.2682586685
 40
0.337193821
 40
0.413260069
 40
0.4961454569
 40
0.5855099855
 40
0.6809801797
 40
0.7821657111
 40
0.8886653088
 40
1.0
 40
1.0
 40
1.0
 40
1.0
 10
5.3262306137
 20
4.7282209831
 30
0.0
 10
5.3262306137
 20
4.7282059229
 30
0.0
 10
5.326222157
 20
4.7281728219
 30
0.0
 10
5.3261885122
 20
4.7281278818
 30
0.0
 10
5.3261358128
 20
4.7280841391
 30
0.0
 10
5.3260635845
 20
4.7280406736
 30
0.0
 10
5.3259715463
 20
4.727997157
 30
0.0
 10
5.3258102104
 20
4.7279344771
 30
0.0
 10
5.3255565515
 20
4.7278587542
 30
0.0
 10
5.3251905791
 20
4.7277723275
 30
0.0
 10
5.3247439335
 20
4.7276855093
 30
0.0
 10
5.3242166472
 20
4.7275983502
 30
0.0
 10
5.3236087285
 20
4.7275109977
 30
0.0
 10
5.3229203316
 20
4.7274234845
 30
0.0
 10
5.3218426443
 20
4.7273007024
 30
0.0
 10
5.320295257
 20
4.7271498584
 30
0.0
 10
5.318199145
 20
4.7269756788
 30
0.0
 10
5.3157865352
 20
4.7268010775
 30
0.0
 10
5.3130599092
 20
4.726626118
 30
0.0
 10
5.3100220334
 20
4.7264509431
 30
0.0
 10
5.3066760284
 20
4.7262755943
 30
0.0
 10
5.3016091288
 20
4.7260320957
 30
0.0
 10
5.294533549
 20
4.7257316109
 30
0.0
 10
5.2851734864
 20
4.7253825422
 30
0.0
 10
5.2746837913
 20
4.7250328914
 30
0.0
 10
5.263107708
 20
4.7246827456
 30
0.0
 10
5.2504929667
 20
4.7243322675
 30
0.0
 10
5.2368917601
 20
4.7239815413
 30
0.0
 10
5.222360245
 20
4.7236306138
 30
0.0
 10
5.2069576794
 20
4.7232795253
 30
0.0
 10
5.1907486735
 20
4.7229283326
 30
0.0
 10
5.1796805604
 20
4.7226989259
 30
0.0
 10
5.174023625
 20
4.7225838509
 30
0.0
  0
LINE
  5
42D
100
AcDbEntity
  8
0
100
AcDbLine
 62
7
  6
CONTINUOUS
 10
4.9417624277
 20
4.7528338475
 11
4.8741833197
 21
4.7515835989
  0
LINE
  5
42E
100
AcDbEntity
  8
0
100
AcDbLine
 62
7
  6
CONTINUOUS
 10
4.8741833197
 20
4.7515835989
 11
4.8727706163
 21
4.7515562177
  0
SPLINE
  5
42F
100
AcDbEntity
  8
0
100
AcDbSpline
 62
7
  6
CONTINUOUS
 70
0
 71
3
 72
26
 73
22
 74
0
 42
0.0000001
 43
0.0000001
 44
0.0000000001
 40
0.0
 40
0.0
 40
0.0
 40
0.0
 40
0.2034439393
 40
0.3898865047
 40
0.4757232028
 40
0.5561402691
 40
0.6307943268
 40
0.6993648164
 40
0.7615607233
 40
0.8171154488
 40
0.8657929626
 40
0.9073877579
 40
0.9254725167
 40
0.9417237398
 40
0.9561254669
 40
0.968662343
 40
0.9793231505
 40
0.9881008629
 40
0.9949912623
 40
0.9977297973
 40
1.0
 40
1.0
 40
1.0
 40
1.0
 10
4.8727706163
 20
4.7515562177
 30
0.0
 10
4.8608736335
 20
4.7513253468
 30
0.0
 10
4.8380741312
 20
4.7508694131
 30
0.0
 10
4.8102561452
 20
4.7502638344
 30
0.0
 10
4.7896331238
 20
4.7497736755
 30
0.0
 10
4.7755471997
 20
4.7494164455
 30
0.0
 10
4.7624714976
 20
4.7490594936
 30
0.0
 10
4.7504619499
 20
4.7487028721
 30
0.0
 10
4.7395700246
 20
4.7483467206
 30
0.0
 10
4.7298422754
 20
4.7479912642
 30
0.0
 10
4.7213203399
 20
4.7476366698
 30
0.0
 10
4.7149899862
 20
4.7473299672
 30
0.0
 10
4.7105558776
 20
4.7470802504
 30
0.0
 10
4.7077108144
 20
4.7469020297
 30
0.0
 10
4.7051909187
 20
4.7467241795
 30
0.0
 10
4.7029988956
 20
4.7465467612
 30
0.0
 10
4.7011369366
 20
4.7463701717
 30
0.0
 10
4.6996069685
 20
4.7461944899
 30
0.0
 10
4.6985410386
 20
4.7460407206
 30
0.0
 10
4.697856854
 20
4.7459127283
 30
0.0
 10
4.6975709858
 20
4.7458480603
 30
0.0
 10
4.6974424528
 20
4.7458147396
 30
0.0
  0
SPLINE
  5
430
100
AcDbEntity
  8
0
100
AcDbSpline
 62
7
  6
CONTINUOUS
 70
0
 71
3
 72
39
 73
35
 74
0
 42
0.0000001
 43
0.0000001
 44
0.0000000001
 40
0.0
 40
0.0
 40
0.0
 40
0.0
 40
0.022034889
 40
0.0469566228
 40
0.0745995351
 40
0.1047881147
 40
0.1720039636
 40
0.2468674108
 40
0.3274447496
 40
0.4116538593
 40
0.4973190105
 40
0.5822266172
 40
0.6641827148
 40
0.7033876922
 40
0.7410697675
 40
0.7769851524
 40
0.8109013996
 40
0.8425992499
 40
0.8718738757
 40
0.8985360263
 40
0.9224132684
 40
0.9433516999
 40
0.9526761724
 40
0.961216709
 40
0.9689600355
 40
0.9758938153
 40
0.9820068066
 40
0.9872900914
 40
0.991735414
 40
0.9953369177
 40
0.9968202149
 40
0.9980915558
 40
0.9991511225
 40
1.0
 40
1.0
 40
1.0
 40
1.0
 10
5.2878183066
 20
5.5178338509
 30
0.0
 10
5.2834832228
 20
5.5176761095
 30
0.0
 10
5.274244161
 20
5.5173658385
 30
0.0
 10
5.2595644239
 20
5.5169287391
 30
0.0
 10
5.2432788724
 20
5.516490889
 30
0.0
 10
5.218668575
 20
5.5158844555
 30
0.0
 10
5.1847627538
 20
5.5151400085
 30
0.0
 10
5.1409374841
 20
5.5142721037
 30
0.0
 10
5.0937662225
 20
5.5134024677
 30
0.0
 10
5.0444681391
 20
5.5125317258
 30
0.0
 10
4.9943174435
 20
5.5116606304
 30
0.0
 10
4.9446103573
 20
5.5107896895
 30
0.0
 10
4.9040487998
 20
5.5100541903
 30
0.0
 10
4.8727834071
 20
5.5094593581
 30
0.0
 10
4.8505806218
 20
5.5090199709
 30
0.0
 10
4.8294192239
 20
5.5085807768
 30
0.0
 10
4.8094361867
 20
5.5081418202
 30
0.0
 10
4.7907608257
 20
5.5077031896
 30
0.0
 10
4.773513972
 20
5.5072649902
 30
0.0
 10
4.7578072608
 20
5.5068274262
 30
0.0
 10
4.7437423565
 20
5.5063906542
 30
0.0
 10
4.7330905009
 20
5.5060147306
 30
0.0
 10
4.7254574364
 20
5.5057099142
 30
0.0
 10
4.7204207562
 20
5.505490397
 30
0.0
 10
4.715855202
 20
5.5052711317
 30
0.0
 10
4.7117681401
 20
5.5050522039
 30
0.0
 10
4.7081661361
 20
5.5048336904
 30
0.0
 10
4.7050549784
 20
5.5046159686
 30
0.0
 10
4.7024396205
 20
5.5043991316
 30
0.0
 10
4.7005727831
 20
5.5042099746
 30
0.0
 10
4.6993311551
 20
5.5040541009
 30
0.0
 10
4.6985881051
 20
5.5039452626
 30
0.0
 10
4.6979714781
 20
5.5038369419
 30
0.0
 10
4.6976041939
 20
5.5037566768
 30
0.0
 10
4.6974424251
 20
5.5037147396
 30
0.0
  0
SPLINE
  5
431
100
AcDbEntity
  8
0
100
AcDbSpline
 62
7
  6
CONTINUOUS
 70
0
 71
3
 72
41
 73
37
 74
0
 42
0.0000001
 43
0.0000001
 44
0.0000000001
 40
0.0
 40
0.0
 40
0.0
 40
0.0
 40
0.0946454945
 40
0.1892712022
 40
0.2828434208
 40
0.3743397479
 40
0.4627607718
 40
0.5471404341
 40
0.6265571656
 40
0.7001435249
 40
0.7344962918
 40
0.7670960523
 40
0.7978529816
 40
0.8266839836
 40
0.8535095016
 40
0.8782573599
 40
0.9008592305
 40
0.9212546668
 40
0.9393873689
 40
0.9552095305
 40
0.9686779285
 40
0.9745187103
 40
0.9797586763
 40
0.9843943619
 40
0.9884236141
 40
0.991844911
 40
0.9933273057
 40
0.9946574868
 40
0.9958356124
 40
0.9968621735
 40
0.9977380245
 40
0.9984646191
 40
0.9990446197
 40
0.9992812996
 40
0.9994838563
 40
1.0
 40
1.0
 40
1.0
 40
1.0
 10
5.0437148072
 20
5.5018467188
 30
0.0
 10
5.0327607951
 20
5.5016548933
 30
0.0
 10
5.010855025
 20
5.5012733414
 30
0.0
 10
4.9781194452
 20
5.5007030362
 30
0.0
 10
4.9457484516
 20
5.5001328017
 30
0.0
 10
4.9140957918
 20
5.4995627122
 30
0.0
 10
4.8835073896
 20
5.4989928536
 30
0.0
 10
4.8543175058
 20
5.4984233485
 30
0.0
 10
4.8268451442
 20
5.4978543094
 30
0.0
 10
4.8051631489
 20
5.4973702989
 30
0.0
 10
4.7888997459
 20
5.4969799902
 30
0.0
 10
4.7775929955
 20
5.4966940959
 30
0.0
 10
4.7669256301
 20
5.4964082964
 30
0.0
 10
4.7569269127
 20
5.496122636
 30
0.0
 10
4.747624074
 20
5.4958371212
 30
0.0
 10
4.7390426461
 20
5.4955518326
 30
0.0
 10
4.7312059687
 20
5.4952668034
 30
0.0
 10
4.7241355688
 20
5.4949821679
 30
0.0
 10
4.7178506306
 20
5.4946980735
 30
0.0
 10
4.712368427
 20
5.4944147042
 30
0.0
 10
4.7083091115
 20
5.4941693988
 30
0.0
 10
4.7054744272
 20
5.4939696851
 30
0.0
 10
4.7036607289
 20
5.4938272939
 30
0.0
 10
4.7020574146
 20
5.4936851841
 30
0.0
 10
4.7006655315
 20
5.4935434055
 30
0.0
 10
4.699638719
 20
5.493420629
 30
0.0
 10
4.6989240458
 20
5.493320706
 30
0.0
 10
4.6984676014
 20
5.4932494696
 30
0.0
 10
4.698064622
 20
5.4931783574
 30
0.0
 10
4.6977150981
 20
5.4931073721
 30
0.0
 10
4.6974190794
 20
5.493036709
 30
0.0
 10
4.6971761731
 20
5.492966135
 30
0.0
 10
4.6970086629
 20
5.4929047776
 30
0.0
 10
4.696901366
 20
5.4928533317
 30
0.0
 10
4.6968083276
 20
5.4927996058
 30
0.0
 10
4.6967306137
 20
5.492731465
 30
0.0
 10
4.6967306137
 20
5.4926717188
 30
0.0
  0
SPLINE
  5
432
100
AcDbEntity
  8
0
100
AcDbSpline
 62
7
  6
CONTINUOUS
 70
0
 71
3
 72
39
 73
35
 74
0
 42
0.0000001
 43
0.0000001
 44
0.0000000001
 40
0.0
 40
0.0
 40
0.0
 40
0.0
 40
0.0002340713
 40
0.0003780974
 40
0.0005477747
 40
0.0009761593
 40
0.0015347912
 40
0.0022300025
 40
0.0030649776
 40
0.0040414951
 40
0.0051606246
 40
0.0078290617
 40
0.0110729169
 40
0.0148921736
 40
0.0192859621
 40
0.0297914139
 40
0.0425715924
 40
0.0576010323
 40
0.0748504559
 40
0.0942832217
 40
0.1158602193
 40
0.1395354911
 40
0.1652601273
 40
0.192980062
 40
0.2226369228
 40
0.2875094194
 40
0.3593328275
 40
0.4375034158
 40
0.5213641238
 40
0.6102093251
 40
0.703293012
 40
0.7998291508
 40
0.8990129862
 40
1.0
 40
1.0
 40
1.0
 40
1.0
 10
5.3262306137
 20
5.4861209831
 30
0.0
 10
5.3262306137
 20
5.4860989185
 30
0.0
 10
5.3262167925
 20
5.4860632953
 30
0.0
 10
5.326183131
 20
5.4860241773
 30
0.0
 10
5.3261295596
 20
5.4859786996
 30
0.0
 10
5.3260343457
 20
5.4859242859
 30
0.0
 10
5.3258880619
 20
5.4858627229
 30
0.0
 10
5.3257009349
 20
5.485800912
 30
0.0
 10
5.3254728847
 20
5.4857388086
 30
0.0
 10
5.3252036893
 20
5.4856765195
 30
0.0
 10
5.324763367
 20
5.4855880216
 30
0.0
 10
5.3241092273
 20
5.4854800894
 30
0.0
 10
5.3232002384
 20
5.4853561565
 30
0.0
 10
5.322127388
 20
5.4852317806
 30
0.0
 10
5.3203717585
 20
5.4850547737
 30
0.0
 10
5.3177713254
 20
5.4848391736
 30
0.0
 10
5.314168026
 20
5.4845915085
 30
0.0
 10
5.3099277906
 20
5.4843429294
 30
0.0
 10
5.3050595816
 20
5.4840936277
 30
0.0
 10
5.2995734828
 20
5.4838438507
 30
0.0
 10
5.2934811119
 20
5.4835937571
 30
0.0
 10
5.2867952012
 20
5.4833434046
 30
0.0
 10
5.2795298668
 20
5.4830928785
 30
0.0
 10
5.2717003782
 20
5.4828422003
 30
0.0
 10
5.2601817932
 20
5.4824974155
 30
0.0
 10
5.2445064553
 20
5.4820706623
 30
0.0
 10
5.2242583587
 20
5.481571723
 30
0.0
 10
5.2022198706
 20
5.481072184
 30
0.0
 10
5.1785764665
 20
5.4805721707
 30
0.0
 10
5.1535270027
 20
5.4800718247
 30
0.0
 10
5.1272824779
 20
5.4795712379
 30
0.0
 10
5.1000632231
 20
5.4790704675
 30
0.0
 10
5.0720988474
 20
5.4785695807
 30
0.0
 10
5.0532328126
 20
5.4782376614
 30
0.0
 10
5.0437148072
 20
5.4780709831
 30
0.0
  0
SPLINE
  5
433
100
AcDbEntity
  8
0
100
AcDbSpline
 62
7
  6
CONTINUOUS
 70
0
 71
3
 72
30
 73
26
 74
0
 42
0.0000001
 43
0.0000001
 44
0.0000000001
 40
0.0
 40
0.0
 40
0.0
 40
0.0
 40
0.1821232373
 40
0.2722980124
 40
0.3606691975
 40
0.4463467167
 40
0.5284684656
 40
0.6062079729
 40
0.6787830011
 40
0.7454633749
 40
0.8055785113
 40
0.8585240993
 40
0.8821394456
 40
0.9037686047
 40
0.9233583836
 40
0.9408588569
 40
0.9562276188
 40
0.9694258688
 40
0.9804228558
 40
0.9850874313
 40
0.9891926358
 40
0.9927369641
 40
0.9957193503
 40
0.9981395887
 40
1.0
 40
1.0
 40
1.0
 40
1.0
 10
5.0437148072
 20
5.4780709831
 30
0.0
 10
5.0226865281
 20
5.4777027381
 30
0.0
 10
4.9912464072
 20
5.4771578311
 30
0.0
 10
4.9496029442
 20
5.4764253501
 30
0.0
 10
4.9190954555
 20
5.4758779013
 30
0.0
 10
4.8895180762
 20
5.4753306365
 30
0.0
 10
4.8611686501
 20
5.4747836431
 30
0.0
 10
4.83433258
 20
5.474237039
 30
0.0
 10
4.8092800531
 20
5.4736909712
 30
0.0
 10
4.7862632781
 20
5.4731457151
 30
0.0
 10
4.7655139741
 20
5.4726014975
 30
0.0
 10
4.7497375763
 20
5.4721334136
 30
0.0
 10
4.7384049826
 20
5.4717535525
 30
0.0
 10
4.7309229414
 20
5.4714798508
 30
0.0
 10
4.7241475429
 20
5.4712065222
 30
0.0
 10
4.7180957255
 20
5.4709336027
 30
0.0
 10
4.7127827929
 20
5.4706614247
 30
0.0
 10
4.7082219743
 20
5.470390067
 30
0.0
 10
4.7048974645
 20
5.4701543488
 30
0.0
 10
4.7026229353
 20
5.469961476
 30
0.0
 10
4.7012074134
 20
5.4698251518
 30
0.0
 10
4.6999871444
 20
5.4696892385
 30
0.0
 10
4.6989627011
 20
5.4695540373
 30
0.0
 10
4.6981347227
 20
5.4694197091
 30
0.0
 10
4.6976503787
 20
5.469318653
 30
0.0
 10
4.697442414
 20
5.4692647396
 30
0.0
  0
SPLINE
  5
434
100
AcDbEntity
  8
0
100
AcDbSpline
 62
7
  6
CONTINUOUS
 70
0
 71
3
 72
63
 73
59
 74
0
 42
0.0000001
 43
0.0000001
 44
0.0000000001
 40
0.0
 40
0.0
 40
0.0
 40
0.0
 40
0.000254191
 40
0.000350766
 40
0.0004629182
 40
0.0007361972
 40
0.00107713
 40
0.0014871617
 40
0.0019670922
 40
0.0025173986
 40
0.0038301623
 40
0.0054264967
 40
0.0073062185
 40
0.0094687628
 40
0.0146389989
 40
0.0209271831
 40
0.0283195226
 40
0.0367999916
 40
0.0463488591
 40
0.0569449941
 40
0.0685635476
 40
0.0811783318
 40
0.0947600522
 40
0.1092776067
 40
0.1246976464
 40
0.1409844075
 40
0.1760067516
 40
0.2140220421
 40
0.2546798839
 40
0.29760549
 40
0.3424031851
 40
0.3886599363
 40
0.4359493048
 40
0.4838353205
 40
0.5318764113
 40
0.5796297197
 40
0.6266548434
 40
0.6725182897
 40
0.7167971932
 40
0.7590833553
 40
0.7989870163
 40
0.8361403691
 40
0.8702010379
 40
0.9008552811
 40
0.9278208138
 40
0.9398413365
 40
0.9508497898
 40
0.9608205509
 40
0.9697310668
 40
0.9775611236
 40
0.9842929403
 40
0.9899121843
 40
0.9923005828
 40
0.9944067565
 40
0.9962299757
 40
0.9977697304
 40
0.9990259738
 40
1.0
 40
1.0
 40
1.0
 40
1.0
 10
5.3262306137
 20
5.4516709831
 30
0.0
 10
5.3262306137
 20
5.4516176685
 30
0.0
 10
5.3261668895
 20
5.4515545939
 30
0.0
 10
5.3260866188
 20
5.4515042341
 30
0.0
 10
5.3259963419
 20
5.4514570763
 30
0.0
 10
5.3258549326
 20
5.4514006526
 30
0.0
 10
5.3256498646
 20
5.4513357919
 30
0.0
 10
5.3253999572
 20
5.4512708495
 30
0.0
 10
5.3251049334
 20
5.4512056217
 30
0.0
 10
5.3246222785
 20
5.4511129665
 30
0.0
 10
5.3239053715
 20
5.4509999672
 30
0.0
 10
5.3229093074
 20
5.4508702255
 30
0.0
 10
5.3217337848
 20
5.4507400138
 30
0.0
 10
5.319810396
 20
5.4505547036
 30
0.0
 10
5.3169622585
 20
5.4503290026
 30
0.0
 10
5.313016911
 20
5.4500697144
 30
0.0
 10
5.3083760485
 20
5.4498094743
 30
0.0
 10
5.3030504127
 20
5.4495484731
 30
0.0
 10
5.2970521182
 20
5.4492869742
 30
0.0
 10
5.2903950925
 20
5.4490251459
 30
0.0
 10
5.2830945752
 20
5.448763042
 30
0.0
 10
5.2751674922
 20
5.4485007611
 30
0.0
 10
5.2666320643
 20
5.4482383234
 30
0.0
 10
5.2575080007
 20
5.4479757727
 30
0.0
 10
5.2478163586
 20
5.4477131253
 30
0.0
 10
5.2338250454
 20
5.4473540764
 30
0.0
 10
5.2150952292
 20
5.4469087765
 30
0.0
 10
5.1912542188
 20
5.4463858405
 30
0.0
 10
5.1657551999
 20
5.445862458
 30
0.0
 10
5.1388333508
 20
5.4453387256
 30
0.0
 10
5.1107369673
 20
5.4448147516
 30
0.0
 10
5.081725169
 20
5.4442906062
 30
0.0
 10
5.0520655188
 20
5.4437663497
 30
0.0
 10
5.0220315611
 20
5.4432420321
 30
0.0
 10
4.9919002812
 20
5.4427176989
 30
0.0
 10
4.9619495934
 20
5.4421933948
 30
0.0
 10
4.9324557188
 20
5.4416691662
 30
0.0
 10
4.9036906884
 20
5.4411450654
 30
0.0
 10
4.875919784
 20
5.4406211555
 30
0.0
 10
4.8493991237
 20
5.4400975152
 30
0.0
 10
4.8243732896
 20
5.4395742543
 30
0.0
 10
4.801073078
 20
5.4390515095
 30
0.0
 10
4.779713364
 20
5.4385295416
 30
0.0
 10
4.7604911423
 20
5.4380085562
 30
0.0
 10
4.7458914583
 20
5.4375603813
 30
0.0
 10
4.7354117961
 20
5.4371967088
 30
0.0
 10
4.7284953048
 20
5.4369347491
 30
0.0
 10
4.72223161
 20
5.4366731092
 30
0.0
 10
4.7166351841
 20
5.4364118786
 30
0.0
 10
4.7117188864
 20
5.436151319
 30
0.0
 10
4.7074939828
 20
5.4358915328
 30
0.0
 10
4.7044106045
 20
5.4356659429
 30
0.0
 10
4.7022973152
 20
5.4354814434
 30
0.0
 10
4.7009786092
 20
5.4353509322
 30
0.0
 10
4.6998388589
 20
5.4352207942
 30
0.0
 10
4.6988785835
 20
5.4350912878
 30
0.0
 10
4.6980983225
 20
5.4349625605
 30
0.0
 10
4.69764021
 20
5.434866006
 30
0.0
 10
4.6974424528
 20
5.4348147396
 30
0.0
  0
SPLINE
  5
435
100
AcDbEntity
  8
0
100
AcDbSpline
 62
7
  6
CONTINUOUS
 70
0
 71
3
 72
63
 73
59
 74
0
 42
0.0000001
 43
0.0000001
 44
0.0000000001
 40
0.0
 40
0.0
 40
0.0
 40
0.0
 40
0.000254191
 40
0.000350766
 40
0.0004629182
 40
0.0007361972
 40
0.00107713
 40
0.0014871617
 40
0.0019670922
 40
0.0025173986
 40
0.0038301623
 40
0.0054264967
 40
0.0073062185
 40
0.0094687628
 40
0.0146389989
 40
0.0209271831
 40
0.0283195226
 40
0.0367999916
 40
0.0463488591
 40
0.0569449941
 40
0.0685635476
 40
0.0811783318
 40
0.0947600522
 40
0.1092776067
 40
0.1246976464
 40
0.1409844075
 40
0.1760067516
 40
0.2140220421
 40
0.2546798839
 40
0.29760549
 40
0.3424031851
 40
0.3886599363
 40
0.4359493048
 40
0.4838353205
 40
0.5318764113
 40
0.5796297197
 40
0.6266548434
 40
0.6725182897
 40
0.7167971932
 40
0.7590833553
 40
0.7989870163
 40
0.8361403691
 40
0.8702010379
 40
0.9008552811
 40
0.9278208138
 40
0.9398413365
 40
0.9508497898
 40
0.9608205509
 40
0.9697310668
 40
0.9775611236
 40
0.9842929403
 40
0.9899121843
 40
0.9923005828
 40
0.9944067565
 40
0.9962299757
 40
0.9977697304
 40
0.9990259738
 40
1.0
 40
1.0
 40
1.0
 40
1.0
 10
5.3262306137
 20
5.4172209831
 30
0.0
 10
5.3262306137
 20
5.4171676685
 30
0.0
 10
5.3261668895
 20
5.4171045939
 30
0.0
 10
5.3260866188
 20
5.4170542341
 30
0.0
 10
5.3259963419
 20
5.4170070763
 30
0.0
 10
5.3258549326
 20
5.4169506526
 30
0.0
 10
5.3256498646
 20
5.4168857919
 30
0.0
 10
5.3253999572
 20
5.4168208495
 30
0.0
 10
5.3251049334
 20
5.4167556217
 30
0.0
 10
5.3246222785
 20
5.4166629665
 30
0.0
 10
5.3239053715
 20
5.4165499672
 30
0.0
 10
5.3229093074
 20
5.4164202255
 30
0.0
 10
5.3217337848
 20
5.4162900138
 30
0.0
 10
5.319810396
 20
5.4161047036
 30
0.0
 10
5.3169622585
 20
5.4158790026
 30
0.0
 10
5.313016911
 20
5.4156197144
 30
0.0
 10
5.3083760485
 20
5.4153594743
 30
0.0
 10
5.3030504127
 20
5.4150984731
 30
0.0
 10
5.2970521182
 20
5.4148369742
 30
0.0
 10
5.2903950925
 20
5.4145751459
 30
0.0
 10
5.2830945752
 20
5.414313042
 30
0.0
 10
5.2751674922
 20
5.4140507611
 30
0.0
 10
5.2666320643
 20
5.4137883234
 30
0.0
 10
5.2575080007
 20
5.4135257727
 30
0.0
 10
5.2478163586
 20
5.4132631253
 30
0.0
 10
5.2338250454
 20
5.4129040764
 30
0.0
 10
5.2150952292
 20
5.4124587765
 30
0.0
 10
5.1912542188
 20
5.4119358405
 30
0.0
 10
5.1657551999
 20
5.411412458
 30
0.0
 10
5.1388333508
 20
5.4108887256
 30
0.0
 10
5.1107369673
 20
5.4103647516
 30
0.0
 10
5.081725169
 20
5.4098406062
 30
0.0
 10
5.0520655188
 20
5.4093163497
 30
0.0
 10
5.0220315611
 20
5.4087920321
 30
0.0
 10
4.9919002812
 20
5.4082676989
 30
0.0
 10
4.9619495934
 20
5.4077433948
 30
0.0
 10
4.9324557188
 20
5.4072191662
 30
0.0
 10
4.9036906884
 20
5.4066950654
 30
0.0
 10
4.875919784
 20
5.4061711555
 30
0.0
 10
4.8493991237
 20
5.4056475152
 30
0.0
 10
4.8243732896
 20
5.4051242543
 30
0.0
 10
4.801073078
 20
5.4046015095
 30
0.0
 10
4.779713364
 20
5.4040795416
 30
0.0
 10
4.7604911423
 20
5.4035585562
 30
0.0
 10
4.7458914583
 20
5.4031103813
 30
0.0
 10
4.7354117961
 20
5.4027467088
 30
0.0
 10
4.7284953048
 20
5.4024847491
 30
0.0
 10
4.72223161
 20
5.4022231092
 30
0.0
 10
4.7166351841
 20
5.4019618786
 30
0.0
 10
4.7117188864
 20
5.401701319
 30
0.0
 10
4.7074939828
 20
5.4014415328
 30
0.0
 10
4.7044106045
 20
5.4012159429
 30
0.0
 10
4.7022973152
 20
5.4010314434
 30
0.0
 10
4.7009786092
 20
5.4009009322
 30
0.0
 10
4.6998388589
 20
5.4007707942
 30
0.0
 10
4.6988785835
 20
5.4006412878
 30
0.0
 10
4.6980983225
 20
5.4005125605
 30
0.0
 10
4.69764021
 20
5.400416006
 30
0.0
 10
4.6974424528
 20
5.4003647396
 30
0.0
  0
SPLINE
  5
436
100
AcDbEntity
  8
0
100
AcDbSpline
 62
7
  6
CONTINUOUS
 70
0
 71
3
 72
63
 73
59
 74
0
 42
0.0000001
 43
0.0000001
 44
0.0000000001
 40
0.0
 40
0.0
 40
0.0
 40
0.0
 40
0.0001173783
 40
0.0001890885
 40
0.0002732401
 40
0.0004849024
 40
0.0007602143
 40
0.0011024166
 40
0.0015131585
 40
0.0019933734
 40
0.0025436046
 40
0.0038550637
 40
0.0054486325
 40
0.007324414
 40
0.0094820986
 40
0.0146399095
 40
0.0209116426
 40
0.0282845028
 40
0.0367419359
 40
0.0462649208
 40
0.0568321704
 40
0.0684190744
 40
0.0809997859
 40
0.0945448904
 40
0.1090238204
 40
0.1406474194
 40
0.1755803729
 40
0.2135019162
 40
0.2540636229
 40
0.2968927047
 40
0.341595596
 40
0.3877614223
 40
0.434965868
 40
0.4827751133
 40
0.5307495823
 40
0.578448394
 40
0.6254329933
 40
0.6712716001
 40
0.7155429085
 40
0.757839993
 40
0.7977742167
 40
0.8349784933
 40
0.8691111212
 40
0.8998586713
 40
0.9269390568
 40
0.9390253126
 40
0.9501042096
 40
0.9601509922
 40
0.9691425034
 40
0.9770584713
 40
0.9838814871
 40
0.9895961928
 40
0.9920344561
 40
0.9941916811
 40
0.9960668432
 40
0.9976595953
 40
0.9989702528
 40
1.0
 40
1.0
 40
1.0
 40
1.0
 10
5.3058805373
 20
5.2502338509
 30
0.0
 10
5.3058805242
 20
5.2502108249
 30
0.0
 10
5.3058665166
 20
5.2501737107
 30
0.0
 10
5.3058320534
 20
5.2501326731
 30
0.0
 10
5.3057773853
 20
5.2500851715
 30
0.0
 10
5.3056801177
 20
5.2500282432
 30
0.0
 10
5.3055305837
 20
5.2499638591
 30
0.0
 10
5.3053393166
 20
5.2498992273
 30
0.0
 10
5.3051062137
 20
5.249834306
 30
0.0
 10
5.3048310368
 20
5.2497691964
 30
0.0
 10
5.3043809844
 20
5.2496767128
 30
0.0
 10
5.3037124381
 20
5.2495639005
 30
0.0
 10
5.3027835192
 20
5.2494343339
 30
0.0
 10
5.3016872915
 20
5.2493043032
 30
0.0
 10
5.2998937203
 20
5.2491192706
 30
0.0
 10
5.2972376853
 20
5.2488939141
 30
0.0
 10
5.2935582755
 20
5.2486349864
 30
0.0
 10
5.2892302761
 20
5.2483751591
 30
0.0
 10
5.2842635542
 20
5.2481145321
 30
0.0
 10
5.2786694563
 20
5.2478534328
 30
0.0
 10
5.2724608741
 20
5.2475919943
 30
0.0
 10
5.2656519914
 20
5.2473302818
 30
0.0
 10
5.2582585583
 20
5.2470684014
 30
0.0
 10
5.2502974773
 20
5.246806345
 30
0.0
 10
5.2386020095
 20
5.2464461227
 30
0.0
 10
5.2227115979
 20
5.2460002602
 30
0.0
 10
5.2022228717
 20
5.2454787629
 30
0.0
 10
5.1799802626
 20
5.2449566427
 30
0.0
 10
5.1561882958
 20
5.2444340342
 30
0.0
 10
5.1310657454
 20
5.2439110886
 30
0.0
 10
5.1048436199
 20
5.2433878975
 30
0.0
 10
5.0777630234
 20
5.242864536
 30
0.0
 10
5.0500729486
 20
5.2423410626
 30
0.0
 10
5.0220280134
 20
5.2418175277
 30
0.0
 10
4.9938860826
 20
5.2412939761
 30
0.0
 10
4.9659059491
 20
5.2407704522
 30
0.0
 10
4.9383448778
 20
5.2402470019
 30
0.0
 10
4.9114562968
 20
5.239723677
 30
0.0
 10
4.8854874355
 20
5.2392005401
 30
0.0
 10
4.8606770685
 20
5.2386776681
 30
0.0
 10
4.8372533476
 20
5.2381551695
 30
0.0
 10
4.8154316502
 20
5.2376331779
 30
0.0
 10
4.7954126248
 20
5.2371119458
 30
0.0
 10
4.7773803051
 20
5.2365916817
 30
0.0
 10
4.7636725642
 20
5.2361442237
 30
0.0
 10
4.7538226269
 20
5.2357812415
 30
0.0
 10
4.74731272
 20
5.2355196348
 30
0.0
 10
4.741410425
 20
5.2352583599
 30
0.0
 10
4.7361292513
 20
5.2349974742
 30
0.0
 10
4.7314813002
 20
5.2347372125
 30
0.0
 10
4.7274772683
 20
5.2344777454
 30
0.0
 10
4.7245479611
 20
5.2342524872
 30
0.0
 10
4.7225337779
 20
5.2340684563
 30
0.0
 10
4.7212711105
 20
5.2339380843
 30
0.0
 10
4.7201752757
 20
5.233808048
 30
0.0
 10
4.7192467389
 20
5.2336785636
 30
0.0
 10
4.7184859123
 20
5.2335498114
 30
0.0
 10
4.7180366119
 20
5.233453705
 30
0.0
 10
4.7178410718
 20
5.2334030116
 30
0.0
  0
SPLINE
  5
437
100
AcDbEntity
  8
0
100
AcDbSpline
 62
7
  6
CONTINUOUS
 70
0
 71
3
 72
63
 73
59
 74
0
 42
0.0000001
 43
0.0000001
 44
0.0000000001
 40
0.0
 40
0.0
 40
0.0
 40
0.0
 40
0.000254191
 40
0.000350766
 40
0.0004629182
 40
0.0007361972
 40
0.00107713
 40
0.0014871617
 40
0.0019670922
 40
0.0025173986
 40
0.0038301623
 40
0.0054264967
 40
0.0073062185
 40
0.0094687628
 40
0.0146389989
 40
0.0209271831
 40
0.0283195226
 40
0.0367999916
 40
0.0463488591
 40
0.0569449941
 40
0.0685635476
 40
0.0811783318
 40
0.0947600522
 40
0.1092776067
 40
0.1246976464
 40
0.1409844075
 40
0.1760067516
 40
0.2140220421
 40
0.2546798839
 40
0.29760549
 40
0.3424031851
 40
0.3886599363
 40
0.4359493048
 40
0.4838353205
 40
0.5318764113
 40
0.5796297197
 40
0.6266548434
 40
0.6725182897
 40
0.7167971932
 40
0.7590833553
 40
0.7989870163
 40
0.8361403691
 40
0.8702010379
 40
0.9008552811
 40
0.9278208138
 40
0.9398413365
 40
0.9508497898
 40
0.9608205509
 40
0.9697310668
 40
0.9775611236
 40
0.9842929403
 40
0.9899121843
 40
0.9923005828
 40
0.9944067565
 40
0.9962299757
 40
0.9977697304
 40
0.9990259738
 40
1.0
 40
1.0
 40
1.0
 40
1.0
 10
5.3262306137
 20
5.3827709831
 30
0.0
 10
5.3262306137
 20
5.3827176685
 30
0.0
 10
5.3261668895
 20
5.3826545939
 30
0.0
 10
5.3260866188
 20
5.3826042341
 30
0.0
 10
5.3259963419
 20
5.3825570763
 30
0.0
 10
5.3258549326
 20
5.3825006526
 30
0.0
 10
5.3256498646
 20
5.3824357919
 30
0.0
 10
5.3253999572
 20
5.3823708495
 30
0.0
 10
5.3251049334
 20
5.3823056217
 30
0.0
 10
5.3246222785
 20
5.3822129665
 30
0.0
 10
5.3239053715
 20
5.3820999672
 30
0.0
 10
5.3229093074
 20
5.3819702255
 30
0.0
 10
5.3217337848
 20
5.3818400138
 30
0.0
 10
5.319810396
 20
5.3816547036
 30
0.0
 10
5.3169622585
 20
5.3814290026
 30
0.0
 10
5.313016911
 20
5.3811697144
 30
0.0
 10
5.3083760485
 20
5.3809094743
 30
0.0
 10
5.3030504127
 20
5.3806484731
 30
0.0
 10
5.2970521182
 20
5.3803869742
 30
0.0
 10
5.2903950925
 20
5.3801251459
 30
0.0
 10
5.2830945752
 20
5.379863042
 30
0.0
 10
5.2751674922
 20
5.3796007611
 30
0.0
 10
5.2666320643
 20
5.3793383234
 30
0.0
 10
5.2575080007
 20
5.3790757727
 30
0.0
 10
5.2478163586
 20
5.3788131253
 30
0.0
 10
5.2338250454
 20
5.3784540764
 30
0.0
 10
5.2150952292
 20
5.3780087765
 30
0.0
 10
5.1912542188
 20
5.3774858405
 30
0.0
 10
5.1657551999
 20
5.376962458
 30
0.0
 10
5.1388333508
 20
5.3764387256
 30
0.0
 10
5.1107369673
 20
5.3759147516
 30
0.0
 10
5.081725169
 20
5.3753906062
 30
0.0
 10
5.0520655188
 20
5.3748663497
 30
0.0
 10
5.0220315611
 20
5.3743420321
 30
0.0
 10
4.9919002812
 20
5.3738176989
 30
0.0
 10
4.9619495934
 20
5.3732933949
 30
0.0
 10
4.9324557188
 20
5.3727691662
 30
0.0
 10
4.9036906884
 20
5.3722450654
 30
0.0
 10
4.875919784
 20
5.3717211555
 30
0.0
 10
4.8493991237
 20
5.3711975152
 30
0.0
 10
4.8243732896
 20
5.3706742543
 30
0.0
 10
4.801073078
 20
5.3701515095
 30
0.0
 10
4.779713364
 20
5.3696295416
 30
0.0
 10
4.7604911423
 20
5.3691085562
 30
0.0
 10
4.7458914583
 20
5.3686603813
 30
0.0
 10
4.7354117961
 20
5.3682967088
 30
0.0
 10
4.7284953048
 20
5.3680347491
 30
0.0
 10
4.72223161
 20
5.3677731092
 30
0.0
 10
4.7166351841
 20
5.3675118786
 30
0.0
 10
4.7117188864
 20
5.367251319
 30
0.0
 10
4.7074939828
 20
5.3669915328
 30
0.0
 10
4.7044106045
 20
5.3667659429
 30
0.0
 10
4.7022973152
 20
5.3665814434
 30
0.0
 10
4.7009786092
 20
5.3664509322
 30
0.0
 10
4.6998388589
 20
5.3663207942
 30
0.0
 10
4.6988785835
 20
5.3661912878
 30
0.0
 10
4.6980983225
 20
5.3660625605
 30
0.0
 10
4.69764021
 20
5.365966006
 30
0.0
 10
4.6974424528
 20
5.3659147396
 30
0.0
  0
SPLINE
  5
438
100
AcDbEntity
  8
0
100
AcDbSpline
 62
7
  6
CONTINUOUS
 70
0
 71
3
 72
63
 73
59
 74
0
 42
0.0000001
 43
0.0000001
 44
0.0000000001
 40
0.0
 40
0.0
 40
0.0
 40
0.0
 40
0.0001173577
 40
0.0001890682
 40
0.0002732342
 40
0.0004849629
 40
0.0007603693
 40
0.0011026616
 40
0.0015134548
 40
0.0019936488
 40
0.0025437811
 40
0.0038550303
 40
0.0054486605
 40
0.0073246408
 40
0.0094823972
 40
0.0146398611
 40
0.0209118992
 40
0.0282845071
 40
0.0367420936
 40
0.04626509
 40
0.0568321986
 40
0.068419322
 40
0.0809997445
 40
0.0945451384
 40
0.1090238524
 40
0.1406475401
 40
0.1755806033
 40
0.2135021164
 40
0.2540637422
 40
0.2968927918
 40
0.3415956327
 40
0.387761515
 40
0.4349659922
 40
0.4827752185
 40
0.530749696
 40
0.5784484562
 40
0.6254331052
 40
0.6712717564
 40
0.7155430645
 40
0.7578401405
 40
0.7977742279
 40
0.8349784853
 40
0.8691111432
 40
0.8998587836
 40
0.9269392974
 40
0.9390252619
 40
0.9501044599
 40
0.9601509896
 40
0.9691426715
 40
0.9770586051
 40
0.9838814976
 40
0.9895964337
 40
0.9920345084
 40
0.9941916117
 40
0.9960669311
 40
0.9976598772
 40
0.9989704465
 40
1.0
 40
1.0
 40
1.0
 40
1.0
 10
5.3058806042
 20
5.284683851
 30
0.0
 10
5.3058806128
 20
5.284660829
 30
0.0
 10
5.3058666237
 20
5.2846237049
 30
0.0
 10
5.3058321575
 20
5.2845826709
 30
0.0
 10
5.3057774693
 20
5.2845351677
 30
0.0
 10
5.3056801591
 20
5.2844782436
 30
0.0
 10
5.3055305709
 20
5.2844138623
 30
0.0
 10
5.3053392544
 20
5.2843492324
 30
0.0
 10
5.305106127
 20
5.2842843121
 30
0.0
 10
5.3048309643
 20
5.2842192015
 30
0.0
 10
5.3043809793
 20
5.2841267111
 30
0.0
 10
5.303712484
 20
5.2840138861
 30
0.0
 10
5.3027835533
 20
5.2838843311
 30
0.0
 10
5.3016872592
 20
5.2837543087
 30
0.0
 10
5.2998937025
 20
5.2835692823
 30
0.0
 10
5.2972376644
 20
5.2833438907
 30
0.0
 10
5.2935583092
 20
5.2830850062
 30
0.0
 10
5.2892302714
 20
5.2828251469
 30
0.0
 10
5.2842635655
 20
5.2825645374
 30
0.0
 10
5.278669463
 20
5.2823034344
 30
0.0
 10
5.2724608634
 20
5.2820419884
 30
0.0
 10
5.2656520213
 20
5.281780291
 30
0.0
 10
5.2582585455
 20
5.2815183928
 30
0.0
 10
5.2502975062
 20
5.2812563526
 30
0.0
 10
5.2386020068
 20
5.2808961152
 30
0.0
 10
5.222711598
 20
5.2804502632
 30
0.0
 10
5.2022228385
 20
5.2799287633
 30
0.0
 10
5.1799802291
 20
5.2794066433
 30
0.0
 10
5.15618829
 20
5.2788840343
 30
0.0
 10
5.1310657712
 20
5.2783610885
 30
0.0
 10
5.1048436504
 20
5.2778378974
 30
0.0
 10
5.0777630461
 20
5.2773145362
 30
0.0
 10
5.0500729573
 20
5.276791063
 30
0.0
 10
5.0220280174
 20
5.276267528
 30
0.0
 10
4.9938860982
 20
5.2757439763
 30
0.0
 10
4.9659059628
 20
5.2752204522
 30
0.0
 10
4.9383448826
 20
5.2746970019
 30
0.0
 10
4.9114562827
 20
5.2741736774
 30
0.0
 10
4.8854874138
 20
5.2736505407
 30
0.0
 10
4.8606770748
 20
5.2731276687
 30
0.0
 10
4.8372533856
 20
5.2726051696
 30
0.0
 10
4.8154317124
 20
5.272083177
 30
0.0
 10
4.7954126668
 20
5.2715619467
 30
0.0
 10
4.777380298
 20
5.2710416781
 30
0.0
 10
4.7636725706
 20
5.2705942348
 30
0.0
 10
4.7538226068
 20
5.2702312315
 30
0.0
 10
4.7473127466
 20
5.269969646
 30
0.0
 10
4.7414104094
 20
5.2697083517
 30
0.0
 10
4.736129258
 20
5.2694474773
 30
0.0
 10
4.731481304
 20
5.2691872175
 30
0.0
 10
4.7274772591
 20
5.2689277313
 30
0.0
 10
4.7245479655
 20
5.2687025029
 30
0.0
 10
4.7225337994
 20
5.2685184559
 30
0.0
 10
4.7212711632
 20
5.2683880746
 30
0.0
 10
4.7201752826
 20
5.2682580436
 30
0.0
 10
4.7192466911
 20
5.2681285767
 30
0.0
 10
4.7184858821
 20
5.2679998205
 30
0.0
 10
4.7180366403
 20
5.2679037043
 30
0.0
 10
4.7178411393
 20
5.2678530115
 30
0.0
  0
SPLINE
  5
439
100
AcDbEntity
  8
0
100
AcDbSpline
 62
7
  6
CONTINUOUS
 70
0
 71
3
 72
63
 73
59
 74
0
 42
0.0000001
 43
0.0000001
 44
0.0000000001
 40
0.0
 40
0.0
 40
0.0
 40
0.0
 40
0.000254191
 40
0.000350766
 40
0.0004629182
 40
0.0007361972
 40
0.00107713
 40
0.0014871617
 40
0.0019670922
 40
0.0025173986
 40
0.0038301623
 40
0.0054264967
 40
0.0073062185
 40
0.0094687628
 40
0.0146389989
 40
0.0209271831
 40
0.0283195226
 40
0.0367999916
 40
0.0463488591
 40
0.0569449941
 40
0.0685635476
 40
0.0811783318
 40
0.0947600522
 40
0.1092776067
 40
0.1246976464
 40
0.1409844075
 40
0.1760067516
 40
0.2140220421
 40
0.2546798839
 40
0.29760549
 40
0.3424031851
 40
0.3886599363
 40
0.4359493048
 40
0.4838353205
 40
0.5318764113
 40
0.5796297197
 40
0.6266548434
 40
0.6725182897
 40
0.7167971932
 40
0.7590833553
 40
0.7989870163
 40
0.8361403691
 40
0.8702010379
 40
0.9008552811
 40
0.9278208138
 40
0.9398413365
 40
0.9508497898
 40
0.9608205509
 40
0.9697310668
 40
0.9775611236
 40
0.9842929403
 40
0.9899121843
 40
0.9923005828
 40
0.9944067565
 40
0.9962299757
 40
0.9977697304
 40
0.9990259738
 40
1.0
 40
1.0
 40
1.0
 40
1.0
 10
5.3262306137
 20
5.3483209831
 30
0.0
 10
5.3262306137
 20
5.3482676685
 30
0.0
 10
5.3261668895
 20
5.3482045939
 30
0.0
 10
5.3260866188
 20
5.3481542341
 30
0.0
 10
5.3259963419
 20
5.3481070763
 30
0.0
 10
5.3258549326
 20
5.3480506526
 30
0.0
 10
5.3256498646
 20
5.3479857919
 30
0.0
 10
5.3253999572
 20
5.3479208495
 30
0.0
 10
5.3251049334
 20
5.3478556217
 30
0.0
 10
5.3246222785
 20
5.3477629665
 30
0.0
 10
5.3239053715
 20
5.3476499672
 30
0.0
 10
5.3229093074
 20
5.3475202255
 30
0.0
 10
5.3217337848
 20
5.3473900138
 30
0.0
 10
5.319810396
 20
5.3472047036
 30
0.0
 10
5.3169622585
 20
5.3469790026
 30
0.0
 10
5.313016911
 20
5.3467197144
 30
0.0
 10
5.3083760485
 20
5.3464594743
 30
0.0
 10
5.3030504127
 20
5.3461984731
 30
0.0
 10
5.2970521182
 20
5.3459369742
 30
0.0
 10
5.2903950925
 20
5.3456751459
 30
0.0
 10
5.2830945752
 20
5.345413042
 30
0.0
 10
5.2751674922
 20
5.3451507611
 30
0.0
 10
5.2666320643
 20
5.3448883234
 30
0.0
 10
5.2575080007
 20
5.3446257727
 30
0.0
 10
5.2478163586
 20
5.3443631253
 30
0.0
 10
5.2338250454
 20
5.3440040764
 30
0.0
 10
5.2150952292
 20
5.3435587765
 30
0.0
 10
5.1912542188
 20
5.3430358405
 30
0.0
 10
5.1657551999
 20
5.342512458
 30
0.0
 10
5.1388333508
 20
5.3419887256
 30
0.0
 10
5.1107369673
 20
5.3414647516
 30
0.0
 10
5.081725169
 20
5.3409406062
 30
0.0
 10
5.0520655188
 20
5.3404163497
 30
0.0
 10
5.0220315611
 20
5.3398920321
 30
0.0
 10
4.9919002812
 20
5.3393676989
 30
0.0
 10
4.9619495934
 20
5.3388433949
 30
0.0
 10
4.9324557188
 20
5.3383191662
 30
0.0
 10
4.9036906884
 20
5.3377950654
 30
0.0
 10
4.875919784
 20
5.3372711555
 30
0.0
 10
4.8493991237
 20
5.3367475152
 30
0.0
 10
4.8243732896
 20
5.3362242543
 30
0.0
 10
4.801073078
 20
5.3357015095
 30
0.0
 10
4.779713364
 20
5.3351795416
 30
0.0
 10
4.7604911423
 20
5.3346585562
 30
0.0
 10
4.7458914583
 20
5.3342103813
 30
0.0
 10
4.7354117961
 20
5.3338467088
 30
0.0
 10
4.7284953048
 20
5.3335847491
 30
0.0
 10
4.72223161
 20
5.3333231092
 30
0.0
 10
4.7166351841
 20
5.3330618786
 30
0.0
 10
4.7117188864
 20
5.332801319
 30
0.0
 10
4.7074939828
 20
5.3325415328
 30
0.0
 10
4.7044106045
 20
5.3323159429
 30
0.0
 10
4.7022973152
 20
5.3321314434
 30
0.0
 10
4.7009786092
 20
5.3320009322
 30
0.0
 10
4.6998388589
 20
5.3318707942
 30
0.0
 10
4.6988785835
 20
5.3317412878
 30
0.0
 10
4.6980983225
 20
5.3316125605
 30
0.0
 10
4.69764021
 20
5.331516006
 30
0.0
 10
4.6974424528
 20
5.3314647396
 30
0.0
  0
SPLINE
  5
43A
100
AcDbEntity
  8
0
100
AcDbSpline
 62
7
  6
CONTINUOUS
 70
0
 71
3
 72
63
 73
59
 74
0
 42
0.0000001
 43
0.0000001
 44
0.0000000001
 40
0.0
 40
0.0
 40
0.0
 40
0.0
 40
0.000254191
 40
0.000350766
 40
0.0004629182
 40
0.0007361972
 40
0.00107713
 40
0.0014871617
 40
0.0019670922
 40
0.0025173986
 40
0.0038301623
 40
0.0054264967
 40
0.0073062185
 40
0.0094687628
 40
0.0146389989
 40
0.0209271831
 40
0.0283195226
 40
0.0367999916
 40
0.0463488591
 40
0.0569449941
 40
0.0685635476
 40
0.0811783318
 40
0.0947600522
 40
0.1092776067
 40
0.1246976464
 40
0.1409844075
 40
0.1760067516
 40
0.2140220421
 40
0.2546798839
 40
0.29760549
 40
0.3424031851
 40
0.3886599363
 40
0.4359493048
 40
0.4838353205
 40
0.5318764113
 40
0.5796297197
 40
0.6266548434
 40
0.6725182897
 40
0.7167971932
 40
0.7590833553
 40
0.7989870163
 40
0.8361403691
 40
0.8702010379
 40
0.9008552811
 40
0.9278208138
 40
0.9398413365
 40
0.9508497898
 40
0.9608205509
 40
0.9697310668
 40
0.9775611236
 40
0.9842929403
 40
0.9899121843
 40
0.9923005828
 40
0.9944067565
 40
0.9962299757
 40
0.9977697304
 40
0.9990259738
 40
1.0
 40
1.0
 40
1.0
 40
1.0
 10
5.3262306137
 20
5.3138709831
 30
0.0
 10
5.3262306137
 20
5.3138176685
 30
0.0
 10
5.3261668895
 20
5.3137545939
 30
0.0
 10
5.3260866188
 20
5.3137042341
 30
0.0
 10
5.3259963419
 20
5.3136570763
 30
0.0
 10
5.3258549326
 20
5.3136006526
 30
0.0
 10
5.3256498646
 20
5.3135357919
 30
0.0
 10
5.3253999572
 20
5.3134708495
 30
0.0
 10
5.3251049334
 20
5.3134056217
 30
0.0
 10
5.3246222785
 20
5.3133129665
 30
0.0
 10
5.3239053715
 20
5.3131999672
 30
0.0
 10
5.3229093074
 20
5.3130702255
 30
0.0
 10
5.3217337848
 20
5.3129400138
 30
0.0
 10
5.319810396
 20
5.3127547036
 30
0.0
 10
5.3169622585
 20
5.3125290026
 30
0.0
 10
5.313016911
 20
5.3122697144
 30
0.0
 10
5.3083760485
 20
5.3120094743
 30
0.0
 10
5.3030504127
 20
5.3117484731
 30
0.0
 10
5.2970521182
 20
5.3114869742
 30
0.0
 10
5.2903950925
 20
5.3112251459
 30
0.0
 10
5.2830945752
 20
5.310963042
 30
0.0
 10
5.2751674922
 20
5.3107007611
 30
0.0
 10
5.2666320643
 20
5.3104383234
 30
0.0
 10
5.2575080007
 20
5.3101757727
 30
0.0
 10
5.2478163586
 20
5.3099131253
 30
0.0
 10
5.2338250454
 20
5.3095540764
 30
0.0
 10
5.2150952292
 20
5.3091087765
 30
0.0
 10
5.1912542188
 20
5.3085858405
 30
0.0
 10
5.1657551999
 20
5.308062458
 30
0.0
 10
5.1388333508
 20
5.3075387256
 30
0.0
 10
5.1107369673
 20
5.3070147516
 30
0.0
 10
5.081725169
 20
5.3064906062
 30
0.0
 10
5.0520655188
 20
5.3059663497
 30
0.0
 10
5.0220315611
 20
5.3054420321
 30
0.0
 10
4.9919002812
 20
5.3049176989
 30
0.0
 10
4.9619495934
 20
5.3043933948
 30
0.0
 10
4.9324557188
 20
5.3038691662
 30
0.0
 10
4.9036906884
 20
5.3033450654
 30
0.0
 10
4.875919784
 20
5.3028211555
 30
0.0
 10
4.8493991237
 20
5.3022975152
 30
0.0
 10
4.8243732896
 20
5.3017742543
 30
0.0
 10
4.801073078
 20
5.3012515095
 30
0.0
 10
4.779713364
 20
5.3007295416
 30
0.0
 10
4.7604911423
 20
5.3002085562
 30
0.0
 10
4.7458914583
 20
5.2997603813
 30
0.0
 10
4.7354117961
 20
5.2993967088
 30
0.0
 10
4.7284953048
 20
5.2991347491
 30
0.0
 10
4.72223161
 20
5.2988731092
 30
0.0
 10
4.7166351841
 20
5.2986118786
 30
0.0
 10
4.7117188864
 20
5.298351319
 30
0.0
 10
4.7074939828
 20
5.2980915328
 30
0.0
 10
4.7044106045
 20
5.2978659429
 30
0.0
 10
4.7022973152
 20
5.2976814434
 30
0.0
 10
4.7009786092
 20
5.2975509322
 30
0.0
 10
4.6998388589
 20
5.2974207942
 30
0.0
 10
4.6988785835
 20
5.2972912878
 30
0.0
 10
4.6980983225
 20
5.2971625605
 30
0.0
 10
4.69764021
 20
5.297066006
 30
0.0
 10
4.6974424528
 20
5.2970147396
 30
0.0
  0
SPLINE
  5
43B
100
AcDbEntity
  8
0
100
AcDbSpline
 62
7
  6
CONTINUOUS
 70
0
 71
3
 72
63
 73
59
 74
0
 42
0.0000001
 43
0.0000001
 44
0.0000000001
 40
0.0
 40
0.0
 40
0.0
 40
0.0
 40
0.0001173492
 40
0.0001890304
 40
0.0002731518
 40
0.0004847725
 40
0.0007601007
 40
0.0011023933
 40
0.0015132508
 40
0.0019935417
 40
0.0025437712
 40
0.0038550833
 40
0.0054485027
 40
0.0073243562
 40
0.009482256
 40
0.014639868
 40
0.020911656
 40
0.028284569
 40
0.036741821
 40
0.0462650728
 40
0.0568320451
 40
0.0684192017
 40
0.0809997321
 40
0.0945449038
 40
0.1090238707
 40
0.1406475248
 40
0.1755804633
 40
0.2135019203
 40
0.2540635497
 40
0.2968926251
 40
0.341595572
 40
0.3877614126
 40
0.4349658866
 40
0.4827750865
 40
0.530749549
 40
0.5784483813
 40
0.6254329957
 40
0.6712716301
 40
0.715542871
 40
0.7578399146
 40
0.7977740789
 40
0.8349783958
 40
0.8691111353
 40
0.8998587546
 40
0.9269391232
 40
0.939025186
 40
0.9501041791
 40
0.9601510025
 40
0.9691423615
 40
0.9770585754
 40
0.9838812827
 40
0.9895962723
 40
0.9920345306
 40
0.9941915342
 40
0.9960666547
 40
0.9976595664
 40
0.9989703572
 40
1.0
 40
1.0
 40
1.0
 40
1.0
 10
5.3058804978
 20
5.319133851
 30
0.0
 10
5.3058805032
 20
5.3191108307
 30
0.0
 10
5.3058665319
 20
5.3190737141
 30
0.0
 10
5.3058320987
 20
5.3190326723
 30
0.0
 10
5.3057774599
 20
5.3189851668
 30
0.0
 10
5.3056802049
 20
5.3189282351
 30
0.0
 10
5.3055306562
 20
5.3188638528
 30
0.0
 10
5.3053393405
 20
5.3187992276
 30
0.0
 10
5.3051061793
 20
5.3187343106
 30
0.0
 10
5.3048309639
 20
5.3186692022
 30
0.0
 10
5.3043809262
 20
5.3185767185
 30
0.0
 10
5.3037124404
 20
5.3184638987
 30
0.0
 10
5.3027835668
 20
5.3183343248
 30
0.0
 10
5.301687311
 20
5.3182042996
 30
0.0
 10
5.29989372
 20
5.31801929
 30
0.0
 10
5.2972376738
 20
5.3177939004
 30
0.0
 10
5.2935582801
 20
5.31753499
 30
0.0
 10
5.289230295
 20
5.3172751639
 30
0.0
 10
5.2842635461
 20
5.3170145228
 30
0.0
 10
5.2786694844
 20
5.3167534441
 30
0.0
 10
5.2724608553
 20
5.316491984
 30
0.0
 10
5.2656520117
 20
5.3162302902
 30
0.0
 10
5.2582585513
 20
5.3159683971
 30
0.0
 10
5.2502974846
 20
5.3157063465
 30
0.0
 10
5.2386019847
 20
5.3153461223
 30
0.0
 10
5.2227115568
 20
5.3149002614
 30
0.0
 10
5.2022228382
 20
5.3143787635
 30
0.0
 10
5.1799802625
 20
5.3138566427
 30
0.0
 10
5.1561883273
 20
5.3133340338
 30
0.0
 10
5.1310657806
 20
5.3128110884
 30
0.0
 10
5.1048436407
 20
5.3122878977
 30
0.0
 10
5.077763023
 20
5.3117645363
 30
0.0
 10
5.0500729467
 20
5.3112410629
 30
0.0
 10
5.0220280141
 20
5.3107175277
 30
0.0
 10
4.9938860873
 20
5.310193976
 30
0.0
 10
4.965905946
 20
5.3096704522
 30
0.0
 10
4.9383448603
 20
5.3091470021
 30
0.0
 10
4.9114562822
 20
5.3086236774
 30
0.0
 10
4.8854874348
 20
5.3081005402
 30
0.0
 10
4.860677099
 20
5.307577668
 30
0.0
 10
4.837253388
 20
5.307055169
 30
0.0
 10
4.8154316709
 20
5.306533177
 30
0.0
 10
4.7954126007
 20
5.3060119464
 30
0.0
 10
4.7773802475
 20
5.3054916811
 30
0.0
 10
4.763672533
 20
5.3050442286
 30
0.0
 10
4.7538226176
 20
5.3046812376
 30
0.0
 10
4.7473127211
 20
5.3044196346
 30
0.0
 10
4.7414104284
 20
5.3041583654
 30
0.0
 10
4.7361292288
 20
5.3038974628
 30
0.0
 10
4.7314813179
 20
5.3036372289
 30
0.0
 10
4.7274772444
 20
5.3033777278
 30
0.0
 10
4.7245479413
 20
5.303152491
 30
0.0
 10
4.7225337461
 20
5.3029684646
 30
0.0
 10
4.7212711329
 20
5.3028380786
 30
0.0
 10
4.7201753189
 20
5.3027080393
 30
0.0
 10
4.7192467314
 20
5.3025785621
 30
0.0
 10
4.718485865
 20
5.3024498236
 30
0.0
 10
4.7180365588
 20
5.3023537128
 30
0.0
 10
4.717841042
 20
5.3023030114
 30
0.0
  0
SPLINE
  5
43C
100
AcDbEntity
  8
0
100
AcDbSpline
 62
7
  6
CONTINUOUS
 70
0
 71
3
 72
63
 73
59
 74
0
 42
0.0000001
 43
0.0000001
 44
0.0000000001
 40
0.0
 40
0.0
 40
0.0
 40
0.0
 40
0.000254191
 40
0.000350766
 40
0.0004629182
 40
0.0007361972
 40
0.00107713
 40
0.0014871617
 40
0.0019670922
 40
0.0025173986
 40
0.0038301623
 40
0.0054264967
 40
0.0073062185
 40
0.0094687628
 40
0.0146389989
 40
0.0209271831
 40
0.0283195226
 40
0.0367999916
 40
0.0463488591
 40
0.0569449941
 40
0.0685635476
 40
0.0811783318
 40
0.0947600522
 40
0.1092776067
 40
0.1246976464
 40
0.1409844075
 40
0.1760067516
 40
0.2140220421
 40
0.2546798839
 40
0.29760549
 40
0.3424031851
 40
0.3886599363
 40
0.4359493048
 40
0.4838353205
 40
0.5318764113
 40
0.5796297197
 40
0.6266548434
 40
0.6725182897
 40
0.7167971932
 40
0.7590833553
 40
0.7989870163
 40
0.8361403691
 40
0.8702010379
 40
0.9008552811
 40
0.9278208138
 40
0.9398413365
 40
0.9508497898
 40
0.9608205509
 40
0.9697310668
 40
0.9775611236
 40
0.9842929403
 40
0.9899121843
 40
0.9923005828
 40
0.9944067565
 40
0.9962299757
 40
0.9977697304
 40
0.9990259738
 40
1.0
 40
1.0
 40
1.0
 40
1.0
 10
5.3262306137
 20
5.2794209831
 30
0.0
 10
5.3262306137
 20
5.2793676685
 30
0.0
 10
5.3261668895
 20
5.2793045939
 30
0.0
 10
5.3260866188
 20
5.2792542341
 30
0.0
 10
5.3259963419
 20
5.2792070763
 30
0.0
 10
5.3258549326
 20
5.2791506526
 30
0.0
 10
5.3256498646
 20
5.2790857919
 30
0.0
 10
5.3253999572
 20
5.2790208495
 30
0.0
 10
5.3251049334
 20
5.2789556217
 30
0.0
 10
5.3246222785
 20
5.2788629665
 30
0.0
 10
5.3239053715
 20
5.2787499672
 30
0.0
 10
5.3229093074
 20
5.2786202255
 30
0.0
 10
5.3217337848
 20
5.2784900138
 30
0.0
 10
5.319810396
 20
5.2783047036
 30
0.0
 10
5.3169622585
 20
5.2780790026
 30
0.0
 10
5.313016911
 20
5.2778197144
 30
0.0
 10
5.3083760485
 20
5.2775594743
 30
0.0
 10
5.3030504127
 20
5.2772984731
 30
0.0
 10
5.2970521182
 20
5.2770369742
 30
0.0
 10
5.2903950925
 20
5.2767751459
 30
0.0
 10
5.2830945752
 20
5.276513042
 30
0.0
 10
5.2751674922
 20
5.2762507611
 30
0.0
 10
5.2666320643
 20
5.2759883234
 30
0.0
 10
5.2575080007
 20
5.2757257727
 30
0.0
 10
5.2478163586
 20
5.2754631253
 30
0.0
 10
5.2338250454
 20
5.2751040764
 30
0.0
 10
5.2150952292
 20
5.2746587765
 30
0.0
 10
5.1912542188
 20
5.2741358405
 30
0.0
 10
5.1657551999
 20
5.273612458
 30
0.0
 10
5.1388333508
 20
5.2730887256
 30
0.0
 10
5.1107369673
 20
5.2725647516
 30
0.0
 10
5.081725169
 20
5.2720406062
 30
0.0
 10
5.0520655188
 20
5.2715163497
 30
0.0
 10
5.0220315611
 20
5.2709920321
 30
0.0
 10
4.9919002812
 20
5.2704676989
 30
0.0
 10
4.9619495934
 20
5.2699433948
 30
0.0
 10
4.9324557188
 20
5.2694191662
 30
0.0
 10
4.9036906884
 20
5.2688950654
 30
0.0
 10
4.875919784
 20
5.2683711555
 30
0.0
 10
4.8493991237
 20
5.2678475152
 30
0.0
 10
4.8243732896
 20
5.2673242543
 30
0.0
 10
4.801073078
 20
5.2668015095
 30
0.0
 10
4.779713364
 20
5.2662795416
 30
0.0
 10
4.7604911423
 20
5.2657585562
 30
0.0
 10
4.7458914583
 20
5.2653103813
 30
0.0
 10
4.7354117961
 20
5.2649467088
 30
0.0
 10
4.7284953048
 20
5.2646847491
 30
0.0
 10
4.72223161
 20
5.2644231092
 30
0.0
 10
4.7166351841
 20
5.2641618786
 30
0.0
 10
4.7117188864
 20
5.263901319
 30
0.0
 10
4.7074939828
 20
5.2636415328
 30
0.0
 10
4.7044106045
 20
5.2634159429
 30
0.0
 10
4.7022973152
 20
5.2632314434
 30
0.0
 10
4.7009786092
 20
5.2631009322
 30
0.0
 10
4.6998388589
 20
5.2629707942
 30
0.0
 10
4.6988785835
 20
5.2628412878
 30
0.0
 10
4.6980983225
 20
5.2627125605
 30
0.0
 10
4.69764021
 20
5.262616006
 30
0.0
 10
4.6974424528
 20
5.2625647396
 30
0.0
  0
SPLINE
  5
43D
100
AcDbEntity
  8
0
100
AcDbSpline
 62
7
  6
CONTINUOUS
 70
0
 71
3
 72
63
 73
59
 74
0
 42
0.0000001
 43
0.0000001
 44
0.0000000001
 40
0.0
 40
0.0
 40
0.0
 40
0.0
 40
0.0001173722
 40
0.000189081
 40
0.0002732352
 40
0.0004849145
 40
0.0007602539
 40
0.0011024851
 40
0.0015132474
 40
0.0019934642
 40
0.0025436892
 40
0.0038551512
 40
0.0054487234
 40
0.0073244857
 40
0.0094821047
 40
0.0146398197
 40
0.0209115499
 40
0.0282843326
 40
0.0367417856
 40
0.0462646856
 40
0.0568319084
 40
0.0684187714
 40
0.0809994505
 40
0.0945445768
 40
0.1090234312
 40
0.1406469649
 40
0.1755799363
 40
0.2135014419
 40
0.2540631422
 40
0.2968922118
 40
0.3415950842
 40
0.3877609312
 40
0.434965393
 40
0.4827746506
 40
0.530749173
 40
0.5784479747
 40
0.6254326366
 40
0.6712712771
 40
0.7155426176
 40
0.7578397862
 40
0.7977739941
 40
0.8349783357
 40
0.8691109653
 40
0.899858566
 40
0.9269390083
 40
0.9390252441
 40
0.9501041873
 40
0.9601509489
 40
0.9691425299
 40
0.9770584593
 40
0.9838815075
 40
0.9895962065
 40
0.9920344486
 40
0.9941916846
 40
0.9960668921
 40
0.9976596413
 40
0.9989702708
 40
1.0
 40
1.0
 40
1.0
 40
1.0
 10
5.3058806463
 20
5.3535838507
 30
0.0
 10
5.3058806431
 20
5.3535608259
 30
0.0
 10
5.3058666433
 20
5.3535237072
 30
0.0
 10
5.3058321808
 20
5.3534826702
 30
0.0
 10
5.305777508
 20
5.3534351683
 30
0.0
 10
5.3056802279
 20
5.3533782428
 30
0.0
 10
5.3055306767
 20
5.3533138624
 30
0.0
 10
5.3053393924
 20
5.3532492344
 30
0.0
 10
5.3051062781
 20
5.3531843169
 30
0.0
 10
5.3048310976
 20
5.353119209
 30
0.0
 10
5.304381045
 20
5.3530267269
 30
0.0
 10
5.3037124982
 20
5.3529139169
 30
0.0
 10
5.3027835818
 20
5.3527843501
 30
0.0
 10
5.3016873702
 20
5.3526543182
 30
0.0
 10
5.299893835
 20
5.3524692792
 30
0.0
 10
5.2972378318
 20
5.3522439218
 30
0.0
 10
5.2935584556
 20
5.351985
 30
0.0
 10
5.2892304677
 20
5.3517251682
 30
0.0
 10
5.2842637728
 20
5.3514645453
 30
0.0
 10
5.2786696922
 20
5.3512034415
 30
0.0
 10
5.2724611389
 20
5.3509420053
 30
0.0
 10
5.2656522747
 20
5.3506802924
 30
0.0
 10
5.2582588506
 20
5.3504184109
 30
0.0
 10
5.2502977851
 20
5.3501563558
 30
0.0
 10
5.2386023388
 20
5.349796131
 30
0.0
 10
5.2227119487
 20
5.3493502697
 30
0.0
 10
5.2022232358
 20
5.3488287717
 30
0.0
 10
5.1799806281
 20
5.3483066512
 30
0.0
 10
5.1561886684
 20
5.3477840424
 30
0.0
 10
5.1310661212
 20
5.3472610962
 30
0.0
 10
5.1048439934
 20
5.3467379048
 30
0.0
 10
5.0777633889
 20
5.3462145429
 30
0.0
 10
5.0500732999
 20
5.3456910692
 30
0.0
 10
5.022028344
 20
5.3451675339
 30
0.0
 10
4.9938863976
 20
5.344643982
 30
0.0
 10
4.9659062386
 20
5.3441204576
 30
0.0
 10
4.9383451458
 20
5.343597007
 30
0.0
 10
4.9114565352
 20
5.3430736818
 30
0.0
 10
4.8854876401
 20
5.3425505443
 30
0.0
 10
4.8606772493
 20
5.3420276723
 30
0.0
 10
4.8372534984
 20
5.3415051732
 30
0.0
 10
4.8154317874
 20
5.340983181
 30
0.0
 10
4.7954127357
 20
5.3404619488
 30
0.0
 10
4.7773803915
 20
5.3399416836
 30
0.0
 10
4.7636726312
 20
5.3394942269
 30
0.0
 10
4.753822676
 20
5.3391312424
 30
0.0
 10
4.7473127669
 20
5.3388696382
 30
0.0
 10
4.7414104525
 20
5.338608359
 30
0.0
 10
4.7361292757
 20
5.3383474778
 30
0.0
 10
4.7314813115
 20
5.3380872117
 30
0.0
 10
4.7274772812
 20
5.3378277472
 30
0.0
 10
4.7245479727
 20
5.3376024891
 30
0.0
 10
4.7225337927
 20
5.3374184561
 30
0.0
 10
4.7212711183
 20
5.3372880829
 30
0.0
 10
4.7201752723
 20
5.3371580502
 30
0.0
 10
4.7192467325
 20
5.337028565
 30
0.0
 10
4.7184859156
 20
5.3368998115
 30
0.0
 10
4.7180366246
 20
5.3368037042
 30
0.0
 10
4.717841088
 20
5.3367530116
 30
0.0
  0
SPLINE
  5
43E
100
AcDbEntity
  8
0
100
AcDbSpline
 62
7
  6
CONTINUOUS
 70
0
 71
3
 72
63
 73
59
 74
0
 42
0.0000001
 43
0.0000001
 44
0.0000000001
 40
0.0
 40
0.0
 40
0.0
 40
0.0
 40
0.000254191
 40
0.000350766
 40
0.0004629182
 40
0.0007361972
 40
0.00107713
 40
0.0014871617
 40
0.0019670922
 40
0.0025173986
 40
0.0038301623
 40
0.0054264967
 40
0.0073062185
 40
0.0094687628
 40
0.0146389989
 40
0.0209271831
 40
0.0283195226
 40
0.0367999916
 40
0.0463488591
 40
0.0569449941
 40
0.0685635476
 40
0.0811783318
 40
0.0947600522
 40
0.1092776067
 40
0.1246976464
 40
0.1409844075
 40
0.1760067516
 40
0.2140220421
 40
0.2546798839
 40
0.29760549
 40
0.3424031851
 40
0.3886599363
 40
0.4359493048
 40
0.4838353205
 40
0.5318764113
 40
0.5796297197
 40
0.6266548434
 40
0.6725182897
 40
0.7167971932
 40
0.7590833553
 40
0.7989870163
 40
0.8361403691
 40
0.8702010379
 40
0.9008552811
 40
0.9278208138
 40
0.9398413365
 40
0.9508497898
 40
0.9608205509
 40
0.9697310668
 40
0.9775611236
 40
0.9842929403
 40
0.9899121843
 40
0.9923005828
 40
0.9944067565
 40
0.9962299757
 40
0.9977697304
 40
0.9990259738
 40
1.0
 40
1.0
 40
1.0
 40
1.0
 10
5.3262306137
 20
5.2449709831
 30
0.0
 10
5.3262306137
 20
5.2449176685
 30
0.0
 10
5.3261668895
 20
5.2448545939
 30
0.0
 10
5.3260866188
 20
5.2448042341
 30
0.0
 10
5.3259963419
 20
5.2447570763
 30
0.0
 10
5.3258549326
 20
5.2447006526
 30
0.0
 10
5.3256498646
 20
5.2446357919
 30
0.0
 10
5.3253999572
 20
5.2445708495
 30
0.0
 10
5.3251049334
 20
5.2445056217
 30
0.0
 10
5.3246222785
 20
5.2444129665
 30
0.0
 10
5.3239053715
 20
5.2442999672
 30
0.0
 10
5.3229093074
 20
5.2441702255
 30
0.0
 10
5.3217337848
 20
5.2440400138
 30
0.0
 10
5.319810396
 20
5.2438547036
 30
0.0
 10
5.3169622585
 20
5.2436290026
 30
0.0
 10
5.313016911
 20
5.2433697144
 30
0.0
 10
5.3083760485
 20
5.2431094743
 30
0.0
 10
5.3030504127
 20
5.2428484731
 30
0.0
 10
5.2970521182
 20
5.2425869742
 30
0.0
 10
5.2903950925
 20
5.2423251459
 30
0.0
 10
5.2830945752
 20
5.242063042
 30
0.0
 10
5.2751674922
 20
5.2418007611
 30
0.0
 10
5.2666320643
 20
5.2415383234
 30
0.0
 10
5.2575080007
 20
5.2412757727
 30
0.0
 10
5.2478163586
 20
5.2410131253
 30
0.0
 10
5.2338250454
 20
5.2406540764
 30
0.0
 10
5.2150952292
 20
5.2402087765
 30
0.0
 10
5.1912542188
 20
5.2396858405
 30
0.0
 10
5.1657551999
 20
5.239162458
 30
0.0
 10
5.1388333508
 20
5.2386387256
 30
0.0
 10
5.1107369673
 20
5.2381147516
 30
0.0
 10
5.081725169
 20
5.2375906062
 30
0.0
 10
5.0520655188
 20
5.2370663497
 30
0.0
 10
5.0220315611
 20
5.2365420321
 30
0.0
 10
4.9919002812
 20
5.2360176989
 30
0.0
 10
4.9619495934
 20
5.2354933948
 30
0.0
 10
4.9324557188
 20
5.2349691662
 30
0.0
 10
4.9036906884
 20
5.2344450654
 30
0.0
 10
4.875919784
 20
5.2339211555
 30
0.0
 10
4.8493991237
 20
5.2333975152
 30
0.0
 10
4.8243732896
 20
5.2328742543
 30
0.0
 10
4.801073078
 20
5.2323515095
 30
0.0
 10
4.779713364
 20
5.2318295416
 30
0.0
 10
4.7604911423
 20
5.2313085562
 30
0.0
 10
4.7458914583
 20
5.2308603813
 30
0.0
 10
4.7354117961
 20
5.2304967088
 30
0.0
 10
4.7284953048
 20
5.2302347491
 30
0.0
 10
4.72223161
 20
5.2299731092
 30
0.0
 10
4.7166351841
 20
5.2297118786
 30
0.0
 10
4.7117188864
 20
5.229451319
 30
0.0
 10
4.7074939828
 20
5.2291915328
 30
0.0
 10
4.7044106045
 20
5.2289659429
 30
0.0
 10
4.7022973152
 20
5.2287814434
 30
0.0
 10
4.7009786092
 20
5.2286509322
 30
0.0
 10
4.6998388589
 20
5.2285207942
 30
0.0
 10
4.6988785835
 20
5.2283912878
 30
0.0
 10
4.6980983225
 20
5.2282625605
 30
0.0
 10
4.69764021
 20
5.228166006
 30
0.0
 10
4.6974424528
 20
5.2281147396
 30
0.0
  0
SPLINE
  5
43F
100
AcDbEntity
  8
0
100
AcDbSpline
 62
7
  6
CONTINUOUS
 70
0
 71
3
 72
63
 73
59
 74
0
 42
0.0000001
 43
0.0000001
 44
0.0000000001
 40
0.0
 40
0.0
 40
0.0
 40
0.0
 40
0.000254191
 40
0.000350766
 40
0.0004629182
 40
0.0007361972
 40
0.00107713
 40
0.0014871617
 40
0.0019670922
 40
0.0025173986
 40
0.0038301623
 40
0.0054264967
 40
0.0073062185
 40
0.0094687628
 40
0.0146389989
 40
0.0209271831
 40
0.0283195226
 40
0.0367999916
 40
0.0463488591
 40
0.0569449941
 40
0.0685635476
 40
0.0811783318
 40
0.0947600522
 40
0.1092776067
 40
0.1246976464
 40
0.1409844075
 40
0.1760067516
 40
0.2140220421
 40
0.2546798839
 40
0.29760549
 40
0.3424031851
 40
0.3886599363
 40
0.4359493048
 40
0.4838353205
 40
0.5318764113
 40
0.5796297197
 40
0.6266548434
 40
0.6725182897
 40
0.7167971932
 40
0.7590833553
 40
0.7989870163
 40
0.8361403691
 40
0.8702010379
 40
0.9008552811
 40
0.9278208138
 40
0.9398413365
 40
0.9508497898
 40
0.9608205509
 40
0.9697310668
 40
0.9775611236
 40
0.9842929403
 40
0.9899121843
 40
0.9923005828
 40
0.9944067565
 40
0.9962299757
 40
0.9977697304
 40
0.9990259738
 40
1.0
 40
1.0
 40
1.0
 40
1.0
 10
5.3262306137
 20
5.2105209831
 30
0.0
 10
5.3262306137
 20
5.2104676685
 30
0.0
 10
5.3261668895
 20
5.2104045939
 30
0.0
 10
5.3260866188
 20
5.2103542341
 30
0.0
 10
5.3259963419
 20
5.2103070763
 30
0.0
 10
5.3258549326
 20
5.2102506526
 30
0.0
 10
5.3256498646
 20
5.2101857919
 30
0.0
 10
5.3253999572
 20
5.2101208495
 30
0.0
 10
5.3251049334
 20
5.2100556217
 30
0.0
 10
5.3246222785
 20
5.2099629665
 30
0.0
 10
5.3239053715
 20
5.2098499672
 30
0.0
 10
5.3229093074
 20
5.2097202255
 30
0.0
 10
5.3217337848
 20
5.2095900138
 30
0.0
 10
5.319810396
 20
5.2094047036
 30
0.0
 10
5.3169622585
 20
5.2091790026
 30
0.0
 10
5.313016911
 20
5.2089197144
 30
0.0
 10
5.3083760485
 20
5.2086594743
 30
0.0
 10
5.3030504127
 20
5.2083984731
 30
0.0
 10
5.2970521182
 20
5.2081369742
 30
0.0
 10
5.2903950925
 20
5.2078751459
 30
0.0
 10
5.2830945752
 20
5.207613042
 30
0.0
 10
5.2751674922
 20
5.2073507611
 30
0.0
 10
5.2666320643
 20
5.2070883234
 30
0.0
 10
5.2575080007
 20
5.2068257727
 30
0.0
 10
5.2478163586
 20
5.2065631253
 30
0.0
 10
5.2338250454
 20
5.2062040764
 30
0.0
 10
5.2150952292
 20
5.2057587765
 30
0.0
 10
5.1912542188
 20
5.2052358405
 30
0.0
 10
5.1657551999
 20
5.204712458
 30
0.0
 10
5.1388333508
 20
5.2041887256
 30
0.0
 10
5.1107369673
 20
5.2036647516
 30
0.0
 10
5.081725169
 20
5.2031406062
 30
0.0
 10
5.0520655188
 20
5.2026163497
 30
0.0
 10
5.0220315611
 20
5.2020920321
 30
0.0
 10
4.9919002812
 20
5.2015676989
 30
0.0
 10
4.9619495934
 20
5.2010433948
 30
0.0
 10
4.9324557188
 20
5.2005191662
 30
0.0
 10
4.9036906884
 20
5.1999950654
 30
0.0
 10
4.875919784
 20
5.1994711555
 30
0.0
 10
4.8493991237
 20
5.1989475152
 30
0.0
 10
4.8243732896
 20
5.1984242543
 30
0.0
 10
4.801073078
 20
5.1979015095
 30
0.0
 10
4.779713364
 20
5.1973795416
 30
0.0
 10
4.7604911423
 20
5.1968585562
 30
0.0
 10
4.7458914583
 20
5.1964103813
 30
0.0
 10
4.7354117961
 20
5.1960467088
 30
0.0
 10
4.7284953048
 20
5.1957847491
 30
0.0
 10
4.72223161
 20
5.1955231092
 30
0.0
 10
4.7166351841
 20
5.1952618786
 30
0.0
 10
4.7117188864
 20
5.195001319
 30
0.0
 10
4.7074939828
 20
5.1947415328
 30
0.0
 10
4.7044106045
 20
5.1945159429
 30
0.0
 10
4.7022973152
 20
5.1943314434
 30
0.0
 10
4.7009786092
 20
5.1942009322
 30
0.0
 10
4.6998388589
 20
5.1940707942
 30
0.0
 10
4.6988785835
 20
5.1939412878
 30
0.0
 10
4.6980983225
 20
5.1938125605
 30
0.0
 10
4.69764021
 20
5.193716006
 30
0.0
 10
4.6974424528
 20
5.1936647396
 30
0.0
  0
SPLINE
  5
440
100
AcDbEntity
  8
0
100
AcDbSpline
 62
7
  6
CONTINUOUS
 70
0
 71
3
 72
63
 73
59
 74
0
 42
0.0000001
 43
0.0000001
 44
0.0000000001
 40
0.0
 40
0.0
 40
0.0
 40
0.0
 40
0.000254191
 40
0.000350766
 40
0.0004629182
 40
0.0007361972
 40
0.00107713
 40
0.0014871617
 40
0.0019670922
 40
0.0025173986
 40
0.0038301623
 40
0.0054264967
 40
0.0073062185
 40
0.0094687628
 40
0.0146389989
 40
0.0209271831
 40
0.0283195226
 40
0.0367999916
 40
0.0463488591
 40
0.0569449941
 40
0.0685635476
 40
0.0811783318
 40
0.0947600522
 40
0.1092776067
 40
0.1246976464
 40
0.1409844075
 40
0.1760067516
 40
0.2140220421
 40
0.2546798839
 40
0.29760549
 40
0.3424031851
 40
0.3886599363
 40
0.4359493048
 40
0.4838353205
 40
0.5318764113
 40
0.5796297197
 40
0.6266548434
 40
0.6725182897
 40
0.7167971932
 40
0.7590833553
 40
0.7989870163
 40
0.8361403691
 40
0.8702010379
 40
0.9008552811
 40
0.9278208138
 40
0.9398413365
 40
0.9508497898
 40
0.9608205509
 40
0.9697310668
 40
0.9775611236
 40
0.9842929403
 40
0.9899121843
 40
0.9923005828
 40
0.9944067565
 40
0.9962299757
 40
0.9977697304
 40
0.9990259738
 40
1.0
 40
1.0
 40
1.0
 40
1.0
 10
5.3262306137
 20
5.1760709831
 30
0.0
 10
5.3262306137
 20
5.1760176685
 30
0.0
 10
5.3261668895
 20
5.1759545939
 30
0.0
 10
5.3260866188
 20
5.1759042341
 30
0.0
 10
5.3259963419
 20
5.1758570763
 30
0.0
 10
5.3258549326
 20
5.1758006526
 30
0.0
 10
5.3256498646
 20
5.1757357919
 30
0.0
 10
5.3253999572
 20
5.1756708495
 30
0.0
 10
5.3251049334
 20
5.1756056217
 30
0.0
 10
5.3246222785
 20
5.1755129665
 30
0.0
 10
5.3239053715
 20
5.1753999672
 30
0.0
 10
5.3229093074
 20
5.1752702255
 30
0.0
 10
5.3217337848
 20
5.1751400138
 30
0.0
 10
5.319810396
 20
5.1749547036
 30
0.0
 10
5.3169622585
 20
5.1747290026
 30
0.0
 10
5.313016911
 20
5.1744697144
 30
0.0
 10
5.3083760485
 20
5.1742094743
 30
0.0
 10
5.3030504127
 20
5.1739484731
 30
0.0
 10
5.2970521182
 20
5.1736869742
 30
0.0
 10
5.2903950925
 20
5.1734251459
 30
0.0
 10
5.2830945752
 20
5.173163042
 30
0.0
 10
5.2751674922
 20
5.1729007611
 30
0.0
 10
5.2666320643
 20
5.1726383234
 30
0.0
 10
5.2575080007
 20
5.1723757727
 30
0.0
 10
5.2478163586
 20
5.1721131253
 30
0.0
 10
5.2338250454
 20
5.1717540764
 30
0.0
 10
5.2150952292
 20
5.1713087765
 30
0.0
 10
5.1912542188
 20
5.1707858405
 30
0.0
 10
5.1657551999
 20
5.170262458
 30
0.0
 10
5.1388333508
 20
5.1697387256
 30
0.0
 10
5.1107369673
 20
5.1692147516
 30
0.0
 10
5.081725169
 20
5.1686906062
 30
0.0
 10
5.0520655188
 20
5.1681663497
 30
0.0
 10
5.0220315611
 20
5.1676420321
 30
0.0
 10
4.9919002812
 20
5.1671176989
 30
0.0
 10
4.9619495934
 20
5.1665933949
 30
0.0
 10
4.9324557188
 20
5.1660691662
 30
0.0
 10
4.9036906884
 20
5.1655450654
 30
0.0
 10
4.875919784
 20
5.1650211555
 30
0.0
 10
4.8493991237
 20
5.1644975152
 30
0.0
 10
4.8243732896
 20
5.1639742543
 30
0.0
 10
4.801073078
 20
5.1634515095
 30
0.0
 10
4.779713364
 20
5.1629295416
 30
0.0
 10
4.7604911423
 20
5.1624085562
 30
0.0
 10
4.7458914583
 20
5.1619603813
 30
0.0
 10
4.7354117961
 20
5.1615967088
 30
0.0
 10
4.7284953048
 20
5.1613347491
 30
0.0
 10
4.72223161
 20
5.1610731092
 30
0.0
 10
4.7166351841
 20
5.1608118786
 30
0.0
 10
4.7117188864
 20
5.160551319
 30
0.0
 10
4.7074939828
 20
5.1602915328
 30
0.0
 10
4.7044106045
 20
5.1600659429
 30
0.0
 10
4.7022973152
 20
5.1598814434
 30
0.0
 10
4.7009786092
 20
5.1597509322
 30
0.0
 10
4.6998388589
 20
5.1596207942
 30
0.0
 10
4.6988785835
 20
5.1594912878
 30
0.0
 10
4.6980983225
 20
5.1593625605
 30
0.0
 10
4.69764021
 20
5.159266006
 30
0.0
 10
4.6974424528
 20
5.1592147396
 30
0.0
  0
SPLINE
  5
441
100
AcDbEntity
  8
0
100
AcDbSpline
 62
7
  6
CONTINUOUS
 70
0
 71
3
 72
63
 73
59
 74
0
 42
0.0000001
 43
0.0000001
 44
0.0000000001
 40
0.0
 40
0.0
 40
0.0
 40
0.0
 40
0.000254191
 40
0.000350766
 40
0.0004629182
 40
0.0007361972
 40
0.00107713
 40
0.0014871617
 40
0.0019670922
 40
0.0025173986
 40
0.0038301623
 40
0.0054264967
 40
0.0073062185
 40
0.0094687628
 40
0.0146389989
 40
0.0209271831
 40
0.0283195226
 40
0.0367999916
 40
0.0463488591
 40
0.0569449941
 40
0.0685635476
 40
0.0811783318
 40
0.0947600522
 40
0.1092776067
 40
0.1246976464
 40
0.1409844075
 40
0.1760067516
 40
0.2140220421
 40
0.2546798839
 40
0.29760549
 40
0.3424031851
 40
0.3886599363
 40
0.4359493048
 40
0.4838353205
 40
0.5318764113
 40
0.5796297197
 40
0.6266548434
 40
0.6725182897
 40
0.7167971932
 40
0.7590833553
 40
0.7989870163
 40
0.8361403691
 40
0.8702010379
 40
0.9008552811
 40
0.9278208138
 40
0.9398413365
 40
0.9508497898
 40
0.9608205509
 40
0.9697310668
 40
0.9775611236
 40
0.9842929403
 40
0.9899121843
 40
0.9923005828
 40
0.9944067565
 40
0.9962299757
 40
0.9977697304
 40
0.9990259738
 40
1.0
 40
1.0
 40
1.0
 40
1.0
 10
5.3262306137
 20
5.1416209831
 30
0.0
 10
5.3262306137
 20
5.1415676685
 30
0.0
 10
5.3261668895
 20
5.1415045939
 30
0.0
 10
5.3260866188
 20
5.1414542341
 30
0.0
 10
5.3259963419
 20
5.1414070763
 30
0.0
 10
5.3258549326
 20
5.1413506526
 30
0.0
 10
5.3256498646
 20
5.1412857919
 30
0.0
 10
5.3253999572
 20
5.1412208495
 30
0.0
 10
5.3251049334
 20
5.1411556217
 30
0.0
 10
5.3246222785
 20
5.1410629665
 30
0.0
 10
5.3239053715
 20
5.1409499672
 30
0.0
 10
5.3229093074
 20
5.1408202255
 30
0.0
 10
5.3217337848
 20
5.1406900138
 30
0.0
 10
5.319810396
 20
5.1405047036
 30
0.0
 10
5.3169622585
 20
5.1402790026
 30
0.0
 10
5.313016911
 20
5.1400197144
 30
0.0
 10
5.3083760485
 20
5.1397594743
 30
0.0
 10
5.3030504127
 20
5.1394984731
 30
0.0
 10
5.2970521182
 20
5.1392369742
 30
0.0
 10
5.2903950925
 20
5.1389751459
 30
0.0
 10
5.2830945752
 20
5.138713042
 30
0.0
 10
5.2751674922
 20
5.1384507611
 30
0.0
 10
5.2666320643
 20
5.1381883234
 30
0.0
 10
5.2575080007
 20
5.1379257727
 30
0.0
 10
5.2478163586
 20
5.1376631253
 30
0.0
 10
5.2338250454
 20
5.1373040764
 30
0.0
 10
5.2150952292
 20
5.1368587765
 30
0.0
 10
5.1912542188
 20
5.1363358405
 30
0.0
 10
5.1657551999
 20
5.135812458
 30
0.0
 10
5.1388333508
 20
5.1352887256
 30
0.0
 10
5.1107369673
 20
5.1347647516
 30
0.0
 10
5.081725169
 20
5.1342406062
 30
0.0
 10
5.0520655188
 20
5.1337163497
 30
0.0
 10
5.0220315611
 20
5.1331920321
 30
0.0
 10
4.9919002812
 20
5.1326676989
 30
0.0
 10
4.9619495934
 20
5.1321433949
 30
0.0
 10
4.9324557188
 20
5.1316191662
 30
0.0
 10
4.9036906884
 20
5.1310950654
 30
0.0
 10
4.875919784
 20
5.1305711555
 30
0.0
 10
4.8493991237
 20
5.1300475152
 30
0.0
 10
4.8243732896
 20
5.1295242543
 30
0.0
 10
4.801073078
 20
5.1290015095
 30
0.0
 10
4.779713364
 20
5.1284795416
 30
0.0
 10
4.7604911423
 20
5.1279585562
 30
0.0
 10
4.7458914583
 20
5.1275103813
 30
0.0
 10
4.7354117961
 20
5.1271467088
 30
0.0
 10
4.7284953048
 20
5.1268847491
 30
0.0
 10
4.72223161
 20
5.1266231092
 30
0.0
 10
4.7166351841
 20
5.1263618786
 30
0.0
 10
4.7117188864
 20
5.126101319
 30
0.0
 10
4.7074939828
 20
5.1258415328
 30
0.0
 10
4.7044106045
 20
5.1256159429
 30
0.0
 10
4.7022973152
 20
5.1254314434
 30
0.0
 10
4.7009786092
 20
5.1253009322
 30
0.0
 10
4.6998388589
 20
5.1251707942
 30
0.0
 10
4.6988785835
 20
5.1250412878
 30
0.0
 10
4.6980983225
 20
5.1249125605
 30
0.0
 10
4.69764021
 20
5.124816006
 30
0.0
 10
4.6974424528
 20
5.1247647396
 30
0.0
  0
SPLINE
  5
442
100
AcDbEntity
  8
0
100
AcDbSpline
 62
7
  6
CONTINUOUS
 70
0
 71
3
 72
19
 73
15
 74
0
 42
0.0000001
 43
0.0000001
 44
0.0000000001
 40
0.0
 40
0.0
 40
0.0
 40
0.0
 40
0.0257927194
 40
0.0358395049
 40
0.0475630635
 40
0.0762581866
 40
0.1121765775
 40
0.1554557062
 40
0.2061684896
 40
0.2643552256
 40
0.4032294039
 40
0.5721682417
 40
0.771128639
 40
1.0
 40
1.0
 40
1.0
 40
1.0
 10
4.6967306137
 20
5.1137217188
 30
0.0
 10
4.6967306137
 20
5.1137799257
 30
0.0
 10
4.6968048774
 20
5.1138469334
 30
0.0
 10
4.6968948453
 20
5.1138998819
 30
0.0
 10
4.6969980024
 20
5.1139503293
 30
0.0
 10
4.6971591892
 20
5.114010533
 30
0.0
 10
4.6973929398
 20
5.1140797653
 30
0.0
 10
4.6976778218
 20
5.114149075
 30
0.0
 10
4.6980141847
 20
5.1142187035
 30
0.0
 10
4.6985645599
 20
5.1143176306
 30
0.0
 10
4.6993818381
 20
5.1144382784
 30
0.0
 10
4.7005171223
 20
5.1145768167
 30
0.0
 10
4.7018567305
 20
5.1147158387
 30
0.0
 10
4.7028183326
 20
5.1148027201
 30
0.0
 10
4.7033329535
 20
5.1148467188
 30
0.0
  0
SPLINE
  5
443
100
AcDbEntity
  8
0
100
AcDbSpline
 62
7
  6
CONTINUOUS
 70
0
 71
3
 72
63
 73
59
 74
0
 42
0.0000001
 43
0.0000001
 44
0.0000000001
 40
0.0
 40
0.0
 40
0.0
 40
0.0
 40
0.0010305488
 40
0.0023428763
 40
0.0039379092
 40
0.0058154627
 40
0.0079749741
 40
0.0104156864
 40
0.0161361879
 40
0.0229645197
 40
0.0308862536
 40
0.0398832882
 40
0.0499354205
 40
0.0610198261
 40
0.0731109087
 40
0.1002008843
 40
0.1309571577
 40
0.1650974078
 40
0.2023081681
 40
0.2422476303
 40
0.284548844
 40
0.3288231691
 40
0.3746637636
 40
0.4216493439
 40
0.4693481802
 40
0.5173217944
 40
0.5651293801
 40
0.6123315063
 40
0.6584944184
 40
0.7031939143
 40
0.7460192019
 40
0.7865768078
 40
0.8244940777
 40
0.8594226492
 40
0.8756647097
 40
0.8910418262
 40
0.9055184197
 40
0.9190613758
 40
0.9316397528
 40
0.9432244591
 40
0.9537894533
 40
0.9633100455
 40
0.9717652419
 40
0.979135424
 40
0.9854046854
 40
0.9905593093
 40
0.9927153186
 40
0.9945893618
 40
0.996180879
 40
0.9974896931
 40
0.9980383526
 40
0.9985168556
 40
0.9989256789
 40
0.9992656229
 40
0.9995381323
 40
0.9996499814
 40
0.9997463072
 40
1.0
 40
1.0
 40
1.0
 40
1.0
 10
5.3254096862
 20
5.2683506885
 30
0.0
 10
5.3251996109
 20
5.2682999709
 30
0.0
 10
5.3247174599
 20
5.2682038508
 30
0.0
 10
5.3239016812
 20
5.2680751152
 30
0.0
 10
5.3229065398
 20
5.267945663
 30
0.0
 10
5.3217325975
 20
5.2678156459
 30
0.0
 10
5.3203804093
 20
5.267685283
 30
0.0
 10
5.3182239089
 20
5.2675012763
 30
0.0
 10
5.3150884822
 20
5.2672760862
 30
0.0
 10
5.3108035076
 20
5.2670166048
 30
0.0
 10
5.3058303867
 20
5.2667563901
 30
0.0
 10
5.3001804555
 20
5.2664955263
 30
0.0
 10
5.293866687
 20
5.2662342751
 30
0.0
 10
5.2869035963
 20
5.2659727093
 30
0.0
 10
5.2763689292
 20
5.2656097587
 30
0.0
 10
5.2617095146
 20
5.2651623665
 30
0.0
 10
5.2424265041
 20
5.2646421548
 30
0.0
 10
5.2210204504
 20
5.2641209805
 30
0.0
 10
5.1976881409
 20
5.2635990455
 30
0.0
 10
5.1726440543
 20
5.263076604
 30
0.0
 10
5.1461184109
 20
5.2625537898
 30
0.0
 10
5.1183550494
 20
5.2620307109
 30
0.0
 10
5.0896091905
 20
5.2615074446
 30
0.0
 10
5.0601450824
 20
5.2609840529
 30
0.0
 10
5.0302336023
 20
5.2604605877
 30
0.0
 10
5.0001497181
 20
5.2599370948
 30
0.0
 10
4.9701700119
 20
5.2594136185
 30
0.0
 10
4.9405700755
 20
5.2588902041
 30
0.0
 10
4.9116220217
 20
5.2583669014
 30
0.0
 10
4.8835919621
 20
5.2578437702
 30
0.0
 10
4.856737569
 20
5.2573208807
 30
0.0
 10
4.8313057152
 20
5.2567983409
 30
0.0
 10
4.8075302014
 20
5.2562762471
 30
0.0
 10
4.7888533236
 20
5.2558316561
 30
0.0
 10
4.7749025487
 20
5.2554731787
 30
0.0
 10
4.7652396022
 20
5.2552109562
 30
0.0
 10
4.7561428881
 20
5.2549488294
 30
0.0
 10
4.7476333382
 20
5.2546868164
 30
0.0
 10
4.7397305329
 20
5.254424959
 30
0.0
 10
4.7324525829
 20
5.254163279
 30
0.0
 10
4.7258163044
 20
5.2539018738
 30
0.0
 10
4.7198368414
 20
5.2536407975
 30
0.0
 10
4.7145280332
 20
5.2533802184
 30
0.0
 10
4.7099019151
 20
5.2531203984
 30
0.0
 10
4.7059691621
 20
5.2528615297
 30
0.0
 10
4.7031301473
 20
5.2526361927
 30
0.0
 10
4.7012129385
 20
5.252451182
 30
0.0
 10
4.7000411985
 20
5.2523211807
 30
0.0
 10
4.6990483429
 20
5.2521916486
 30
0.0
 10
4.6983337492
 20
5.2520788316
 30
0.0
 10
4.6978526548
 20
5.2519863265
 30
0.0
 10
4.6975585829
 20
5.251921204
 30
0.0
 10
4.697309481
 20
5.2518563661
 30
0.0
 10
4.697105074
 20
5.2517916096
 30
0.0
 10
4.696964121
 20
5.251735276
 30
0.0
 10
4.696874141
 20
5.2516881965
 30
0.0
 10
4.6967940962
 20
5.2516378982
 30
0.0
 10
4.6967306137
 20
5.2515749193
 30
0.0
 10
4.6967306137
 20
5.2515217188
 30
0.0
  0
LINE
  5
444
100
AcDbEntity
  8
0
100
AcDbLine
 62
7
  6
CONTINUOUS
 10
4.7033329535
 20
5.0910709831
 11
4.6974422109
 21
5.0903147397
  0
SPLINE
  5
445
100
AcDbEntity
  8
0
100
AcDbSpline
 62
7
  6
CONTINUOUS
 70
0
 71
3
 72
25
 73
21
 74
0
 42
0.0000001
 43
0.0000001
 44
0.0000000001
 40
0.0
 40
0.0
 40
0.0
 40
0.0
 40
0.0624805428
 40
0.1249946975
 40
0.187480018
 40
0.2499756719
 40
0.2812488296
 40
0.3125214672
 40
0.3750140907
 40
0.4375071068
 40
0.4999999958
 40
0.5624928804
 40
0.6249859003
 40
0.6874785198
 40
0.7187511519
 40
0.7500243215
 40
0.8125200153
 40
0.8750050782
 40
0.9375192237
 40
1.0
 40
1.0
 40
1.0
 40
1.0
 10
4.9197618346
 20
3.22951426
 30
0.0
 10
4.9205952459
 20
3.228812416
 30
0.0
 10
4.9221517727
 20
3.2272705666
 30
0.0
 10
4.9240820031
 20
3.2246147713
 30
0.0
 10
4.9255572817
 20
3.221680859
 30
0.0
 10
4.9263743447
 20
3.2190676292
 30
0.0
 10
4.9267653971
 20
3.2169202899
 30
0.0
 10
4.9269800114
 20
3.21474828
 30
0.0
 10
4.9269123954
 20
3.2120108581
 30
0.0
 10
4.9262948778
 20
3.2087856263
 30
0.0
 10
4.9251567642
 20
3.2057048704
 30
0.0
 10
4.9235283338
 20
3.2028527529
 30
0.0
 10
4.9214545952
 20
3.2003065682
 30
0.0
 10
4.9194010716
 20
3.1984951901
 30
0.0
 10
4.9175992644
 20
3.1972634527
 30
0.0
 10
4.9157029424
 20
3.1961827331
 30
0.0
 10
4.9131758969
 20
3.195128892
 30
0.0
 10
4.9099801045
 20
3.1943731308
 30
0.0
 10
4.9067049191
 20
3.1941446694
 30
0.0
 10
4.9045232735
 20
3.1943459507
 30
0.0
 10
4.9034499194
 20
3.1945332449
 30
0.0
  0
SPLINE
  5
446
100
AcDbEntity
  8
0
100
AcDbSpline
 62
7
  6
CONTINUOUS
 70
0
 71
3
 72
62
 73
58
 74
0
 42
0.0000001
 43
0.0000001
 44
0.0000000001
 40
0.0
 40
0.0
 40
0.0
 40
0.0
 40
0.0011351644
 40
0.002550389
 40
0.0042462241
 40
0.0062225838
 40
0.0110147108
 40
0.016918164
 40
0.0239207463
 40
0.0320075346
 40
0.0411600121
 40
0.0513582742
 40
0.0625785898
 40
0.0747959825
 40
0.102107807
 40
0.1330450796
 40
0.1673256176
 40
0.2046364906
 40
0.2446369851
 40
0.2869617418
 40
0.3312241979
 40
0.3770200379
 40
0.4239308556
 40
0.4715281512
 40
0.5193769208
 40
0.5670401014
 40
0.6140821853
 40
0.6600734141
 40
0.7045936869
 40
0.7472361757
 40
0.7876114285
 40
0.8253506019
 40
0.8601091841
 40
0.8915699243
 40
0.9059727756
 40
0.9194458392
 40
0.9319587508
 40
0.9434829544
 40
0.9539920674
 40
0.9634627501
 40
0.9718730197
 40
0.9792047849
 40
0.985441369
 40
0.9905700001
 40
0.9927157451
 40
0.9945810184
 40
0.9961654904
 40
0.9974694821
 40
0.9980166583
 40
0.998494299
 40
0.998902908
 40
0.9992433524
 40
0.9995172414
 40
0.9997278337
 40
0.9998115892
 40
0.9998829953
 40
1.0
 40
1.0
 40
1.0
 40
1.0
 10
5.3049105261
 20
5.2630386252
 30
0.0
 10
5.3046935692
 20
5.262988811
 30
0.0
 10
5.3042023553
 20
5.2628935003
 30
0.0
 10
5.3033796152
 20
5.2627647904
 30
0.0
 10
5.3023903192
 20
5.262635437
 30
0.0
 10
5.3007407934
 20
5.2624502673
 30
0.0
 10
5.2982658098
 20
5.2622255567
 30
0.0
 10
5.2948047666
 20
5.2619678485
 30
0.0
 10
5.2906962042
 20
5.2617090913
 30
0.0
 10
5.2859495124
 20
5.2614494511
 30
0.0
 10
5.280575364
 20
5.2611892638
 30
0.0
 10
5.2745861201
 20
5.2609287177
 30
0.0
 10
5.2679953563
 20
5.2606678559
 30
0.0
 10
5.2580500885
 20
5.2603062125
 30
0.0
 10
5.244238972
 20
5.2598602252
 30
0.0
 10
5.2261015883
 20
5.259341412
 30
0.0
 10
5.2060027275
 20
5.2588216697
 30
0.0
 10
5.184126077
 20
5.2583011961
 30
0.0
 10
5.1606715783
 20
5.2577802323
 30
0.0
 10
5.1358535883
 20
5.2572589081
 30
0.0
 10
5.1098989161
 20
5.2567373276
 30
0.0
 10
5.0830447608
 20
5.2562155658
 30
0.0
 10
5.0555365362
 20
5.2556936832
 30
0.0
 10
5.0276256689
 20
5.2551717306
 30
0.0
 10
4.9995672405
 20
5.2546497526
 30
0.0
 10
4.9716177058
 20
5.2541277931
 30
0.0
 10
4.9440324919
 20
5.2536058967
 30
0.0
 10
4.9170637025
 20
5.2530841132
 30
0.0
 10
4.8909578223
 20
5.2525625008
 30
0.0
 10
4.8659534404
 20
5.252041134
 30
0.0
 10
4.8422791066
 20
5.2515201034
 30
0.0
 10
4.8201511669
 20
5.2509995598
 30
0.0
 10
4.7997718412
 20
5.2504796379
 30
0.0
 10
4.7839683023
 20
5.2500351095
 30
0.0
 10
4.7723381035
 20
5.2496759655
 30
0.0
 10
4.7644222819
 20
5.2494147071
 30
0.0
 10
4.7570712774
 20
5.2491536102
 30
0.0
 10
4.7503018817
 20
5.2488927074
 30
0.0
 10
4.7441295292
 20
5.2486320415
 30
0.0
 10
4.7385683876
 20
5.2483717539
 30
0.0
 10
4.7336310522
 20
5.2481119016
 30
0.0
 10
4.7293288412
 20
5.2478528658
 30
0.0
 10
4.7256714548
 20
5.2475947362
 30
0.0
 10
4.7230313551
 20
5.2473700317
 30
0.0
 10
4.721248566
 20
5.2471855829
 30
0.0
 10
4.7201589278
 20
5.2470559497
 30
0.0
 10
4.7192356624
 20
5.2469267686
 30
0.0
 10
4.7185712134
 20
5.2468142913
 30
0.0
 10
4.7181238973
 20
5.246722089
 30
0.0
 10
4.7178503443
 20
5.2466571775
 30
0.0
 10
4.7176185939
 20
5.246592457
 30
0.0
 10
4.7174284374
 20
5.2465280246
 30
0.0
 10
4.7172797927
 20
5.2464638331
 30
0.0
 10
4.7171831326
 20
5.2464070695
 30
0.0
 10
4.7171288342
 20
5.2463597151
 30
0.0
 10
4.7170946005
 20
5.2463187812
 30
0.0
 10
4.7170807277
 20
5.2462817952
 30
0.0
 10
4.7170807315
 20
5.2462588509
 30
0.0
  0
SPLINE
  5
447
100
AcDbEntity
  8
0
100
AcDbSpline
 62
7
  6
CONTINUOUS
 70
0
 71
3
 72
55
 73
51
 74
0
 42
0.0000001
 43
0.0000001
 44
0.0000000001
 40
0.0
 40
0.0
 40
0.0
 40
0.0
 40
0.0001061984
 40
0.0001715451
 40
0.000248531
 40
0.0004428988
 40
0.0006963623
 40
0.0010117927
 40
0.0013906332
 40
0.001833689
 40
0.0023414439
 40
0.0035521139
 40
0.0050238927
 40
0.0067567628
 40
0.0087502949
 40
0.0135166605
 40
0.0193152431
 40
0.0261342288
 40
0.0339604884
 40
0.0427774145
 40
0.0525670275
 40
0.0633089032
 40
0.0749803118
 40
0.0875572738
 40
0.1010128682
 40
0.1304463453
 40
0.163033442
 40
0.1985002845
 40
0.2365487352
 40
0.2768588626
 40
0.3190916921
 40
0.3628920531
 40
0.4078914065
 40
0.4537112937
 40
0.4999662734
 40
0.5462672472
 40
0.6374522536
 40
0.7242045282
 40
0.7649996938
 40
0.8036116202
 40
0.8397156082
 40
0.8730080013
 40
0.9032090214
 40
0.930064949
 40
0.9533506229
 40
0.9728707019
 40
0.9811666577
 40
0.9884635711
 40
0.994745928
 40
1.0
 40
1.0
 40
1.0
 40
1.0
 10
5.3262306137
 20
5.1071709831
 30
0.0
 10
5.3262306137
 20
5.107148919
 30
0.0
 10
5.3262167911
 20
5.1071132964
 30
0.0
 10
5.3261831281
 20
5.1070741801
 30
0.0
 10
5.3261295539
 20
5.1070287033
 30
0.0
 10
5.3260343365
 20
5.1069742909
 30
0.0
 10
5.3258880488
 20
5.1069127287
 30
0.0
 10
5.3257009186
 20
5.1068509181
 30
0.0
 10
5.3254728671
 20
5.1067888147
 30
0.0
 10
5.3252036728
 20
5.1067265251
 30
0.0
 10
5.3247633588
 20
5.1066380264
 30
0.0
 10
5.3241092267
 20
5.1065300883
 30
0.0
 10
5.3232002367
 20
5.1064061549
 30
0.0
 10
5.3221273746
 20
5.1062817788
 30
0.0
 10
5.3203717502
 20
5.1061047742
 30
0.0
 10
5.3177713144
 20
5.1058891679
 30
0.0
 10
5.3141680237
 20
5.1056415137
 30
0.0
 10
5.309927782
 20
5.1053929282
 30
0.0
 10
5.3050595685
 20
5.1051436264
 30
0.0
 10
5.2995734803
 20
5.1048938538
 30
0.0
 10
5.2934810922
 20
5.1046437525
 30
0.0
 10
5.2867952072
 20
5.1043934099
 30
0.0
 10
5.2795298516
 20
5.104142874
 30
0.0
 10
5.271700382
 20
5.1038922032
 30
0.0
 10
5.260181766
 20
5.1035474126
 30
0.0
 10
5.2445064193
 20
5.103120664
 30
0.0
 10
5.2242583095
 20
5.102621723
 30
0.0
 10
5.202219848
 20
5.1021221844
 30
0.0
 10
5.17857646
 20
5.10162217
 30
0.0
 10
5.153527065
 20
5.1011218253
 30
0.0
 10
5.127282417
 20
5.1006212356
 30
0.0
 10
5.1000633566
 20
5.1001204705
 30
0.0
 10
5.07209892
 20
5.0996195825
 30
0.0
 10
5.0436244268
 20
5.0991186151
 30
0.0
 10
5.014879465
 20
5.0986176111
 30
0.0
 10
4.9767107472
 20
5.097952997
 30
0.0
 10
4.9301296347
 20
5.0971330551
 30
0.0
 10
4.8846929382
 20
5.0962940968
 30
0.0
 10
4.8501779492
 20
5.0956128744
 30
0.0
 10
4.8261842695
 20
5.0951127609
 30
0.0
 10
4.8037497345
 20
5.0946130902
 30
0.0
 10
4.7830631207
 20
5.0941140196
 30
0.0
 10
4.7642984966
 20
5.093615766
 30
0.0
 10
4.7476136561
 20
5.0931188654
 30
0.0
 10
4.7331489905
 20
5.0926236119
 30
0.0
 10
4.7225405298
 20
5.0921938015
 30
0.0
 10
4.7152538385
 20
5.0918416799
 30
0.0
 10
4.710715763
 20
5.0915926801
 30
0.0
 10
4.7068107286
 20
5.091344499
 30
0.0
 10
4.7044205854
 20
5.0911639726
 30
0.0
 10
4.7033329535
 20
5.0910709831
 30
0.0
  0
SPLINE
  5
448
100
AcDbEntity
  8
0
100
AcDbSpline
 62
7
  6
CONTINUOUS
 70
0
 71
3
 72
63
 73
59
 74
0
 42
0.0000001
 43
0.0000001
 44
0.0000000001
 40
0.0
 40
0.0
 40
0.0
 40
0.0
 40
0.0010305488
 40
0.0023428763
 40
0.0039379092
 40
0.0058154627
 40
0.0079749741
 40
0.0104156864
 40
0.0161361879
 40
0.0229645197
 40
0.0308862536
 40
0.0398832882
 40
0.0499354205
 40
0.0610198261
 40
0.0731109087
 40
0.1002008843
 40
0.1309571577
 40
0.1650974078
 40
0.2023081681
 40
0.2422476303
 40
0.284548844
 40
0.3288231691
 40
0.3746637636
 40
0.4216493439
 40
0.4693481802
 40
0.5173217944
 40
0.5651293801
 40
0.6123315063
 40
0.6584944184
 40
0.7031939143
 40
0.7460192019
 40
0.7865768078
 40
0.8244940777
 40
0.8594226492
 40
0.8756647097
 40
0.8910418262
 40
0.9055184197
 40
0.9190613758
 40
0.9316397528
 40
0.9432244591
 40
0.9537894533
 40
0.9633100455
 40
0.9717652419
 40
0.979135424
 40
0.9854046854
 40
0.9905593093
 40
0.9927153186
 40
0.9945893618
 40
0.996180879
 40
0.9974896931
 40
0.9980383526
 40
0.9985168556
 40
0.9989256789
 40
0.9992656229
 40
0.9995381323
 40
0.9996499814
 40
0.9997463072
 40
1.0
 40
1.0
 40
1.0
 40
1.0
 10
5.3254096862
 20
5.3028006885
 30
0.0
 10
5.3251996109
 20
5.3027499709
 30
0.0
 10
5.3247174599
 20
5.3026538508
 30
0.0
 10
5.3239016812
 20
5.3025251152
 30
0.0
 10
5.3229065398
 20
5.302395663
 30
0.0
 10
5.3217325975
 20
5.3022656459
 30
0.0
 10
5.3203804093
 20
5.302135283
 30
0.0
 10
5.3182239089
 20
5.3019512763
 30
0.0
 10
5.3150884822
 20
5.3017260862
 30
0.0
 10
5.3108035076
 20
5.3014666048
 30
0.0
 10
5.3058303867
 20
5.3012063901
 30
0.0
 10
5.3001804555
 20
5.3009455263
 30
0.0
 10
5.293866687
 20
5.3006842751
 30
0.0
 10
5.2869035963
 20
5.3004227093
 30
0.0
 10
5.2763689292
 20
5.3000597587
 30
0.0
 10
5.2617095146
 20
5.2996123665
 30
0.0
 10
5.2424265041
 20
5.2990921548
 30
0.0
 10
5.2210204504
 20
5.2985709805
 30
0.0
 10
5.1976881409
 20
5.2980490455
 30
0.0
 10
5.1726440543
 20
5.297526604
 30
0.0
 10
5.1461184109
 20
5.2970037898
 30
0.0
 10
5.1183550494
 20
5.2964807109
 30
0.0
 10
5.0896091905
 20
5.2959574446
 30
0.0
 10
5.0601450824
 20
5.2954340529
 30
0.0
 10
5.0302336023
 20
5.2949105877
 30
0.0
 10
5.0001497181
 20
5.2943870948
 30
0.0
 10
4.9701700119
 20
5.2938636185
 30
0.0
 10
4.9405700755
 20
5.2933402041
 30
0.0
 10
4.9116220217
 20
5.2928169014
 30
0.0
 10
4.8835919621
 20
5.2922937702
 30
0.0
 10
4.856737569
 20
5.2917708807
 30
0.0
 10
4.8313057152
 20
5.2912483409
 30
0.0
 10
4.8075302014
 20
5.2907262471
 30
0.0
 10
4.7888533236
 20
5.2902816561
 30
0.0
 10
4.7749025487
 20
5.2899231787
 30
0.0
 10
4.7652396022
 20
5.2896609562
 30
0.0
 10
4.7561428881
 20
5.2893988294
 30
0.0
 10
4.7476333382
 20
5.2891368164
 30
0.0
 10
4.7397305329
 20
5.288874959
 30
0.0
 10
4.7324525829
 20
5.288613279
 30
0.0
 10
4.7258163044
 20
5.2883518738
 30
0.0
 10
4.7198368414
 20
5.2880907975
 30
0.0
 10
4.7145280332
 20
5.2878302184
 30
0.0
 10
4.7099019151
 20
5.2875703984
 30
0.0
 10
4.7059691621
 20
5.2873115297
 30
0.0
 10
4.7031301473
 20
5.2870861927
 30
0.0
 10
4.7012129385
 20
5.286901182
 30
0.0
 10
4.7000411985
 20
5.2867711807
 30
0.0
 10
4.6990483429
 20
5.2866416486
 30
0.0
 10
4.6983337492
 20
5.2865288316
 30
0.0
 10
4.6978526548
 20
5.2864363265
 30
0.0
 10
4.6975585829
 20
5.286371204
 30
0.0
 10
4.697309481
 20
5.2863063661
 30
0.0
 10
4.697105074
 20
5.2862416096
 30
0.0
 10
4.696964121
 20
5.286185276
 30
0.0
 10
4.696874141
 20
5.2861381965
 30
0.0
 10
4.6967940962
 20
5.2860878982
 30
0.0
 10
4.6967306137
 20
5.2860249193
 30
0.0
 10
4.6967306137
 20
5.2859717188
 30
0.0
  0
SPLINE
  5
449
100
AcDbEntity
  8
0
100
AcDbSpline
 62
7
  6
CONTINUOUS
 70
0
 71
3
 72
63
 73
59
 74
0
 42
0.0000001
 43
0.0000001
 44
0.0000000001
 40
0.0
 40
0.0
 40
0.0
 40
0.0
 40
0.0001173458
 40
0.0001890255
 40
0.0002731471
 40
0.0004847769
 40
0.0007601292
 40
0.0011024393
 40
0.0015133003
 40
0.0019935845
 40
0.0025438011
 40
0.0038550858
 40
0.0054485045
 40
0.0073243996
 40
0.0094822997
 40
0.0146398594
 40
0.0209116989
 40
0.0282845729
 40
0.0367418492
 40
0.0462650983
 40
0.056832044
 40
0.0684192338
 40
0.0809997179
 40
0.0945449406
 40
0.1090238819
 40
0.1406475351
 40
0.1755804916
 40
0.213501961
 40
0.2540635469
 40
0.2968926568
 40
0.341595551
 40
0.3877614352
 40
0.4349658989
 40
0.4827750829
 40
0.5307495776
 40
0.5784483564
 40
0.6254330185
 40
0.6712716324
 40
0.7155428781
 40
0.7578399241
 40
0.7977740624
 40
0.8349783799
 40
0.869111123
 40
0.8998587563
 40
0.9269391602
 40
0.9390251761
 40
0.950104205
 40
0.9601509815
 40
0.9691423782
 40
0.9770586013
 40
0.9838812907
 40
0.9895963105
 40
0.9920345269
 40
0.9941915168
 40
0.9960666632
 40
0.9976596049
 40
0.9989703951
 40
1.0
 40
1.0
 40
1.0
 40
1.0
 10
5.3058805085
 20
5.215783851
 30
0.0
 10
5.3058805167
 20
5.2157608314
 30
0.0
 10
5.3058665488
 20
5.2157237138
 30
0.0
 10
5.305832117
 20
5.2156826721
 30
0.0
 10
5.3057774767
 20
5.2156351658
 30
0.0
 10
5.305680214
 20
5.2155782338
 30
0.0
 10
5.3055306531
 20
5.2155138546
 30
0.0
 10
5.3053393284
 20
5.2154492292
 30
0.0
 10
5.3051061644
 20
5.2153843116
 30
0.0
 10
5.3048309524
 20
5.2153192027
 30
0.0
 10
5.3043809242
 20
5.2152267184
 30
0.0
 10
5.3037124468
 20
5.2151138973
 30
0.0
 10
5.3027835705
 20
5.214984323
 30
0.0
 10
5.3016873062
 20
5.2148543015
 30
0.0
 10
5.2998937174
 20
5.2146692905
 30
0.0
 10
5.2972376715
 20
5.2144438972
 30
0.0
 10
5.2935582852
 20
5.2141849932
 30
0.0
 10
5.2892302931
 20
5.2139251621
 30
0.0
 10
5.2842635476
 20
5.2136645238
 30
0.0
 10
5.2786694869
 20
5.2134034444
 30
0.0
 10
5.272460857
 20
5.2131419831
 30
0.0
 10
5.2656520211
 20
5.2128802917
 30
0.0
 10
5.2582585534
 20
5.2126183959
 30
0.0
 10
5.2502974907
 20
5.2123563478
 30
0.0
 10
5.2386019861
 20
5.2119961213
 30
0.0
 10
5.2227115598
 20
5.2115502618
 30
0.0
 10
5.2022228354
 20
5.2110287637
 30
0.0
 10
5.1799802621
 20
5.2105066429
 30
0.0
 10
5.1561883263
 20
5.2099840339
 30
0.0
 10
5.1310657916
 20
5.2094610885
 30
0.0
 10
5.1048436468
 20
5.2089378977
 30
0.0
 10
5.0777630328
 20
5.2084145365
 30
0.0
 10
5.0500729531
 20
5.207891063
 30
0.0
 10
5.0220280192
 20
5.2073675278
 30
0.0
 10
4.9938860998
 20
5.2068439762
 30
0.0
 10
4.9659059533
 20
5.2063204523
 30
0.0
 10
4.9383448726
 20
5.2057970023
 30
0.0
 10
4.9114562883
 20
5.2052736776
 30
0.0
 10
4.8854874434
 20
5.2047505405
 30
0.0
 10
4.8606771112
 20
5.2042276683
 30
0.0
 10
4.8372534048
 20
5.2037051693
 30
0.0
 10
4.815431692
 20
5.2031831772
 30
0.0
 10
4.7954126181
 20
5.2026619467
 30
0.0
 10
4.7773802545
 20
5.202141681
 30
0.0
 10
4.7636725395
 20
5.2016942306
 30
0.0
 10
4.7538226194
 20
5.2013312363
 30
0.0
 10
4.7473127342
 20
5.2010696368
 30
0.0
 10
4.7414104364
 20
5.2008083644
 30
0.0
 10
4.7361292367
 20
5.2005474634
 30
0.0
 10
4.73148132
 20
5.2002872299
 30
0.0
 10
4.7274772425
 20
5.2000277257
 30
0.0
 10
4.7245479448
 20
5.1998024947
 30
0.0
 10
4.722533755
 20
5.1996184645
 30
0.0
 10
4.7212711477
 20
5.1994880776
 30
0.0
 10
4.7201753253
 20
5.1993580393
 30
0.0
 10
4.7192467267
 20
5.1992285629
 30
0.0
 10
4.7184858614
 20
5.199099827
 30
0.0
 10
4.718036564
 20
5.1990037118
 30
0.0
 10
4.7178410545
 20
5.1989530114
 30
0.0
  0
LINE
  5
44A
100
AcDbEntity
  8
0
100
AcDbLine
 62
7
  6
CONTINUOUS
 10
5.3051200889
 20
5.2975396904
 11
5.3048709491
 21
5.2974796499
  0
SPLINE
  5
44B
100
AcDbEntity
  8
0
100
AcDbSpline
 62
7
  6
CONTINUOUS
 70
0
 71
3
 72
62
 73
58
 74
0
 42
0.0000001
 43
0.0000001
 44
0.0000000001
 40
0.0
 40
0.0
 40
0.0
 40
0.0
 40
0.0011534709
 40
0.0025869035
 40
0.0043009338
 40
0.0062952089
 40
0.0111215281
 40
0.0170581493
 40
0.0240921893
 40
0.0322087338
 40
0.0413896471
 40
0.0516140822
 40
0.0628593976
 40
0.0750995005
 40
0.1024519547
 40
0.1334224343
 40
0.1677287871
 40
0.2050581716
 40
0.2450701242
 40
0.2873996929
 40
0.3316605732
 40
0.3774489584
 40
0.4243468558
 40
0.4719263052
 40
0.5197530859
 40
0.5673906931
 40
0.614404408
 40
0.6603651262
 40
0.7048533608
 40
0.7474631905
 40
0.7878057952
 40
0.8255131672
 40
0.8602413792
 40
0.8916736998
 40
0.906062996
 40
0.9195237288
 40
0.932024636
 40
0.9435378705
 40
0.9540369466
 40
0.9634982408
 40
0.9719006144
 40
0.9792248637
 40
0.9854555842
 40
0.990578951
 40
0.992722456
 40
0.9945860459
 40
0.9961691434
 40
0.9974717617
 40
0.9980183031
 40
0.9984953871
 40
0.9989035501
 40
0.9992436897
 40
0.9995174185
 40
0.999727939
 40
0.9998116711
 40
0.9998830529
 40
1.0
 40
1.0
 40
1.0
 40
1.0
 10
5.3048709491
 20
5.2974796499
 30
0.0
 10
5.3046502938
 20
5.2974299805
 30
0.0
 10
5.3041518141
 20
5.2973347914
 30
0.0
 10
5.3033182746
 20
5.2972060932
 30
0.0
 10
5.3023183055
 20
5.2970767818
 30
0.0
 10
5.3006550025
 20
5.2968918146
 30
0.0
 10
5.2981634005
 20
5.2966671857
 30
0.0
 10
5.2946831587
 20
5.2964095927
 30
0.0
 10
5.290556333
 20
5.2961509278
 30
0.0
 10
5.2857923583
 20
5.2958913966
 30
0.0
 10
5.2804020125
 20
5.29563135
 30
0.0
 10
5.2743975527
 20
5.2953709096
 30
0.0
 10
5.2677927389
 20
5.2951102
 30
0.0
 10
5.2578308158
 20
5.2947487725
 30
0.0
 10
5.2440017017
 20
5.294303057
 30
0.0
 10
5.2258460128
 20
5.2937844955
 30
0.0
 10
5.2057333219
 20
5.2932650161
 30
0.0
 10
5.1838472307
 20
5.2927448083
 30
0.0
 10
5.1603875199
 20
5.2922241145
 30
0.0
 10
5.1355683517
 20
5.2917030624
 30
0.0
 10
5.1096162891
 20
5.2911817558
 30
0.0
 10
5.082768283
 20
5.2906602691
 30
0.0
 10
5.0552694437
 20
5.2901386621
 30
0.0
 10
5.0273708398
 20
5.2896169853
 30
0.0
 10
4.9993271664
 20
5.289095284
 30
0.0
 10
4.9713944429
 20
5.2885736014
 30
0.0
 10
4.9438276864
 20
5.2880519825
 30
0.0
 10
4.9168785799
 20
5.2875304767
 30
0.0
 10
4.8907931647
 20
5.2870091415
 30
0.0
 10
4.8658095912
 20
5.2864880517
 30
0.0
 10
4.842155928
 20
5.2859672981
 30
0.0
 10
4.8200481037
 20
5.2854470326
 30
0.0
 10
4.7996879442
 20
5.2849273854
 30
0.0
 10
4.7838996786
 20
5.2844831013
 30
0.0
 10
4.7722809294
 20
5.2841241319
 30
0.0
 10
4.7643730821
 20
5.2838630264
 30
0.0
 10
4.7570295066
 20
5.2836020599
 30
0.0
 10
4.7502670498
 20
5.2833412978
 30
0.0
 10
4.7441010819
 20
5.2830807806
 30
0.0
 10
4.7385456817
 20
5.2828206109
 30
0.0
 10
4.7336135478
 20
5.2825609281
 30
0.0
 10
4.7293158072
 20
5.2823019956
 30
0.0
 10
4.7256623269
 20
5.282044035
 30
0.0
 10
4.7230250311
 20
5.2818194426
 30
0.0
 10
4.7212441688
 20
5.281635077
 30
0.0
 10
4.720155644
 20
5.2815055189
 30
0.0
 10
4.7192333086
 20
5.2813764242
 30
0.0
 10
4.7185695701
 20
5.2812640001
 30
0.0
 10
4.7181227905
 20
5.2811718411
 30
0.0
 10
4.7178495798
 20
5.281106962
 30
0.0
 10
4.7176181042
 20
5.2810422724
 30
0.0
 10
4.7174281411
 20
5.2809778701
 30
0.0
 10
4.7172796084
 20
5.2809137148
 30
0.0
 10
4.7171829951
 20
5.2808569881
 30
0.0
 10
4.7171287102
 20
5.2808096618
 30
0.0
 10
4.7170944838
 20
5.2807687536
 30
0.0
 10
4.7170806188
 20
5.2807317823
 30
0.0
 10
4.7170806291
 20
5.2807088509
 30
0.0
  0
SPLINE
  5
44C
100
AcDbEntity
  8
0
100
AcDbSpline
 62
7
  6
CONTINUOUS
 70
0
 71
3
 72
51
 73
47
 74
0
 42
0.0000001
 43
0.0000001
 44
0.0000000001
 40
0.0
 40
0.0
 40
0.0
 40
0.0
 40
0.0001010003
 40
0.0002319079
 40
0.0004079587
 40
0.0006354676
 40
0.0009172906
 40
0.0012548905
 40
0.0016490943
 40
0.0021004051
 40
0.0031754745
 40
0.0044816066
 40
0.0060190707
 40
0.0077876387
 40
0.0097868792
 40
0.0120162429
 40
0.0171622685
 40
0.0232170046
 40
0.0301703162
 40
0.0380103312
 40
0.0467227231
 40
0.0562925732
 40
0.0667024453
 40
0.0779337139
 40
0.0899666054
 40
0.1163484808
 40
0.1456588388
 40
0.1776872156
 40
0.2122033622
 40
0.2489590277
 40
0.2876899297
 40
0.3281176411
 40
0.3699514441
 40
0.4128903091
 40
0.4566254352
 40
0.5008422923
 40
0.5894476878
 40
0.6761617105
 40
0.7584940534
 40
0.8340802337
 40
0.8686561171
 40
0.9007502731
 40
0.9301319995
 40
0.9565903238
 40
0.9799354305
 40
1.0
 40
1.0
 40
1.0
 40
1.0
 10
5.3262306137
 20
5.0727209831
 30
0.0
 10
5.3262306137
 20
5.0727007267
 30
0.0
 10
5.3262140189
 20
5.0726543209
 30
0.0
 10
5.3261545661
 20
5.0725963231
 30
0.0
 10
5.3260633941
 20
5.072539254
 30
0.0
 10
5.3259379614
 20
5.0724823416
 30
0.0
 10
5.3257779283
 20
5.0724250935
 30
0.0
 10
5.3255828319
 20
5.0723676584
 30
0.0
 10
5.3253526027
 20
5.072310042
 30
0.0
 10
5.3249761547
 20
5.0722282288
 30
0.0
 10
5.3244167403
 20
5.0721284046
 30
0.0
 10
5.3236391616
 20
5.0720137837
 30
0.0
 10
5.322721274
 20
5.0718987816
 30
0.0
 10
5.3216634968
 20
5.0717834595
 30
0.0
 10
5.3204662543
 20
5.0716679272
 30
0.0
 10
5.3185930775
 20
5.0715058305
 30
0.0
 10
5.3159068366
 20
5.0713067514
 30
0.0
 10
5.3122731257
 20
5.0710767843
 30
0.0
 10
5.3080982095
 20
5.0708462625
 30
0.0
 10
5.3033895965
 20
5.0706152987
 30
0.0
 10
5.2981556684
 20
5.0703840154
 30
0.0
 10
5.2924058911
 20
5.0701525221
 30
0.0
 10
5.286150567
 20
5.0699208524
 30
0.0
 10
5.2794009542
 20
5.0696890392
 30
0.0
 10
5.2694491679
 20
5.0693699582
 30
0.0
 10
5.2558720891
 20
5.0689749821
 30
0.0
 10
5.238285085
 20
5.0685135087
 30
0.0
 10
5.2190661936
 20
5.0680514756
 30
0.0
 10
5.198353703
 20
5.0675889947
 30
0.0
 10
5.176296664
 20
5.0671261968
 30
0.0
 10
5.1530537744
 20
5.0666631597
 30
0.0
 10
5.1287922363
 20
5.0661999457
 30
0.0
 10
5.1036866136
 20
5.065736601
 30
0.0
 10
5.0779175558
 20
5.0652731613
 30
0.0
 10
5.0516704838
 20
5.0648096575
 30
0.0
 10
5.0162659478
 20
5.0641912047
 30
0.0
 10
4.9722429061
 20
5.0634264195
 30
0.0
 10
4.920576994
 20
5.0625098516
 30
0.0
 10
4.8715225889
 20
5.0615946016
 30
0.0
 10
4.8329242398
 20
5.0608128684
 30
0.0
 10
4.8044007354
 20
5.0601771942
 30
0.0
 10
4.7851423472
 20
5.0597151185
 30
0.0
 10
4.7675124889
 20
5.059253658
 30
0.0
 10
4.7516379475
 20
5.0587930714
 30
0.0
 10
4.7376328818
 20
5.0583336794
 30
0.0
 10
4.7289329389
 20
5.0580031957
 30
0.0
 10
4.7249124001
 20
5.057833855
 30
0.0
  0
SPLINE
  5
44D
100
AcDbEntity
  8
0
100
AcDbSpline
 62
7
  6
CONTINUOUS
 70
0
 71
3
 72
63
 73
59
 74
0
 42
0.0000001
 43
0.0000001
 44
0.0000000001
 40
0.0
 40
0.0
 40
0.0
 40
0.0
 40
0.0010305488
 40
0.0023428763
 40
0.0039379092
 40
0.0058154627
 40
0.0079749741
 40
0.0104156864
 40
0.0161361879
 40
0.0229645197
 40
0.0308862536
 40
0.0398832882
 40
0.0499354205
 40
0.0610198261
 40
0.0731109087
 40
0.1002008843
 40
0.1309571577
 40
0.1650974078
 40
0.2023081681
 40
0.2422476303
 40
0.284548844
 40
0.3288231691
 40
0.3746637636
 40
0.4216493439
 40
0.4693481802
 40
0.5173217944
 40
0.5651293801
 40
0.6123315063
 40
0.6584944184
 40
0.7031939143
 40
0.7460192019
 40
0.7865768078
 40
0.8244940777
 40
0.8594226492
 40
0.8756647097
 40
0.8910418262
 40
0.9055184197
 40
0.9190613758
 40
0.9316397528
 40
0.9432244591
 40
0.9537894533
 40
0.9633100455
 40
0.9717652419
 40
0.979135424
 40
0.9854046854
 40
0.9905593093
 40
0.9927153186
 40
0.9945893618
 40
0.996180879
 40
0.9974896931
 40
0.9980383526
 40
0.9985168556
 40
0.9989256789
 40
0.9992656229
 40
0.9995381323
 40
0.9996499814
 40
0.9997463072
 40
1.0
 40
1.0
 40
1.0
 40
1.0
 10
5.3254096862
 20
5.3372506885
 30
0.0
 10
5.3251996109
 20
5.3371999709
 30
0.0
 10
5.3247174599
 20
5.3371038508
 30
0.0
 10
5.3239016812
 20
5.3369751152
 30
0.0
 10
5.3229065398
 20
5.336845663
 30
0.0
 10
5.3217325975
 20
5.3367156459
 30
0.0
 10
5.3203804093
 20
5.336585283
 30
0.0
 10
5.3182239089
 20
5.3364012763
 30
0.0
 10
5.3150884822
 20
5.3361760862
 30
0.0
 10
5.3108035076
 20
5.3359166048
 30
0.0
 10
5.3058303867
 20
5.3356563901
 30
0.0
 10
5.3001804555
 20
5.3353955263
 30
0.0
 10
5.293866687
 20
5.3351342751
 30
0.0
 10
5.2869035963
 20
5.3348727093
 30
0.0
 10
5.2763689292
 20
5.3345097587
 30
0.0
 10
5.2617095146
 20
5.3340623665
 30
0.0
 10
5.2424265041
 20
5.3335421548
 30
0.0
 10
5.2210204504
 20
5.3330209805
 30
0.0
 10
5.1976881409
 20
5.3324990455
 30
0.0
 10
5.1726440543
 20
5.331976604
 30
0.0
 10
5.1461184109
 20
5.3314537898
 30
0.0
 10
5.1183550494
 20
5.3309307109
 30
0.0
 10
5.0896091905
 20
5.3304074446
 30
0.0
 10
5.0601450824
 20
5.3298840529
 30
0.0
 10
5.0302336023
 20
5.3293605877
 30
0.0
 10
5.0001497181
 20
5.3288370948
 30
0.0
 10
4.9701700119
 20
5.3283136185
 30
0.0
 10
4.9405700755
 20
5.3277902041
 30
0.0
 10
4.9116220217
 20
5.3272669014
 30
0.0
 10
4.8835919621
 20
5.3267437702
 30
0.0
 10
4.856737569
 20
5.3262208807
 30
0.0
 10
4.8313057152
 20
5.3256983409
 30
0.0
 10
4.8075302014
 20
5.3251762471
 30
0.0
 10
4.7888533236
 20
5.3247316561
 30
0.0
 10
4.7749025487
 20
5.3243731787
 30
0.0
 10
4.7652396022
 20
5.3241109562
 30
0.0
 10
4.7561428881
 20
5.3238488294
 30
0.0
 10
4.7476333382
 20
5.3235868164
 30
0.0
 10
4.7397305329
 20
5.323324959
 30
0.0
 10
4.7324525829
 20
5.323063279
 30
0.0
 10
4.7258163044
 20
5.3228018738
 30
0.0
 10
4.7198368414
 20
5.3225407975
 30
0.0
 10
4.7145280332
 20
5.3222802184
 30
0.0
 10
4.7099019151
 20
5.3220203984
 30
0.0
 10
4.7059691621
 20
5.3217615297
 30
0.0
 10
4.7031301473
 20
5.3215361927
 30
0.0
 10
4.7012129385
 20
5.321351182
 30
0.0
 10
4.7000411985
 20
5.3212211807
 30
0.0
 10
4.6990483429
 20
5.3210916486
 30
0.0
 10
4.6983337492
 20
5.3209788316
 30
0.0
 10
4.6978526548
 20
5.3208863265
 30
0.0
 10
4.6975585829
 20
5.320821204
 30
0.0
 10
4.697309481
 20
5.3207563661
 30
0.0
 10
4.697105074
 20
5.3206916096
 30
0.0
 10
4.696964121
 20
5.320635276
 30
0.0
 10
4.696874141
 20
5.3205881965
 30
0.0
 10
4.6967940962
 20
5.3205378982
 30
0.0
 10
4.6967306137
 20
5.3204749193
 30
0.0
 10
4.6967306137
 20
5.3204217188
 30
0.0
  0
SPLINE
  5
44E
100
AcDbEntity
  8
0
100
AcDbSpline
 62
7
  6
CONTINUOUS
 70
0
 71
3
 72
43
 73
39
 74
0
 42
0.0000001
 43
0.0000001
 44
0.0000000001
 40
0.0
 40
0.0
 40
0.0
 40
0.0
 40
0.0001050661
 40
0.0002263949
 40
0.0003749753
 40
0.0005569162
 40
0.001032387
 40
0.0016666138
 40
0.0024647015
 40
0.0034291083
 40
0.0045610751
 40
0.0058611124
 40
0.0073294085
 40
0.0089659735
 40
0.0127433862
 40
0.0171917943
 40
0.0223077976
 40
0.0280866129
 40
0.0345232306
 40
0.0493465043
 40
0.0667210862
 40
0.0865818586
 40
0.1088521512
 40
0.1334469367
 40
0.1602715102
 40
0.1892224921
 40
0.2201888481
 40
0.2530506427
 40
0.2876818847
 40
0.3239484485
 40
0.4008238083
 40
0.4824920069
 40
0.5676945479
 40
0.6551182868
 40
0.7434155872
 40
0.8312264245
 40
0.9171948616
 40
1.0
 40
1.0
 40
1.0
 40
1.0
 10
5.3058805629
 20
4.7334838509
 30
0.0
 10
5.3058805541
 20
4.7334693512
 30
0.0
 10
5.3058734033
 20
4.7334379125
 30
0.0
 10
5.3058442077
 20
4.7333943146
 30
0.0
 10
5.3057980829
 20
4.7333518154
 30
0.0
 10
5.3057052241
 20
4.7332900449
 30
0.0
 10
5.3055418334
 20
4.7332166434
 30
0.0
 10
5.3052918696
 20
4.7331336683
 30
0.0
 10
5.3049715991
 20
4.7330501715
 30
0.0
 10
5.3045810185
 20
4.7329661836
 30
0.0
 10
5.3041198687
 20
4.7328819268
 30
0.0
 10
5.303588244
 20
4.7327974629
 30
0.0
 10
5.3029862382
 20
4.7327128506
 30
0.0
 10
5.3020438746
 20
4.7325941468
 30
0.0
 10
5.3006905568
 20
4.7324482962
 30
0.0
 10
5.298856996
 20
4.7322798826
 30
0.0
 10
5.2967462596
 20
4.7321110762
 30
0.0
 10
5.2943604068
 20
4.731941911
 30
0.0
 10
5.2906364583
 20
4.731704768
 30
0.0
 10
5.2853125855
 20
4.7314135565
 30
0.0
 10
5.2781361018
 20
4.7310769489
 30
0.0
 10
5.2699309458
 20
4.7307395412
 30
0.0
 10
5.2607286582
 20
4.7304014418
 30
0.0
 10
5.2505647667
 20
4.7300629136
 30
0.0
 10
5.2394784557
 20
4.729724052
 30
0.0
 10
5.2275124681
 20
4.7293849408
 30
0.0
 10
5.2147130105
 20
4.7290456485
 30
0.0
 10
5.2011293968
 20
4.7287061999
 30
0.0
 10
5.186814117
 20
4.7283666388
 30
0.0
 10
5.1664259671
 20
4.7279047515
 30
0.0
 10
5.1395473574
 20
4.7273322182
 30
0.0
 10
5.1059160439
 20
4.7266570397
 30
0.0
 10
5.0708287353
 20
4.7259814065
 30
0.0
 10
5.0348264222
 20
4.7253054893
 30
0.0
 10
4.9984640918
 20
4.7246294703
 30
0.0
 10
4.9623026331
 20
4.7239535114
 30
0.0
 10
4.9268992483
 20
4.7232777708
 30
0.0
 10
4.9036122788
 20
4.7228165955
 30
0.0
 10
4.8921871584
 20
4.7225838509
 30
0.0
  0
LINE
  5
44F
100
AcDbEntity
  8
0
100
AcDbLine
 62
7
  6
CONTINUOUS
 10
5.3051201483
 20
5.3319896903
 11
5.3048286826
 21
5.3319202336
  0
SPLINE
  5
450
100
AcDbEntity
  8
0
100
AcDbSpline
 62
7
  6
CONTINUOUS
 70
0
 71
3
 72
62
 73
58
 74
0
 42
0.0000001
 43
0.0000001
 44
0.0000000001
 40
0.0
 40
0.0
 40
0.0
 40
0.0
 40
0.0011730443
 40
0.0026256006
 40
0.004358324
 40
0.0063712126
 40
0.0112339497
 40
0.0172048327
 40
0.0242721248
 40
0.032419758
 40
0.041630272
 40
0.0518825396
 40
0.0631535783
 40
0.0754179805
 40
0.1028127416
 40
0.1338178525
 40
0.1681511376
 40
0.2054999653
 40
0.2455240964
 40
0.2878587113
 40
0.3321179796
 40
0.3778984017
 40
0.4247827054
 40
0.4723435315
 40
0.520147238
 40
0.5677581317
 40
0.6147420224
 40
0.6606707146
 40
0.7051254982
 40
0.7477011782
 40
0.7880097572
 40
0.8256837891
 40
0.8603800326
 40
0.8917824248
 40
0.9061579369
 40
0.9196052202
 40
0.9320940524
 40
0.9435955163
 40
0.9540841948
 40
0.9635357859
 40
0.9719294763
 40
0.9792463978
 40
0.985470397
 40
0.9905888061
 40
0.9927299844
 40
0.9945914471
 40
0.996172879
 40
0.9974743785
 40
0.9980204448
 40
0.9984970459
 40
0.9989047357
 40
0.9992444459
 40
0.9995178219
 40
0.9997280972
 40
0.9998117537
 40
0.9998830906
 40
1.0
 40
1.0
 40
1.0
 40
1.0
 10
5.3048286826
 20
5.3319202336
 30
0.0
 10
5.30460408
 20
5.3318707103
 30
0.0
 10
5.3040979011
 20
5.3317756735
 30
0.0
 10
5.3032530414
 20
5.3316469809
 30
0.0
 10
5.3022419929
 20
5.3315176879
 30
0.0
 10
5.3005642498
 20
5.3313329215
 30
0.0
 10
5.298055248
 20
5.3311084429
 30
0.0
 10
5.294554828
 20
5.3308508996
 30
0.0
 10
5.2904089296
 20
5.3305923767
 30
0.0
 10
5.2856268561
 20
5.3303329454
 30
0.0
 10
5.2802195257
 20
5.3300730373
 30
0.0
 10
5.274199184
 20
5.3298127344
 30
0.0
 10
5.2675795762
 20
5.3295521511
 30
0.0
 10
5.2576002643
 20
5.3291909855
 30
0.0
 10
5.2437523032
 20
5.3287455302
 30
0.0
 10
5.2255775721
 20
5.32822724
 30
0.0
 10
5.2054504699
 20
5.327708034
 30
0.0
 10
5.1835545026
 20
5.3271881069
 30
0.0
 10
5.1600893246
 20
5.3266676969
 30
0.0
 10
5.1352689191
 20
5.3261469307
 30
0.0
 10
5.1093196529
 20
5.3256259112
 30
0.0
 10
5.0824781647
 20
5.3251047124
 30
0.0
 10
5.0549892275
 20
5.3245833944
 30
0.0
 10
5.0271035183
 20
5.3240620074
 30
0.0
 10
4.9990753232
 20
5.3235405964
 30
0.0
 10
4.9711602664
 20
5.3230192047
 30
0.0
 10
4.9436129051
 20
5.3224978764
 30
0.0
 10
4.9166844695
 20
5.3219766612
 30
0.0
 10
4.8906205099
 20
5.3214556171
 30
0.0
 10
4.865658703
 20
5.3209348183
 30
0.0
 10
4.8420266869
 20
5.3204143564
 30
0.0
 10
4.8199399682
 20
5.3198943816
 30
0.0
 10
4.7995999823
 20
5.3193750274
 30
0.0
 10
4.7838277194
 20
5.3189309802
 30
0.0
 10
4.7722210341
 20
5.3185722227
 30
0.0
 10
4.7643214774
 20
5.3183112482
 30
0.0
 10
4.7569857552
 20
5.3180504468
 30
0.0
 10
4.7502305117
 20
5.3177898129
 30
0.0
 10
4.744071247
 20
5.3175294545
 30
0.0
 10
4.7385219003
 20
5.3172694285
 30
0.0
 10
4.7335951728
 20
5.3170098797
 30
0.0
 10
4.7293022048
 20
5.3167511198
 30
0.0
 10
4.7256527241
 20
5.316493262
 30
0.0
 10
4.7230183661
 20
5.3162688334
 30
0.0
 10
4.7212394818
 20
5.3160845616
 30
0.0
 10
4.7201522391
 20
5.3159550675
 30
0.0
 10
4.7192309369
 20
5.3158260353
 30
0.0
 10
4.718567884
 20
5.3157136886
 30
0.0
 10
4.7181215427
 20
5.3156215867
 30
0.0
 10
4.7178486329
 20
5.3155567439
 30
0.0
 10
4.7176174478
 20
5.3154920892
 30
0.0
 10
4.7174277488
 20
5.3154277205
 30
0.0
 10
4.7172794339
 20
5.3153635974
 30
0.0
 10
4.7171829684
 20
5.3153068979
 30
0.0
 10
4.7171287605
 20
5.3152596013
 30
0.0
 10
4.7170945682
 20
5.3152187107
 30
0.0
 10
4.7170806956
 20
5.3151817733
 30
0.0
 10
4.7170806821
 20
5.315158851
 30
0.0
  0
SPLINE
  5
451
100
AcDbEntity
  8
0
100
AcDbSpline
 62
7
  6
CONTINUOUS
 70
0
 71
3
 72
63
 73
59
 74
0
 42
0.0000001
 43
0.0000001
 44
0.0000000001
 40
0.0
 40
0.0
 40
0.0
 40
0.0
 40
0.0010305439
 40
0.0023428665
 40
0.0039378946
 40
0.0058154434
 40
0.0079749501
 40
0.0104156581
 40
0.0161361513
 40
0.0229644753
 40
0.0308862016
 40
0.0398832294
 40
0.0499353554
 40
0.0610197556
 40
0.0731108327
 40
0.1002007982
 40
0.1309570638
 40
0.1650973053
 40
0.2023080595
 40
0.2422475171
 40
0.2845487262
 40
0.32882305
 40
0.3746636464
 40
0.4216492279
 40
0.469348067
 40
0.5173216871
 40
0.5651292758
 40
0.612331412
 40
0.658494333
 40
0.703193838
 40
0.7460191384
 40
0.7865767516
 40
0.824494031
 40
0.8594226088
 40
0.875664673
 40
0.8910417939
 40
0.9055183912
 40
0.919061351
 40
0.9316397314
 40
0.9432244415
 40
0.9537894395
 40
0.9633100346
 40
0.9717652337
 40
0.9791354181
 40
0.9854046816
 40
0.9905593072
 40
0.992715317
 40
0.9945893606
 40
0.9961808781
 40
0.9974896925
 40
0.9980383522
 40
0.9985168552
 40
0.9989256787
 40
0.9992656228
 40
0.9995381322
 40
0.9996499814
 40
0.9997463072
 40
1.0
 40
1.0
 40
1.0
 40
1.0
 10
5.3254096959
 20
5.3717006909
 30
0.0
 10
5.3251996216
 20
5.3716499732
 30
0.0
 10
5.3247174727
 20
5.371553853
 30
0.0
 10
5.3239016971
 20
5.3714251175
 30
0.0
 10
5.3229065588
 20
5.3712956652
 30
0.0
 10
5.3217326195
 20
5.3711656481
 30
0.0
 10
5.3203804341
 20
5.3710352853
 30
0.0
 10
5.3182239373
 20
5.3708512785
 30
0.0
 10
5.315088515
 20
5.3706260884
 30
0.0
 10
5.3108035452
 20
5.3703666069
 30
0.0
 10
5.3058304289
 20
5.3701063921
 30
0.0
 10
5.300180502
 20
5.3698455284
 30
0.0
 10
5.2938667372
 20
5.3695842771
 30
0.0
 10
5.28690365
 20
5.3693227112
 30
0.0
 10
5.2763689872
 20
5.3689597606
 30
0.0
 10
5.2617095773
 20
5.3685123683
 30
0.0
 10
5.242426572
 20
5.3679921566
 30
0.0
 10
5.2210205227
 20
5.3674709821
 30
0.0
 10
5.1976882169
 20
5.3669490471
 30
0.0
 10
5.172644133
 20
5.3664266056
 30
0.0
 10
5.1461184914
 20
5.3659037914
 30
0.0
 10
5.1183551304
 20
5.3653807124
 30
0.0
 10
5.0896092707
 20
5.364857446
 30
0.0
 10
5.0601451608
 20
5.3643340543
 30
0.0
 10
5.0302336782
 20
5.363810589
 30
0.0
 10
5.0001497911
 20
5.3632870961
 30
0.0
 10
4.9701700804
 20
5.3627636197
 30
0.0
 10
4.940570139
 20
5.3622402052
 30
0.0
 10
4.9116220788
 20
5.3617169024
 30
0.0
 10
4.8835920123
 20
5.3611937711
 30
0.0
 10
4.8567376126
 20
5.3606708816
 30
0.0
 10
4.8313057522
 20
5.3601483417
 30
0.0
 10
4.8075302332
 20
5.3596262479
 30
0.0
 10
4.788853351
 20
5.3591816568
 30
0.0
 10
4.7749025729
 20
5.3588231794
 30
0.0
 10
4.7652396237
 20
5.3585609568
 30
0.0
 10
4.756142907
 20
5.35829883
 30
0.0
 10
4.7476333547
 20
5.3580368169
 30
0.0
 10
4.739730547
 20
5.3577749595
 30
0.0
 10
4.7324525946
 20
5.3575132794
 30
0.0
 10
4.7258163137
 20
5.3572518742
 30
0.0
 10
4.7198368487
 20
5.3569907978
 30
0.0
 10
4.7145280387
 20
5.3567302187
 30
0.0
 10
4.7099019191
 20
5.3564703986
 30
0.0
 10
4.7059691648
 20
5.3562115299
 30
0.0
 10
4.703130149
 20
5.3559861929
 30
0.0
 10
4.7012129397
 20
5.3558011821
 30
0.0
 10
4.7000411994
 20
5.3556711808
 30
0.0
 10
4.6990483435
 20
5.3555416487
 30
0.0
 10
4.6983337496
 20
5.3554288317
 30
0.0
 10
4.6978526551
 20
5.3553363266
 30
0.0
 10
4.6975585831
 20
5.3552712041
 30
0.0
 10
4.6973094812
 20
5.3552063661
 30
0.0
 10
4.6971050742
 20
5.3551416097
 30
0.0
 10
4.696964121
 20
5.355085276
 30
0.0
 10
4.696874141
 20
5.3550381966
 30
0.0
 10
4.6967940962
 20
5.3549878983
 30
0.0
 10
4.6967306137
 20
5.3549249194
 30
0.0
 10
4.6967306137
 20
5.3548717188
 30
0.0
  0
LINE
  5
452
100
AcDbEntity
  8
0
100
AcDbLine
 62
7
  6
CONTINUOUS
 10
5.3051202173
 20
5.3664396903
 11
5.3047874532
 21
5.3663612094
  0
SPLINE
  5
453
100
AcDbEntity
  8
0
100
AcDbSpline
 62
7
  6
CONTINUOUS
 70
0
 71
3
 72
62
 73
58
 74
0
 42
0.0000001
 43
0.0000001
 44
0.0000000001
 40
0.0
 40
0.0
 40
0.0
 40
0.0
 40
0.0011917355
 40
0.0026628804
 40
0.0044137858
 40
0.0064442606
 40
0.0113415203
 40
0.01734569
 40
0.0244442858
 40
0.032622176
 40
0.0418606508
 40
0.0521396639
 40
0.0634353968
 40
0.0757227799
 40
0.1031580213
 40
0.1341963188
 40
0.1685555901
 40
0.2059230851
 40
0.2459587594
 40
0.2882981069
 40
0.3325556648
 40
0.3783285278
 40
0.4251998336
 40
0.4727428177
 40
0.5205244593
 40
0.5681096385
 40
0.6150650662
 40
0.6609631485
 40
0.7053859404
 40
0.7479289631
 40
0.78820476
 40
0.8258467855
 40
0.8605124217
 40
0.8918863319
 40
0.9062486075
 40
0.919683297
 40
0.9321600979
 40
0.943650796
 40
0.9541290448
 40
0.9635717412
 40
0.9719569871
 40
0.979266774
 40
0.9854846562
 40
0.9905977863
 40
0.9927370683
 40
0.9945967582
 40
0.9961764556
 40
0.9974765101
 40
0.9980220437
 40
0.9984982651
 40
0.9989056827
 40
0.9992451678
 40
0.9995183152
 40
0.9997283668
 40
0.9998119262
 40
0.999883183
 40
1.0
 40
1.0
 40
1.0
 40
1.0
 10
5.3047874532
 20
5.3663612094
 30
0.0
 10
5.3045590883
 20
5.3663118153
 30
0.0
 10
5.3040454979
 20
5.3662169184
 30
0.0
 10
5.3031897008
 20
5.3660882507
 30
0.0
 10
5.302167982
 20
5.3659589938
 30
0.0
 10
5.3004764817
 20
5.3657743814
 30
0.0
 10
5.2979508461
 20
5.3655500378
 30
0.0
 10
5.294431188
 20
5.3652925974
 30
0.0
 10
5.2902669534
 20
5.3650341515
 30
0.0
 10
5.2854676394
 20
5.3647748678
 30
0.0
 10
5.2800440168
 20
5.3645150564
 30
0.0
 10
5.27400852
 20
5.3642549015
 30
0.0
 10
5.2673747812
 20
5.3639944414
 30
0.0
 10
5.2573788827
 20
5.3636335154
 30
0.0
 10
5.2435129499
 20
5.3631883165
 30
0.0
 10
5.2253199705
 20
5.3626702846
 30
0.0
 10
5.2051790399
 20
5.362151343
 30
0.0
 10
5.1832736167
 20
5.3616316848
 30
0.0
 10
5.1598032638
 20
5.3611115461
 30
0.0
 10
5.134981777
 20
5.3605910532
 30
0.0
 10
5.1090352565
 20
5.3600703087
 30
0.0
 10
5.082200055
 20
5.3595493862
 30
0.0
 10
5.0547206141
 20
5.3590283455
 30
0.0
 10
5.0268472742
 20
5.3585072365
 30
0.0
 10
4.9988339521
 20
5.3579861036
 30
0.0
 10
4.9709358429
 20
5.35746499
 30
0.0
 10
4.9434070784
 20
5.3569439404
 30
0.0
 10
4.9164984262
 20
5.3564230042
 30
0.0
 10
4.8904550105
 20
5.3559022393
 30
0.0
 10
4.8655140946
 20
5.3553817201
 30
0.0
 10
4.8419028772
 20
5.3548615367
 30
0.0
 10
4.8198364447
 20
5.3543418399
 30
0.0
 10
4.7995157767
 20
5.3538227639
 30
0.0
 10
4.7837588246
 20
5.3533789524
 30
0.0
 10
4.7721636198
 20
5.3530203858
 30
0.0
 10
4.7642720524
 20
5.3527595559
 30
0.0
 10
4.7569437953
 20
5.3524988829
 30
0.0
 10
4.7501955499
 20
5.3522384085
 30
0.0
 10
4.7440426274
 20
5.3519781663
 30
0.0
 10
4.738499122
 20
5.3517183038
 30
0.0
 10
4.7335775471
 20
5.3514588774
 30
0.0
 10
4.729289141
 20
5.3512002605
 30
0.0
 10
4.7256435541
 20
5.3509425577
 30
0.0
 10
4.7230119948
 20
5.3507182154
 30
0.0
 10
4.7212349904
 20
5.3505340669
 30
0.0
 10
4.7201488845
 20
5.3504046487
 30
0.0
 10
4.7192286213
 20
5.3502756777
 30
0.0
 10
4.7185663468
 20
5.3501633828
 30
0.0
 10
4.7181205006
 20
5.350071331
 30
0.0
 10
4.7178478417
 20
5.3500065249
 30
0.0
 10
4.7176168423
 20
5.3499419087
 30
0.0
 10
4.7174272948
 20
5.3498775809
 30
0.0
 10
4.7172791211
 20
5.3498134948
 30
0.0
 10
4.7171827726
 20
5.3497568209
 30
0.0
 10
4.7171286567
 20
5.3497095466
 30
0.0
 10
4.7170945328
 20
5.3496686705
 30
0.0
 10
4.717080718
 20
5.3496317534
 30
0.0
 10
4.7170807248
 20
5.3496088509
 30
0.0
  0
SPLINE
  5
454
100
AcDbEntity
  8
0
100
AcDbSpline
 62
7
  6
CONTINUOUS
 70
0
 71
3
 72
45
 73
41
 74
0
 42
0.0000001
 43
0.0000001
 44
0.0000000001
 40
0.0
 40
0.0
 40
0.0
 40
0.0
 40
0.0009100685
 40
0.0020684833
 40
0.0034764673
 40
0.0051340864
 40
0.0070409767
 40
0.0091965776
 40
0.0142508828
 40
0.0202879832
 40
0.0272963838
 40
0.0352628939
 40
0.0441712591
 40
0.0540043847
 40
0.0647422772
 40
0.0888452437
 40
0.1162872937
 40
0.1468484968
 40
0.1802837355
 40
0.2163247752
 40
0.2546822259
 40
0.2950480359
 40
0.3370981167
 40
0.3804948149
 40
0.4699260429
 40
0.5604744607
 40
0.6492371649
 40
0.7333683871
 40
0.7728461218
 40
0.8101711229
 40
0.8450437403
 40
0.8771840007
 40
0.906333976
 40
0.9322598343
 40
0.9547541434
 40
0.973636748
 40
0.9816757794
 40
0.9887586514
 40
0.9948709871
 40
1.0
 40
1.0
 40
1.0
 40
1.0
 10
5.32551877
 20
5.1305779623
 30
0.0
 10
5.3253359863
 20
5.1305305777
 30
0.0
 10
5.3249159845
 20
5.1304407222
 30
0.0
 10
5.3242047048
 20
5.1303203586
 30
0.0
 10
5.3233365709
 20
5.1301993395
 30
0.0
 10
5.322311993
 20
5.130077799
 30
0.0
 10
5.32113139
 20
5.1299559378
 30
0.0
 10
5.319247597
 20
5.1297839034
 30
0.0
 10
5.316506989
 20
5.1295733671
 30
0.0
 10
5.3127593383
 20
5.1293308177
 30
0.0
 10
5.3084064047
 20
5.1290875429
 30
0.0
 10
5.3034569565
 20
5.128843701
 30
0.0
 10
5.2979208077
 20
5.1285994665
 30
0.0
 10
5.2918091485
 20
5.1283549558
 30
0.0
 10
5.2825461659
 20
5.1280154368
 30
0.0
 10
5.269630111
 20
5.1275969178
 30
0.0
 10
5.2526012076
 20
5.1271105244
 30
0.0
 10
5.2336353156
 20
5.1266232259
 30
0.0
 10
5.2128847483
 20
5.1261352076
 30
0.0
 10
5.1905161746
 20
5.1256467075
 30
0.0
 10
5.1667092986
 20
5.1251578466
 30
0.0
 10
5.1416553928
 20
5.1246687256
 30
0.0
 10
5.1155557318
 20
5.1241794048
 30
0.0
 10
5.0792771268
 20
5.1235202123
 30
0.0
 10
5.0329369937
 20
5.1227063315
 30
0.0
 10
4.977185339
 20
5.1217387657
 30
0.0
 10
4.9225335139
 20
5.1207717572
 30
0.0
 10
4.8784771733
 20
5.1199510351
 30
0.0
 10
4.8450924056
 20
5.119284835
 30
0.0
 10
4.8219265749
 20
5.1187961117
 30
0.0
 10
4.8002835109
 20
5.1183078179
 30
0.0
 10
4.7803370916
 20
5.1178201028
 30
0.0
 10
4.7622475765
 20
5.1173331737
 30
0.0
 10
4.7461602076
 20
5.1168475372
 30
0.0
 10
4.7322042256
 20
5.1163634764
 30
0.0
 10
4.7219596214
 20
5.1159434724
 30
0.0
 10
4.7149125424
 20
5.1155995609
 30
0.0
 10
4.7105134349
 20
5.1153561859
 30
0.0
 10
4.7067191323
 20
5.1151135825
 30
0.0
 10
4.7043932793
 20
5.1149373737
 30
0.0
 10
4.7033329535
 20
5.1148467188
 30
0.0
  0
SPLINE
  5
455
100
AcDbEntity
  8
0
100
AcDbSpline
 62
7
  6
CONTINUOUS
 70
0
 71
3
 72
44
 73
40
 74
0
 42
0.0000001
 43
0.0000001
 44
0.0000000001
 40
0.0
 40
0.0
 40
0.0
 40
0.0
 40
0.0009625489
 40
0.0021722569
 40
0.0036302656
 40
0.0053369671
 40
0.0094947467
 40
0.0146395257
 40
0.0207630441
 40
0.0278533988
 40
0.0358969644
 40
0.0448783142
 40
0.0547791533
 40
0.0655804554
 40
0.0897954561
 40
0.1173303807
 40
0.1479653699
 40
0.1814553276
 40
0.2175323645
 40
0.2559079021
 40
0.2962749011
 40
0.3383102889
 40
0.3816775528
 40
0.4710112178
 40
0.5614213896
 40
0.650018844
 40
0.7339725753
 40
0.7733614315
 40
0.8105998229
 40
0.8453898159
 40
0.8774530997
 40
0.9065332455
 40
0.9323976645
 40
0.9548401958
 40
0.973681811
 40
0.9817048503
 40
0.9887747929
 40
0.994877398
 40
1.0
 40
1.0
 40
1.0
 40
1.0
 10
5.3051201137
 20
5.1252896903
 30
0.0
 10
5.3049393088
 20
5.125242816
 30
0.0
 10
5.3045270812
 20
5.1251533981
 30
0.0
 10
5.3038329069
 20
5.1250330404
 30
0.0
 10
5.3029926197
 20
5.124912044
 30
0.0
 10
5.3015822652
 20
5.1247385174
 30
0.0
 10
5.2994560502
 20
5.1245281596
 30
0.0
 10
5.2964722812
 20
5.1242870365
 30
0.0
 10
5.292917948
 20
5.1240449392
 30
0.0
 10
5.2888000764
 20
5.1238019402
 30
0.0
 10
5.2841268267
 20
5.1235584399
 30
0.0
 10
5.2789075683
 20
5.1233145818
 30
0.0
 10
5.2731526602
 20
5.1230704208
 30
0.0
 10
5.2644430794
 20
5.122731587
 30
0.0
 10
5.2523121726
 20
5.1223137841
 30
0.0
 10
5.2363327615
 20
5.1218281142
 30
0.0
 10
5.2185528311
 20
5.1213415552
 30
0.0
 10
5.1991147661
 20
5.1208542912
 30
0.0
 10
5.1781742275
 20
5.1203665525
 30
0.0
 10
5.1558988722
 20
5.1198784595
 30
0.0
 10
5.1324670444
 20
5.1193901119
 30
0.0
 10
5.1080663774
 20
5.1189015685
 30
0.0
 10
5.0741652427
 20
5.1182435171
 30
0.0
 10
5.0308782367
 20
5.1174310002
 30
0.0
 10
4.9788156684
 20
5.1164649477
 30
0.0
 10
4.927797245
 20
5.1154994555
 30
0.0
 10
4.8866785044
 20
5.1146799923
 30
0.0
 10
4.8555249177
 20
5.1140148279
 30
0.0
 10
4.8339099423
 20
5.1135268875
 30
0.0
 10
4.8137168653
 20
5.1130393757
 30
0.0
 10
4.7951073719
 20
5.1125524404
 30
0.0
 10
4.7782305074
 20
5.1120662911
 30
0.0
 10
4.7632213525
 20
5.1115814273
 30
0.0
 10
4.7502001126
 20
5.1110981329
 30
0.0
 10
4.7406411205
 20
5.1106788022
 30
0.0
 10
4.7340650439
 20
5.1103354606
 30
0.0
 10
4.7299591843
 20
5.1100924644
 30
0.0
 10
4.7264172402
 20
5.1098502402
 30
0.0
 10
4.7242459948
 20
5.1096743359
 30
0.0
 10
4.7232560826
 20
5.1095838509
 30
0.0
  0
SPLINE
  5
456
100
AcDbEntity
  8
0
100
AcDbSpline
 62
7
  6
CONTINUOUS
 70
0
 71
3
 72
63
 73
59
 74
0
 42
0.0000001
 43
0.0000001
 44
0.0000000001
 40
0.0
 40
0.0
 40
0.0
 40
0.0
 40
0.0001173728
 40
0.000189092
 40
0.000273263
 40
0.0004849876
 40
0.0007603742
 40
0.0011026384
 40
0.0015134036
 40
0.0019935781
 40
0.0025437082
 40
0.0038550309
 40
0.005448692
 40
0.0073246263
 40
0.0094823282
 40
0.0146398837
 40
0.0209118707
 40
0.028284481
 40
0.0367420937
 40
0.04626501
 40
0.0568322232
 40
0.0684192726
 40
0.080999773
 40
0.0945450952
 40
0.1090238065
 40
0.1406475047
 40
0.1755805308
 40
0.2135020995
 40
0.2540637395
 40
0.2968927791
 40
0.3415956595
 40
0.3877614684
 40
0.4349659956
 40
0.482775196
 40
0.530749693
 40
0.5784484625
 40
0.6254330833
 40
0.6712717408
 40
0.7155430587
 40
0.75784015
 40
0.7977742745
 40
0.8349785048
 40
0.8691111415
 40
0.8998587665
 40
0.9269392377
 40
0.9390252997
 40
0.9501044556
 40
0.9601510008
 40
0.9691427001
 40
0.9770585629
 40
0.98388156
 40
0.9895963973
 40
0.9920345041
 40
0.9941916605
 40
0.9960669876
 40
0.9976598481
 40
0.9989703964
 40
1.0
 40
1.0
 40
1.0
 40
1.0
 10
5.3058806134
 20
5.0779838509
 30
0.0
 10
5.3058806116
 20
5.077960826
 30
0.0
 10
5.3058666036
 20
5.0779237056
 30
0.0
 10
5.3058321297
 20
5.0778826718
 30
0.0
 10
5.305777438
 20
5.0778351699
 30
0.0
 10
5.3056801333
 20
5.0777782449
 30
0.0
 10
5.3055305564
 20
5.0777138625
 30
0.0
 10
5.305339256
 20
5.0776492318
 30
0.0
 10
5.305106144
 20
5.0775843112
 30
0.0
 10
5.3048309913
 20
5.0775192003
 30
0.0
 10
5.3043809965
 20
5.0774267075
 30
0.0
 10
5.3037124795
 20
5.07731389
 30
0.0
 10
5.3027835376
 20
5.0771843338
 30
0.0
 10
5.3016872575
 20
5.0770543087
 30
0.0
 10
5.2998937032
 20
5.0768692768
 30
0.0
 10
5.2972376669
 20
5.0766438969
 30
0.0
 10
5.2935583041
 20
5.0763850033
 30
0.0
 10
5.2892302706
 20
5.0761251468
 30
0.0
 10
5.2842635749
 20
5.0758645396
 30
0.0
 10
5.2786694628
 20
5.0756034312
 30
0.0
 10
5.2724608728
 20
5.075341992
 30
0.0
 10
5.2656520098
 20
5.0750802879
 30
0.0
 10
5.2582585474
 20
5.074818395
 30
0.0
 10
5.2502975077
 20
5.0745563516
 30
0.0
 10
5.2386020211
 20
5.0741961162
 30
0.0
 10
5.2227116186
 20
5.0737502628
 30
0.0
 10
5.2022228539
 20
5.0732287632
 30
0.0
 10
5.1799802388
 20
5.0727066436
 30
0.0
 10
5.1561882886
 20
5.0721840343
 30
0.0
 10
5.1310657619
 20
5.0716610887
 30
0.0
 10
5.1048436505
 20
5.0711378975
 30
0.0
 10
5.0777630438
 20
5.0706145361
 30
0.0
 10
5.0500729654
 20
5.070091063
 30
0.0
 10
5.0220280178
 20
5.069567528
 30
0.0
 10
4.9938860988
 20
5.0690439763
 30
0.0
 10
4.9659059641
 20
5.0685204522
 30
0.0
 10
4.9383448871
 20
5.0679970019
 30
0.0
 10
4.9114562904
 20
5.0674736773
 30
0.0
 10
4.885487416
 20
5.0669505405
 30
0.0
 10
4.8606770656
 20
5.0664276688
 30
0.0
 10
4.837253372
 20
5.0659051696
 30
0.0
 10
4.8154317017
 20
5.0653831773
 30
0.0
 10
4.7954126691
 20
5.0648619463
 30
0.0
 10
4.7773803164
 20
5.064341679
 30
0.0
 10
4.7636725817
 20
5.0638942322
 30
0.0
 10
4.7538226155
 20
5.0635312334
 30
0.0
 10
4.7473127417
 20
5.0632696446
 30
0.0
 10
4.7414104065
 20
5.0630083511
 30
0.0
 10
4.7361292625
 20
5.0627474807
 30
0.0
 10
4.731481299
 20
5.0624872123
 30
0.0
 10
4.7274772662
 20
5.0622277378
 30
0.0
 10
4.7245479661
 20
5.0620024986
 30
0.0
 10
4.7225338025
 20
5.061818455
 30
0.0
 10
4.7212711478
 20
5.0616880755
 30
0.0
 10
4.7201752715
 20
5.0615580488
 30
0.0
 10
4.7192467006
 20
5.0614285747
 30
0.0
 10
4.7184859034
 20
5.0612998163
 30
0.0
 10
4.7180366551
 20
5.0612037034
 30
0.0
 10
4.7178411438
 20
5.0611530115
 30
0.0
  0
SPLINE
  5
457
100
AcDbEntity
  8
0
100
AcDbSpline
 62
7
  6
CONTINUOUS
 70
0
 71
3
 72
63
 73
59
 74
0
 42
0.0000001
 43
0.0000001
 44
0.0000000001
 40
0.0
 40
0.0
 40
0.0
 40
0.0
 40
0.0010305488
 40
0.0023428763
 40
0.0039379092
 40
0.0058154627
 40
0.0079749741
 40
0.0104156864
 40
0.0161361879
 40
0.0229645197
 40
0.0308862536
 40
0.0398832882
 40
0.0499354205
 40
0.0610198261
 40
0.0731109087
 40
0.1002008843
 40
0.1309571577
 40
0.1650974078
 40
0.2023081681
 40
0.2422476303
 40
0.284548844
 40
0.3288231691
 40
0.3746637636
 40
0.4216493439
 40
0.4693481802
 40
0.5173217944
 40
0.5651293801
 40
0.6123315063
 40
0.6584944184
 40
0.7031939143
 40
0.7460192019
 40
0.7865768078
 40
0.8244940777
 40
0.8594226492
 40
0.8756647097
 40
0.8910418262
 40
0.9055184197
 40
0.9190613758
 40
0.9316397528
 40
0.9432244591
 40
0.9537894533
 40
0.9633100455
 40
0.9717652419
 40
0.979135424
 40
0.9854046854
 40
0.9905593093
 40
0.9927153186
 40
0.9945893618
 40
0.996180879
 40
0.9974896931
 40
0.9980383526
 40
0.9985168556
 40
0.9989256789
 40
0.9992656229
 40
0.9995381323
 40
0.9996499814
 40
0.9997463072
 40
1.0
 40
1.0
 40
1.0
 40
1.0
 10
5.3254096862
 20
5.1650006885
 30
0.0
 10
5.3251996109
 20
5.1649499709
 30
0.0
 10
5.3247174599
 20
5.1648538508
 30
0.0
 10
5.3239016812
 20
5.1647251152
 30
0.0
 10
5.3229065398
 20
5.164595663
 30
0.0
 10
5.3217325975
 20
5.1644656459
 30
0.0
 10
5.3203804093
 20
5.164335283
 30
0.0
 10
5.3182239089
 20
5.1641512763
 30
0.0
 10
5.3150884822
 20
5.1639260862
 30
0.0
 10
5.3108035076
 20
5.1636666048
 30
0.0
 10
5.3058303867
 20
5.1634063901
 30
0.0
 10
5.3001804555
 20
5.1631455263
 30
0.0
 10
5.293866687
 20
5.1628842751
 30
0.0
 10
5.2869035963
 20
5.1626227093
 30
0.0
 10
5.2763689292
 20
5.1622597587
 30
0.0
 10
5.2617095146
 20
5.1618123665
 30
0.0
 10
5.2424265041
 20
5.1612921548
 30
0.0
 10
5.2210204504
 20
5.1607709805
 30
0.0
 10
5.1976881409
 20
5.1602490455
 30
0.0
 10
5.1726440543
 20
5.159726604
 30
0.0
 10
5.1461184109
 20
5.1592037898
 30
0.0
 10
5.1183550494
 20
5.1586807109
 30
0.0
 10
5.0896091905
 20
5.1581574446
 30
0.0
 10
5.0601450824
 20
5.1576340529
 30
0.0
 10
5.0302336023
 20
5.1571105877
 30
0.0
 10
5.0001497181
 20
5.1565870948
 30
0.0
 10
4.9701700119
 20
5.1560636185
 30
0.0
 10
4.9405700755
 20
5.1555402041
 30
0.0
 10
4.9116220217
 20
5.1550169014
 30
0.0
 10
4.8835919621
 20
5.1544937702
 30
0.0
 10
4.856737569
 20
5.1539708807
 30
0.0
 10
4.8313057152
 20
5.1534483409
 30
0.0
 10
4.8075302014
 20
5.1529262471
 30
0.0
 10
4.7888533236
 20
5.1524816561
 30
0.0
 10
4.7749025487
 20
5.1521231787
 30
0.0
 10
4.7652396022
 20
5.1518609562
 30
0.0
 10
4.7561428881
 20
5.1515988294
 30
0.0
 10
4.7476333382
 20
5.1513368164
 30
0.0
 10
4.7397305329
 20
5.151074959
 30
0.0
 10
4.7324525829
 20
5.150813279
 30
0.0
 10
4.7258163044
 20
5.1505518738
 30
0.0
 10
4.7198368414
 20
5.1502907975
 30
0.0
 10
4.7145280332
 20
5.1500302184
 30
0.0
 10
4.7099019151
 20
5.1497703984
 30
0.0
 10
4.7059691621
 20
5.1495115297
 30
0.0
 10
4.7031301473
 20
5.1492861927
 30
0.0
 10
4.7012129385
 20
5.149101182
 30
0.0
 10
4.7000411985
 20
5.1489711807
 30
0.0
 10
4.6990483429
 20
5.1488416486
 30
0.0
 10
4.6983337492
 20
5.1487288316
 30
0.0
 10
4.6978526548
 20
5.1486363265
 30
0.0
 10
4.6975585829
 20
5.148571204
 30
0.0
 10
4.697309481
 20
5.1485063661
 30
0.0
 10
4.697105074
 20
5.1484416096
 30
0.0
 10
4.696964121
 20
5.148385276
 30
0.0
 10
4.696874141
 20
5.1483381965
 30
0.0
 10
4.6967940962
 20
5.1482878982
 30
0.0
 10
4.6967306137
 20
5.1482249193
 30
0.0
 10
4.6967306137
 20
5.1481717188
 30
0.0
  0
SPLINE
  5
458
100
AcDbEntity
  8
0
100
AcDbSpline
 62
7
  6
CONTINUOUS
 70
0
 71
3
 72
63
 73
59
 74
0
 42
0.0000001
 43
0.0000001
 44
0.0000000001
 40
0.0
 40
0.0
 40
0.0
 40
0.0
 40
0.0010774659
 40
0.0024355598
 40
0.0040750795
 40
0.0059960702
 40
0.0081982057
 40
0.0106806765
 40
0.0164810537
 40
0.023385373
 40
0.0313789136
 40
0.0404433386
 40
0.0505588847
 40
0.0617019356
 40
0.07384763
 40
0.1010330026
 40
0.1318666774
 40
0.1660664642
 40
0.2033192144
 40
0.2432835104
 40
0.2855932038
 40
0.3298605359
 40
0.3756797588
 40
0.4226309939
 40
0.4702837443
 40
0.5182012673
 40
0.5659442372
 40
0.6130750447
 40
0.6591617031
 40
0.7037817454
 40
0.7465262068
 40
0.7870032932
 40
0.8248420443
 40
0.859695876
 40
0.8912455832
 40
0.9056900338
 40
0.919202442
 40
0.9317523554
 40
0.9433108893
 40
0.9538516426
 40
0.9633510057
 40
0.9717869444
 40
0.9791412306
 40
0.9853969907
 40
0.9905415048
 40
0.9926938632
 40
0.9945648662
 40
0.99615424
 40
0.9974622691
 40
0.998011128
 40
0.9984902209
 40
0.9989000472
 40
0.9992414731
 40
0.9995161304
 40
0.9997272831
 40
0.9998112416
 40
0.999882802
 40
1.0
 40
1.0
 40
1.0
 40
1.0
 10
5.3050284637
 20
5.1597165799
 30
0.0
 10
5.3048232008
 20
5.1596663002
 30
0.0
 10
5.3043548826
 20
5.1595705595
 30
0.0
 10
5.3035659634
 20
5.1594418197
 30
0.0
 10
5.3026098589
 20
5.1593124005
 30
0.0
 10
5.3014870381
 20
5.1591824669
 30
0.0
 10
5.3001979605
 20
5.1590522164
 30
0.0
 10
5.2981496448
 20
5.158868603
 30
0.0
 10
5.2951792503
 20
5.1586436978
 30
0.0
 10
5.291127786
 20
5.1583844724
 30
0.0
 10
5.2864350352
 20
5.1581245239
 30
0.0
 10
5.2811116429
 20
5.1578639375
 30
0.0
 10
5.2751698732
 20
5.1576029991
 30
0.0
 10
5.2686232422
 20
5.1573417275
 30
0.0
 10
5.2587300039
 20
5.1569793512
 30
0.0
 10
5.2449752784
 20
5.1565325593
 30
0.0
 10
5.2268951615
 20
5.1560129511
 30
0.0
 10
5.2068397512
 20
5.1554923933
 30
0.0
 10
5.1849929583
 20
5.1549710886
 30
0.0
 10
5.1615551028
 20
5.1544492841
 30
0.0
 10
5.1367411149
 20
5.1539271125
 30
0.0
 10
5.1107785213
 20
5.1534046797
 30
0.0
 10
5.0839053749
 20
5.1528820622
 30
0.0
 10
5.0563681023
 20
5.1523593215
 30
0.0
 10
5.0284192034
 20
5.1518365086
 30
0.0
 10
5.0003149894
 20
5.1513136693
 30
0.0
 10
4.9723131653
 20
5.1507908472
 30
0.0
 10
4.9446705039
 20
5.1502680875
 30
0.0
 10
4.9176404742
 20
5.1497454402
 30
0.0
 10
4.8914709323
 20
5.1492229636
 30
0.0
 10
4.8664018589
 20
5.1487007327
 30
0.0
 10
4.8426631447
 20
5.1481788383
 30
0.0
 10
4.8204724612
 20
5.1476574312
 30
0.0
 10
4.8000332751
 20
5.1471366469
 30
0.0
 10
4.7841821897
 20
5.1466913876
 30
0.0
 10
4.7725162688
 20
5.1463316546
 30
0.0
 10
4.7645756828
 20
5.1460699595
 30
0.0
 10
4.7572014556
 20
5.1458084303
 30
0.0
 10
4.7504104682
 20
5.1455470906
 30
0.0
 10
4.7442182788
 20
5.1452859934
 30
0.0
 10
4.7386391249
 20
5.1450252712
 30
0.0
 10
4.7336856942
 20
5.1447649857
 30
0.0
 10
4.7293693825
 20
5.1445055216
 30
0.0
 10
4.7256999479
 20
5.1442469576
 30
0.0
 10
4.7230511286
 20
5.1440218847
 30
0.0
 10
4.7212624344
 20
5.1438371282
 30
0.0
 10
4.7201691883
 20
5.1437072762
 30
0.0
 10
4.7192428538
 20
5.1435778811
 30
0.0
 10
4.7185761826
 20
5.1434652176
 30
0.0
 10
4.7181273658
 20
5.1433728616
 30
0.0
 10
4.7178529015
 20
5.1433078427
 30
0.0
 10
4.7176203857
 20
5.1432430158
 30
0.0
 10
4.7174296076
 20
5.1431784751
 30
0.0
 10
4.7172804789
 20
5.1431141779
 30
0.0
 10
4.7171834969
 20
5.1430573229
 30
0.0
 10
4.7171290099
 20
5.1430098868
 30
0.0
 10
4.7170946629
 20
5.1429688943
 30
0.0
 10
4.7170807298
 20
5.1429318378
 30
0.0
 10
4.7170807304
 20
5.1429088509
 30
0.0
  0
ELLIPSE
  5
459
100
AcDbEntity
  8
0
100
AcDbEllipse
 62
7
  6
CONTINUOUS
 10
5.1502048267
 20
4.7728338509
 30
0.0
 11
-0.0398102322
 21
0.0
 31
0.0
 40
0.5023834047
 41
1.5707963268
 42
3.1415926536
  0
ELLIPSE
  5
45A
100
AcDbEntity
  8
0
100
AcDbEllipse
 62
7
  6
CONTINUOUS
 10
4.7737479182
 20
4.7728338509
 30
0.0
 11
0.020289227
 21
0.0
 31
0.0
 40
0.985744801
 41
-1.5707963268
 42
0.0
  0
ELLIPSE
  5
45B
100
AcDbEntity
  8
0
100
AcDbEllipse
 62
7
  6
CONTINUOUS
 10
5.2492133092
 20
4.7728338509
 30
0.0
 11
0.020289227
 21
-0.0
 31
0.0
 40
0.985744801
 41
-3.1415926536
 42
-1.5707963268
  0
ELLIPSE
  5
45C
100
AcDbEntity
  8
0
100
AcDbEllipse
 62
7
  6
CONTINUOUS
 10
4.8727564007
 20
4.7728338509
 30
0.0
 11
-0.0398102322
 21
0.0
 31
0.0
 40
0.5023834047
 41
0.0
 42
1.5707963268
  0
ENDSEC
  0
SECTION
  2
OBJECTS
  0
DICTIONARY
  5
C
100
AcDbDictionary
280
0
281
1
  3
ACAD_GROUP
350
D
  3
ACAD_MLINESTYLE
350
17
  3
ACAD_LAYOUT
350
1A
  3
ACAD_PLOTSETTINGS
350
19
  3
ACAD_PLOTSTYLENAME
350
E
  0
DICTIONARY
  5
D
102
{ACAD_REACTORS
330
C
102
}
100
AcDbDictionary
280
0
281
1
  0
ACDBDICTIONARYWDFLT
  5
E
102
{ACAD_REACTORS
330
C
102
}
100
AcDbDictionary
281
1
  3
Normal
350
F
100
AcDbDictionaryWithDefault
340
F
  0
DICTIONARY
  5
17
102
{ACAD_REACTORS
330
C
102
}
100
AcDbDictionary
280
0
281
1
  3
Standard
350
18
  0
DICTIONARY
  5
19
102
{ACAD_REACTORS
330
C
102
}
100
AcDbDictionary
281
1
  0
DICTIONARY
  5
1A
102
{ACAD_REACTORS
330
C
102
}
100
AcDbDictionary
281
1
  3
Model
350
45D
  3
Layout1
350
45E
  0
ACDBPLACEHOLDER
  5
F
102
{ACAD_REACTORS
330
E
102
}
  0
MLINESTYLE
  5
18
102
{ACAD_REACTORS
330
17
102
}
100
AcDbMlineStyle
  2
STANDARD
 70
0
  3

 62
256
 51
90.0
 52
90.0
 71
2
 49
0.5
 62
256
  6
BYLAYER
 49
-0.5
 62
256
  6
BYLAYER
  0
LAYOUT
  5
45D
102
{ACAD_REACTORS
330
1A
102
}
100
AcDbPlotSettings
  1

  2
none_device
  4
ANSI_A_(11.00_x_8.50_Inches)
  6

 40
0.0
 41
0.0
 42
0.0
 43
0.0
 44
279.4
 45
215.9
 46
0.0
 47
0.0
 48
0.0
 49
0.0
140
0.0
141
0.0
142
1.0
143
1.0
 70
1024
 72
0
 73
0
 74
0
  7

 75
0
147
1.0
148
0.0
149
0.0
100
AcDbLayout
  1
Model
 70
0
 71
0
 10
0.0
 20
0.0
 11
11.0
 21
8.5
 12
0.0
 22
0.0
 32
0.0
 14
0.0
 24
0.0
 34
0.0
 15
0.0
 25
0.0
 35
0.0
146
0.0
 13
0.0
 23
0.0
 33
0.0
 16
1.0
 26
0.0
 36
0.0
 17
0.0
 27
1.0
 37
0.0
 76
0
330
202
345
0
346
0
  0
LAYOUT
  5
45E
102
{ACAD_REACTORS
330
1A
102
}
100
AcDbPlotSettings
  1

  2
none_device
  4
ANSI_A_(11.00_x_8.50_Inches)
  6

 40
0.0
 41
0.0
 42
0.0
 43
0.0
 44
279.4
 45
215.9
 46
0.0
 47
0.0
 48
0.0
 49
0.0
140
0.0
141
0.0
142
1.0
143
1.0
 70
0
 72
0
 73
0
 74
0
  7

 75
0
147
1.0
148
0.0
149
0.0
100
AcDbLayout
  1
Layout1
 70
0
 71
1
 10
0.0
 20
0.0
 11
11.0
 21
8.5
 12
0.0
 22
0.0
 32
0.0
 14
0.0
 24
0.0
 34
0.0
 15
0.0
 25
0.0
 35
0.0
146
0.0
 13
0.0
 23
0.0
 33
0.0
 16
1.0
 26
0.0
 36
0.0
 17
0.0
 27
1.0
 37
0.0
 76
0
330
203
345
0
346
0
  0
ENDSEC
  0
EOF
