999
DXF file: 2940-5711_top.dxf
999
Pro/ENGINEER 2018400 by Parametric Technology Corporation
  0
SECTION
  2
HEADER
  9
$ACADVER
  1
AC1027
  9
$DWGCODEPAGE
  3
ANSI_1252
  9
$EXTMAX
 10
11.0
 20
8.5
 30
0.0
  9
$EXTMIN
 10
0.0
 20
0.0
 30
0.0
  9
$LIMMIN
 10
0.0
 20
0.0
  9
$LIMMAX
 10
11.0
 20
8.5
  9
$VIEWCTR
 10
5.5
 20
4.25
  9
$VIEWSIZE
 40
8.5
  9
$CLAYER
  8
0
  9
$LTSCALE
 40
0.605
  9
$CELTYPE
  6
BYLAYER
  9
$DIMSCALE
 40
1.0
  9
$DIMASZ
 40
0.1
  9
$DIMEXO
 40
0.0625
  9
$DIMDLI
 40
0.418
  9
$DIMEXE
 40
0.125
  9
$DIMCEN
 40
0.099
  9
$DIMLFAC
 40
1.0
  9
$DIMBLK
  1
_FILLED
  9
$DIMALT
 70
1
  9
$DIMALTD
 70
1
  9
$DIMALTTD
 70
2
  9
$DIMALTF
 40
25.4
  9
$DIMTXT
 40
0.08
  9
$DIMTOL
 70
1
  9
$DIMLIM
 70
0
  9
$DIMTFAC
 40
1.0
  9
$DIMTP
 40
0.01
  9
$DIMTM
 40
0.01
  9
$DIMGAP
 40
0.09
  9
$DIMDSEP
 70
46
  9
$AUNITS
 70
0
  9
$PDMODE
 70
3
  9
$PDSIZE
 40
0.3125
  9
$HANDSEED
  5
324
  9
$TILEMODE
 70
1
  9
$MEASUREMENT
 70
0
  9
$INSUNITS
 70
1
  0
ENDSEC
  0
SECTION
  2
CLASSES
  0
CLASS
  1
ACDBDICTIONARYWDFLT
  2
AcDbDictionaryWithDefault
  3
AutoCAD 2000
 90
0
 91
1
280
0
281
0
  0
CLASS
  1
ACDBPLACEHOLDER
  2
AcDbPlaceHolder
  3
AutoCAD 2000
 90
0
 91
1
280
0
281
0
  0
CLASS
  1
LAYOUT
  2
AcDbLayout
  3
AutoCAD 2000
 90
0
 91
0
280
0
281
0
  0
ENDSEC
  0
SECTION
  2
TABLES
  0
TABLE
  2
VPORT
  5
8
100
AcDbSymbolTable
 70
2
  0
VPORT
  5
1F4
100
AcDbSymbolTableRecord
100
AcDbViewportTableRecord
  2
*ACTIVE
 70
0
 10
0.0
 20
0.0
 11
1.0
 21
1.0
 12
5.5
 22
4.25
 13
0.0
 23
0.0
 14
1.0
 24
1.0
 15
0.0
 25
0.0
 16
0.0
 26
0.0
 36
1.0
 17
0.0
 27
0.0
 37
0.0
 40
8.5
 41
1.2941176471
 42
50.0
 43
0.0
 44
0.0
 50
0.0
 51
0.0
 71
0
 72
100
 73
1
 74
1
 75
0
 76
0
 77
0
 78
0
  0
ENDTAB
  0
TABLE
  2
LTYPE
  5
5
100
AcDbSymbolTable
 70
6
  0
LTYPE
  5
14
100
AcDbSymbolTableRecord
100
AcDbLinetypeTableRecord
  2
BYBLOCK
 70
0
  3

 72
65
 73
0
 40
0.0
  0
LTYPE
  5
15
100
AcDbSymbolTableRecord
100
AcDbLinetypeTableRecord
  2
BYLAYER
 70
0
  3

 72
65
 73
0
 40
0.0
  0
LTYPE
  5
16
100
AcDbSymbolTableRecord
100
AcDbLinetypeTableRecord
  2
CONTINUOUS
 70
64
  3
Solid line
 72
65
 73
0
 40
0.0
  0
LTYPE
  5
1F5
100
AcDbSymbolTableRecord
100
AcDbLinetypeTableRecord
  2
CENTER
 70
64
  3
____ _ ____ _ ____ _ ____ _ ____ _ ____ _ ____
 72
65
 73
4
 40
0.6
 49
0.375
 74
0
 49
-0.075
 74
0
 49
0.075
 74
0
 49
-0.075
 74
0
  0
LTYPE
  5
1F6
100
AcDbSymbolTableRecord
100
AcDbLinetypeTableRecord
  2
HIDDEN
 70
64
  3
- - - - - - - - - - - - - - - - - - - -
 72
65
 73
2
 40
0.2
 49
0.1
 74
0
 49
-0.1
 74
0
  0
LTYPE
  5
1F7
100
AcDbSymbolTableRecord
100
AcDbLinetypeTableRecord
  2
PHANTOM
 70
64
  3
_____ _ _ _____ _ _ _____ _ _ _____
 72
65
 73
6
 40
0.8
 49
0.45
 74
0
 49
-0.05
 74
0
 49
0.1
 74
0
 49
-0.05
 74
0
 49
0.1
 74
0
 49
-0.05
 74
0
  0
LTYPE
  5
1F8
100
AcDbSymbolTableRecord
100
AcDbLinetypeTableRecord
  2
DOT
 70
64
  3
. . . . . . . . . . . . . . . . . . . .
 72
65
 73
2
 40
0.2
 49
0.1
 74
0
 49
-0.1
 74
0
  0
LTYPE
  5
1F9
100
AcDbSymbolTableRecord
100
AcDbLinetypeTableRecord
  2
DASHED
 70
64
  3
- - - - - - - - - - - - - - - - - - - -
 72
65
 73
2
 40
0.2
 49
0.1
 74
0
 49
-0.1
 74
0
  0
ENDTAB
  0
TABLE
  2
LAYER
  5
2
100
AcDbSymbolTable
 70
36
  0
LAYER
  5
10
100
AcDbSymbolTableRecord
100
AcDbLayerTableRecord
  2
0
 70
0
 62
7
  6
CONTINUOUS
370
-3
390
F
  0
LAYER
  5
1FA
100
AcDbSymbolTableRecord
100
AcDbLayerTableRecord
  2
DEFAULT_1
 70
0
 62
7
  6
CENTER
370
-3
390
F
  0
LAYER
  5
1FB
100
AcDbSymbolTableRecord
100
AcDbLayerTableRecord
  2
DEFAULT_2
 70
0
 62
8
  6
HIDDEN
370
-3
390
F
  0
LAYER
  5
1FC
100
AcDbSymbolTableRecord
100
AcDbLayerTableRecord
  2
DEFAULT_3
 70
0
 62
7
  6
PHANTOM
370
-3
390
F
  0
LAYER
  5
1FD
100
AcDbSymbolTableRecord
100
AcDbLayerTableRecord
  2
DEFAULT_COORDINATE_SYSTEM
 70
0
 62
7
  6
CONTINUOUS
370
-3
390
F
  0
LAYER
  5
1FE
100
AcDbSymbolTableRecord
100
AcDbLayerTableRecord
  2
DEFAULT_DATUM_AXES
 70
0
 62
7
  6
CONTINUOUS
370
-3
390
F
  0
LAYER
  5
1FF
100
AcDbSymbolTableRecord
100
AcDbLayerTableRecord
  2
DEFAULT_DATUM_PLANES
 70
0
 62
7
  6
CONTINUOUS
370
-3
390
F
  0
ENDTAB
  0
TABLE
  2
STYLE
  5
3
100
AcDbSymbolTable
 70
1
  0
STYLE
  5
11
100
AcDbSymbolTableRecord
100
AcDbTextStyleTableRecord
  2
STANDARD
 70
0
 40
0.0
 41
0.8
 50
0.0
 71
0
 42
0.2
  3
txt
  4

  0
STYLE
  5
200
100
AcDbSymbolTableRecord
100
AcDbTextStyleTableRecord
  2
TEXTSTYLE_1
 70
0
 40
0.0
 41
0.8
 50
0.0
 71
0
 42
0.2
  3
gdt
  4

  0
ENDTAB
  0
TABLE
  2
VIEW
  5
6
100
AcDbSymbolTable
 70
0
  0
ENDTAB
  0
TABLE
  2
UCS
  5
7
100
AcDbSymbolTable
 70
0
  0
ENDTAB
  0
TABLE
  2
APPID
  5
9
100
AcDbSymbolTable
 70
1
  0
APPID
  5
201
100
AcDbSymbolTableRecord
100
AcDbRegAppTableRecord
  2
ACAD
 70
0
  0
ENDTAB
  0
TABLE
  2
BLOCK_RECORD
  5
1
100
AcDbSymbolTable
 70
0
  0
BLOCK_RECORD
  5
202
100
AcDbSymbolTableRecord
100
AcDbBlockTableRecord
  2
*Model_Space
  0
BLOCK_RECORD
  5
203
100
AcDbSymbolTableRecord
100
AcDbBlockTableRecord
  2
*Paper_Space
  0
BLOCK_RECORD
  5
204
100
AcDbSymbolTableRecord
100
AcDbBlockTableRecord
  2
_FILLED
  0
ENDTAB
  0
TABLE
  2
DIMSTYLE
  5
A
100
AcDbSymbolTable
 70
1
100
AcDbDimStyleTable
 71
0
  0
DIMSTYLE
105
205
100
AcDbSymbolTableRecord
100
AcDbDimStyleTableRecord
  2
STANDARD
 70
0
  3

  4

 40
1.0
 41
0.1
 42
0.0625
 43
0.38
 44
0.125
 45
0.0
 46
0.0
 47
0.01
 48
0.01
140
0.08
141
0.09
142
0.0
143
25.4
144
1.0
145
0.0
146
1.0
147
0.09
 71
1.0
 72
0.0
 73
1
 74
1
 75
0
 76
0
 77
0
 78
4
 79
1
170
1
171
1
172
0
173
0
174
0
175
0
176
0
177
0
178
0
270
2
179
2
271
2
272
2
273
2
274
2
275
0
280
0
281
0
282
0
283
1
284
4
285
0
286
0
287
3
288
0
340
11
278
46
341
204
342
204
343
204
344
204
  0
ENDTAB
  0
ENDSEC
  0
SECTION
  2
BLOCKS
  0
BLOCK
  5
20
100
AcDbEntity
  8
0
100
AcDbBlockBegin
  2
*Model_Space
 70
0
 10
0.0
 20
0.0
 30
0.0
  3
*Model_Space
  1

  0
ENDBLK
  5
21
100
AcDbEntity
  8
0
100
AcDbBlockEnd
  0
BLOCK
  5
1C
100
AcDbEntity
  8
0
100
AcDbBlockBegin
  2
*Paper_Space
 70
0
 10
0.0
 20
0.0
 30
0.0
  3
*Paper_Space
  1

  0
ENDBLK
  5
1D
100
AcDbEntity
  8
0
100
AcDbBlockEnd
  0
BLOCK
  5
206
100
AcDbEntity
  8
0
100
AcDbBlockBegin
  2
_FILLED
 70
64
 10
0.0
 20
0.0
  3
_FILLED
  1

  0
SOLID
  5
207
100
AcDbEntity
  8
0
  6
BYBLOCK
 62
0
100
AcDbTrace
 10
0.0
 20
0.0
 11
-1.0
 21
0.2
 12
-1.0
 22
-0.2
 13
-1.0
 23
-0.2
  0
ENDBLK
  5
208
100
AcDbEntity
  8
0
  6
BYBLOCK
 62
0
100
AcDbBlockEnd
  0
ENDSEC
  0
SECTION
  2
ENTITIES
  0
MTEXT
  5
209
100
AcDbEntity
  8
0
100
AcDbMText
 62
2
  6
CONTINUOUS
  7
STANDARD
 71
3
 72
1
 10
5.2463509317
 20
3.3148796584
 30
0.0
 11
1.0
 21
0.0
 31
0.0
 73
2
 44
0.9
  1
SCALE  .500
 40
0.08
 41
0.704
  0
LINE
  5
20A
100
AcDbEntity
  8
0
100
AcDbLine
 62
7
  6
CONTINUOUS
 10
0.0
 20
0.0
 11
0.0
 21
8.5
  0
LINE
  5
20B
100
AcDbEntity
  8
0
100
AcDbLine
 62
7
  6
CONTINUOUS
 10
0.0
 20
0.0
 11
11.0
 21
0.0
  0
LINE
  5
20C
100
AcDbEntity
  8
0
100
AcDbLine
 62
7
  6
CONTINUOUS
 10
0.0
 20
8.5
 11
11.0
 21
8.5
  0
LINE
  5
20D
100
AcDbEntity
  8
0
100
AcDbLine
 62
7
  6
CONTINUOUS
 10
11.0
 20
0.0
 11
11.0
 21
8.5
  0
LINE
  5
20E
100
AcDbEntity
  8
0
100
AcDbLine
 62
7
  6
CONTINUOUS
 10
5.4494067044
 20
4.38341911
 11
5.4357464504
 21
4.3797588559
  0
LINE
  5
20F
100
AcDbEntity
  8
0
100
AcDbLine
 62
7
  6
CONTINUOUS
 10
4.7665306187
 20
4.2004430143
 11
4.7528703647
 21
4.1967827602
  0
LINE
  5
210
100
AcDbEntity
  8
0
100
AcDbLine
 62
7
  6
CONTINUOUS
 10
5.4361784126
 20
4.3608305085
 11
5.4223453166
 21
4.3578901931
  0
LINE
  5
211
100
AcDbEntity
  8
0
100
AcDbLine
 62
7
  6
CONTINUOUS
 10
4.7446619559
 20
4.2138441481
 11
4.7308288599
 21
4.2109038328
  0
LINE
  5
212
100
AcDbEntity
  8
0
100
AcDbLine
 62
7
  6
CONTINUOUS
 10
5.4217860536
 20
4.3389651791
 11
5.4078180312
 21
4.3367528617
  0
LINE
  5
213
100
AcDbEntity
  8
0
100
AcDbLine
 62
7
  6
CONTINUOUS
 10
4.7235246245
 20
4.2283714335
 11
4.709556602
 21
4.2261591161
  0
LINE
  5
214
100
AcDbEntity
  8
0
100
AcDbLine
 62
7
  6
CONTINUOUS
 10
5.406269076
 20
4.3178830534
 11
5.3922044124
 21
4.3164047977
  0
LINE
  5
215
100
AcDbEntity
  8
0
100
AcDbLine
 62
7
  6
CONTINUOUS
 10
4.7031765604
 20
4.2439850522
 11
4.6891118969
 21
4.2425067965
  0
LINE
  5
216
100
AcDbEntity
  8
0
100
AcDbLine
 62
7
  6
CONTINUOUS
 10
5.3896700106
 20
4.2976419158
 11
5.3755472563
 21
4.2969017736
  0
LINE
  5
217
100
AcDbEntity
  8
0
100
AcDbLine
 62
7
  6
CONTINUOUS
 10
4.6836735363
 20
4.2606422084
 11
4.669550782
 21
4.2599020662
  0
LINE
  5
218
100
AcDbEntity
  8
0
100
AcDbLine
 62
7
  6
CONTINUOUS
 10
5.3720343544
 20
4.2782972459
 11
5.3578922187
 21
4.2782972459
  0
LINE
  5
219
100
AcDbEntity
  8
0
100
AcDbLine
 62
7
  6
CONTINUOUS
 10
4.6650690087
 20
4.2782972459
 11
4.6509268731
 21
4.2782972459
  0
LINE
  5
21A
100
AcDbEntity
  8
0
100
AcDbLine
 62
7
  6
CONTINUOUS
 10
5.3534104454
 20
4.2599020662
 11
5.3392876911
 21
4.2606422084
  0
LINE
  5
21B
100
AcDbEntity
  8
0
100
AcDbLine
 62
7
  6
CONTINUOUS
 10
4.6474139711
 20
4.2969017736
 11
4.6332912168
 21
4.2976419158
  0
LINE
  5
21C
100
AcDbEntity
  8
0
100
AcDbLine
 62
7
  6
CONTINUOUS
 10
5.3338493305
 20
4.2425067965
 11
5.319784667
 21
4.2439850522
  0
LINE
  5
21D
100
AcDbEntity
  8
0
100
AcDbLine
 62
7
  6
CONTINUOUS
 10
4.630756815
 20
4.3164047977
 11
4.6166921514
 21
4.3178830534
  0
LINE
  5
21E
100
AcDbEntity
  8
0
100
AcDbLine
 62
7
  6
CONTINUOUS
 10
5.3134046254
 20
4.2261591161
 11
5.2994366029
 21
4.2283714335
  0
LINE
  5
21F
100
AcDbEntity
  8
0
100
AcDbLine
 62
7
  6
CONTINUOUS
 10
4.6151431963
 20
4.3367528617
 11
4.6011751738
 21
4.3389651791
  0
LINE
  5
220
100
AcDbEntity
  8
0
100
AcDbLine
 62
7
  6
CONTINUOUS
 10
4.520425521
 20
4.7188624271
 11
4.5322861139
 21
4.7265647862
  0
LINE
  5
221
100
AcDbEntity
  8
0
100
AcDbLine
 62
7
  6
CONTINUOUS
 10
5.113336549
 20
5.1039033507
 11
5.1251971419
 21
5.1116057098
  0
LINE
  5
222
100
AcDbEntity
  8
0
100
AcDbLine
 62
7
  6
CONTINUOUS
 10
4.5260261124
 20
4.7444332307
 11
4.5382735611
 21
4.7515042985
  0
LINE
  5
223
100
AcDbEntity
  8
0
100
AcDbLine
 62
7
  6
CONTINUOUS
 10
5.1382760613
 20
5.0979159036
 11
5.15052351
 21
5.1049869714
  0
LINE
  5
224
100
AcDbEntity
  8
0
100
AcDbLine
 62
7
  6
CONTINUOUS
 10
4.5329573008
 20
4.7696758782
 11
4.5455580359
 21
4.7760962734
  0
LINE
  5
225
100
AcDbEntity
  8
0
100
AcDbLine
 62
7
  6
CONTINUOUS
 10
5.1628680362
 20
5.0906314288
 11
5.1754687713
 21
5.097051824
  0
LINE
  5
226
100
AcDbEntity
  8
0
100
AcDbLine
 62
7
  6
CONTINUOUS
 10
4.5412000883
 20
4.7945211811
 11
4.5541195721
 21
4.8002733058
  0
LINE
  5
227
100
AcDbEntity
  8
0
100
AcDbLine
 62
7
  6
CONTINUOUS
 10
5.1870450686
 20
5.0820698925
 11
5.1999645524
 21
5.0878220173
  0
LINE
  5
228
100
AcDbEntity
  8
0
100
AcDbLine
 62
7
  6
CONTINUOUS
 10
4.5507318821
 20
4.8189010402
 11
4.5639347031
 21
4.8239691283
  0
LINE
  5
229
100
AcDbEntity
  8
0
100
AcDbLine
 62
7
  6
CONTINUOUS
 10
5.2107408911
 20
5.0722547615
 11
5.2239437121
 21
5.0773228496
  0
LINE
  5
22A
100
AcDbEntity
  8
0
100
AcDbLine
 62
7
  6
CONTINUOUS
 10
4.5615265562
 20
4.842748632
 11
4.5749765264
 21
4.8471187922
  0
LINE
  5
22B
100
AcDbEntity
  8
0
100
AcDbLine
 62
7
  6
CONTINUOUS
 10
5.233890555
 20
5.0612129382
 11
5.2473405252
 21
5.0655830985
  0
LINE
  5
22C
100
AcDbEntity
  8
0
100
AcDbLine
 62
7
  6
CONTINUOUS
 10
5.2921323675
 20
4.2109038328
 11
5.2782992715
 21
4.2138441481
  0
LINE
  5
22D
100
AcDbEntity
  8
0
100
AcDbLine
 62
7
  6
CONTINUOUS
 10
4.6006159109
 20
4.3578901931
 11
4.5867828148
 21
4.3608305085
  0
LINE
  5
22E
100
AcDbEntity
  8
0
100
AcDbLine
 62
7
  6
CONTINUOUS
 10
5.2700908627
 20
4.1967827602
 11
5.2564306087
 21
4.2004430143
  0
LINE
  5
22F
100
AcDbEntity
  8
0
100
AcDbLine
 62
7
  6
CONTINUOUS
 10
4.5872147771
 20
4.3797588559
 11
4.573554523
 21
4.38341911
  0
LINE
  5
230
100
AcDbEntity
  8
0
100
AcDbLine
 62
7
  6
CONTINUOUS
 10
5.2473405252
 20
4.1838346034
 11
5.233890555
 21
4.1882047636
  0
LINE
  5
231
100
AcDbEntity
  8
0
100
AcDbLine
 62
7
  6
CONTINUOUS
 10
4.5749765264
 20
4.4022989097
 11
4.5615265562
 21
4.4066690699
  0
LINE
  5
232
100
AcDbEntity
  8
0
100
AcDbLine
 62
7
  6
CONTINUOUS
 10
5.2239437121
 20
4.1720948522
 11
5.2107408911
 21
4.1771629404
  0
LINE
  5
233
100
AcDbEntity
  8
0
100
AcDbLine
 62
7
  6
CONTINUOUS
 10
4.5639347031
 20
4.4254485736
 11
4.5507318821
 21
4.4305166617
  0
LINE
  5
234
100
AcDbEntity
  8
0
100
AcDbLine
 62
7
  6
CONTINUOUS
 10
5.1999645524
 20
4.1615956846
 11
5.1870450686
 21
4.1673478093
  0
LINE
  5
235
100
AcDbEntity
  8
0
100
AcDbLine
 62
7
  6
CONTINUOUS
 10
4.5541195721
 20
4.449144396
 11
4.5412000883
 21
4.4548965208
  0
LINE
  5
236
100
AcDbEntity
  8
0
100
AcDbLine
 62
7
  6
CONTINUOUS
 10
5.1754687713
 20
4.1523658779
 11
5.1628680362
 21
4.1587862731
  0
LINE
  5
237
100
AcDbEntity
  8
0
100
AcDbLine
 62
7
  6
CONTINUOUS
 10
4.5455580359
 20
4.4733214285
 11
4.5329573008
 21
4.4797418237
  0
LINE
  5
238
100
AcDbEntity
  8
0
100
AcDbLine
 62
7
  6
CONTINUOUS
 10
5.15052351
 20
4.1444307305
 11
5.1382760613
 21
4.1515017983
  0
LINE
  5
239
100
AcDbEntity
  8
0
100
AcDbLine
 62
7
  6
CONTINUOUS
 10
4.5382735611
 20
4.4979134033
 11
4.5260261124
 21
4.5049844711
  0
LINE
  5
23A
100
AcDbEntity
  8
0
100
AcDbLine
 62
7
  6
CONTINUOUS
 10
5.1251971419
 20
4.137811992
 11
5.113336549
 21
4.1455143511
  0
LINE
  5
23B
100
AcDbEntity
  8
0
100
AcDbLine
 62
7
  6
CONTINUOUS
 10
4.5322861139
 20
4.5228529157
 11
4.520425521
 21
4.5305552748
  0
LINE
  5
23C
100
AcDbEntity
  8
0
100
AcDbLine
 62
7
  6
CONTINUOUS
 10
4.558866615
 20
4.4122457525
 11
4.5639347031
 21
4.4254485736
  0
LINE
  5
23D
100
AcDbEntity
  8
0
100
AcDbLine
 62
7
  6
CONTINUOUS
 10
4.8122203363
 20
5.0722547615
 11
4.8172884245
 21
5.0854575825
  0
LINE
  5
23E
100
AcDbEntity
  8
0
100
AcDbLine
 62
7
  6
CONTINUOUS
 10
4.5483674473
 20
4.4362249123
 11
4.5541195721
 21
4.449144396
  0
LINE
  5
23F
100
AcDbEntity
  8
0
100
AcDbLine
 62
7
  6
CONTINUOUS
 10
4.8359161588
 20
5.0820698925
 11
4.8416682836
 21
5.0949893763
  0
LINE
  5
240
100
AcDbEntity
  8
0
100
AcDbLine
 62
7
  6
CONTINUOUS
 10
4.5391376407
 20
4.4607206934
 11
4.5455580359
 21
4.4733214285
  0
LINE
  5
241
100
AcDbEntity
  8
0
100
AcDbLine
 62
7
  6
CONTINUOUS
 10
4.8600931913
 20
5.0906314288
 11
4.8665135865
 21
5.1032321639
  0
LINE
  5
242
100
AcDbEntity
  8
0
100
AcDbLine
 62
7
  6
CONTINUOUS
 10
4.5312024933
 20
4.4856659546
 11
4.5382735611
 21
4.4979134033
  0
LINE
  5
243
100
AcDbEntity
  8
0
100
AcDbLine
 62
7
  6
CONTINUOUS
 10
4.8846851661
 20
5.0979159036
 11
4.8917562339
 21
5.1101633523
  0
LINE
  5
244
100
AcDbEntity
  8
0
100
AcDbLine
 62
7
  6
CONTINUOUS
 10
4.5245837548
 20
4.5109923228
 11
4.5322861139
 21
4.5228529157
  0
LINE
  5
245
100
AcDbEntity
  8
0
100
AcDbLine
 62
7
  6
CONTINUOUS
 10
4.9096246785
 20
5.1039033507
 11
4.9173270376
 21
5.1157639437
  0
LINE
  5
246
100
AcDbEntity
  8
0
100
AcDbLine
 62
7
  6
CONTINUOUS
 10
4.5192995668
 20
4.53663038
 11
4.5276121055
 21
4.5480716081
  0
LINE
  5
247
100
AcDbEntity
  8
0
100
AcDbLine
 62
7
  6
CONTINUOUS
 10
4.9348433708
 20
5.1085773591
 11
4.9431559096
 21
5.1200185872
  0
LINE
  5
248
100
AcDbEntity
  8
0
100
AcDbLine
 62
7
  6
CONTINUOUS
 10
4.5153644128
 20
4.5625098542
 11
4.5242643471
 21
4.5735003578
  0
LINE
  5
249
100
AcDbEntity
  8
0
100
AcDbLine
 62
7
  6
CONTINUOUS
 10
4.9602721206
 20
5.1119251175
 11
4.9691720549
 21
5.1229156211
  0
LINE
  5
24A
100
AcDbEntity
  8
0
100
AcDbLine
 62
7
  6
CONTINUOUS
 10
4.5127890788
 20
4.5885598116
 11
4.5222520146
 21
4.5990694665
  0
LINE
  5
24B
100
AcDbEntity
  8
0
100
AcDbLine
 62
7
  6
CONTINUOUS
 10
4.9858412293
 20
5.11393745
 11
4.9953041651
 21
5.1244471049
  0
LINE
  5
24C
100
AcDbEntity
  8
0
100
AcDbLine
 62
7
  6
CONTINUOUS
 10
4.5115806237
 20
4.6147088509
 11
4.5215806237
 21
4.6247088509
  0
LINE
  5
24D
100
AcDbEntity
  8
0
100
AcDbLine
 62
7
  6
CONTINUOUS
 10
5.0114806137
 20
5.1146088409
 11
5.0214806137
 21
5.1246088409
  0
LINE
  5
24E
100
AcDbEntity
  8
0
100
AcDbLine
 62
7
  6
CONTINUOUS
 10
4.5117423597
 20
4.6408852996
 11
4.5222520146
 21
4.6503482354
  0
LINE
  5
24F
100
AcDbEntity
  8
0
100
AcDbLine
 62
7
  6
CONTINUOUS
 10
5.0371199981
 20
5.11393745
 11
5.0476296531
 21
5.1234003858
  0
LINE
  5
250
100
AcDbEntity
  8
0
100
AcDbLine
 62
7
  6
CONTINUOUS
 10
4.5132738435
 20
4.6670174097
 11
4.5242643471
 21
4.675917344
  0
LINE
  5
251
100
AcDbEntity
  8
0
100
AcDbLine
 62
7
  6
CONTINUOUS
 10
5.0626891068
 20
5.1119251175
 11
5.0736796104
 21
5.1208250518
  0
LINE
  5
252
100
AcDbEntity
  8
0
100
AcDbLine
 62
7
  6
CONTINUOUS
 10
4.5161708775
 20
4.693033555
 11
4.5276121055
 21
4.7013460938
  0
LINE
  5
253
100
AcDbEntity
  8
0
100
AcDbLine
 62
7
  6
CONTINUOUS
 10
5.0881178566
 20
5.1085773591
 11
5.0995590846
 21
5.1168898979
  0
LINE
  5
254
100
AcDbEntity
  8
0
100
AcDbLine
 62
7
  6
CONTINUOUS
 10
5.0995590846
 20
4.132527804
 11
5.0881178566
 21
4.1408403428
  0
LINE
  5
255
100
AcDbEntity
  8
0
100
AcDbLine
 62
7
  6
CONTINUOUS
 10
4.5276121055
 20
4.5480716081
 11
4.5161708775
 21
4.5563841468
  0
LINE
  5
256
100
AcDbEntity
  8
0
100
AcDbLine
 62
7
  6
CONTINUOUS
 10
5.0736796104
 20
4.12859265
 11
5.0626891068
 21
4.1374925843
  0
LINE
  5
257
100
AcDbEntity
  8
0
100
AcDbLine
 62
7
  6
CONTINUOUS
 10
4.5242643471
 20
4.5735003578
 11
4.5132738435
 21
4.5824002921
  0
LINE
  5
258
100
AcDbEntity
  8
0
100
AcDbLine
 62
7
  6
CONTINUOUS
 10
5.0476296531
 20
4.1260173161
 11
5.0371199981
 21
4.1354802518
  0
LINE
  5
259
100
AcDbEntity
  8
0
100
AcDbLine
 62
7
  6
CONTINUOUS
 10
4.5222520146
 20
4.5990694665
 11
4.5117423597
 21
4.6085324023
  0
LINE
  5
25A
100
AcDbEntity
  8
0
100
AcDbLine
 62
7
  6
CONTINUOUS
 10
5.0214806137
 20
4.1248088609
 11
5.0114806137
 21
4.1348088609
  0
LINE
  5
25B
100
AcDbEntity
  8
0
100
AcDbLine
 62
7
  6
CONTINUOUS
 10
4.5215806237
 20
4.6247088509
 11
4.5115806237
 21
4.6347088509
  0
LINE
  5
25C
100
AcDbEntity
  8
0
100
AcDbLine
 62
7
  6
CONTINUOUS
 10
4.9953041651
 20
4.1249705969
 11
4.9858412293
 21
4.1354802518
  0
LINE
  5
25D
100
AcDbEntity
  8
0
100
AcDbLine
 62
7
  6
CONTINUOUS
 10
4.5222520146
 20
4.6503482354
 11
4.5127890788
 21
4.6608578903
  0
LINE
  5
25E
100
AcDbEntity
  8
0
100
AcDbLine
 62
7
  6
CONTINUOUS
 10
4.9691720549
 20
4.1265020808
 11
4.9602721206
 21
4.1374925843
  0
LINE
  5
25F
100
AcDbEntity
  8
0
100
AcDbLine
 62
7
  6
CONTINUOUS
 10
4.5242643471
 20
4.675917344
 11
4.5153644128
 21
4.6869078476
  0
LINE
  5
260
100
AcDbEntity
  8
0
100
AcDbLine
 62
7
  6
CONTINUOUS
 10
4.9431559096
 20
4.1293991147
 11
4.9348433708
 21
4.1408403428
  0
LINE
  5
261
100
AcDbEntity
  8
0
100
AcDbLine
 62
7
  6
CONTINUOUS
 10
4.5276121055
 20
4.7013460938
 11
4.5192995668
 21
4.7127873218
  0
LINE
  5
262
100
AcDbEntity
  8
0
100
AcDbLine
 62
7
  6
CONTINUOUS
 10
4.9173270376
 20
4.1336537582
 11
4.9096246785
 21
4.1455143511
  0
LINE
  5
263
100
AcDbEntity
  8
0
100
AcDbLine
 62
7
  6
CONTINUOUS
 10
4.5322861139
 20
4.7265647862
 11
4.5245837548
 21
4.7384253791
  0
LINE
  5
264
100
AcDbEntity
  8
0
100
AcDbLine
 62
7
  6
CONTINUOUS
 10
4.8917562339
 20
4.1392543496
 11
4.8846851661
 21
4.1515017983
  0
LINE
  5
265
100
AcDbEntity
  8
0
100
AcDbLine
 62
7
  6
CONTINUOUS
 10
4.5382735611
 20
4.7515042985
 11
4.5312024933
 21
4.7637517473
  0
LINE
  5
266
100
AcDbEntity
  8
0
100
AcDbLine
 62
7
  6
CONTINUOUS
 10
4.8665135865
 20
4.146185538
 11
4.8600931913
 21
4.1587862731
  0
LINE
  5
267
100
AcDbEntity
  8
0
100
AcDbLine
 62
7
  6
CONTINUOUS
 10
4.5455580359
 20
4.7760962734
 11
4.5391376407
 21
4.7886970085
  0
LINE
  5
268
100
AcDbEntity
  8
0
100
AcDbLine
 62
7
  6
CONTINUOUS
 10
4.8416682836
 20
4.1544283256
 11
4.8359161588
 21
4.1673478093
  0
LINE
  5
269
100
AcDbEntity
  8
0
100
AcDbLine
 62
7
  6
CONTINUOUS
 10
4.5541195721
 20
4.8002733058
 11
4.5483674473
 21
4.8131927896
  0
LINE
  5
26A
100
AcDbEntity
  8
0
100
AcDbLine
 62
7
  6
CONTINUOUS
 10
4.8172884245
 20
4.1639601194
 11
4.8122203363
 21
4.1771629404
  0
LINE
  5
26B
100
AcDbEntity
  8
0
100
AcDbLine
 62
7
  6
CONTINUOUS
 10
4.5639347031
 20
4.8239691283
 11
4.558866615
 21
4.8371719493
  0
LINE
  5
26C
100
AcDbEntity
  8
0
100
AcDbLine
 62
7
  6
CONTINUOUS
 10
4.7046548161
 20
4.2299203887
 11
4.7031765604
 21
4.2439850522
  0
LINE
  5
26D
100
AcDbEntity
  8
0
100
AcDbLine
 62
7
  6
CONTINUOUS
 10
4.630756815
 20
4.9330129042
 11
4.6292785593
 21
4.9470775677
  0
LINE
  5
26E
100
AcDbEntity
  8
0
100
AcDbLine
 62
7
  6
CONTINUOUS
 10
4.6844136785
 20
4.246519454
 11
4.6836735363
 21
4.2606422084
  0
LINE
  5
26F
100
AcDbEntity
  8
0
100
AcDbLine
 62
7
  6
CONTINUOUS
 10
4.6474139711
 20
4.9525159283
 11
4.6466738289
 21
4.9666386826
  0
LINE
  5
270
100
AcDbEntity
  8
0
100
AcDbLine
 62
7
  6
CONTINUOUS
 10
4.6650690087
 20
4.2641551103
 11
4.6650690087
 21
4.2782972459
  0
LINE
  5
271
100
AcDbEntity
  8
0
100
AcDbLine
 62
7
  6
CONTINUOUS
 10
4.6650690087
 20
4.971120456
 11
4.6650690087
 21
4.9852625916
  0
LINE
  5
272
100
AcDbEntity
  8
0
100
AcDbLine
 62
7
  6
CONTINUOUS
 10
4.6466738289
 20
4.2827790193
 11
4.6474139711
 21
4.2969017736
  0
LINE
  5
273
100
AcDbEntity
  8
0
100
AcDbLine
 62
7
  6
CONTINUOUS
 10
4.6836735363
 20
4.9887754935
 11
4.6844136785
 21
5.0028982478
  0
LINE
  5
274
100
AcDbEntity
  8
0
100
AcDbLine
 62
7
  6
CONTINUOUS
 10
4.6292785593
 20
4.3023401341
 11
4.630756815
 21
4.3164047977
  0
LINE
  5
275
100
AcDbEntity
  8
0
100
AcDbLine
 62
7
  6
CONTINUOUS
 10
4.7031765604
 20
5.0054326497
 11
4.7046548161
 21
5.0194973132
  0
LINE
  5
276
100
AcDbEntity
  8
0
100
AcDbLine
 62
7
  6
CONTINUOUS
 10
4.6129308788
 20
4.3227848392
 11
4.6151431963
 21
4.3367528617
  0
LINE
  5
277
100
AcDbEntity
  8
0
100
AcDbLine
 62
7
  6
CONTINUOUS
 10
4.7235246245
 20
5.0210462684
 11
4.7257369419
 21
5.0350142909
  0
LINE
  5
278
100
AcDbEntity
  8
0
100
AcDbLine
 62
7
  6
CONTINUOUS
 10
4.5976755955
 20
4.3440570971
 11
4.6006159109
 21
4.3578901931
  0
LINE
  5
279
100
AcDbEntity
  8
0
100
AcDbLine
 62
7
  6
CONTINUOUS
 10
4.7446619559
 20
5.0355735538
 11
4.7476022712
 21
5.0494066498
  0
LINE
  5
27A
100
AcDbEntity
  8
0
100
AcDbLine
 62
7
  6
CONTINUOUS
 10
4.583554523
 20
4.3660986019
 11
4.5872147771
 21
4.3797588559
  0
LINE
  5
27B
100
AcDbEntity
  8
0
100
AcDbLine
 62
7
  6
CONTINUOUS
 10
4.7665306187
 20
5.0489746876
 11
4.7701908727
 21
5.0626349416
  0
LINE
  5
27C
100
AcDbEntity
  8
0
100
AcDbLine
 62
7
  6
CONTINUOUS
 10
4.5706063662
 20
4.3888489394
 11
4.5749765264
 21
4.4022989097
  0
LINE
  5
27D
100
AcDbEntity
  8
0
100
AcDbLine
 62
7
  6
CONTINUOUS
 10
4.7890706724
 20
5.0612129382
 11
4.7934408327
 21
5.0746629085
  0
LINE
  5
27E
100
AcDbEntity
  8
0
100
AcDbLine
 62
7
  6
CONTINUOUS
 10
4.7934408327
 20
4.1747547934
 11
4.7890706724
 21
4.1882047636
  0
LINE
  5
27F
100
AcDbEntity
  8
0
100
AcDbLine
 62
7
  6
CONTINUOUS
 10
4.5749765264
 20
4.8471187922
 11
4.5706063662
 21
4.8605687625
  0
LINE
  5
280
100
AcDbEntity
  8
0
100
AcDbLine
 62
7
  6
CONTINUOUS
 10
4.7701908727
 20
4.1867827602
 11
4.7665306187
 21
4.2004430143
  0
LINE
  5
281
100
AcDbEntity
  8
0
100
AcDbLine
 62
7
  6
CONTINUOUS
 10
4.5872147771
 20
4.8696588459
 11
4.583554523
 21
4.8833191
  0
LINE
  5
282
100
AcDbEntity
  8
0
100
AcDbLine
 62
7
  6
CONTINUOUS
 10
4.7476022712
 20
4.2000110521
 11
4.7446619559
 21
4.2138441481
  0
LINE
  5
283
100
AcDbEntity
  8
0
100
AcDbLine
 62
7
  6
CONTINUOUS
 10
4.6006159109
 20
4.8915275087
 11
4.5976755955
 21
4.9053606048
  0
LINE
  5
284
100
AcDbEntity
  8
0
100
AcDbLine
 62
7
  6
CONTINUOUS
 10
4.7257369419
 20
4.214403411
 11
4.7235246245
 21
4.2283714335
  0
LINE
  5
285
100
AcDbEntity
  8
0
100
AcDbLine
 62
7
  6
CONTINUOUS
 10
4.6151431963
 20
4.9126648402
 11
4.6129308788
 21
4.9266328626
  0
LINE
  5
286
100
AcDbEntity
  8
0
100
AcDbLine
 62
7
  6
CONTINUOUS
 10
4.573554523
 20
4.8659985919
 11
4.5872147771
 21
4.8696588459
  0
LINE
  5
287
100
AcDbEntity
  8
0
100
AcDbLine
 62
7
  6
CONTINUOUS
 10
5.2564306087
 20
5.0489746876
 11
5.2700908627
 21
5.0526349416
  0
LINE
  5
288
100
AcDbEntity
  8
0
100
AcDbLine
 62
7
  6
CONTINUOUS
 10
4.5867828148
 20
4.8885871934
 11
4.6006159109
 21
4.8915275087
  0
LINE
  5
289
100
AcDbEntity
  8
0
100
AcDbLine
 62
7
  6
CONTINUOUS
 10
5.2782992715
 20
5.0355735538
 11
5.2921323675
 21
5.0385138691
  0
LINE
  5
28A
100
AcDbEntity
  8
0
100
AcDbLine
 62
7
  6
CONTINUOUS
 10
4.6011751738
 20
4.9104525227
 11
4.6151431963
 21
4.9126648402
  0
LINE
  5
28B
100
AcDbEntity
  8
0
100
AcDbLine
 62
7
  6
CONTINUOUS
 10
5.2994366029
 20
5.0210462684
 11
5.3134046254
 21
5.0232585858
  0
LINE
  5
28C
100
AcDbEntity
  8
0
100
AcDbLine
 62
7
  6
CONTINUOUS
 10
4.6166921514
 20
4.9315346485
 11
4.630756815
 21
4.9330129042
  0
LINE
  5
28D
100
AcDbEntity
  8
0
100
AcDbLine
 62
7
  6
CONTINUOUS
 10
5.319784667
 20
5.0054326497
 11
5.3338493305
 21
5.0069109054
  0
LINE
  5
28E
100
AcDbEntity
  8
0
100
AcDbLine
 62
7
  6
CONTINUOUS
 10
4.6332912168
 20
4.9517757861
 11
4.6474139711
 21
4.9525159283
  0
LINE
  5
28F
100
AcDbEntity
  8
0
100
AcDbLine
 62
7
  6
CONTINUOUS
 10
5.3392876911
 20
4.9887754935
 11
5.3534104454
 21
4.9895156357
  0
LINE
  5
290
100
AcDbEntity
  8
0
100
AcDbLine
 62
7
  6
CONTINUOUS
 10
4.6509268731
 20
4.971120456
 11
4.6650690087
 21
4.971120456
  0
LINE
  5
291
100
AcDbEntity
  8
0
100
AcDbLine
 62
7
  6
CONTINUOUS
 10
5.3578922187
 20
4.971120456
 11
5.3720343544
 21
4.971120456
  0
LINE
  5
292
100
AcDbEntity
  8
0
100
AcDbLine
 62
7
  6
CONTINUOUS
 10
4.669550782
 20
4.9895156357
 11
4.6836735363
 21
4.9887754935
  0
LINE
  5
293
100
AcDbEntity
  8
0
100
AcDbLine
 62
7
  6
CONTINUOUS
 10
5.3755472563
 20
4.9525159283
 11
5.3896700106
 21
4.9517757861
  0
LINE
  5
294
100
AcDbEntity
  8
0
100
AcDbLine
 62
7
  6
CONTINUOUS
 10
4.6891118969
 20
5.0069109054
 11
4.7031765604
 21
5.0054326497
  0
LINE
  5
295
100
AcDbEntity
  8
0
100
AcDbLine
 62
7
  6
CONTINUOUS
 10
5.3922044124
 20
4.9330129042
 11
5.406269076
 21
4.9315346485
  0
LINE
  5
296
100
AcDbEntity
  8
0
100
AcDbLine
 62
7
  6
CONTINUOUS
 10
4.709556602
 20
5.0232585858
 11
4.7235246245
 21
5.0210462684
  0
LINE
  5
297
100
AcDbEntity
  8
0
100
AcDbLine
 62
7
  6
CONTINUOUS
 10
5.4078180312
 20
4.9126648402
 11
5.4217860536
 21
4.9104525227
  0
LINE
  5
298
100
AcDbEntity
  8
0
100
AcDbLine
 62
7
  6
CONTINUOUS
 10
4.7308288599
 20
5.0385138691
 11
4.7446619559
 21
5.0355735538
  0
LINE
  5
299
100
AcDbEntity
  8
0
100
AcDbLine
 62
7
  6
CONTINUOUS
 10
5.4223453166
 20
4.8915275087
 11
5.4361784126
 21
4.8885871934
  0
LINE
  5
29A
100
AcDbEntity
  8
0
100
AcDbLine
 62
7
  6
CONTINUOUS
 10
4.7528703647
 20
5.0526349416
 11
4.7665306187
 21
5.0489746876
  0
LINE
  5
29B
100
AcDbEntity
  8
0
100
AcDbLine
 62
7
  6
CONTINUOUS
 10
5.4357464504
 20
4.8696588459
 11
5.4494067044
 21
4.8659985919
  0
LINE
  5
29C
100
AcDbEntity
  8
0
100
AcDbLine
 62
7
  6
CONTINUOUS
 10
5.5096873839
 20
4.5824002921
 11
5.4986968803
 21
4.5735003578
  0
LINE
  5
29D
100
AcDbEntity
  8
0
100
AcDbLine
 62
7
  6
CONTINUOUS
 10
4.9602721206
 20
4.1374925843
 11
4.949281617
 21
4.12859265
  0
LINE
  5
29E
100
AcDbEntity
  8
0
100
AcDbLine
 62
7
  6
CONTINUOUS
 10
5.5067903499
 20
4.5563841468
 11
5.4953491219
 21
4.5480716081
  0
LINE
  5
29F
100
AcDbEntity
  8
0
100
AcDbLine
 62
7
  6
CONTINUOUS
 10
4.9348433708
 20
4.1408403428
 11
4.9234021428
 21
4.132527804
  0
LINE
  5
2A0
100
AcDbEntity
  8
0
100
AcDbLine
 62
7
  6
CONTINUOUS
 10
5.5025357064
 20
4.5305552748
 11
5.4906751135
 21
4.5228529157
  0
LINE
  5
2A1
100
AcDbEntity
  8
0
100
AcDbLine
 62
7
  6
CONTINUOUS
 10
4.9096246785
 20
4.1455143511
 11
4.8977640855
 21
4.137811992
  0
LINE
  5
2A2
100
AcDbEntity
  8
0
100
AcDbLine
 62
7
  6
CONTINUOUS
 10
5.4969351151
 20
4.5049844711
 11
5.4846876663
 21
4.4979134033
  0
LINE
  5
2A3
100
AcDbEntity
  8
0
100
AcDbLine
 62
7
  6
CONTINUOUS
 10
4.8846851661
 20
4.1515017983
 11
4.8724377174
 21
4.1444307305
  0
LINE
  5
2A4
100
AcDbEntity
  8
0
100
AcDbLine
 62
7
  6
CONTINUOUS
 10
5.4900039266
 20
4.4797418237
 11
5.4774031915
 21
4.4733214285
  0
LINE
  5
2A5
100
AcDbEntity
  8
0
100
AcDbLine
 62
7
  6
CONTINUOUS
 10
4.8600931913
 20
4.1587862731
 11
4.8474924561
 21
4.1523658779
  0
LINE
  5
2A6
100
AcDbEntity
  8
0
100
AcDbLine
 62
7
  6
CONTINUOUS
 10
5.4817611391
 20
4.4548965208
 11
5.4688416553
 21
4.449144396
  0
LINE
  5
2A7
100
AcDbEntity
  8
0
100
AcDbLine
 62
7
  6
CONTINUOUS
 10
4.8359161588
 20
4.1673478093
 11
4.822996675
 21
4.1615956846
  0
LINE
  5
2A8
100
AcDbEntity
  8
0
100
AcDbLine
 62
7
  6
CONTINUOUS
 10
5.4722293453
 20
4.4305166617
 11
5.4590265243
 21
4.4254485736
  0
LINE
  5
2A9
100
AcDbEntity
  8
0
100
AcDbLine
 62
7
  6
CONTINUOUS
 10
4.8122203363
 20
4.1771629404
 11
4.7990175153
 21
4.1720948522
  0
LINE
  5
2AA
100
AcDbEntity
  8
0
100
AcDbLine
 62
7
  6
CONTINUOUS
 10
5.4614346712
 20
4.4066690699
 11
5.447984701
 21
4.4022989097
  0
LINE
  5
2AB
100
AcDbEntity
  8
0
100
AcDbLine
 62
7
  6
CONTINUOUS
 10
4.7890706724
 20
4.1882047636
 11
4.7756207022
 21
4.1838346034
  0
LINE
  5
2AC
100
AcDbEntity
  8
0
100
AcDbLine
 62
7
  6
CONTINUOUS
 10
4.7756207022
 20
5.0655830985
 11
4.7890706724
 21
5.0612129382
  0
LINE
  5
2AD
100
AcDbEntity
  8
0
100
AcDbLine
 62
7
  6
CONTINUOUS
 10
5.447984701
 20
4.8471187922
 11
5.4614346712
 21
4.842748632
  0
LINE
  5
2AE
100
AcDbEntity
  8
0
100
AcDbLine
 62
7
  6
CONTINUOUS
 10
4.7990175153
 20
5.0773228496
 11
4.8122203363
 21
5.0722547615
  0
LINE
  5
2AF
100
AcDbEntity
  8
0
100
AcDbLine
 62
7
  6
CONTINUOUS
 10
5.4590265243
 20
4.8239691283
 11
5.4722293453
 21
4.8189010402
  0
LINE
  5
2B0
100
AcDbEntity
  8
0
100
AcDbLine
 62
7
  6
CONTINUOUS
 10
4.822996675
 20
5.0878220173
 11
4.8359161588
 21
5.0820698925
  0
LINE
  5
2B1
100
AcDbEntity
  8
0
100
AcDbLine
 62
7
  6
CONTINUOUS
 10
5.4688416553
 20
4.8002733058
 11
5.4817611391
 21
4.7945211811
  0
LINE
  5
2B2
100
AcDbEntity
  8
0
100
AcDbLine
 62
7
  6
CONTINUOUS
 10
4.8474924561
 20
5.097051824
 11
4.8600931913
 21
5.0906314288
  0
LINE
  5
2B3
100
AcDbEntity
  8
0
100
AcDbLine
 62
7
  6
CONTINUOUS
 10
5.4774031915
 20
4.7760962734
 11
5.4900039266
 21
4.7696758782
  0
LINE
  5
2B4
100
AcDbEntity
  8
0
100
AcDbLine
 62
7
  6
CONTINUOUS
 10
4.8724377174
 20
5.1049869714
 11
4.8846851661
 21
5.0979159036
  0
LINE
  5
2B5
100
AcDbEntity
  8
0
100
AcDbLine
 62
7
  6
CONTINUOUS
 10
5.4846876663
 20
4.7515042985
 11
5.4969351151
 21
4.7444332307
  0
LINE
  5
2B6
100
AcDbEntity
  8
0
100
AcDbLine
 62
7
  6
CONTINUOUS
 10
4.8977640855
 20
5.1116057098
 11
4.9096246785
 21
5.1039033507
  0
LINE
  5
2B7
100
AcDbEntity
  8
0
100
AcDbLine
 62
7
  6
CONTINUOUS
 10
5.4906751135
 20
4.7265647862
 11
5.5025357064
 21
4.7188624271
  0
LINE
  5
2B8
100
AcDbEntity
  8
0
100
AcDbLine
 62
7
  6
CONTINUOUS
 10
4.9234021428
 20
5.1168898979
 11
4.9348433708
 21
5.1085773591
  0
LINE
  5
2B9
100
AcDbEntity
  8
0
100
AcDbLine
 62
7
  6
CONTINUOUS
 10
5.4953491219
 20
4.7013460938
 11
5.5067903499
 21
4.693033555
  0
LINE
  5
2BA
100
AcDbEntity
  8
0
100
AcDbLine
 62
7
  6
CONTINUOUS
 10
4.949281617
 20
5.1208250518
 11
4.9602721206
 21
5.1119251175
  0
LINE
  5
2BB
100
AcDbEntity
  8
0
100
AcDbLine
 62
7
  6
CONTINUOUS
 10
5.4986968803
 20
4.675917344
 11
5.5096873839
 21
4.6670174097
  0
LINE
  5
2BC
100
AcDbEntity
  8
0
100
AcDbLine
 62
7
  6
CONTINUOUS
 10
5.3183064113
 20
5.0194973132
 11
5.319784667
 21
5.0054326497
  0
LINE
  5
2BD
100
AcDbEntity
  8
0
100
AcDbLine
 62
7
  6
CONTINUOUS
 10
5.3922044124
 20
4.3164047977
 11
5.3936826682
 21
4.3023401341
  0
LINE
  5
2BE
100
AcDbEntity
  8
0
100
AcDbLine
 62
7
  6
CONTINUOUS
 10
5.3385475489
 20
5.0028982478
 11
5.3392876911
 21
4.9887754935
  0
LINE
  5
2BF
100
AcDbEntity
  8
0
100
AcDbLine
 62
7
  6
CONTINUOUS
 10
5.3755472563
 20
4.2969017736
 11
5.3762873985
 21
4.2827790193
  0
LINE
  5
2C0
100
AcDbEntity
  8
0
100
AcDbLine
 62
7
  6
CONTINUOUS
 10
5.3578922187
 20
4.9852625916
 11
5.3578922187
 21
4.971120456
  0
LINE
  5
2C1
100
AcDbEntity
  8
0
100
AcDbLine
 62
7
  6
CONTINUOUS
 10
5.3578922187
 20
4.2782972459
 11
5.3578922187
 21
4.2641551103
  0
LINE
  5
2C2
100
AcDbEntity
  8
0
100
AcDbLine
 62
7
  6
CONTINUOUS
 10
5.3762873985
 20
4.9666386826
 11
5.3755472563
 21
4.9525159283
  0
LINE
  5
2C3
100
AcDbEntity
  8
0
100
AcDbLine
 62
7
  6
CONTINUOUS
 10
5.3392876911
 20
4.2606422084
 11
5.3385475489
 21
4.246519454
  0
LINE
  5
2C4
100
AcDbEntity
  8
0
100
AcDbLine
 62
7
  6
CONTINUOUS
 10
5.3936826682
 20
4.9470775677
 11
5.3922044124
 21
4.9330129042
  0
LINE
  5
2C5
100
AcDbEntity
  8
0
100
AcDbLine
 62
7
  6
CONTINUOUS
 10
5.319784667
 20
4.2439850522
 11
5.3183064113
 21
4.2299203887
  0
LINE
  5
2C6
100
AcDbEntity
  8
0
100
AcDbLine
 62
7
  6
CONTINUOUS
 10
5.4100303486
 20
4.9266328626
 11
5.4078180312
 21
4.9126648402
  0
LINE
  5
2C7
100
AcDbEntity
  8
0
100
AcDbLine
 62
7
  6
CONTINUOUS
 10
5.2994366029
 20
4.2283714335
 11
5.2972242855
 21
4.214403411
  0
LINE
  5
2C8
100
AcDbEntity
  8
0
100
AcDbLine
 62
7
  6
CONTINUOUS
 10
5.4252856319
 20
4.9053606048
 11
5.4223453166
 21
4.8915275087
  0
LINE
  5
2C9
100
AcDbEntity
  8
0
100
AcDbLine
 62
7
  6
CONTINUOUS
 10
5.2782992715
 20
4.2138441481
 11
5.2753589562
 21
4.2000110521
  0
LINE
  5
2CA
100
AcDbEntity
  8
0
100
AcDbLine
 62
7
  6
CONTINUOUS
 10
5.4394067044
 20
4.8833191
 11
5.4357464504
 21
4.8696588459
  0
LINE
  5
2CB
100
AcDbEntity
  8
0
100
AcDbLine
 62
7
  6
CONTINUOUS
 10
5.2564306087
 20
4.2004430143
 11
5.2527703547
 21
4.1867827602
  0
LINE
  5
2CC
100
AcDbEntity
  8
0
100
AcDbLine
 62
7
  6
CONTINUOUS
 10
5.4523548612
 20
4.8605687625
 11
5.447984701
 21
4.8471187922
  0
LINE
  5
2CD
100
AcDbEntity
  8
0
100
AcDbLine
 62
7
  6
CONTINUOUS
 10
5.233890555
 20
4.1882047636
 11
5.2295203947
 21
4.1747547934
  0
LINE
  5
2CE
100
AcDbEntity
  8
0
100
AcDbLine
 62
7
  6
CONTINUOUS
 10
5.4640946124
 20
4.8371719493
 11
5.4590265243
 21
4.8239691283
  0
LINE
  5
2CF
100
AcDbEntity
  8
0
100
AcDbLine
 62
7
  6
CONTINUOUS
 10
5.2107408911
 20
4.1771629404
 11
5.2056728029
 21
4.1639601194
  0
LINE
  5
2D0
100
AcDbEntity
  8
0
100
AcDbLine
 62
7
  6
CONTINUOUS
 10
5.4745937801
 20
4.8131927896
 11
5.4688416553
 21
4.8002733058
  0
LINE
  5
2D1
100
AcDbEntity
  8
0
100
AcDbLine
 62
7
  6
CONTINUOUS
 10
5.1870450686
 20
4.1673478093
 11
5.1812929438
 21
4.1544283256
  0
LINE
  5
2D2
100
AcDbEntity
  8
0
100
AcDbLine
 62
7
  6
CONTINUOUS
 10
5.4838235867
 20
4.7886970085
 11
5.4774031915
 21
4.7760962734
  0
LINE
  5
2D3
100
AcDbEntity
  8
0
100
AcDbLine
 62
7
  6
CONTINUOUS
 10
5.1628680362
 20
4.1587862731
 11
5.1564476409
 21
4.146185538
  0
LINE
  5
2D4
100
AcDbEntity
  8
0
100
AcDbLine
 62
7
  6
CONTINUOUS
 10
5.4917587342
 20
4.7637517473
 11
5.4846876663
 21
4.7515042985
  0
LINE
  5
2D5
100
AcDbEntity
  8
0
100
AcDbLine
 62
7
  6
CONTINUOUS
 10
5.1382760613
 20
4.1515017983
 11
5.1312049935
 21
4.1392543496
  0
LINE
  5
2D6
100
AcDbEntity
  8
0
100
AcDbLine
 62
7
  6
CONTINUOUS
 10
5.4983774726
 20
4.7384253791
 11
5.4906751135
 21
4.7265647862
  0
LINE
  5
2D7
100
AcDbEntity
  8
0
100
AcDbLine
 62
7
  6
CONTINUOUS
 10
5.113336549
 20
4.1455143511
 11
5.1056341899
 21
4.1336537582
  0
LINE
  5
2D8
100
AcDbEntity
  8
0
100
AcDbLine
 62
7
  6
CONTINUOUS
 10
5.5036616606
 20
4.7127873218
 11
5.4953491219
 21
4.7013460938
  0
LINE
  5
2D9
100
AcDbEntity
  8
0
100
AcDbLine
 62
7
  6
CONTINUOUS
 10
5.0881178566
 20
4.1408403428
 11
5.0798053178
 21
4.1293991147
  0
LINE
  5
2DA
100
AcDbEntity
  8
0
100
AcDbLine
 62
7
  6
CONTINUOUS
 10
5.5075968146
 20
4.6869078476
 11
5.4986968803
 21
4.675917344
  0
LINE
  5
2DB
100
AcDbEntity
  8
0
100
AcDbLine
 62
7
  6
CONTINUOUS
 10
5.0626891068
 20
4.1374925843
 11
5.0537891725
 21
4.1265020808
  0
LINE
  5
2DC
100
AcDbEntity
  8
0
100
AcDbLine
 62
7
  6
CONTINUOUS
 10
5.5101721486
 20
4.6608578903
 11
5.5007092128
 21
4.6503482354
  0
LINE
  5
2DD
100
AcDbEntity
  8
0
100
AcDbLine
 62
7
  6
CONTINUOUS
 10
5.0371199981
 20
4.1354802518
 11
5.0276570624
 21
4.1249705969
  0
LINE
  5
2DE
100
AcDbEntity
  8
0
100
AcDbLine
 62
7
  6
CONTINUOUS
 10
5.5113806037
 20
4.6347088509
 11
5.5013806037
 21
4.6247088509
  0
LINE
  5
2DF
100
AcDbEntity
  8
0
100
AcDbLine
 62
7
  6
CONTINUOUS
 10
5.0114806137
 20
4.1348088609
 11
5.0014806137
 21
4.1248088609
  0
LINE
  5
2E0
100
AcDbEntity
  8
0
100
AcDbLine
 62
7
  6
CONTINUOUS
 10
5.5112188677
 20
4.6085324023
 11
5.5007092128
 21
4.5990694665
  0
LINE
  5
2E1
100
AcDbEntity
  8
0
100
AcDbLine
 62
7
  6
CONTINUOUS
 10
4.9858412293
 20
4.1354802518
 11
4.9753315744
 21
4.1260173161
  0
LINE
  5
2E2
100
AcDbEntity
  8
0
100
AcDbLine
 62
7
  6
CONTINUOUS
 10
4.9753315744
 20
5.1234003858
 11
4.9858412293
 21
5.11393745
  0
LINE
  5
2E3
100
AcDbEntity
  8
0
100
AcDbLine
 62
7
  6
CONTINUOUS
 10
5.5007092128
 20
4.6503482354
 11
5.5112188677
 21
4.6408852996
  0
LINE
  5
2E4
100
AcDbEntity
  8
0
100
AcDbLine
 62
7
  6
CONTINUOUS
 10
5.0014806137
 20
5.1246088409
 11
5.0114806137
 21
5.1146088409
  0
LINE
  5
2E5
100
AcDbEntity
  8
0
100
AcDbLine
 62
7
  6
CONTINUOUS
 10
5.5013806037
 20
4.6247088509
 11
5.5113806037
 21
4.6147088509
  0
LINE
  5
2E6
100
AcDbEntity
  8
0
100
AcDbLine
 62
7
  6
CONTINUOUS
 10
5.0276570624
 20
5.1244471049
 11
5.0371199981
 21
5.11393745
  0
LINE
  5
2E7
100
AcDbEntity
  8
0
100
AcDbLine
 62
7
  6
CONTINUOUS
 10
5.5007092128
 20
4.5990694665
 11
5.5101721486
 21
4.5885598116
  0
LINE
  5
2E8
100
AcDbEntity
  8
0
100
AcDbLine
 62
7
  6
CONTINUOUS
 10
5.0537891725
 20
5.1229156211
 11
5.0626891068
 21
5.1119251175
  0
LINE
  5
2E9
100
AcDbEntity
  8
0
100
AcDbLine
 62
7
  6
CONTINUOUS
 10
5.4986968803
 20
4.5735003578
 11
5.5075968146
 21
4.5625098542
  0
LINE
  5
2EA
100
AcDbEntity
  8
0
100
AcDbLine
 62
7
  6
CONTINUOUS
 10
5.0798053178
 20
5.1200185872
 11
5.0881178566
 21
5.1085773591
  0
LINE
  5
2EB
100
AcDbEntity
  8
0
100
AcDbLine
 62
7
  6
CONTINUOUS
 10
5.4953491219
 20
4.5480716081
 11
5.5036616606
 21
4.53663038
  0
LINE
  5
2EC
100
AcDbEntity
  8
0
100
AcDbLine
 62
7
  6
CONTINUOUS
 10
5.1056341899
 20
5.1157639437
 11
5.113336549
 21
5.1039033507
  0
LINE
  5
2ED
100
AcDbEntity
  8
0
100
AcDbLine
 62
7
  6
CONTINUOUS
 10
5.4906751135
 20
4.5228529157
 11
5.4983774726
 21
4.5109923228
  0
LINE
  5
2EE
100
AcDbEntity
  8
0
100
AcDbLine
 62
7
  6
CONTINUOUS
 10
5.1312049935
 20
5.1101633523
 11
5.1382760613
 21
5.0979159036
  0
LINE
  5
2EF
100
AcDbEntity
  8
0
100
AcDbLine
 62
7
  6
CONTINUOUS
 10
5.4846876663
 20
4.4979134033
 11
5.4917587342
 21
4.4856659546
  0
LINE
  5
2F0
100
AcDbEntity
  8
0
100
AcDbLine
 62
7
  6
CONTINUOUS
 10
5.1564476409
 20
5.1032321639
 11
5.1628680362
 21
5.0906314288
  0
LINE
  5
2F1
100
AcDbEntity
  8
0
100
AcDbLine
 62
7
  6
CONTINUOUS
 10
5.4774031915
 20
4.4733214285
 11
5.4838235867
 21
4.4607206934
  0
LINE
  5
2F2
100
AcDbEntity
  8
0
100
AcDbLine
 62
7
  6
CONTINUOUS
 10
5.1812929438
 20
5.0949893763
 11
5.1870450686
 21
5.0820698925
  0
LINE
  5
2F3
100
AcDbEntity
  8
0
100
AcDbLine
 62
7
  6
CONTINUOUS
 10
5.4688416553
 20
4.449144396
 11
5.4745937801
 21
4.4362249123
  0
LINE
  5
2F4
100
AcDbEntity
  8
0
100
AcDbLine
 62
7
  6
CONTINUOUS
 10
5.2056728029
 20
5.0854575825
 11
5.2107408911
 21
5.0722547615
  0
LINE
  5
2F5
100
AcDbEntity
  8
0
100
AcDbLine
 62
7
  6
CONTINUOUS
 10
5.4590265243
 20
4.4254485736
 11
5.4640946124
 21
4.4122457525
  0
LINE
  5
2F6
100
AcDbEntity
  8
0
100
AcDbLine
 62
7
  6
CONTINUOUS
 10
5.2295203947
 20
5.0746629085
 11
5.233890555
 21
5.0612129382
  0
LINE
  5
2F7
100
AcDbEntity
  8
0
100
AcDbLine
 62
7
  6
CONTINUOUS
 10
5.447984701
 20
4.4022989097
 11
5.4523548612
 21
4.3888489394
  0
LINE
  5
2F8
100
AcDbEntity
  8
0
100
AcDbLine
 62
7
  6
CONTINUOUS
 10
5.2527703547
 20
5.0626349416
 11
5.2564306087
 21
5.0489746876
  0
LINE
  5
2F9
100
AcDbEntity
  8
0
100
AcDbLine
 62
7
  6
CONTINUOUS
 10
5.4357464504
 20
4.3797588559
 11
5.4394067044
 21
4.3660986019
  0
LINE
  5
2FA
100
AcDbEntity
  8
0
100
AcDbLine
 62
7
  6
CONTINUOUS
 10
5.2753589562
 20
5.0494066498
 11
5.2782992715
 21
5.0355735538
  0
LINE
  5
2FB
100
AcDbEntity
  8
0
100
AcDbLine
 62
7
  6
CONTINUOUS
 10
5.4223453166
 20
4.3578901931
 11
5.4252856319
 21
4.3440570971
  0
LINE
  5
2FC
100
AcDbEntity
  8
0
100
AcDbLine
 62
7
  6
CONTINUOUS
 10
5.2972242855
 20
5.0350142909
 11
5.2994366029
 21
5.0210462684
  0
LINE
  5
2FD
100
AcDbEntity
  8
0
100
AcDbLine
 62
7
  6
CONTINUOUS
 10
5.4078180312
 20
4.3367528617
 11
5.4100303486
 21
4.3227848392
  0
ARC
  5
2FE
100
AcDbEntity
  8
0
100
AcDbCircle
 62
7
  6
CONTINUOUS
 10
4.6679502319
 20
4.6024404013
 40
0.2074671651
100
AcDbArc
 50
234.2702437471
 51
235.4469058824
  0
ARC
  5
2FF
100
AcDbEntity
  8
0
100
AcDbCircle
 62
7
  6
CONTINUOUS
 10
4.7606899399
 20
4.6247088511
 40
0.2497657549
100
AcDbArc
 50
177.6992061413
 51
182.3007762478
  0
ARC
  5
300
100
AcDbEntity
  8
0
100
AcDbCircle
 62
7
  6
CONTINUOUS
 10
4.7606294254
 20
4.6247089218
 40
0.2497052789
100
AcDbArc
 50
182.3007146294
 51
183.7180706845
  0
ARC
  5
301
100
AcDbEntity
  8
0
100
AcDbCircle
 62
7
  6
CONTINUOUS
 10
4.7606292991
 20
4.6247087689
 40
0.2497051536
100
AcDbArc
 50
176.2819144775
 51
177.6992673448
  0
ARC
  5
302
100
AcDbEntity
  8
0
100
AcDbCircle
 62
7
  6
CONTINUOUS
 10
4.7604615349
 20
4.624698477
 40
0.2495370646
100
AcDbArc
 50
183.7181773034
 51
184.0700495218
  0
ARC
  5
303
100
AcDbEntity
  8
0
100
AcDbCircle
 62
7
  6
CONTINUOUS
 10
4.7604610911
 20
4.6247192382
 40
0.2495366207
100
AcDbArc
 50
175.9224872428
 51
176.2818087313
  0
ARC
  5
304
100
AcDbEntity
  8
0
100
AcDbCircle
 62
7
  6
CONTINUOUS
 10
4.7602261189
 20
4.6246810947
 40
0.2493010085
100
AcDbArc
 50
184.0699048351
 51
185.2799647223
  0
ARC
  5
305
100
AcDbEntity
  8
0
100
AcDbCircle
 62
7
  6
CONTINUOUS
 10
4.7602258947
 20
4.6247366251
 40
0.2493007833
100
AcDbArc
 50
174.7202622595
 51
175.9226294991
  0
ARC
  5
306
100
AcDbEntity
  8
0
100
AcDbCircle
 62
7
  6
CONTINUOUS
 10
4.6680499892
 20
4.6468359523
 40
0.2076401643
100
AcDbArc
 50
124.550193478
 51
125.7308902905
  0
CIRCLE
  5
307
100
AcDbEntity
  8
0
100
AcDbCircle
 62
7
  6
CONTINUOUS
 10
5.0114806137
 20
4.6247088509
 40
0.5
  0
CIRCLE
  5
308
100
AcDbEntity
  8
0
100
AcDbCircle
 62
7
  6
CONTINUOUS
 10
5.0114806137
 20
4.6247088509
 40
0.4585
  0
CIRCLE
  5
309
100
AcDbEntity
  8
0
100
AcDbCircle
 62
7
  6
CONTINUOUS
 10
5.0114806137
 20
4.6247088509
 40
0.431
  0
CIRCLE
  5
30A
100
AcDbEntity
  8
0
100
AcDbCircle
 62
7
  6
CONTINUOUS
 10
5.0114806137
 20
4.6247088509
 40
0.4173480229
  0
CIRCLE
  5
30B
100
AcDbEntity
  8
0
100
AcDbCircle
 62
7
  6
CONTINUOUS
 10
5.0114806137
 20
4.6247088509
 40
0.4171514835
  0
CIRCLE
  5
30C
100
AcDbEntity
  8
0
100
AcDbCircle
 62
7
  6
CONTINUOUS
 10
5.0114806137
 20
4.6247088509
 40
0.40875
  0
CIRCLE
  5
30D
100
AcDbEntity
  8
0
100
AcDbCircle
 62
7
  6
CONTINUOUS
 10
5.0114806137
 20
4.6247088509
 40
0.29375
  0
SPLINE
  5
30E
100
AcDbEntity
  8
0
100
AcDbSpline
 62
7
  6
CONTINUOUS
 70
0
 71
3
 72
20
 73
16
 74
0
 42
0.0000001
 43
0.0000001
 44
0.0000000001
 40
0.0
 40
0.0
 40
0.0
 40
0.0
 40
0.0605302197
 40
0.1213539544
 40
0.1824793177
 40
0.2439098277
 40
0.3056440534
 40
0.3676761392
 40
0.4299954997
 40
0.4925873498
 40
0.6184553279
 40
0.7451405302
 40
0.808736972
 40
0.8724473294
 40
1.0
 40
1.0
 40
1.0
 40
1.0
 10
4.5467971079
 20
4.4340226317
 30
0.0
 10
4.5431839166
 20
4.4366217478
 30
0.0
 10
4.5361052385
 20
4.4420666594
 30
0.0
 10
4.5260029681
 20
4.450910566
 30
0.0
 10
4.5164263355
 20
4.4604159177
 30
0.0
 10
4.5074120886
 20
4.4705455604
 30
0.0
 10
4.4989927138
 20
4.4812595967
 30
0.0
 10
4.491199624
 20
4.4925167073
 30
0.0
 10
4.4840607545
 20
4.5042738228
 30
0.0
 10
4.4754352952
 20
4.5205826453
 30
0.0
 10
4.4664237474
 20
4.541992726
 30
0.0
 10
4.4599162903
 20
4.5643662382
 30
0.0
 10
4.4562447626
 20
4.5826876287
 30
0.0
 10
4.453607918
 20
4.6012487404
 30
0.0
 10
4.4528140963
 20
4.6153296544
 30
0.0
 10
4.4528140963
 20
4.6247088509
 30
0.0
  0
SPLINE
  5
30F
100
AcDbEntity
  8
0
100
AcDbSpline
 62
7
  6
CONTINUOUS
 70
0
 71
3
 72
23
 73
19
 74
0
 42
0.0000001
 43
0.0000001
 44
0.0000000001
 40
0.0
 40
0.0
 40
0.0
 40
0.0
 40
0.0599284035
 40
0.1200826031
 40
0.1805232216
 40
0.2413020565
 40
0.3024603936
 40
0.3640280845
 40
0.4260227639
 40
0.4884491354
 40
0.5512988265
 40
0.6145508976
 40
0.6781723562
 40
0.742120103
 40
0.8063410607
 40
0.8707707417
 40
0.9353540649
 40
1.0
 40
1.0
 40
1.0
 40
1.0
 10
4.5646085828
 20
4.4004404556
 30
0.0
 10
4.5586578665
 20
4.4016716341
 30
0.0
 10
4.5468432029
 20
4.4047041859
 30
0.0
 10
4.5295929013
 20
4.4109031164
 30
0.0
 10
4.5129112847
 20
4.4187092141
 30
0.0
 10
4.4969263222
 20
4.4280589279
 30
0.0
 10
4.4817567934
 20
4.438877878
 30
0.0
 10
4.4675146276
 20
4.4510807453
 30
0.0
 10
4.4543034056
 20
4.4645725646
 30
0.0
 10
4.4422184055
 20
4.4792498253
 30
0.0
 10
4.4313462479
 20
4.4950012801
 30
0.0
 10
4.4217641012
 20
4.5117083995
 30
0.0
 10
4.4135393826
 20
4.5292464302
 30
0.0
 10
4.4067300096
 20
4.5474854814
 30
0.0
 10
4.4013841804
 20
4.5662906393
 30
0.0
 10
4.3975382516
 20
4.5855246878
 30
0.0
 10
4.3952206106
 20
4.6050440373
 30
0.0
 10
4.3947040853
 20
4.6181537484
 30
0.0
 10
4.3947040853
 20
4.6247088509
 30
0.0
  0
SPLINE
  5
310
100
AcDbEntity
  8
0
100
AcDbSpline
 62
7
  6
CONTINUOUS
 70
0
 71
3
 72
27
 73
23
 74
0
 42
0.0000001
 43
0.0000001
 44
0.0000000001
 40
0.0
 40
0.0
 40
0.0
 40
0.0
 40
0.0300843406
 40
0.0601562965
 40
0.0902296211
 40
0.1203181252
 40
0.1504354606
 40
0.1805948729
 40
0.2108092861
 40
0.2410908228
 40
0.3018769502
 40
0.3630582803
 40
0.4246979167
 40
0.4868388887
 40
0.5495023316
 40
0.612686343
 40
0.6763664745
 40
0.7404967511
 40
0.8050130067
 40
0.8698318966
 40
0.9348641022
 40
1.0
 40
1.0
 40
1.0
 40
1.0
 10
4.566102463
 20
4.3975907154
 30
0.0
 10
4.5624730539
 20
4.3971941458
 30
0.0
 10
4.5551913227
 20
4.3966085272
 30
0.0
 10
4.5442383053
 20
4.3963575613
 30
0.0
 10
4.533287997
 20
4.3967339122
 30
0.0
 10
4.5223718906
 20
4.3977377305
 30
0.0
 10
4.5115205445
 20
4.399364698
 30
0.0
 10
4.5007648193
 20
4.401611027
 30
0.0
 10
4.4901343399
 20
4.4044692093
 30
0.0
 10
4.4761528939
 20
4.4090897092
 30
0.0
 10
4.4591217953
 20
4.4163621889
 30
0.0
 10
4.4396855806
 20
4.427348222
 30
0.0
 10
4.4214258867
 20
4.4404790835
 30
0.0
 10
4.4045399952
 20
4.4556035409
 30
0.0
 10
4.3892055991
 20
4.4725509921
 30
0.0
 10
4.3755826516
 20
4.4911329838
 30
0.0
 10
4.3638117912
 20
4.5111455847
 30
0.0
 10
4.3540134073
 20
4.5323714927
 30
0.0
 10
4.3462877108
 20
4.5545817756
 30
0.0
 10
4.3407123801
 20
4.5775394924
 30
0.0
 10
4.337344901
 20
4.6009966225
 30
0.0
 10
4.3365940744
 20
4.6168040126
 30
0.0
 10
4.3365940744
 20
4.6247088509
 30
0.0
  0
SPLINE
  5
311
100
AcDbEntity
  8
0
100
AcDbSpline
 62
7
  6
CONTINUOUS
 70
0
 71
3
 72
24
 73
20
 74
0
 42
0.0000001
 43
0.0000001
 44
0.0000000001
 40
0.0
 40
0.0
 40
0.0
 40
0.0
 40
0.0301314207
 40
0.0602396476
 40
0.1204185455
 40
0.180678157
 40
0.24113034
 40
0.3018780157
 40
0.36301051
 40
0.4245989906
 40
0.4866935885
 40
0.5493212776
 40
0.6124844169
 40
0.6761609599
 40
0.7403055363
 40
0.8048526724
 40
0.8697167846
 40
0.934803514
 40
1.0
 40
1.0
 40
1.0
 40
1.0
 10
4.5163093826
 20
4.3986839381
 30
0.0
 10
4.5126122247
 20
4.3981155607
 30
0.0
 10
4.5051854738
 20
4.3971948163
 30
0.0
 10
4.4902611307
 20
4.3962271375
 30
0.0
 10
4.4715298765
 20
4.3966632609
 30
0.0
 10
4.4492458379
 20
4.399818513
 30
0.0
 10
4.4274112746
 20
4.405564187
 30
0.0
 10
4.4062849856
 20
4.4138275856
 30
0.0
 10
4.3861116499
 20
4.4245051504
 30
0.0
 10
4.367122121
 20
4.4374654327
 30
0.0
 10
4.3495301394
 20
4.452551728
 30
0.0
 10
4.3335308412
 20
4.4695848676
 30
0.0
 10
4.3192993432
 20
4.4883657755
 30
0.0
 10
4.306989859
 20
4.5086779491
 30
0.0
 10
4.2967344664
 20
4.5302898787
 30
0.0
 10
4.2886430156
 20
4.5529570503
 30
0.0
 10
4.282800973
 20
4.5764258126
 30
0.0
 10
4.2792711579
 20
4.60043044
 30
0.0
 10
4.2784840634
 20
4.6166151913
 30
0.0
 10
4.2784840634
 20
4.6247088509
 30
0.0
  0
SPLINE
  5
312
100
AcDbEntity
  8
0
100
AcDbSpline
 62
7
  6
CONTINUOUS
 70
0
 71
3
 72
24
 73
20
 74
0
 42
0.0000001
 43
0.0000001
 44
0.0000000001
 40
0.0
 40
0.0
 40
0.0
 40
0.0
 40
0.0301314207
 40
0.0602396476
 40
0.1204185455
 40
0.180678157
 40
0.24113034
 40
0.3018780157
 40
0.36301051
 40
0.4245989906
 40
0.4866935885
 40
0.5493212776
 40
0.6124844169
 40
0.6761609599
 40
0.7403055363
 40
0.8048526724
 40
0.8697167846
 40
0.934803514
 40
1.0
 40
1.0
 40
1.0
 40
1.0
 10
4.4581993717
 20
4.3986839381
 30
0.0
 10
4.4545022137
 20
4.3981155607
 30
0.0
 10
4.4470754628
 20
4.3971948163
 30
0.0
 10
4.4321511197
 20
4.3962271375
 30
0.0
 10
4.4134198655
 20
4.3966632609
 30
0.0
 10
4.3911358269
 20
4.399818513
 30
0.0
 10
4.3693012636
 20
4.405564187
 30
0.0
 10
4.3481749746
 20
4.4138275856
 30
0.0
 10
4.3280016389
 20
4.4245051504
 30
0.0
 10
4.30901211
 20
4.4374654327
 30
0.0
 10
4.2914201284
 20
4.452551728
 30
0.0
 10
4.2754208302
 20
4.4695848676
 30
0.0
 10
4.2611893322
 20
4.4883657755
 30
0.0
 10
4.248879848
 20
4.5086779491
 30
0.0
 10
4.2386244554
 20
4.5302898787
 30
0.0
 10
4.2305330046
 20
4.5529570503
 30
0.0
 10
4.224690962
 20
4.5764258126
 30
0.0
 10
4.221161147
 20
4.60043044
 30
0.0
 10
4.2203740524
 20
4.6166151913
 30
0.0
 10
4.2203740524
 20
4.6247088509
 30
0.0
  0
SPLINE
  5
313
100
AcDbEntity
  8
0
100
AcDbSpline
 62
7
  6
CONTINUOUS
 70
0
 71
3
 72
20
 73
16
 74
0
 42
0.0000001
 43
0.0000001
 44
0.0000000001
 40
0.0
 40
0.0
 40
0.0
 40
0.0
 40
0.1275528267
 40
0.1912632114
 40
0.2548596721
 40
0.3815448676
 40
0.5074127974
 40
0.5700046186
 40
0.6323239475
 40
0.6943560035
 40
0.7560902068
 40
0.8175206964
 40
0.8786460471
 40
0.9394697724
 40
1.0
 40
1.0
 40
1.0
 40
1.0
 10
4.4528140963
 20
4.6247088509
 30
0.0
 10
4.4528140963
 20
4.6340878181
 30
0.0
 10
4.453607879
 20
4.6481683831
 30
0.0
 10
4.4562445926
 20
4.6667290419
 30
0.0
 10
4.4599159372
 20
4.685049982
 30
0.0
 10
4.4664230626
 20
4.707422962
 30
0.0
 10
4.4754341593
 20
4.7288325746
 30
0.0
 10
4.4840591727
 20
4.7451410876
 30
0.0
 10
4.4911976926
 20
4.7568979936
 30
0.0
 10
4.4989903823
 20
4.7681549456
 30
0.0
 10
4.5074093517
 20
4.7788688478
 30
0.0
 10
4.5164231488
 20
4.7889984185
 30
0.0
 10
4.5259993307
 20
4.7985037271
 30
0.0
 10
4.536101119
 20
4.8073476588
 30
0.0
 10
4.5431794789
 20
4.8127926067
 30
0.0
 10
4.5467925039
 20
4.8153917593
 30
0.0
  0
SPLINE
  5
314
100
AcDbEntity
  8
0
100
AcDbSpline
 62
7
  6
CONTINUOUS
 70
0
 71
3
 72
23
 73
19
 74
0
 42
0.0000001
 43
0.0000001
 44
0.0000000001
 40
0.0
 40
0.0
 40
0.0
 40
0.0
 40
0.0646461147
 40
0.1292295636
 40
0.1936593385
 40
0.2578803532
 40
0.3218281158
 40
0.3854495664
 40
0.4487016001
 40
0.5115512332
 40
0.5739775357
 40
0.6359721334
 40
0.6975397387
 40
0.7586979993
 40
0.8194767768
 40
0.8799173615
 40
0.9400715595
 40
1.0
 40
1.0
 40
1.0
 40
1.0
 10
4.3947040853
 20
4.6247088509
 30
0.0
 10
4.3947040853
 20
4.6312640415
 30
0.0
 10
4.3952206242
 20
4.6443739232
 30
0.0
 10
4.3975383247
 20
4.6638935178
 30
0.0
 10
4.4013843502
 20
4.6831277891
 30
0.0
 10
4.4067303061
 20
4.7019331454
 30
0.0
 10
4.4135398347
 20
4.7201723673
 30
0.0
 10
4.4217647358
 20
4.7377105377
 30
0.0
 10
4.4313470907
 20
4.7544177623
 30
0.0
 10
4.4422194652
 20
4.7701692952
 30
0.0
 10
4.4543047018
 20
4.7848465969
 30
0.0
 10
4.4675161789
 20
4.7983384155
 30
0.0
 10
4.4817586102
 20
4.8105412417
 30
0.0
 10
4.4969283973
 20
4.8213601337
 30
0.0
 10
4.5129136342
 20
4.8307097371
 30
0.0
 10
4.5295955328
 20
4.8385156761
 30
0.0
 10
4.5468461157
 20
4.8447143976
 30
0.0
 10
4.5586609497
 20
4.8477468275
 30
0.0
 10
4.5646117556
 20
4.8489779103
 30
0.0
  0
SPLINE
  5
315
100
AcDbEntity
  8
0
100
AcDbSpline
 62
7
  6
CONTINUOUS
 70
0
 71
3
 72
27
 73
23
 74
0
 42
0.0000001
 43
0.0000001
 44
0.0000000001
 40
0.0
 40
0.0
 40
0.0
 40
0.0
 40
0.0651359895
 40
0.130168229
 40
0.1949871298
 40
0.2595033563
 40
0.3236335885
 40
0.3873136603
 40
0.4504976061
 40
0.513160983
 40
0.5753018937
 40
0.6369414844
 40
0.698122787
 40
0.7589089156
 40
0.7891904636
 40
0.8194048924
 40
0.849564324
 40
0.879681691
 40
0.9097702264
 40
0.9398435984
 40
0.9699156001
 40
1.0
 40
1.0
 40
1.0
 40
1.0
 10
4.3365940744
 20
4.6247088509
 30
0.0
 10
4.3365940744
 20
4.6326136039
 30
0.0
 10
4.3373448841
 20
4.6484208162
 30
0.0
 10
4.3407122878
 20
4.6718776809
 30
0.0
 10
4.3462874856
 20
4.6948351345
 30
0.0
 10
4.3540129975
 20
4.7170451688
 30
0.0
 10
4.3638111414
 20
4.7382708544
 30
0.0
 10
4.3755817134
 20
4.7582832711
 30
0.0
 10
4.3892043279
 20
4.7768651278
 30
0.0
 10
4.4045383532
 20
4.7938125052
 30
0.0
 10
4.4214238462
 20
4.8089369588
 30
0.0
 10
4.4396831233
 20
4.8220679002
 30
0.0
 10
4.4591189265
 20
4.8330540845
 30
0.0
 10
4.4761496853
 20
4.8403267827
 30
0.0
 10
4.4901308938
 20
4.8449474362
 30
0.0
 10
4.5007611844
 20
4.8478058249
 30
0.0
 10
4.5115167499
 20
4.8500523035
 30
0.0
 10
4.5223679356
 20
4.8516794997
 30
0.0
 10
4.5332839024
 20
4.8526835282
 30
0.0
 10
4.5442340833
 20
4.8530601061
 30
0.0
 10
4.5551869925
 20
4.8528094152
 30
0.0
 10
4.5624686584
 20
4.8522239387
 30
0.0
 10
4.5660980401
 20
4.8518274629
 30
0.0
  0
SPLINE
  5
316
100
AcDbEntity
  8
0
100
AcDbSpline
 62
7
  6
CONTINUOUS
 70
0
 71
3
 72
24
 73
20
 74
0
 42
0.0000001
 43
0.0000001
 44
0.0000000001
 40
0.0
 40
0.0
 40
0.0
 40
0.0
 40
0.0651962187
 40
0.1302826624
 40
0.1951465271
 40
0.2596934709
 40
0.3238379501
 40
0.3875144987
 40
0.4506777524
 40
0.5133056512
 40
0.5754005321
 40
0.6369893373
 40
0.6981221521
 40
0.7588701042
 40
0.8193224596
 40
0.8795820869
 40
0.9397607969
 40
0.9698688334
 40
1.0
 40
1.0
 40
1.0
 40
1.0
 10
4.2784840634
 20
4.6247088509
 30
0.0
 10
4.2784840634
 20
4.6328011792
 30
0.0
 10
4.2792708985
 20
4.6489832622
 30
0.0
 10
4.2827995526
 20
4.6729840136
 30
0.0
 10
4.2886396788
 20
4.6964491485
 30
0.0
 10
4.2967285001
 20
4.7191130741
 30
0.0
 10
4.3069805995
 20
4.740722264
 30
0.0
 10
4.3192862006
 20
4.7610323216
 30
0.0
 10
4.3335133098
 20
4.7798118439
 30
0.0
 10
4.3495078142
 20
4.7968444233
 30
0.0
 10
4.3670947125
 20
4.8119310641
 30
0.0
 10
4.3860789962
 20
4.8248926609
 30
0.0
 10
4.406247065
 20
4.8355725533
 30
0.0
 10
4.4273682139
 20
4.8438393117
 30
0.0
 10
4.4491979182
 20
4.8495893723
 30
0.0
 10
4.4714775311
 20
4.8527499869
 30
0.0
 10
4.4902055973
 20
4.853191381
 30
0.0
 10
4.5051277504
 20
4.8522282649
 30
0.0
 10
4.5125535386
 20
4.8513099799
 30
0.0
 10
4.5162502496
 20
4.8507428531
 30
0.0
  0
SPLINE
  5
317
100
AcDbEntity
  8
0
100
AcDbSpline
 62
7
  6
CONTINUOUS
 70
0
 71
3
 72
24
 73
20
 74
0
 42
0.0000001
 43
0.0000001
 44
0.0000000001
 40
0.0
 40
0.0
 40
0.0
 40
0.0
 40
0.0651962187
 40
0.1302826624
 40
0.1951465271
 40
0.2596934709
 40
0.3238379501
 40
0.3875144987
 40
0.4506777524
 40
0.5133056512
 40
0.5754005321
 40
0.6369893373
 40
0.6981221521
 40
0.7588701042
 40
0.8193224596
 40
0.8795820869
 40
0.9397607969
 40
0.9698688334
 40
1.0
 40
1.0
 40
1.0
 40
1.0
 10
4.2203740524
 20
4.6247088509
 30
0.0
 10
4.2203740524
 20
4.6328011792
 30
0.0
 10
4.2211608875
 20
4.6489832622
 30
0.0
 10
4.2246895416
 20
4.6729840136
 30
0.0
 10
4.2305296678
 20
4.6964491485
 30
0.0
 10
4.2386184891
 20
4.7191130741
 30
0.0
 10
4.2488705885
 20
4.740722264
 30
0.0
 10
4.2611761896
 20
4.7610323216
 30
0.0
 10
4.2754032988
 20
4.7798118439
 30
0.0
 10
4.2913978032
 20
4.7968444233
 30
0.0
 10
4.3089847015
 20
4.8119310641
 30
0.0
 10
4.3279689852
 20
4.8248926609
 30
0.0
 10
4.3481370541
 20
4.8355725533
 30
0.0
 10
4.3692582029
 20
4.8438393117
 30
0.0
 10
4.3910879072
 20
4.8495893723
 30
0.0
 10
4.4133675201
 20
4.8527499869
 30
0.0
 10
4.4320955863
 20
4.853191381
 30
0.0
 10
4.4470177394
 20
4.8522282649
 30
0.0
 10
4.4544435276
 20
4.8513099799
 30
0.0
 10
4.4581402386
 20
4.8507428531
 30
0.0
  0
SPLINE
  5
318
100
AcDbEntity
  8
0
100
AcDbSpline
 62
7
  6
CONTINUOUS
 70
0
 71
3
 72
26
 73
22
 74
0
 42
0.0000001
 43
0.0000001
 44
0.0000000001
 40
0.0
 40
0.0
 40
0.0
 40
0.0
 40
0.059323726
 40
0.0890876
 40
0.1189280021
 40
0.1788603352
 40
0.2392079113
 40
0.2695636343
 40
0.3000426546
 40
0.3613719028
 40
0.4232349586
 40
0.4856378386
 40
0.5170462949
 40
0.5485842287
 40
0.6120183023
 40
0.6759124196
 40
0.7402120293
 40
0.8048505513
 40
0.8697481047
 40
0.934834702
 40
1.0
 40
1.0
 40
1.0
 40
1.0
 10
4.523768435
 20
4.4137423539
 30
0.0
 10
4.5181182041
 20
4.4147115027
 30
0.0
 10
4.5096966569
 20
4.4165816807
 30
0.0
 10
4.4986839609
 20
4.4198789295
 30
0.0
 10
4.4877855441
 20
4.4237200222
 30
0.0
 10
4.4744633455
 20
4.4295201301
 30
0.0
 10
4.4617036655
 20
4.4365730404
 30
0.0
 10
4.4518703354
 20
4.4429389559
 30
0.0
 10
4.4422631294
 20
4.4498056956
 30
0.0
 10
4.4307862987
 20
4.4592645013
 30
0.0
 10
4.4180094239
 20
4.471882997
 30
0.0
 10
4.4082660323
 20
4.4833724419
 30
0.0
 10
4.4010462142
 20
4.4931027442
 30
0.0
 10
4.3941952052
 20
4.5032168756
 30
0.0
 10
4.3864083894
 20
4.5164707576
 30
0.0
 10
4.3783925029
 20
4.5331871157
 30
0.0
 10
4.3717470699
 20
4.5506189867
 30
0.0
 10
4.3665245889
 20
4.5686290341
 30
0.0
 10
4.3627644101
 20
4.5870778903
 30
0.0
 10
4.360497333
 20
4.6058188878
 30
0.0
 10
4.3599919161
 20
4.6184116065
 30
0.0
 10
4.3599919161
 20
4.6247088509
 30
0.0
  0
SPLINE
  5
319
100
AcDbEntity
  8
0
100
AcDbSpline
 62
7
  6
CONTINUOUS
 70
0
 71
3
 72
26
 73
22
 74
0
 42
0.0000001
 43
0.0000001
 44
0.0000000001
 40
0.0
 40
0.0
 40
0.0
 40
0.0
 40
0.0593237143
 40
0.0890875667
 40
0.1189279386
 40
0.1788601897
 40
0.2392076683
 40
0.2695633414
 40
0.3000423125
 40
0.3613714676
 40
0.4232344469
 40
0.4856372744
 40
0.5170457156
 40
0.5485836418
 40
0.6120177224
 40
0.675911878
 40
0.7402115553
 40
0.8048501713
 40
0.8697478393
 40
0.9348345647
 40
1.0
 40
1.0
 40
1.0
 40
1.0
 10
4.4075593418
 20
4.8356772221
 30
0.0
 10
4.4019088353
 20
4.8347083909
 30
0.0
 10
4.3934868546
 20
4.8328386521
 30
0.0
 10
4.3824735544
 20
4.8295419103
 30
0.0
 10
4.3715745217
 20
4.8257012746
 30
0.0
 10
4.3582515305
 20
4.8199016416
 30
0.0
 10
4.3454910474
 20
4.8128490739
 30
0.0
 10
4.3356570781
 20
4.8064833564
 30
0.0
 10
4.3260492337
 20
4.7996167652
 30
0.0
 10
4.3145716163
 20
4.7901580506
 30
0.0
 10
4.3017938363
 20
4.7775395223
 30
0.0
 10
4.2920497356
 20
4.7660499397
 30
0.0
 10
4.2848293829
 20
4.7563194662
 30
0.0
 10
4.2779778593
 20
4.7462051211
 30
0.0
 10
4.2701904491
 20
4.7329509007
 30
0.0
 10
4.2621739415
 20
4.7162340407
 30
0.0
 10
4.2555279865
 20
4.6988015831
 30
0.0
 10
4.250305091
 20
4.6807908802
 30
0.0
 10
4.2465446112
 20
4.662341316
 30
0.0
 10
4.2442773517
 20
4.6435995753
 30
0.0
 10
4.2437718941
 20
4.6310063493
 30
0.0
 10
4.2437718941
 20
4.6247088509
 30
0.0
  0
SPLINE
  5
31A
100
AcDbEntity
  8
0
100
AcDbSpline
 62
7
  6
CONTINUOUS
 70
0
 71
3
 72
26
 73
22
 74
0
 42
0.0000001
 43
0.0000001
 44
0.0000000001
 40
0.0
 40
0.0
 40
0.0
 40
0.0
 40
0.065165298
 40
0.1302518953
 40
0.1951494487
 40
0.2597879707
 40
0.3240875804
 40
0.3879816977
 40
0.4514157713
 40
0.4829537051
 40
0.5143621614
 40
0.5767650414
 40
0.6386280972
 40
0.6999573454
 40
0.7304363657
 40
0.7607920887
 40
0.8211396648
 40
0.8810719979
 40
0.9109124
 40
0.940676274
 40
1.0
 40
1.0
 40
1.0
 40
1.0
 10
4.2437718941
 20
4.6247088509
 30
0.0
 10
4.2437718941
 20
4.6184116065
 30
0.0
 10
4.244277311
 20
4.6058188878
 30
0.0
 10
4.2465443881
 20
4.5870778903
 30
0.0
 10
4.2503045669
 20
4.5686290341
 30
0.0
 10
4.2555270479
 20
4.5506189867
 30
0.0
 10
4.262172481
 20
4.5331871157
 30
0.0
 10
4.2701883674
 20
4.5164707576
 30
0.0
 10
4.2779751832
 20
4.5032168756
 30
0.0
 10
4.2848261922
 20
4.4931027442
 30
0.0
 10
4.2920460103
 20
4.4833724419
 30
0.0
 10
4.3017894019
 20
4.471882997
 30
0.0
 10
4.3145662767
 20
4.4592645013
 30
0.0
 10
4.3260431074
 20
4.4498056956
 30
0.0
 10
4.3356503134
 20
4.4429389559
 30
0.0
 10
4.3454836436
 20
4.4365730404
 30
0.0
 10
4.3582433235
 20
4.4295201301
 30
0.0
 10
4.3715655222
 20
4.4237200222
 30
0.0
 10
4.3824639389
 20
4.4198789295
 30
0.0
 10
4.3934766349
 20
4.4165816807
 30
0.0
 10
4.4018981821
 20
4.4147115027
 30
0.0
 10
4.4075484131
 20
4.4137423539
 30
0.0
  0
SPLINE
  5
31B
100
AcDbEntity
  8
0
100
AcDbSpline
 62
7
  6
CONTINUOUS
 70
0
 71
3
 72
26
 73
22
 74
0
 42
0.0000001
 43
0.0000001
 44
0.0000000001
 40
0.0
 40
0.0
 40
0.0
 40
0.0
 40
0.0651654353
 40
0.1302521607
 40
0.1951498287
 40
0.2597884447
 40
0.324088122
 40
0.3879822776
 40
0.4514163582
 40
0.4829542844
 40
0.5143627256
 40
0.5767655531
 40
0.6386285324
 40
0.6999576875
 40
0.7304366586
 40
0.7607923317
 40
0.8211398103
 40
0.8810720614
 40
0.9109124333
 40
0.9406762857
 40
1.0
 40
1.0
 40
1.0
 40
1.0
 10
4.3018819051
 20
4.6247088509
 30
0.0
 10
4.3018819051
 20
4.6310063493
 30
0.0
 10
4.3023873627
 20
4.6435995753
 30
0.0
 10
4.3046546222
 20
4.662341316
 30
0.0
 10
4.3084151019
 20
4.6807908802
 30
0.0
 10
4.3136379975
 20
4.6988015831
 30
0.0
 10
4.3202839525
 20
4.7162340407
 30
0.0
 10
4.3283004601
 20
4.7329509007
 30
0.0
 10
4.3360878703
 20
4.7462051211
 30
0.0
 10
4.3429393939
 20
4.7563194662
 30
0.0
 10
4.3501597466
 20
4.7660499397
 30
0.0
 10
4.3599038473
 20
4.7775395223
 30
0.0
 10
4.3726816273
 20
4.7901580506
 30
0.0
 10
4.3841592447
 20
4.7996167652
 30
0.0
 10
4.3937670891
 20
4.8064833564
 30
0.0
 10
4.4036010584
 20
4.8128490739
 30
0.0
 10
4.4163615415
 20
4.8199016416
 30
0.0
 10
4.4296845327
 20
4.8257012746
 30
0.0
 10
4.4405835654
 20
4.8295419103
 30
0.0
 10
4.4515968655
 20
4.8328386521
 30
0.0
 10
4.4600188463
 20
4.8347083909
 30
0.0
 10
4.4656693528
 20
4.8356772221
 30
0.0
  0
SPLINE
  5
31C
100
AcDbEntity
  8
0
100
AcDbSpline
 62
7
  6
CONTINUOUS
 70
0
 71
3
 72
26
 73
22
 74
0
 42
0.0000001
 43
0.0000001
 44
0.0000000001
 40
0.0
 40
0.0
 40
0.0
 40
0.0
 40
0.0651654353
 40
0.1302521607
 40
0.1951498287
 40
0.2597884447
 40
0.324088122
 40
0.3879822776
 40
0.4514163582
 40
0.4829542844
 40
0.5143627256
 40
0.5767655531
 40
0.6386285324
 40
0.6999576875
 40
0.7304366586
 40
0.7607923317
 40
0.8211398103
 40
0.8810720614
 40
0.9109124333
 40
0.9406762857
 40
1.0
 40
1.0
 40
1.0
 40
1.0
 10
4.3599919161
 20
4.6247088509
 30
0.0
 10
4.3599919161
 20
4.6310063493
 30
0.0
 10
4.3604973737
 20
4.6435995753
 30
0.0
 10
4.3627646332
 20
4.662341316
 30
0.0
 10
4.3665251129
 20
4.6807908802
 30
0.0
 10
4.3717480085
 20
4.6988015831
 30
0.0
 10
4.3783939635
 20
4.7162340407
 30
0.0
 10
4.3864104711
 20
4.7329509007
 30
0.0
 10
4.3941978813
 20
4.7462051211
 30
0.0
 10
4.4010494049
 20
4.7563194662
 30
0.0
 10
4.4082697576
 20
4.7660499397
 30
0.0
 10
4.4180138583
 20
4.7775395223
 30
0.0
 10
4.4307916382
 20
4.7901580506
 30
0.0
 10
4.4422692557
 20
4.7996167652
 30
0.0
 10
4.4518771001
 20
4.8064833564
 30
0.0
 10
4.4617110694
 20
4.8128490739
 30
0.0
 10
4.4744715525
 20
4.8199016416
 30
0.0
 10
4.4877945436
 20
4.8257012746
 30
0.0
 10
4.4986935763
 20
4.8295419103
 30
0.0
 10
4.5097068765
 20
4.8328386521
 30
0.0
 10
4.5181288573
 20
4.8347083909
 30
0.0
 10
4.5237793638
 20
4.8356772221
 30
0.0
  0
SPLINE
  5
31D
100
AcDbEntity
  8
0
100
AcDbSpline
 62
7
  6
CONTINUOUS
 70
0
 71
3
 72
25
 73
21
 74
0
 42
0.0000001
 43
0.0000001
 44
0.0000000001
 40
0.0
 40
0.0
 40
0.0
 40
0.0
 40
0.0648089292
 40
0.1295611339
 40
0.1941566877
 40
0.2585412123
 40
0.3226504016
 40
0.3864248988
 40
0.449815923
 40
0.512782558
 40
0.5752939218
 40
0.6373302933
 40
0.6988835417
 40
0.7294860376
 40
0.7599703704
 40
0.8205820543
 40
0.8807599028
 40
0.9107049964
 40
0.9405577512
 40
1.0
 40
1.0
 40
1.0
 40
1.0
 10
4.4181019271
 20
4.6247088509
 30
0.0
 10
4.4181019271
 20
4.6303747985
 30
0.0
 10
4.4185112289
 20
4.6417059776
 30
0.0
 10
4.4203473112
 20
4.6585947822
 30
0.0
 10
4.4233957898
 20
4.6752706761
 30
0.0
 10
4.4276366037
 20
4.691625719
 30
0.0
 10
4.4330428387
 20
4.7075578543
 30
0.0
 10
4.4395808333
 20
4.7229658967
 30
0.0
 10
4.447209599
 20
4.7377520715
 30
0.0
 10
4.4558805614
 20
4.751822965
 30
0.0
 10
4.4655394331
 20
4.7650893885
 30
0.0
 10
4.4761251035
 20
4.7774663801
 30
0.0
 10
4.4856831993
 20
4.7869945246
 30
0.0
 10
4.4937235186
 20
4.7940914559
 30
0.0
 10
4.5019814875
 20
4.8008041505
 30
0.0
 10
4.5127493291
 20
4.8085100186
 30
0.0
 10
4.5240801129
 20
4.8152706734
 30
0.0
 10
4.5334125461
 20
4.8200648483
 30
0.0
 10
4.5428806545
 20
4.8244321387
 30
0.0
 10
4.5501760143
 20
4.8272461987
 30
0.0
 10
4.5551008754
 20
4.8289051417
 30
0.0
  0
SPLINE
  5
31E
100
AcDbEntity
  8
0
100
AcDbSpline
 62
7
  6
CONTINUOUS
 70
0
 71
3
 72
17
 73
13
 74
0
 42
0.0000001
 43
0.0000001
 44
0.0000000001
 40
0.0
 40
0.0
 40
0.0
 40
0.0
 40
0.1271494239
 40
0.1906799134
 40
0.2541151533
 40
0.3805848544
 40
0.5064028548
 40
0.5690243303
 40
0.6314158253
 40
0.7554048014
 40
0.878289932
 40
1.0
 40
1.0
 40
1.0
 40
1.0
 10
4.4762119381
 20
4.6247088509
 30
0.0
 10
4.4762119381
 20
4.6318860302
 30
0.0
 10
4.4767047429
 20
4.6426578228
 30
0.0
 10
4.47834257
 20
4.6569116096
 30
0.0
 10
4.4806270133
 20
4.6710383046
 30
0.0
 10
4.4846841656
 20
4.6884194309
 30
0.0
 10
4.4903216463
 20
4.7053065055
 30
0.0
 10
4.4957434282
 20
4.7183909728
 30
0.0
 10
4.5017341529
 20
4.7311105917
 30
0.0
 10
4.510294921
 20
4.7463584421
 30
0.0
 10
4.522207871
 20
4.7634532072
 30
0.0
 10
4.5311995187
 20
4.7739665236
 30
0.0
 10
4.535923438
 20
4.7789548578
 30
0.0
  0
SPLINE
  5
31F
100
AcDbEntity
  8
0
100
AcDbSpline
 62
7
  6
CONTINUOUS
 70
0
 71
3
 72
26
 73
22
 74
0
 42
0.0000001
 43
0.0000001
 44
0.0000000001
 40
0.0
 40
0.0
 40
0.0
 40
0.0
 40
0.059323726
 40
0.0890876
 40
0.1189280021
 40
0.1788603352
 40
0.2392079113
 40
0.2695636343
 40
0.3000426546
 40
0.3613719028
 40
0.4232349586
 40
0.4856378386
 40
0.5170462949
 40
0.5485842287
 40
0.6120183023
 40
0.6759124196
 40
0.7402120293
 40
0.8048505513
 40
0.8697481047
 40
0.934834702
 40
1.0
 40
1.0
 40
1.0
 40
1.0
 10
4.4656584241
 20
4.4137423539
 30
0.0
 10
4.4600081931
 20
4.4147115027
 30
0.0
 10
4.4515866459
 20
4.4165816807
 30
0.0
 10
4.4405739499
 20
4.4198789295
 30
0.0
 10
4.4296755332
 20
4.4237200222
 30
0.0
 10
4.4163533345
 20
4.4295201301
 30
0.0
 10
4.4035936546
 20
4.4365730404
 30
0.0
 10
4.3937603244
 20
4.4429389559
 30
0.0
 10
4.3841531184
 20
4.4498056956
 30
0.0
 10
4.3726762877
 20
4.4592645013
 30
0.0
 10
4.3598994129
 20
4.471882997
 30
0.0
 10
4.3501560213
 20
4.4833724419
 30
0.0
 10
4.3429362032
 20
4.4931027442
 30
0.0
 10
4.3360851942
 20
4.5032168756
 30
0.0
 10
4.3282983784
 20
4.5164707576
 30
0.0
 10
4.3202824919
 20
4.5331871157
 30
0.0
 10
4.3136370589
 20
4.5506189867
 30
0.0
 10
4.3084145779
 20
4.5686290341
 30
0.0
 10
4.3046543991
 20
4.5870778903
 30
0.0
 10
4.302387322
 20
4.6058188878
 30
0.0
 10
4.3018819051
 20
4.6184116065
 30
0.0
 10
4.3018819051
 20
4.6247088509
 30
0.0
  0
SPLINE
  5
320
100
AcDbEntity
  8
0
100
AcDbSpline
 62
7
  6
CONTINUOUS
 70
0
 71
3
 72
17
 73
13
 74
0
 42
0.0000001
 43
0.0000001
 44
0.0000000001
 40
0.0
 40
0.0
 40
0.0
 40
0.0
 40
0.121710068
 40
0.2445951986
 40
0.3685841747
 40
0.4309756697
 40
0.4935971452
 40
0.6194151456
 40
0.7458848467
 40
0.8093200866
 40
0.8728505761
 40
1.0
 40
1.0
 40
1.0
 40
1.0
 10
4.535923438
 20
4.4704628441
 30
0.0
 10
4.5311995187
 20
4.4754511783
 30
0.0
 10
4.522207871
 20
4.4859644946
 30
0.0
 10
4.510294921
 20
4.5030592598
 30
0.0
 10
4.5017341529
 20
4.5183071101
 30
0.0
 10
4.4957434282
 20
4.5310267291
 30
0.0
 10
4.4903216463
 20
4.5441111964
 30
0.0
 10
4.4846841656
 20
4.560998271
 30
0.0
 10
4.4806270133
 20
4.5783793972
 30
0.0
 10
4.47834257
 20
4.5925060923
 30
0.0
 10
4.4767047429
 20
4.6067598791
 30
0.0
 10
4.4762119381
 20
4.6175316717
 30
0.0
 10
4.4762119381
 20
4.6247088509
 30
0.0
  0
SPLINE
  5
321
100
AcDbEntity
  8
0
100
AcDbSpline
 62
7
  6
CONTINUOUS
 70
0
 71
3
 72
25
 73
21
 74
0
 42
0.0000001
 43
0.0000001
 44
0.0000000001
 40
0.0
 40
0.0
 40
0.0
 40
0.0
 40
0.0594422488
 40
0.0892950036
 40
0.1192400972
 40
0.1794179457
 40
0.2400296296
 40
0.2705139624
 40
0.3011164583
 40
0.3626697067
 40
0.4247060782
 40
0.487217442
 40
0.550184077
 40
0.6135751012
 40
0.6773495984
 40
0.7414587877
 40
0.8058433123
 40
0.8704388661
 40
0.9351910708
 40
1.0
 40
1.0
 40
1.0
 40
1.0
 10
4.5551008754
 20
4.4205125602
 30
0.0
 10
4.5501760143
 20
4.4221715032
 30
0.0
 10
4.5428806545
 20
4.4249855631
 30
0.0
 10
4.5334125461
 20
4.4293528536
 30
0.0
 10
4.5240801129
 20
4.4341470285
 30
0.0
 10
4.5127493291
 20
4.4409076833
 30
0.0
 10
4.5019814875
 20
4.4486135514
 30
0.0
 10
4.4937235186
 20
4.4553262459
 30
0.0
 10
4.4856831993
 20
4.4624231773
 30
0.0
 10
4.4761251035
 20
4.4719513217
 30
0.0
 10
4.4655394331
 20
4.4843283133
 30
0.0
 10
4.4558805614
 20
4.4975947369
 30
0.0
 10
4.447209599
 20
4.5116656304
 30
0.0
 10
4.4395808333
 20
4.5264518051
 30
0.0
 10
4.4330428387
 20
4.5418598476
 30
0.0
 10
4.4276366037
 20
4.5577919829
 30
0.0
 10
4.4233957898
 20
4.5741470258
 30
0.0
 10
4.4203473112
 20
4.5908229197
 30
0.0
 10
4.4185112289
 20
4.6077117242
 30
0.0
 10
4.4181019271
 20
4.6190429034
 30
0.0
 10
4.4181019271
 20
4.6247088509
 30
0.0
  0
ENDSEC
  0
SECTION
  2
OBJECTS
  0
DICTIONARY
  5
C
100
AcDbDictionary
280
0
281
1
  3
ACAD_GROUP
350
D
  3
ACAD_MLINESTYLE
350
17
  3
ACAD_LAYOUT
350
1A
  3
ACAD_PLOTSETTINGS
350
19
  3
ACAD_PLOTSTYLENAME
350
E
  0
DICTIONARY
  5
D
102
{ACAD_REACTORS
330
C
102
}
100
AcDbDictionary
280
0
281
1
  0
ACDBDICTIONARYWDFLT
  5
E
102
{ACAD_REACTORS
330
C
102
}
100
AcDbDictionary
281
1
  3
Normal
350
F
100
AcDbDictionaryWithDefault
340
F
  0
DICTIONARY
  5
17
102
{ACAD_REACTORS
330
C
102
}
100
AcDbDictionary
280
0
281
1
  3
Standard
350
18
  0
DICTIONARY
  5
19
102
{ACAD_REACTORS
330
C
102
}
100
AcDbDictionary
281
1
  0
DICTIONARY
  5
1A
102
{ACAD_REACTORS
330
C
102
}
100
AcDbDictionary
281
1
  3
Model
350
322
  3
Layout1
350
323
  0
ACDBPLACEHOLDER
  5
F
102
{ACAD_REACTORS
330
E
102
}
  0
MLINESTYLE
  5
18
102
{ACAD_REACTORS
330
17
102
}
100
AcDbMlineStyle
  2
STANDARD
 70
0
  3

 62
256
 51
90.0
 52
90.0
 71
2
 49
0.5
 62
256
  6
BYLAYER
 49
-0.5
 62
256
  6
BYLAYER
  0
LAYOUT
  5
322
102
{ACAD_REACTORS
330
1A
102
}
100
AcDbPlotSettings
  1

  2
none_device
  4
ANSI_A_(11.00_x_8.50_Inches)
  6

 40
0.0
 41
0.0
 42
0.0
 43
0.0
 44
279.4
 45
215.9
 46
0.0
 47
0.0
 48
0.0
 49
0.0
140
0.0
141
0.0
142
1.0
143
1.0
 70
1024
 72
0
 73
0
 74
0
  7

 75
0
147
1.0
148
0.0
149
0.0
100
AcDbLayout
  1
Model
 70
0
 71
0
 10
0.0
 20
0.0
 11
11.0
 21
8.5
 12
0.0
 22
0.0
 32
0.0
 14
0.0
 24
0.0
 34
0.0
 15
0.0
 25
0.0
 35
0.0
146
0.0
 13
0.0
 23
0.0
 33
0.0
 16
1.0
 26
0.0
 36
0.0
 17
0.0
 27
1.0
 37
0.0
 76
0
330
202
345
0
346
0
  0
LAYOUT
  5
323
102
{ACAD_REACTORS
330
1A
102
}
100
AcDbPlotSettings
  1

  2
none_device
  4
ANSI_A_(11.00_x_8.50_Inches)
  6

 40
0.0
 41
0.0
 42
0.0
 43
0.0
 44
279.4
 45
215.9
 46
0.0
 47
0.0
 48
0.0
 49
0.0
140
0.0
141
0.0
142
1.0
143
1.0
 70
0
 72
0
 73
0
 74
0
  7

 75
0
147
1.0
148
0.0
149
0.0
100
AcDbLayout
  1
Layout1
 70
0
 71
1
 10
0.0
 20
0.0
 11
11.0
 21
8.5
 12
0.0
 22
0.0
 32
0.0
 14
0.0
 24
0.0
 34
0.0
 15
0.0
 25
0.0
 35
0.0
146
0.0
 13
0.0
 23
0.0
 33
0.0
 16
1.0
 26
0.0
 36
0.0
 17
0.0
 27
1.0
 37
0.0
 76
0
330
203
345
0
346
0
  0
ENDSEC
  0
EOF
