999
DXF file: 2940cs_TOP.dxf
999
Pro/ENGINEER 2023134 by Parametric Technology Corporation
  0
SECTION
  2
HEADER
  9
$ACADVER
  1
AC1032
  9
$DWGCODEPAGE
  3
ANSI_1252
  9
$EXTMAX
 10
11.0
 20
8.5
 30
0.0
  9
$EXTMIN
 10
0.0
 20
0.0
 30
0.0
  9
$LIMMIN
 10
0.0
 20
0.0
  9
$LIMMAX
 10
11.0
 20
8.5
  9
$VIEWCTR
 10
5.5
 20
4.25
  9
$VIEWSIZE
 40
8.5
  9
$CLAYER
  8
0
  9
$LTSCALE
 40
0.605
  9
$CELTYPE
  6
BYLAYER
  9
$DIMSCALE
 40
1.0
  9
$DIMASZ
 40
0.1
  9
$DIMEXO
 40
0.0625
  9
$DIMDLI
 40
0.418
  9
$DIMEXE
 40
0.125
  9
$DIMCEN
 40
0.099
  9
$DIMLFAC
 40
1.0
  9
$DIMBLK
  1
_FILLED
  9
$DIMALT
 70
1
  9
$DIMALTD
 70
2
  9
$DIMALTTD
 70
2
  9
$DIMALTF
 40
25.4
  9
$DIMTXT
 40
0.08
  9
$DIMTOL
 70
1
  9
$DIMLIM
 70
0
  9
$DIMTFAC
 40
1.0
  9
$DIMTP
 40
0.001
  9
$DIMTM
 40
0.001
  9
$DIMGAP
 40
0.09
  9
$DIMDSEP
 70
46
  9
$AUNITS
 70
0
  9
$PDMODE
 70
3
  9
$PDSIZE
 40
0.3125
  9
$HANDSEED
  5
884
  9
$TILEMODE
 70
1
  9
$MEASUREMENT
 70
0
  9
$INSUNITS
 70
1
  0
ENDSEC
  0
SECTION
  2
CLASSES
  0
CLASS
  1
ACDBDICTIONARYWDFLT
  2
AcDbDictionaryWithDefault
  3
AutoCAD 2000
 90
0
 91
1
280
0
281
0
  0
CLASS
  1
ACDBPLACEHOLDER
  2
AcDbPlaceHolder
  3
AutoCAD 2000
 90
0
 91
1
280
0
281
0
  0
CLASS
  1
LAYOUT
  2
AcDbLayout
  3
AutoCAD 2000
 90
0
 91
0
280
0
281
0
  0
ENDSEC
  0
SECTION
  2
TABLES
  0
TABLE
  2
VPORT
  5
8
100
AcDbSymbolTable
 70
2
  0
VPORT
  5
1F4
100
AcDbSymbolTableRecord
100
AcDbViewportTableRecord
  2
*ACTIVE
 70
0
 10
0.0
 20
0.0
 11
1.0
 21
1.0
 12
5.5
 22
4.25
 13
0.0
 23
0.0
 14
1.0
 24
1.0
 15
0.0
 25
0.0
 16
0.0
 26
0.0
 36
1.0
 17
0.0
 27
0.0
 37
0.0
 40
8.5
 41
1.2941176471
 42
50.0
 43
0.0
 44
0.0
 50
0.0
 51
0.0
 71
0
 72
100
 73
1
 74
1
 75
0
 76
0
 77
0
 78
0
  0
ENDTAB
  0
TABLE
  2
LTYPE
  5
5
100
AcDbSymbolTable
 70
6
  0
LTYPE
  5
14
100
AcDbSymbolTableRecord
100
AcDbLinetypeTableRecord
  2
BYBLOCK
 70
0
  3

 72
65
 73
0
 40
0.0
  0
LTYPE
  5
15
100
AcDbSymbolTableRecord
100
AcDbLinetypeTableRecord
  2
BYLAYER
 70
0
  3

 72
65
 73
0
 40
0.0
  0
LTYPE
  5
16
100
AcDbSymbolTableRecord
100
AcDbLinetypeTableRecord
  2
CONTINUOUS
 70
64
  3
Solid line
 72
65
 73
0
 40
0.0
  0
LTYPE
  5
1F5
100
AcDbSymbolTableRecord
100
AcDbLinetypeTableRecord
  2
CENTER
 70
64
  3
____ _ ____ _ ____ _ ____ _ ____ _ ____ _ ____
 72
65
 73
4
 40
0.6
 49
0.375
 74
0
 49
-0.075
 74
0
 49
0.075
 74
0
 49
-0.075
 74
0
  0
LTYPE
  5
1F6
100
AcDbSymbolTableRecord
100
AcDbLinetypeTableRecord
  2
HIDDEN
 70
64
  3
- - - - - - - - - - - - - - - - - - - -
 72
65
 73
2
 40
0.2
 49
0.1
 74
0
 49
-0.1
 74
0
  0
LTYPE
  5
1F7
100
AcDbSymbolTableRecord
100
AcDbLinetypeTableRecord
  2
PHANTOM
 70
64
  3
_____ _ _ _____ _ _ _____ _ _ _____
 72
65
 73
6
 40
0.8
 49
0.45
 74
0
 49
-0.05
 74
0
 49
0.1
 74
0
 49
-0.05
 74
0
 49
0.1
 74
0
 49
-0.05
 74
0
  0
LTYPE
  5
1F8
100
AcDbSymbolTableRecord
100
AcDbLinetypeTableRecord
  2
DOT
 70
64
  3
. . . . . . . . . . . . . . . . . . . .
 72
65
 73
2
 40
0.2
 49
0.1
 74
0
 49
-0.1
 74
0
  0
LTYPE
  5
1F9
100
AcDbSymbolTableRecord
100
AcDbLinetypeTableRecord
  2
DASHED
 70
64
  3
- - - - - - - - - - - - - - - - - - - -
 72
65
 73
2
 40
0.2
 49
0.1
 74
0
 49
-0.1
 74
0
  0
ENDTAB
  0
TABLE
  2
LAYER
  5
2
100
AcDbSymbolTable
 70
36
  0
LAYER
  5
10
100
AcDbSymbolTableRecord
100
AcDbLayerTableRecord
  2
0
 70
0
 62
7
  6
CONTINUOUS
370
-3
390
F
  0
LAYER
  5
1FA
100
AcDbSymbolTableRecord
100
AcDbLayerTableRecord
  2
DEFAULT_1
 70
0
 62
7
  6
CENTER
370
-3
390
F
  0
LAYER
  5
1FB
100
AcDbSymbolTableRecord
100
AcDbLayerTableRecord
  2
DEFAULT_2
 70
0
 62
8
  6
HIDDEN
370
-3
390
F
  0
LAYER
  5
1FC
100
AcDbSymbolTableRecord
100
AcDbLayerTableRecord
  2
DEFAULT_3
 70
0
 62
7
  6
PHANTOM
370
-3
390
F
  0
LAYER
  5
1FD
100
AcDbSymbolTableRecord
100
AcDbLayerTableRecord
  2
DEFAULT_COORDINATE_SYSTEM
 70
0
 62
7
  6
CONTINUOUS
370
-3
390
F
  0
LAYER
  5
1FE
100
AcDbSymbolTableRecord
100
AcDbLayerTableRecord
  2
DEFAULT_DATUM_AXES
 70
0
 62
7
  6
CONTINUOUS
370
-3
390
F
  0
LAYER
  5
1FF
100
AcDbSymbolTableRecord
100
AcDbLayerTableRecord
  2
DEFAULT_DATUM_PLANES
 70
0
 62
7
  6
CONTINUOUS
370
-3
390
F
  0
ENDTAB
  0
TABLE
  2
STYLE
  5
3
100
AcDbSymbolTable
 70
1
  0
STYLE
  5
11
100
AcDbSymbolTableRecord
100
AcDbTextStyleTableRecord
  2
STANDARD
 70
0
 40
0.0
 41
0.8
 50
0.0
 71
0
 42
0.2
  3
txt
  4

  0
STYLE
  5
200
100
AcDbSymbolTableRecord
100
AcDbTextStyleTableRecord
  2
TEXTSTYLE_1
 70
0
 40
0.0
 41
0.8
 50
0.0
 71
0
 42
0.2
  3
gdt
  4

  0
ENDTAB
  0
TABLE
  2
VIEW
  5
6
100
AcDbSymbolTable
 70
0
  0
ENDTAB
  0
TABLE
  2
UCS
  5
7
100
AcDbSymbolTable
 70
0
  0
ENDTAB
  0
TABLE
  2
APPID
  5
9
100
AcDbSymbolTable
 70
1
  0
APPID
  5
201
100
AcDbSymbolTableRecord
100
AcDbRegAppTableRecord
  2
ACAD
 70
0
  0
ENDTAB
  0
TABLE
  2
BLOCK_RECORD
  5
1
100
AcDbSymbolTable
 70
0
  0
BLOCK_RECORD
  5
202
100
AcDbSymbolTableRecord
100
AcDbBlockTableRecord
  2
*Model_Space
  0
BLOCK_RECORD
  5
203
100
AcDbSymbolTableRecord
100
AcDbBlockTableRecord
  2
*Paper_Space
  0
BLOCK_RECORD
  5
204
100
AcDbSymbolTableRecord
100
AcDbBlockTableRecord
  2
_FILLED
  0
ENDTAB
  0
TABLE
  2
DIMSTYLE
  5
A
100
AcDbSymbolTable
 70
1
100
AcDbDimStyleTable
 71
0
  0
DIMSTYLE
105
205
100
AcDbSymbolTableRecord
100
AcDbDimStyleTableRecord
  2
STANDARD
 70
0
  3

  4

 40
1.0
 41
0.1
 42
0.0625
 43
0.38
 44
0.125
 45
0.0
 46
0.0
 47
0.001
 48
0.001
140
0.08
141
0.09
142
0.0
143
25.4
144
1.0
145
0.0
146
1.0
147
0.09
 71
1
 72
0
 73
1
 74
1
 75
0
 76
0
 77
0
 78
4
 79
1
170
1
171
2
172
0
173
0
174
0
175
0
176
0
177
0
178
0
270
2
179
3
271
3
272
3
273
2
274
2
275
0
280
0
281
0
282
0
283
1
284
4
285
0
286
0
287
3
288
0
340
11
278
46
341
204
342
204
343
204
344
204
  0
ENDTAB
  0
ENDSEC
  0
SECTION
  2
BLOCKS
  0
BLOCK
  5
20
100
AcDbEntity
  8
0
100
AcDbBlockBegin
  2
*Model_Space
 70
0
 10
0.0
 20
0.0
 30
0.0
  3
*Model_Space
  1

  0
ENDBLK
  5
21
100
AcDbEntity
  8
0
100
AcDbBlockEnd
  0
BLOCK
  5
1C
100
AcDbEntity
  8
0
100
AcDbBlockBegin
  2
*Paper_Space
 70
0
 10
0.0
 20
0.0
 30
0.0
  3
*Paper_Space
  1

  0
ENDBLK
  5
1D
100
AcDbEntity
  8
0
100
AcDbBlockEnd
  0
BLOCK
  5
206
100
AcDbEntity
  8
0
100
AcDbBlockBegin
  2
_FILLED
 70
64
 10
0.0
 20
0.0
  3
_FILLED
  1

  0
SOLID
  5
207
100
AcDbEntity
  8
0
  6
BYBLOCK
 62
0
100
AcDbTrace
 10
0.0
 20
0.0
 11
-1.0
 21
0.2
 12
-1.0
 22
-0.2
 13
-1.0
 23
-0.2
  0
ENDBLK
  5
208
100
AcDbEntity
  8
0
  6
BYBLOCK
 62
0
100
AcDbBlockEnd
  0
ENDSEC
  0
SECTION
  2
ENTITIES
  0
LINE
  5
209
100
AcDbEntity
  8
0
100
AcDbLine
 62
7
  6
CONTINUOUS
 10
0.0
 20
0.0
 11
0.0
 21
8.5
  0
LINE
  5
20A
100
AcDbEntity
  8
0
100
AcDbLine
 62
7
  6
CONTINUOUS
 10
0.0
 20
0.0
 11
11.0
 21
0.0
  0
LINE
  5
20B
100
AcDbEntity
  8
0
100
AcDbLine
 62
7
  6
CONTINUOUS
 10
0.0
 20
8.5
 11
11.0
 21
8.5
  0
LINE
  5
20C
100
AcDbEntity
  8
0
100
AcDbLine
 62
7
  6
CONTINUOUS
 10
11.0
 20
0.0
 11
11.0
 21
8.5
  0
LINE
  5
20D
100
AcDbEntity
  8
0
100
AcDbLine
 62
7
  6
CONTINUOUS
 10
1.4399984922
 20
5.7132656652
 11
1.4399984922
 21
6.0357656652
  0
LINE
  5
20E
100
AcDbEntity
  8
0
100
AcDbLine
 62
7
  6
CONTINUOUS
 10
1.4999984922
 20
5.7132656652
 11
1.4999984922
 21
6.0357656652
  0
LINE
  5
20F
100
AcDbEntity
  8
0
100
AcDbLine
 62
7
  6
CONTINUOUS
 10
2.9335274347
 20
6.2176627884
 11
2.9355896421
 21
6.228822764
  0
LINE
  5
210
100
AcDbEntity
  8
0
100
AcDbLine
 62
7
  6
CONTINUOUS
 10
2.8290020885
 20
5.6537277881
 11
2.8310762296
 21
5.6648855519
  0
LINE
  5
211
100
AcDbEntity
  8
0
100
AcDbLine
 62
7
  6
CONTINUOUS
 10
2.9216400767
 20
5.7168574043
 11
2.9241310155
 21
5.727912801
  0
LINE
  5
212
100
AcDbEntity
  8
0
100
AcDbLine
 62
7
  6
CONTINUOUS
 10
3.019267906
 20
6.144734753
 11
3.0218204046
 21
6.1557760991
  0
LINE
  5
213
100
AcDbEntity
  8
0
100
AcDbLine
 62
7
  6
CONTINUOUS
 10
2.9519098016
 20
6.2333628129
 11
2.9545532508
 21
6.2443995666
  0
LINE
  5
214
100
AcDbEntity
  8
0
100
AcDbLine
 62
7
  6
CONTINUOUS
 10
2.8180136263
 20
5.6756710999
 11
2.8206688771
 21
5.6867050203
  0
LINE
  5
215
100
AcDbEntity
  8
0
100
AcDbLine
 62
7
  6
CONTINUOUS
 10
2.9710886519
 20
6.2480792624
 11
2.9743060974
 21
6.2589625431
  0
LINE
  5
216
100
AcDbEntity
  8
0
100
AcDbLine
 62
7
  6
CONTINUOUS
 10
2.9115275711
 20
5.7393694503
 11
2.9147752991
 21
5.7502266523
  0
LINE
  5
217
100
AcDbEntity
  8
0
100
AcDbLine
 62
7
  6
CONTINUOUS
 10
3.0384425278
 20
6.1594918281
 11
3.0417506996
 21
6.1703307658
  0
LINE
  5
218
100
AcDbEntity
  8
0
100
AcDbLine
 62
7
  6
CONTINUOUS
 10
2.9910114177
 20
6.2617717999
 11
2.9947940408
 21
6.2724717774
  0
LINE
  5
219
100
AcDbEntity
  8
0
100
AcDbLine
 62
7
  6
CONTINUOUS
 10
2.9029922926
 20
5.7625255295
 11
2.906981333
 21
5.7731327973
  0
LINE
  5
21A
100
AcDbEntity
  8
0
100
AcDbLine
 62
7
  6
CONTINUOUS
 10
3.0585895692
 20
6.172890862
 11
3.0626376492
 21
6.183475739
  0
LINE
  5
21B
100
AcDbEntity
  8
0
100
AcDbLine
 62
7
  6
CONTINUOUS
 10
3.0116234922
 20
6.2744028954
 11
3.0159609248
 21
6.2848902417
  0
LINE
  5
21C
100
AcDbEntity
  8
0
100
AcDbLine
 62
7
  6
CONTINUOUS
 10
3.0796130204
 20
6.1848680022
 11
3.0843817177
 21
6.1951483766
  0
LINE
  5
21D
100
AcDbEntity
  8
0
100
AcDbLine
 62
7
  6
CONTINUOUS
 10
3.0328683789
 20
6.2859379277
 11
3.0377487325
 21
6.2961838978
  0
LINE
  5
21E
100
AcDbEntity
  8
0
100
AcDbLine
 62
7
  6
CONTINUOUS
 10
3.0546878472
 20
6.2963452803
 11
3.0600977451
 21
6.3063217907
  0
LINE
  5
21F
100
AcDbEntity
  8
0
100
AcDbLine
 62
7
  6
CONTINUOUS
 10
3.101412695
 20
6.1953661722
 11
3.1068792846
 21
6.2052930534
  0
LINE
  5
220
100
AcDbEntity
  8
0
100
AcDbLine
 62
7
  6
CONTINUOUS
 10
3.0770220915
 20
6.3055964271
 11
3.0829467055
 21
6.3152761329
  0
LINE
  5
221
100
AcDbEntity
  8
0
100
AcDbLine
 62
7
  6
CONTINUOUS
 10
3.1238847077
 20
6.2043353434
 11
3.1300231388
 21
6.2138614253
  0
LINE
  5
222
100
AcDbEntity
  8
0
100
AcDbLine
 62
7
  6
CONTINUOUS
 10
3.099809895
 20
6.3136660116
 11
3.1062329862
 21
6.3230223813
  0
LINE
  5
223
100
AcDbEntity
  8
0
100
AcDbLine
 62
7
  6
CONTINUOUS
 10
3.1469219691
 20
6.2117327737
 11
3.1537029893
 21
6.2208126601
  0
LINE
  5
224
100
AcDbEntity
  8
0
100
AcDbLine
 62
7
  6
CONTINUOUS
 10
3.1229887981
 20
6.3205319155
 11
3.1298927612
 21
6.329539304
  0
LINE
  5
225
100
AcDbEntity
  8
0
100
AcDbLine
 62
7
  6
CONTINUOUS
 10
3.1464952689
 20
6.3261753198
 11
3.1538611807
 21
6.3348090385
  0
LINE
  5
226
100
AcDbEntity
  8
0
100
AcDbLine
 62
7
  6
CONTINUOUS
 10
3.1704146961
 20
6.2175232108
 11
3.1778059908
 21
6.226113632
  0
LINE
  5
227
100
AcDbEntity
  8
0
100
AcDbLine
 62
7
  6
CONTINUOUS
 10
3.1702648779
 20
6.3305807565
 11
3.1780725489
 21
6.3388171409
  0
LINE
  5
228
100
AcDbEntity
  8
0
100
AcDbLine
 62
7
  6
CONTINUOUS
 10
3.1942509353
 20
6.2216790608
 11
3.2022172815
 21
6.2297390795
  0
LINE
  5
229
100
AcDbEntity
  8
0
100
AcDbLine
 62
7
  6
CONTINUOUS
 10
3.1942324742
 20
6.3337361504
 11
3.2024605042
 21
6.3415526252
  0
LINE
  5
22A
100
AcDbEntity
  8
0
100
AcDbLine
 62
7
  6
CONTINUOUS
 10
3.218317096
 20
6.2241805191
 11
3.2268205305
 21
6.2316717257
  0
LINE
  5
22B
100
AcDbEntity
  8
0
100
AcDbLine
 62
7
  6
CONTINUOUS
 10
3.2183323644
 20
6.3356328529
 11
3.2269582007
 21
6.3430079937
  0
LINE
  5
22C
100
AcDbEntity
  8
0
100
AcDbLine
 62
7
  6
CONTINUOUS
 10
3.2424984922
 20
6.3362656652
 11
3.2514984922
 21
6.3431792572
  0
LINE
  5
22D
100
AcDbEntity
  8
0
100
AcDbLine
 62
7
  6
CONTINUOUS
 10
3.2424984922
 20
6.2250156652
 11
3.2514984922
 21
6.2319023605
  0
LINE
  5
22E
100
AcDbEntity
  8
0
100
AcDbLine
 62
7
  6
CONTINUOUS
 10
3.26666462
 20
6.3356328529
 11
3.2760141152
 21
6.3420659465
  0
LINE
  5
22F
100
AcDbEntity
  8
0
100
AcDbLine
 62
7
  6
CONTINUOUS
 10
2.9012618898
 20
5.9811169371
 11
2.9106805992
 21
5.98741888
  0
LINE
  5
230
100
AcDbEntity
  8
0
100
AcDbLine
 62
7
  6
CONTINUOUS
 10
3.2666798883
 20
6.2241805191
 11
3.2761335647
 21
6.2304298851
  0
LINE
  5
231
100
AcDbEntity
  8
0
100
AcDbLine
 62
7
  6
CONTINUOUS
 10
3.2907645101
 20
6.3337361504
 11
3.3004378743
 21
6.3396711129
  0
LINE
  5
232
100
AcDbEntity
  8
0
100
AcDbLine
 62
7
  6
CONTINUOUS
 10
3.3147321064
 20
6.3305807565
 11
3.3247028255
 21
6.3360013205
  0
LINE
  5
233
100
AcDbEntity
  8
0
100
AcDbLine
 62
7
  6
CONTINUOUS
 10
2.8106923667
 20
6.0569164122
 11
2.8206688771
 21
6.0623263101
  0
LINE
  5
234
100
AcDbEntity
  8
0
100
AcDbLine
 62
7
  6
CONTINUOUS
 10
2.8552423574
 20
6.1260027396
 11
2.8543458826
 21
6.1373161868
  0
LINE
  5
235
100
AcDbEntity
  8
0
100
AcDbLine
 62
7
  6
CONTINUOUS
 10
2.9002357443
 20
5.5542302083
 11
2.899351369
 21
5.5655446077
  0
LINE
  5
236
100
AcDbEntity
  8
0
100
AcDbLine
 62
7
  6
CONTINUOUS
 10
2.868934895
 20
6.1459255054
 11
2.8686317488
 21
6.1572703658
  0
LINE
  5
237
100
AcDbEntity
  8
0
100
AcDbLine
 62
7
  6
CONTINUOUS
 10
2.8839423578
 20
5.5725817965
 11
2.8836513445
 21
5.5839269746
  0
LINE
  5
238
100
AcDbEntity
  8
0
100
AcDbLine
 62
7
  6
CONTINUOUS
 10
2.7899984922
 20
5.7245156652
 11
2.7899984922
 21
6.0245156652
  0
LINE
  5
239
100
AcDbEntity
  8
0
100
AcDbLine
 62
7
  6
CONTINUOUS
 10
2.8524984922
 20
5.7245156652
 11
2.8524984922
 21
6.0245156652
  0
LINE
  5
23A
100
AcDbEntity
  8
0
100
AcDbLine
 62
7
  6
CONTINUOUS
 10
2.8899984922
 20
5.7575156652
 11
2.8899984922
 21
5.9915156652
  0
LINE
  5
23B
100
AcDbEntity
  8
0
100
AcDbLine
 62
7
  6
CONTINUOUS
 10
2.9609228812
 20
5.6542398715
 11
2.9610869206
 21
5.665571229
  0
LINE
  5
23C
100
AcDbEntity
  8
0
100
AcDbLine
 62
7
  6
CONTINUOUS
 10
2.9684665576
 20
6.0930488407
 11
2.9686937306
 21
6.1043791084
  0
LINE
  5
23D
100
AcDbEntity
  8
0
100
AcDbLine
 62
7
  6
CONTINUOUS
 10
2.8836513445
 20
6.1651043558
 11
2.8839423578
 21
6.1764495339
  0
LINE
  5
23E
100
AcDbEntity
  8
0
100
AcDbLine
 62
7
  6
CONTINUOUS
 10
2.8686317488
 20
5.5917609646
 11
2.868934895
 21
5.603105825
  0
LINE
  5
23F
100
AcDbEntity
  8
0
100
AcDbLine
 62
7
  6
CONTINUOUS
 10
2.899351369
 20
6.1834867227
 11
2.9002357443
 21
6.1948011221
  0
LINE
  5
240
100
AcDbEntity
  8
0
100
AcDbLine
 62
7
  6
CONTINUOUS
 10
2.8543458826
 20
5.6117151436
 11
2.8552423574
 21
5.6230285908
  0
LINE
  5
241
100
AcDbEntity
  8
0
100
AcDbLine
 62
7
  6
CONTINUOUS
 10
2.9463967201
 20
5.6741909524
 11
2.947342132
 21
5.6854839931
  0
LINE
  5
242
100
AcDbEntity
  8
0
100
AcDbLine
 62
7
  6
CONTINUOUS
 10
2.9841963549
 20
6.1114339125
 11
2.9852046747
 21
6.1227215103
  0
LINE
  5
243
100
AcDbEntity
  8
0
100
AcDbLine
 62
7
  6
CONTINUOUS
 10
2.9159919359
 20
6.2010222214
 11
2.9174672492
 21
6.2122748303
  0
LINE
  5
244
100
AcDbEntity
  8
0
100
AcDbLine
 62
7
  6
CONTINUOUS
 10
2.8411239156
 20
5.6323896405
 11
2.842611262
 21
5.6436406652
  0
LINE
  5
245
100
AcDbEntity
  8
0
100
AcDbLine
 62
7
  6
CONTINUOUS
 10
2.9332816188
 20
5.6950966717
 11
2.9350038978
 21
5.7062975792
  0
LINE
  5
246
100
AcDbEntity
  8
0
100
AcDbLine
 62
7
  6
CONTINUOUS
 10
3.0011570796
 20
6.1286899609
 11
3.0029417411
 21
6.1398810982
  0
LINE
  5
247
100
AcDbEntity
  8
0
100
AcDbLine
 62
7
  6
CONTINUOUS
 10
2.9094295074
 20
6.004405239
 11
2.9192605529
 21
6.0100423586
  0
LINE
  5
248
100
AcDbEntity
  8
0
100
AcDbLine
 62
7
  6
CONTINUOUS
 10
3.290746049
 20
6.2216790608
 11
3.3006083508
 21
6.2272613162
  0
LINE
  5
249
100
AcDbEntity
  8
0
100
AcDbLine
 62
7
  6
CONTINUOUS
 10
2.9191843504
 20
6.027074558
 11
2.9293808826
 21
6.0320199907
  0
LINE
  5
24A
100
AcDbEntity
  8
0
100
AcDbLine
 62
7
  6
CONTINUOUS
 10
3.3145822882
 20
6.2175232108
 11
3.324806217
 21
6.2224117537
  0
LINE
  5
24B
100
AcDbEntity
  8
0
100
AcDbLine
 62
7
  6
CONTINUOUS
 10
3.3385017154
 20
6.3261753198
 11
3.3487424604
 21
6.3310666281
  0
LINE
  5
24C
100
AcDbEntity
  8
0
100
AcDbLine
 62
7
  6
CONTINUOUS
 10
2.8208302595
 20
6.0792654248
 11
2.8310762296
 21
6.0841457785
  0
LINE
  5
24D
100
AcDbEntity
  8
0
100
AcDbLine
 62
7
  6
CONTINUOUS
 10
3.3620081862
 20
6.3205319155
 11
3.372490888
 21
6.3248805612
  0
LINE
  5
24E
100
AcDbEntity
  8
0
100
AcDbLine
 62
7
  6
CONTINUOUS
 10
2.8321239156
 20
6.1010532326
 11
2.842611262
 21
6.1053906652
  0
LINE
  5
24F
100
AcDbEntity
  8
0
100
AcDbLine
 62
7
  6
CONTINUOUS
 10
2.9304799326
 20
6.0490168643
 11
2.9409933602
 21
6.053247043
  0
LINE
  5
250
100
AcDbEntity
  8
0
100
AcDbLine
 62
7
  6
CONTINUOUS
 10
3.3380750152
 20
6.2117327737
 11
3.3486118494
 21
6.215904308
  0
LINE
  5
251
100
AcDbEntity
  8
0
100
AcDbLine
 62
7
  6
CONTINUOUS
 10
3.3851870893
 20
6.3136660116
 11
3.3958830154
 21
6.3174600754
  0
LINE
  5
252
100
AcDbEntity
  8
0
100
AcDbLine
 62
7
  6
CONTINUOUS
 10
2.8445423799
 20
6.1222201166
 11
2.8552423574
 21
6.1260027396
  0
LINE
  5
253
100
AcDbEntity
  8
0
100
AcDbLine
 62
7
  6
CONTINUOUS
 10
3.4079748929
 20
6.3055964271
 11
3.4188547265
 21
6.3088255098
  0
LINE
  5
254
100
AcDbEntity
  8
0
100
AcDbLine
 62
7
  6
CONTINUOUS
 10
2.8580516143
 20
6.1427080599
 11
2.868934895
 21
6.1459255054
  0
LINE
  5
255
100
AcDbEntity
  8
0
100
AcDbLine
 62
7
  6
CONTINUOUS
 10
2.9767908783
 20
5.6353385051
 11
2.9761727635
 21
5.6466541804
  0
LINE
  5
256
100
AcDbEntity
  8
0
100
AcDbLine
 62
7
  6
CONTINUOUS
 10
2.9540426472
 20
6.0736223589
 11
2.9534875907
 21
6.0849413026
  0
LINE
  5
257
100
AcDbEntity
  8
0
100
AcDbLine
 62
7
  6
CONTINUOUS
 10
3.0674984922
 20
5.7770156652
 11
3.0674984922
 21
5.9720156652
  0
LINE
  5
258
100
AcDbEntity
  8
0
100
AcDbLine
 62
7
  6
CONTINUOUS
 10
3.5686074755
 20
6.0210051903
 11
3.5657364314
 21
6.0100423586
  0
LINE
  5
259
100
AcDbEntity
  8
0
100
AcDbLine
 62
7
  6
CONTINUOUS
 10
3.4562691447
 20
5.5967525321
 11
3.4533370624
 21
5.5858058675
  0
LINE
  5
25A
100
AcDbEntity
  8
0
100
AcDbLine
 62
7
  6
CONTINUOUS
 10
3.5779369266
 20
5.9981575137
 11
3.5743163851
 21
5.98741888
  0
LINE
  5
25B
100
AcDbEntity
  8
0
100
AcDbLine
 62
7
  6
CONTINUOUS
 10
3.436596591
 20
5.582666084
 11
3.4329162722
 21
5.5719477901
  0
LINE
  5
25C
100
AcDbEntity
  8
0
100
AcDbLine
 62
7
  6
CONTINUOUS
 10
3.4939855666
 20
5.4872595304
 11
3.4902029436
 21
5.476559553
  0
LINE
  5
25D
100
AcDbEntity
  8
0
100
AcDbLine
 62
7
  6
CONTINUOUS
 10
3.6854429024
 20
6.0279001884
 11
3.6816488386
 21
6.0172042624
  0
LINE
  5
25E
100
AcDbEntity
  8
0
100
AcDbLine
 62
7
  6
CONTINUOUS
 10
3.4733734922
 20
5.474628435
 11
3.4690360595
 21
5.4641410887
  0
LINE
  5
25F
100
AcDbEntity
  8
0
100
AcDbLine
 62
7
  6
CONTINUOUS
 10
3.6928633881
 20
6.004508061
 11
3.6885147424
 21
5.9940253593
  0
LINE
  5
260
100
AcDbEntity
  8
0
100
AcDbLine
 62
7
  6
CONTINUOUS
 10
3.5856678608
 20
5.9747206273
 11
3.5813150754
 21
5.9642573663
  0
LINE
  5
261
100
AcDbEntity
  8
0
100
AcDbLine
 62
7
  6
CONTINUOUS
 10
3.4159990715
 20
5.5699704322
 11
3.4115880545
 21
5.5595315864
  0
LINE
  5
262
100
AcDbEntity
  8
0
100
AcDbLine
 62
7
  6
CONTINUOUS
 10
3.4521286054
 20
5.4630934027
 11
3.4472482518
 21
5.4528474325
  0
LINE
  5
263
100
AcDbEntity
  8
0
100
AcDbLine
 62
7
  6
CONTINUOUS
 10
3.699049455
 20
5.9807596334
 11
3.6941581468
 21
5.9705188884
  0
LINE
  5
264
100
AcDbEntity
  8
0
100
AcDbLine
 62
7
  6
CONTINUOUS
 10
3.5917634366
 20
5.9508062187
 11
3.5866991504
 21
5.9406681924
  0
LINE
  5
265
100
AcDbEntity
  8
0
100
AcDbLine
 62
7
  6
CONTINUOUS
 10
3.3945747427
 20
5.558726077
 11
3.389454048
 21
5.5486164252
  0
LINE
  5
266
100
AcDbEntity
  8
0
100
AcDbLine
 62
7
  6
CONTINUOUS
 10
3.4303091371
 20
5.4526860501
 11
3.4248992392
 21
5.4427095397
  0
LINE
  5
267
100
AcDbEntity
  8
0
100
AcDbLine
 62
7
  6
CONTINUOUS
 10
3.7039841475
 20
5.9567199986
 11
3.6985635834
 21
5.9467492794
  0
LINE
  5
268
100
AcDbEntity
  8
0
100
AcDbLine
 62
7
  6
CONTINUOUS
 10
3.596194606
 20
5.9265282509
 11
3.5904429525
 21
5.9167637716
  0
LINE
  5
269
100
AcDbEntity
  8
0
100
AcDbLine
 62
7
  6
CONTINUOUS
 10
3.3724257013
 20
5.548986603
 11
3.3666197314
 21
5.5392543224
  0
LINE
  5
26A
100
AcDbEntity
  8
0
100
AcDbLine
 62
7
  6
CONTINUOUS
 10
3.4079748929
 20
5.4434349033
 11
3.4020502788
 21
5.4337551975
  0
LINE
  5
26B
100
AcDbEntity
  8
0
100
AcDbLine
 62
7
  6
CONTINUOUS
 10
3.7076539398
 20
5.9324550473
 11
3.7017189773
 21
5.9227816831
  0
LINE
  5
26C
100
AcDbEntity
  8
0
100
AcDbLine
 62
7
  6
CONTINUOUS
 10
3.5989402523
 20
5.9020024194
 11
3.5925286408
 21
5.8926580194
  0
LINE
  5
26D
100
AcDbEntity
  8
0
100
AcDbLine
 62
7
  6
CONTINUOUS
 10
3.3851870893
 20
5.4353653188
 11
3.3787639981
 21
5.4260089491
  0
LINE
  5
26E
100
AcDbEntity
  8
0
100
AcDbLine
 62
7
  6
CONTINUOUS
 10
3.7100487734
 20
5.9080312883
 11
3.7036156798
 21
5.898681793
  0
LINE
  5
26F
100
AcDbEntity
  8
0
100
AcDbLine
 62
7
  6
CONTINUOUS
 10
3.3496574976
 20
5.5407984233
 11
3.3431939206
 21
5.5314898926
  0
LINE
  5
270
100
AcDbEntity
  8
0
100
AcDbLine
 62
7
  6
CONTINUOUS
 10
3.3620081862
 20
5.4284994149
 11
3.3551042231
 21
5.4194920264
  0
LINE
  5
271
100
AcDbEntity
  8
0
100
AcDbLine
 62
7
  6
CONTINUOUS
 10
3.7111620842
 20
5.8835156652
 11
3.7042484922
 21
5.8745156652
  0
LINE
  5
272
100
AcDbEntity
  8
0
100
AcDbLine
 62
7
  6
CONTINUOUS
 10
3.5999872912
 20
5.877345601
 11
3.5929462761
 21
5.8684658106
  0
LINE
  5
273
100
AcDbEntity
  8
0
100
AcDbLine
 62
7
  6
CONTINUOUS
 10
3.3263786325
 20
5.5342005582
 11
3.3192882502
 21
5.5253601367
  0
LINE
  5
274
100
AcDbEntity
  8
0
100
AcDbLine
 62
7
  6
CONTINUOUS
 10
3.3385017154
 20
5.4228560106
 11
3.3311358036
 21
5.4142222919
  0
LINE
  5
275
100
AcDbEntity
  8
0
100
AcDbLine
 62
7
  6
CONTINUOUS
 10
3.7109908206
 20
5.8589753738
 11
3.7036156798
 21
5.8503495374
  0
LINE
  5
276
100
AcDbEntity
  8
0
100
AcDbLine
 62
7
  6
CONTINUOUS
 10
3.5993307333
 20
5.8526752967
 11
3.591693868
 21
5.844302432
  0
LINE
  5
277
100
AcDbEntity
  8
0
100
AcDbLine
 62
7
  6
CONTINUOUS
 10
3.3027000403
 20
5.5292244495
 11
3.2950166416
 21
5.520894266
  0
LINE
  5
278
100
AcDbEntity
  8
0
100
AcDbLine
 62
7
  6
CONTINUOUS
 10
3.3147321064
 20
5.4184505739
 11
3.3069244354
 21
5.4102141895
  0
LINE
  5
279
100
AcDbEntity
  8
0
100
AcDbLine
 62
7
  6
CONTINUOUS
 10
3.7095354522
 20
5.8344776772
 11
3.7017189773
 21
5.8262496473
  0
LINE
  5
27A
100
AcDbEntity
  8
0
100
AcDbLine
 62
7
  6
CONTINUOUS
 10
3.5969737072
 20
5.8281090717
 11
3.588777385
 21
5.8202830334
  0
LINE
  5
27B
100
AcDbEntity
  8
0
100
AcDbLine
 62
7
  6
CONTINUOUS
 10
3.2907645101
 20
5.41529518
 11
3.2825364802
 21
5.4074787052
  0
LINE
  5
27C
100
AcDbEntity
  8
0
100
AcDbLine
 62
7
  6
CONTINUOUS
 10
3.7067999679
 20
5.810089722
 11
3.6985635834
 21
5.802282051
  0
LINE
  5
27D
100
AcDbEntity
  8
0
100
AcDbLine
 62
7
  6
CONTINUOUS
 10
3.2787345603
 20
5.5258938108
 11
3.2704947602
 21
5.5181135623
  0
LINE
  5
27E
100
AcDbEntity
  8
0
100
AcDbLine
 62
7
  6
CONTINUOUS
 10
3.26666462
 20
5.4133984775
 11
3.2580387836
 21
5.4060233367
  0
LINE
  5
27F
100
AcDbEntity
  8
0
100
AcDbLine
 62
7
  6
CONTINUOUS
 10
3.7027918655
 20
5.7858783538
 11
3.6941581468
 21
5.778512442
  0
LINE
  5
280
100
AcDbEntity
  8
0
100
AcDbLine
 62
7
  6
CONTINUOUS
 10
3.5929274453
 20
5.8037639952
 11
3.5842107254
 21
5.7965220778
  0
LINE
  5
281
100
AcDbEntity
  8
0
100
AcDbLine
 62
7
  6
CONTINUOUS
 10
3.2545963989
 20
5.5242245139
 11
3.2458394637
 21
5.5170312769
  0
LINE
  5
282
100
AcDbEntity
  8
0
100
AcDbLine
 62
7
  6
CONTINUOUS
 10
3.5872112298
 20
5.7797560826
 11
3.5780156513
 21
5.7731327973
  0
LINE
  5
283
100
AcDbEntity
  8
0
100
AcDbLine
 62
7
  6
CONTINUOUS
 10
3.2304005855
 20
5.5242245139
 11
3.2211682461
 21
5.5176525674
  0
LINE
  5
284
100
AcDbEntity
  8
0
100
AcDbLine
 62
7
  6
CONTINUOUS
 10
2.9432624253
 20
6.070127593
 11
2.9540426472
 21
6.0736223589
  0
LINE
  5
285
100
AcDbEntity
  8
0
100
AcDbLine
 62
7
  6
CONTINUOUS
 10
3.3611122766
 20
6.2043353434
 11
3.3719118033
 21
6.2077699898
  0
LINE
  5
286
100
AcDbEntity
  8
0
100
AcDbLine
 62
7
  6
CONTINUOUS
 10
2.8206688771
 20
6.0623263101
 11
2.8180136263
 21
6.0733602305
  0
LINE
  5
287
100
AcDbEntity
  8
0
100
AcDbLine
 62
7
  6
CONTINUOUS
 10
2.9545532508
 20
5.5046317638
 11
2.9519098016
 21
5.5156685175
  0
LINE
  5
288
100
AcDbEntity
  8
0
100
AcDbLine
 62
7
  6
CONTINUOUS
 10
3.0122438735
 20
5.6010397786
 11
3.0100740004
 21
5.612162648
  0
LINE
  5
289
100
AcDbEntity
  8
0
100
AcDbLine
 62
7
  6
CONTINUOUS
 10
2.9293808826
 20
6.0320199907
 11
2.9272730177
 21
6.0431547776
  0
LINE
  5
28A
100
AcDbEntity
  8
0
100
AcDbLine
 62
7
  6
CONTINUOUS
 10
2.8310762296
 20
6.0841457785
 11
2.8290020885
 21
6.0953035423
  0
LINE
  5
28B
100
AcDbEntity
  8
0
100
AcDbLine
 62
7
  6
CONTINUOUS
 10
2.9355896421
 20
5.5202085664
 11
2.9335274347
 21
5.531368542
  0
LINE
  5
28C
100
AcDbEntity
  8
0
100
AcDbLine
 62
7
  6
CONTINUOUS
 10
2.842611262
 20
6.1053906652
 11
2.8411239156
 21
6.1166416899
  0
LINE
  5
28D
100
AcDbEntity
  8
0
100
AcDbLine
 62
7
  6
CONTINUOUS
 10
2.9174672492
 20
5.5367565001
 11
2.9159919359
 21
5.548009109
  0
LINE
  5
28E
100
AcDbEntity
  8
0
100
AcDbLine
 62
7
  6
CONTINUOUS
 10
2.9939250931
 20
5.6175769268
 11
2.9925277698
 21
5.6288229954
  0
LINE
  5
28F
100
AcDbEntity
  8
0
100
AcDbLine
 62
7
  6
CONTINUOUS
 10
2.9409933602
 20
6.053247043
 11
2.9396587195
 21
6.0645007227
  0
LINE
  5
290
100
AcDbEntity
  8
0
100
AcDbLine
 62
7
  6
CONTINUOUS
 10
3.5163032538
 20
6.1043791084
 11
3.5165304268
 21
6.0930488407
  0
LINE
  5
291
100
AcDbEntity
  8
0
100
AcDbLine
 62
7
  6
CONTINUOUS
 10
3.5239100637
 20
5.665571229
 11
3.5240741032
 21
5.6542398715
  0
LINE
  5
292
100
AcDbEntity
  8
0
100
AcDbLine
 62
7
  6
CONTINUOUS
 10
3.5315093936
 20
6.0849413026
 11
3.5309543372
 21
6.0736223589
  0
LINE
  5
293
100
AcDbEntity
  8
0
100
AcDbLine
 62
7
  6
CONTINUOUS
 10
3.5088242208
 20
5.6466541804
 11
3.5082061061
 21
5.6353385051
  0
LINE
  5
294
100
AcDbEntity
  8
0
100
AcDbLine
 62
7
  6
CONTINUOUS
 10
3.5856456153
 20
5.5655446077
 11
3.58476124
 21
5.5542302083
  0
LINE
  5
295
100
AcDbEntity
  8
0
100
AcDbLine
 62
7
  6
CONTINUOUS
 10
3.6306511018
 20
6.1373161868
 11
3.6297546269
 21
6.1260027396
  0
LINE
  5
296
100
AcDbEntity
  8
0
100
AcDbLine
 62
7
  6
CONTINUOUS
 10
3.5453382648
 20
6.0645007227
 11
3.5440036241
 21
6.053247043
  0
LINE
  5
297
100
AcDbEntity
  8
0
100
AcDbLine
 62
7
  6
CONTINUOUS
 10
3.4924692145
 20
5.6288229954
 11
3.4910718912
 21
5.6175769268
  0
LINE
  5
298
100
AcDbEntity
  8
0
100
AcDbLine
 62
7
  6
CONTINUOUS
 10
3.5690050484
 20
5.548009109
 11
3.5675297352
 21
5.5367565001
  0
LINE
  5
299
100
AcDbEntity
  8
0
100
AcDbLine
 62
7
  6
CONTINUOUS
 10
3.6438730687
 20
6.1166416899
 11
3.6423857224
 21
6.1053906652
  0
LINE
  5
29A
100
AcDbEntity
  8
0
100
AcDbLine
 62
7
  6
CONTINUOUS
 10
3.5514695496
 20
5.531368542
 11
3.5494073422
 21
5.5202085664
  0
LINE
  5
29B
100
AcDbEntity
  8
0
100
AcDbLine
 62
7
  6
CONTINUOUS
 10
3.6559948958
 20
6.0953035423
 11
3.6539207547
 21
6.0841457785
  0
LINE
  5
29C
100
AcDbEntity
  8
0
100
AcDbLine
 62
7
  6
CONTINUOUS
 10
3.5577239667
 20
6.0431547776
 11
3.5556161018
 21
6.0320199907
  0
LINE
  5
29D
100
AcDbEntity
  8
0
100
AcDbLine
 62
7
  6
CONTINUOUS
 10
3.4749229839
 20
5.612162648
 11
3.4727531109
 21
5.6010397786
  0
LINE
  5
29E
100
AcDbEntity
  8
0
100
AcDbLine
 62
7
  6
CONTINUOUS
 10
3.5330871827
 20
5.5156685175
 11
3.5304437335
 21
5.5046317638
  0
LINE
  5
29F
100
AcDbEntity
  8
0
100
AcDbLine
 62
7
  6
CONTINUOUS
 10
3.666983358
 20
6.0733602305
 11
3.6643281072
 21
6.0623263101
  0
LINE
  5
2A0
100
AcDbEntity
  8
0
100
AcDbLine
 62
7
  6
CONTINUOUS
 10
3.5139083324
 20
5.500952068
 11
3.5106908869
 21
5.4900687873
  0
LINE
  5
2A1
100
AcDbEntity
  8
0
100
AcDbLine
 62
7
  6
CONTINUOUS
 10
3.6768083367
 20
6.0508718995
 11
3.6735792541
 21
6.0399920659
  0
LINE
  5
2A2
100
AcDbEntity
  8
0
100
AcDbLine
 62
7
  6
CONTINUOUS
 10
3.2424984922
 20
5.4127656652
 11
3.2334984922
 21
5.4058520732
  0
LINE
  5
2A3
100
AcDbEntity
  8
0
100
AcDbLine
 62
7
  6
CONTINUOUS
 10
3.697522131
 20
5.7619099343
 11
3.6885147424
 21
5.7550059711
  0
LINE
  5
2A4
100
AcDbEntity
  8
0
100
AcDbLine
 62
7
  6
CONTINUOUS
 10
3.2183323644
 20
5.4133984775
 11
3.2089828691
 21
5.4069653839
  0
LINE
  5
2A5
100
AcDbEntity
  8
0
100
AcDbLine
 62
7
  6
CONTINUOUS
 10
3.6910052083
 20
5.7382501593
 11
3.6816488386
 21
5.731827068
  0
LINE
  5
2A6
100
AcDbEntity
  8
0
100
AcDbLine
 62
7
  6
CONTINUOUS
 10
3.5798523012
 20
5.7561997427
 11
3.5702216852
 21
5.7502266523
  0
LINE
  5
2A7
100
AcDbEntity
  8
0
100
AcDbLine
 62
7
  6
CONTINUOUS
 10
3.1942324742
 20
5.41529518
 11
3.18455911
 21
5.4093602175
  0
LINE
  5
2A8
100
AcDbEntity
  8
0
100
AcDbLine
 62
7
  6
CONTINUOUS
 10
3.2062624241
 20
5.5258938108
 11
3.1965986767
 21
5.519974473
  0
LINE
  5
2A9
100
AcDbEntity
  8
0
100
AcDbLine
 62
7
  6
CONTINUOUS
 10
3.6832589598
 20
5.7149638785
 11
3.6735792541
 21
5.7090392645
  0
LINE
  5
2AA
100
AcDbEntity
  8
0
100
AcDbLine
 62
7
  6
CONTINUOUS
 10
5.3333086991
 20
6.4478687469
 11
5.3432821508
 21
6.4533065637
  0
LINE
  5
2AB
100
AcDbEntity
  8
0
100
AcDbLine
 62
7
  6
CONTINUOUS
 10
3.1702648779
 20
5.4184505739
 11
3.1602941588
 21
5.4130300099
  0
LINE
  5
2AC
100
AcDbEntity
  8
0
100
AcDbLine
 62
7
  6
CONTINUOUS
 10
3.6743046176
 20
5.6921149182
 11
3.6643281072
 21
5.6867050203
  0
LINE
  5
2AD
100
AcDbEntity
  8
0
100
AcDbLine
 62
7
  6
CONTINUOUS
 10
3.570885728
 20
5.7332072319
 11
3.5608659689
 21
5.727912801
  0
LINE
  5
2AE
100
AcDbEntity
  8
0
100
AcDbLine
 62
7
  6
CONTINUOUS
 10
4.7046384339
 20
6.1108688072
 11
4.7146869309
 21
6.1161666651
  0
LINE
  5
2AF
100
AcDbEntity
  8
0
100
AcDbLine
 62
7
  6
CONTINUOUS
 10
3.1822969441
 20
5.5292244495
 11
3.1722478409
 21
5.5239859289
  0
LINE
  5
2B0
100
AcDbEntity
  8
0
100
AcDbLine
 62
7
  6
CONTINUOUS
 10
5.3572385782
 20
6.4435630821
 11
5.3674309937
 21
6.4485784841
  0
LINE
  5
2B1
100
AcDbEntity
  8
0
100
AcDbLine
 62
7
  6
CONTINUOUS
 10
3.1464952689
 20
5.4228560106
 11
3.1362545239
 21
5.4179647023
  0
LINE
  5
2B2
100
AcDbEntity
  8
0
100
AcDbLine
 62
7
  6
CONTINUOUS
 10
3.6641667248
 20
5.6697659056
 11
3.6539207547
 21
5.6648855519
  0
LINE
  5
2B3
100
AcDbEntity
  8
0
100
AcDbLine
 62
7
  6
CONTINUOUS
 10
4.7150076709
 20
6.1331847269
 11
4.7252692049
 21
6.1380571503
  0
LINE
  5
2B4
100
AcDbEntity
  8
0
100
AcDbLine
 62
7
  6
CONTINUOUS
 10
3.5603542401
 20
5.7108881202
 11
3.5499930865
 21
5.7062975792
  0
LINE
  5
2B5
100
AcDbEntity
  8
0
100
AcDbLine
 62
7
  6
CONTINUOUS
 10
5.3809671643
 20
6.4382591147
 11
5.3913606625
 21
6.4428433033
  0
LINE
  5
2B6
100
AcDbEntity
  8
0
100
AcDbLine
 62
7
  6
CONTINUOUS
 10
3.1586183518
 20
5.5342005582
 11
3.1482317814
 21
5.5296678187
  0
LINE
  5
2B7
100
AcDbEntity
  8
0
100
AcDbLine
 62
7
  6
CONTINUOUS
 10
4.726302306
 20
6.1550468531
 11
4.7367588748
 21
6.1594852942
  0
LINE
  5
2B8
100
AcDbEntity
  8
0
100
AcDbLine
 62
7
  6
CONTINUOUS
 10
3.1229887981
 20
5.4284994149
 11
3.1125060964
 21
5.4241507692
  0
LINE
  5
2B9
100
AcDbEntity
  8
0
100
AcDbLine
 62
7
  6
CONTINUOUS
 10
3.6528730687
 20
5.6479780978
 11
3.6423857224
 21
5.6436406652
  0
LINE
  5
2BA
100
AcDbEntity
  8
0
100
AcDbLine
 62
7
  6
CONTINUOUS
 10
5.4044528292
 20
6.4319661497
 11
5.4150291764
 21
6.4361110827
  0
LINE
  5
2BB
100
AcDbEntity
  8
0
100
AcDbLine
 62
7
  6
CONTINUOUS
 10
4.7385025247
 20
6.1764168324
 11
4.7491357839
 21
6.1804135045
  0
LINE
  5
2BC
100
AcDbEntity
  8
0
100
AcDbLine
 62
7
  6
CONTINUOUS
 10
3.5483080249
 20
5.6893487683
 11
3.5376548523
 21
5.6854839931
  0
LINE
  5
2BD
100
AcDbEntity
  8
0
100
AcDbLine
 62
7
  6
CONTINUOUS
 10
3.1353394867
 20
5.5407984233
 11
3.1246649457
 21
5.5369930655
  0
LINE
  5
2BE
100
AcDbEntity
  8
0
100
AcDbLine
 62
7
  6
CONTINUOUS
 10
5.4276543712
 20
6.4246952272
 11
5.4383950129
 21
6.4283936329
  0
LINE
  5
2BF
100
AcDbEntity
  8
0
100
AcDbLine
 62
7
  6
CONTINUOUS
 10
4.7515869235
 20
6.1972571744
 11
4.7623782188
 21
6.200805066
  0
LINE
  5
2C0
100
AcDbEntity
  8
0
100
AcDbLine
 62
7
  6
CONTINUOUS
 10
5.406972053
 20
6.3000888202
 11
5.3961510415
 21
6.2966725751
  0
LINE
  5
2C1
100
AcDbEntity
  8
0
100
AcDbLine
 62
7
  6
CONTINUOUS
 10
5.4505310869
 20
6.4164591028
 11
5.4614171804
 21
6.419704493
  0
LINE
  5
2C2
100
AcDbEntity
  8
0
100
AcDbLine
 62
7
  6
CONTINUOUS
 10
4.8797579569
 20
6.1395531466
 11
4.868867988
 21
6.1363635387
  0
LINE
  5
2C3
100
AcDbEntity
  8
0
100
AcDbLine
 62
7
  6
CONTINUOUS
 10
3.0159609248
 20
5.4641410887
 11
3.0116234922
 21
5.474628435
  0
LINE
  5
2C4
100
AcDbEntity
  8
0
100
AcDbLine
 62
7
  6
CONTINUOUS
 10
2.9947940408
 20
5.476559553
 11
2.9910114177
 21
5.4872595304
  0
LINE
  5
2C5
100
AcDbEntity
  8
0
100
AcDbLine
 62
7
  6
CONTINUOUS
 10
3.0520807122
 20
5.5719477901
 11
3.0484003933
 21
5.582666084
  0
LINE
  5
2C6
100
AcDbEntity
  8
0
100
AcDbLine
 62
7
  6
CONTINUOUS
 10
2.9106805992
 20
5.98741888
 11
2.9070600577
 21
5.9981575137
  0
LINE
  5
2C7
100
AcDbEntity
  8
0
100
AcDbLine
 62
7
  6
CONTINUOUS
 10
2.9743060974
 20
5.4900687873
 11
2.9710886519
 21
5.500952068
  0
LINE
  5
2C8
100
AcDbEntity
  8
0
100
AcDbLine
 62
7
  6
CONTINUOUS
 10
3.0316599219
 20
5.5858058675
 11
3.0287278396
 21
5.5967525321
  0
LINE
  5
2C9
100
AcDbEntity
  8
0
100
AcDbLine
 62
7
  6
CONTINUOUS
 10
2.9192605529
 20
6.0100423586
 11
2.9163895088
 21
6.0210051903
  0
LINE
  5
2CA
100
AcDbEntity
  8
0
100
AcDbLine
 62
7
  6
CONTINUOUS
 10
3.4997923096
 20
6.1227215103
 11
3.5008006294
 21
6.1114339125
  0
LINE
  5
2CB
100
AcDbEntity
  8
0
100
AcDbLine
 62
7
  6
CONTINUOUS
 10
3.5376548523
 20
5.6854839931
 11
3.5386002642
 21
5.6741909524
  0
LINE
  5
2CC
100
AcDbEntity
  8
0
100
AcDbLine
 62
7
  6
CONTINUOUS
 10
3.6297546269
 20
5.6230285908
 11
3.6306511018
 21
5.6117151436
  0
LINE
  5
2CD
100
AcDbEntity
  8
0
100
AcDbLine
 62
7
  6
CONTINUOUS
 10
3.58476124
 20
6.1948011221
 11
3.5856456153
 21
6.1834867227
  0
LINE
  5
2CE
100
AcDbEntity
  8
0
100
AcDbLine
 62
7
  6
CONTINUOUS
 10
3.6160620893
 20
5.603105825
 11
3.6163652355
 21
5.5917609646
  0
LINE
  5
2CF
100
AcDbEntity
  8
0
100
AcDbLine
 62
7
  6
CONTINUOUS
 10
3.6010546265
 20
6.1764495339
 11
3.6013456399
 21
6.1651043558
  0
LINE
  5
2D0
100
AcDbEntity
  8
0
100
AcDbLine
 62
7
  6
CONTINUOUS
 10
3.6013456399
 20
5.5839269746
 11
3.6010546265
 21
5.5725817965
  0
LINE
  5
2D1
100
AcDbEntity
  8
0
100
AcDbLine
 62
7
  6
CONTINUOUS
 10
3.6163652355
 20
6.1572703658
 11
3.6160620893
 21
6.1459255054
  0
LINE
  5
2D2
100
AcDbEntity
  8
0
100
AcDbLine
 62
7
  6
CONTINUOUS
 10
5.1397008004
 20
6.4458412156
 11
5.147331176
 21
6.4542564969
  0
LINE
  5
2D3
100
AcDbEntity
  8
0
100
AcDbLine
 62
7
  6
CONTINUOUS
 10
4.6568274974
 20
5.9208377537
 11
4.6645747717
 21
5.9291455411
  0
LINE
  5
2D4
100
AcDbEntity
  8
0
100
AcDbLine
 62
7
  6
CONTINUOUS
 10
5.1637156024
 20
6.4496447866
 11
5.1716916802
 21
6.4577331593
  0
LINE
  5
2D5
100
AcDbEntity
  8
0
100
AcDbLine
 62
7
  6
CONTINUOUS
 10
4.6592809981
 20
5.9453224772
 11
4.6673693708
 21
5.953298555
  0
LINE
  5
2D6
100
AcDbEntity
  8
0
100
AcDbLine
 62
7
  6
CONTINUOUS
 10
5.1878686163
 20
6.4524393857
 11
5.1961764036
 21
6.46018666
  0
LINE
  5
2D7
100
AcDbEntity
  8
0
100
AcDbLine
 62
7
  6
CONTINUOUS
 10
4.6627576605
 20
5.9696829814
 11
4.6711729417
 21
5.977313357
  0
LINE
  5
2D8
100
AcDbEntity
  8
0
100
AcDbLine
 62
7
  6
CONTINUOUS
 10
4.8023275417
 20
5.9643772081
 11
4.7937557576
 21
5.9569415147
  0
LINE
  5
2D9
100
AcDbEntity
  8
0
100
AcDbLine
 62
7
  6
CONTINUOUS
 10
5.2121174696
 20
6.4542201101
 11
5.2207423917
 21
6.4616126947
  0
LINE
  5
2DA
100
AcDbEntity
  8
0
100
AcDbLine
 62
7
  6
CONTINUOUS
 10
4.6672513853
 20
5.9938765298
 11
4.6759788119
 21
6.0011478168
  0
LINE
  5
2DB
100
AcDbEntity
  8
0
100
AcDbLine
 62
7
  6
CONTINUOUS
 10
5.2392482346
 20
6.3307540879
 11
5.2304370314
 21
6.323603723
  0
LINE
  5
2DC
100
AcDbEntity
  8
0
100
AcDbLine
 62
7
  6
CONTINUOUS
 10
5.2364196215
 20
6.454983836
 11
5.2453465474
 21
6.4620087618
  0
LINE
  5
2DD
100
AcDbEntity
  8
0
100
AcDbLine
 62
7
  6
CONTINUOUS
 10
4.8077855699
 20
5.9878745542
 11
4.7988270201
 21
5.9809096847
  0
LINE
  5
2DE
100
AcDbEntity
  8
0
100
AcDbLine
 62
7
  6
CONTINUOUS
 10
4.6727542889
 20
6.0178606787
 11
4.68177855
 21
6.0247601209
  0
LINE
  5
2DF
100
AcDbEntity
  8
0
100
AcDbLine
 62
7
  6
CONTINUOUS
 10
5.2637422612
 20
6.330270824
 11
5.2545599529
 21
6.323603723
  0
LINE
  5
2E0
100
AcDbEntity
  8
0
100
AcDbLine
 62
7
  6
CONTINUOUS
 10
5.2607324378
 20
6.4547292235
 11
5.2699457067
 21
6.4613741664
  0
LINE
  5
2E1
100
AcDbEntity
  8
0
100
AcDbLine
 62
7
  6
CONTINUOUS
 10
4.6792567176
 20
6.0415933518
 11
4.6885619815
 21
6.0481088451
  0
LINE
  5
2E2
100
AcDbEntity
  8
0
100
AcDbLine
 62
7
  6
CONTINUOUS
 10
4.8144969879
 20
6.0110450572
 11
4.8051775024
 21
6.0045710933
  0
LINE
  5
2E3
100
AcDbEntity
  8
0
100
AcDbLine
 62
7
  6
CONTINUOUS
 10
5.2850132656
 20
6.4534567192
 11
5.2944967142
 21
6.4597100217
  0
LINE
  5
2E4
100
AcDbEntity
  8
0
100
AcDbLine
 62
7
  6
CONTINUOUS
 10
5.2881750364
 20
6.3284735
 11
5.2786480982
 21
6.3223088859
  0
LINE
  5
2E5
100
AcDbEntity
  8
0
100
AcDbLine
 62
7
  6
CONTINUOUS
 10
4.6867472636
 20
6.0650329138
 11
4.6963172058
 21
6.0711530279
  0
LINE
  5
2E6
100
AcDbEntity
  8
0
100
AcDbLine
 62
7
  6
CONTINUOUS
 10
4.8224424451
 20
6.0338219107
 11
4.8127888942
 21
6.0278575184
  0
LINE
  5
2E7
100
AcDbEntity
  8
0
100
AcDbLine
 62
7
  6
CONTINUOUS
 10
5.309219508
 20
6.4511685556
 11
5.3189564992
 21
6.4570192473
  0
LINE
  5
2E8
100
AcDbEntity
  8
0
100
AcDbLine
 62
7
  6
CONTINUOUS
 10
4.6952127862
 20
6.0881382438
 11
4.7050306177
 21
6.0938522419
  0
LINE
  5
2E9
100
AcDbEntity
  8
0
100
AcDbLine
 62
7
  6
CONTINUOUS
 10
5.3124761144
 20
6.3253672981
 11
5.3026320147
 21
6.319722945
  0
LINE
  5
2EA
100
AcDbEntity
  8
0
100
AcDbLine
 62
7
  6
CONTINUOUS
 10
4.8315990326
 20
6.056139443
 11
4.8216392501
 21
6.0507018192
  0
LINE
  5
2EB
100
AcDbEntity
  8
0
100
AcDbLine
 62
7
  6
CONTINUOUS
 10
5.3365754287
 20
6.3209611742
 11
5.3264425508
 21
6.3158533562
  0
LINE
  5
2EC
100
AcDbEntity
  8
0
100
AcDbLine
 62
7
  6
CONTINUOUS
 10
4.8419403497
 20
6.077933307
 11
4.8317030521
 21
6.0730381298
  0
LINE
  5
2ED
100
AcDbEntity
  8
0
100
AcDbLine
 62
7
  6
CONTINUOUS
 10
5.3604034949
 20
6.3152678323
 11
5.3500110543
 21
6.3107112767
  0
LINE
  5
2EE
100
AcDbEntity
  8
0
100
AcDbLine
 62
7
  6
CONTINUOUS
 10
4.8534365795
 20
6.0991406652
 11
4.8429512837
 21
6.0948020487
  0
LINE
  5
2EF
100
AcDbEntity
  8
0
100
AcDbLine
 62
7
  6
CONTINUOUS
 10
5.3838916105
 20
6.3083036879
 11
5.3732695714
 21
6.3043115323
  0
LINE
  5
2F0
100
AcDbEntity
  8
0
100
AcDbLine
 62
7
  6
CONTINUOUS
 10
3.099809895
 20
5.4353653188
 11
3.0891139689
 21
5.431571255
  0
LINE
  5
2F1
100
AcDbEntity
  8
0
100
AcDbLine
 62
7
  6
CONTINUOUS
 10
3.6404546044
 20
5.6268112138
 11
3.6297546269
 21
5.6230285908
  0
LINE
  5
2F2
100
AcDbEntity
  8
0
100
AcDbLine
 62
7
  6
CONTINUOUS
 10
4.8660545756
 20
6.1197003714
 11
4.8553515134
 21
6.1159308249
  0
LINE
  5
2F3
100
AcDbEntity
  8
0
100
AcDbLine
 62
7
  6
CONTINUOUS
 10
3.0770220915
 20
5.4434349033
 11
3.0661422578
 21
5.4402058206
  0
LINE
  5
2F4
100
AcDbEntity
  8
0
100
AcDbLine
 62
7
  6
CONTINUOUS
 10
3.62694537
 20
5.6063232705
 11
3.6160620893
 21
5.603105825
  0
LINE
  5
2F5
100
AcDbEntity
  8
0
100
AcDbLine
 62
7
  6
CONTINUOUS
 10
3.5348044879
 20
5.668691821
 11
3.5239100637
 21
5.665571229
  0
LINE
  5
2F6
100
AcDbEntity
  8
0
100
AcDbLine
 62
7
  6
CONTINUOUS
 10
3.0600977451
 20
5.4427095397
 11
3.0546878472
 21
5.4526860501
  0
LINE
  5
2F7
100
AcDbEntity
  8
0
100
AcDbLine
 62
7
  6
CONTINUOUS
 10
3.0955429363
 20
5.5486164252
 11
3.0904222416
 21
5.558726077
  0
LINE
  5
2F8
100
AcDbEntity
  8
0
100
AcDbLine
 62
7
  6
CONTINUOUS
 10
3.0377487325
 20
5.4528474325
 11
3.0328683789
 21
5.4630934027
  0
LINE
  5
2F9
100
AcDbEntity
  8
0
100
AcDbLine
 62
7
  6
CONTINUOUS
 10
3.0734089298
 20
5.5595315864
 11
3.0689979128
 21
5.5699704322
  0
LINE
  5
2FA
100
AcDbEntity
  8
0
100
AcDbLine
 62
7
  6
CONTINUOUS
 10
2.9004544056
 20
5.9720156652
 11
2.8993291235
 21
5.9747206273
  0
LINE
  5
2FB
100
AcDbEntity
  8
0
100
AcDbLine
 62
7
  6
CONTINUOUS
 10
3.4820552432
 20
6.1398810982
 11
3.4838399047
 21
6.1286899609
  0
LINE
  5
2FC
100
AcDbEntity
  8
0
100
AcDbLine
 62
7
  6
CONTINUOUS
 10
3.5499930865
 20
5.7062975792
 11
3.5517153655
 21
5.6950966717
  0
LINE
  5
2FD
100
AcDbEntity
  8
0
100
AcDbLine
 62
7
  6
CONTINUOUS
 10
3.6423857224
 20
5.6436406652
 11
3.6438730687
 21
5.6323896405
  0
LINE
  5
2FE
100
AcDbEntity
  8
0
100
AcDbLine
 62
7
  6
CONTINUOUS
 10
3.5675297352
 20
6.2122748303
 11
3.5690050484
 21
6.2010222214
  0
LINE
  5
2FF
100
AcDbEntity
  8
0
100
AcDbLine
 62
7
  6
CONTINUOUS
 10
5.0008474923
 20
6.4023272265
 11
5.0061453502
 21
6.4123757235
  0
LINE
  5
300
100
AcDbEntity
  8
0
100
AcDbLine
 62
7
  6
CONTINUOUS
 10
4.6637075937
 20
5.7737320065
 11
4.6691454104
 21
5.7837054582
  0
LINE
  5
301
100
AcDbEntity
  8
0
100
AcDbLine
 62
7
  6
CONTINUOUS
 10
5.0231619154
 20
6.4119835397
 11
5.0288759136
 21
6.4218013711
  0
LINE
  5
302
100
AcDbEntity
  8
0
100
AcDbLine
 62
7
  6
CONTINUOUS
 10
4.6599949101
 20
5.7980576582
 11
4.6658456017
 21
5.8077946493
  0
LINE
  5
303
100
AcDbEntity
  8
0
100
AcDbLine
 62
7
  6
CONTINUOUS
 10
5.0949393985
 20
6.3062451828
 11
5.0888459428
 21
6.2966725751
  0
LINE
  5
304
100
AcDbEntity
  8
0
100
AcDbLine
 62
7
  6
CONTINUOUS
 10
5.0458611295
 20
6.4206969516
 11
5.0519812436
 21
6.4302668937
  0
LINE
  5
305
100
AcDbEntity
  8
0
100
AcDbLine
 62
7
  6
CONTINUOUS
 10
4.6573041356
 20
5.8225174431
 11
4.6635574381
 21
5.8320008918
  0
LINE
  5
306
100
AcDbEntity
  8
0
100
AcDbLine
 62
7
  6
CONTINUOUS
 10
4.7942603116
 20
5.8443810335
 11
4.787968352
 21
5.834937715
  0
LINE
  5
307
100
AcDbEntity
  8
0
100
AcDbLine
 62
7
  6
CONTINUOUS
 10
5.0689053123
 20
6.4284521759
 11
5.0754208056
 21
6.4377574398
  0
LINE
  5
308
100
AcDbEntity
  8
0
100
AcDbLine
 62
7
  6
CONTINUOUS
 10
5.1183259094
 20
6.3135432636
 11
5.1117274129
 21
6.3043115323
  0
LINE
  5
309
100
AcDbEntity
  8
0
100
AcDbLine
 62
7
  6
CONTINUOUS
 10
4.655639991
 20
5.8470684507
 11
4.6622849339
 21
5.8562817196
  0
LINE
  5
30A
100
AcDbEntity
  8
0
100
AcDbLine
 62
7
  6
CONTINUOUS
 10
4.7932889795
 20
5.8684843913
 11
4.786499205
 21
5.8593924177
  0
LINE
  5
30B
100
AcDbEntity
  8
0
100
AcDbLine
 62
7
  6
CONTINUOUS
 10
5.0922540365
 20
6.4352356074
 11
5.0991534786
 21
6.4442598684
  0
LINE
  5
30C
100
AcDbEntity
  8
0
100
AcDbLine
 62
7
  6
CONTINUOUS
 10
4.6550053955
 20
5.8716676099
 11
4.6620303213
 21
5.8805945359
  0
LINE
  5
30D
100
AcDbEntity
  8
0
100
AcDbLine
 62
7
  6
CONTINUOUS
 10
5.1420704421
 20
6.3195755143
 11
5.13498593
 21
6.3107112767
  0
LINE
  5
30E
100
AcDbEntity
  8
0
100
AcDbLine
 62
7
  6
CONTINUOUS
 10
5.1158663405
 20
6.4410353455
 11
5.1231376275
 21
6.4497627721
  0
LINE
  5
30F
100
AcDbEntity
  8
0
100
AcDbLine
 62
7
  6
CONTINUOUS
 10
4.7936128347
 20
5.8926051388
 11
4.786344822
 21
5.8838907248
  0
LINE
  5
310
100
AcDbEntity
  8
0
100
AcDbLine
 62
7
  6
CONTINUOUS
 10
4.6554014626
 20
5.8962717656
 11
4.6627940472
 21
5.9048966878
  0
LINE
  5
311
100
AcDbEntity
  8
0
100
AcDbLine
 62
7
  6
CONTINUOUS
 10
5.1661045349
 20
6.3243245422
 11
5.1585544336
 21
6.3158533562
  0
LINE
  5
312
100
AcDbEntity
  8
0
100
AcDbLine
 62
7
  6
CONTINUOUS
 10
4.7952309435
 20
5.9166737297
 11
4.7875056482
 21
5.908362001
  0
LINE
  5
313
100
AcDbEntity
  8
0
100
AcDbLine
 62
7
  6
CONTINUOUS
 10
5.1903588912
 20
6.3277766546
 11
5.1823649696
 21
6.319722945
  0
LINE
  5
314
100
AcDbEntity
  8
0
100
AcDbLine
 62
7
  6
CONTINUOUS
 10
4.7981386404
 20
5.940620768
 11
4.7899783365
 21
5.9327356896
  0
LINE
  5
315
100
AcDbEntity
  8
0
100
AcDbLine
 62
7
  6
CONTINUOUS
 10
5.2147635794
 20
6.3299218983
 11
5.2063488862
 21
6.3223088859
  0
LINE
  5
316
100
AcDbEntity
  8
0
100
AcDbLine
 62
7
  6
CONTINUOUS
 10
7.4079748929
 20
6.3055964271
 11
7.4188547265
 21
6.3088255098
  0
LINE
  5
317
100
AcDbEntity
  8
0
100
AcDbLine
 62
7
  6
CONTINUOUS
 10
6.8580516143
 20
6.1427080599
 11
6.868934895
 21
6.1459255054
  0
LINE
  5
318
100
AcDbEntity
  8
0
100
AcDbLine
 62
7
  6
CONTINUOUS
 10
3.1418030637
 20
5.5314898926
 11
3.1353394867
 21
5.5407984233
  0
LINE
  5
319
100
AcDbEntity
  8
0
100
AcDbLine
 62
7
  6
CONTINUOUS
 10
3.1062329862
 20
5.4260089491
 11
3.099809895
 21
5.4353653188
  0
LINE
  5
31A
100
AcDbEntity
  8
0
100
AcDbLine
 62
7
  6
CONTINUOUS
 10
3.0829467055
 20
5.4337551975
 11
3.0770220915
 21
5.4434349033
  0
LINE
  5
31B
100
AcDbEntity
  8
0
100
AcDbLine
 62
7
  6
CONTINUOUS
 10
3.1183772529
 20
5.5392543224
 11
3.112571283
 21
5.548986603
  0
LINE
  5
31C
100
AcDbEntity
  8
0
100
AcDbLine
 62
7
  6
CONTINUOUS
 10
3.4432462848
 20
6.1703307658
 11
3.4465544565
 21
6.1594918281
  0
LINE
  5
31D
100
AcDbEntity
  8
0
100
AcDbLine
 62
7
  6
CONTINUOUS
 10
3.5702216852
 20
5.7502266523
 11
3.5734694132
 21
5.7393694503
  0
LINE
  5
31E
100
AcDbEntity
  8
0
100
AcDbLine
 62
7
  6
CONTINUOUS
 10
3.6735792541
 20
5.7090392645
 11
3.6768083367
 21
5.6981594309
  0
LINE
  5
31F
100
AcDbEntity
  8
0
100
AcDbLine
 62
7
  6
CONTINUOUS
 10
3.5106908869
 20
6.2589625431
 11
3.5139083324
 21
6.2480792624
  0
LINE
  5
320
100
AcDbEntity
  8
0
100
AcDbLine
 62
7
  6
CONTINUOUS
 10
3.6643281072
 20
5.6867050203
 11
3.666983358
 21
5.6756710999
  0
LINE
  5
321
100
AcDbEntity
  8
0
100
AcDbLine
 62
7
  6
CONTINUOUS
 10
3.5304437335
 20
6.2443995666
 11
3.5330871827
 21
6.2333628129
  0
LINE
  5
322
100
AcDbEntity
  8
0
100
AcDbLine
 62
7
  6
CONTINUOUS
 10
3.4631765798
 20
6.1557760991
 11
3.4657290783
 21
6.144734753
  0
LINE
  5
323
100
AcDbEntity
  8
0
100
AcDbLine
 62
7
  6
CONTINUOUS
 10
3.5608659689
 20
5.727912801
 11
3.5633569076
 21
5.7168574043
  0
LINE
  5
324
100
AcDbEntity
  8
0
100
AcDbLine
 62
7
  6
CONTINUOUS
 10
3.6539207547
 20
5.6648855519
 11
3.6559948958
 21
5.6537277881
  0
LINE
  5
325
100
AcDbEntity
  8
0
100
AcDbLine
 62
7
  6
CONTINUOUS
 10
3.5494073422
 20
6.228822764
 11
3.5514695496
 21
6.2176627884
  0
LINE
  5
326
100
AcDbEntity
  8
0
100
AcDbLine
 62
7
  6
CONTINUOUS
 10
4.8963899522
 20
6.3405512095
 11
4.8994828393
 21
6.3514816093
  0
LINE
  5
327
100
AcDbEntity
  8
0
100
AcDbLine
 62
7
  6
CONTINUOUS
 10
4.6973096644
 20
5.655596977
 11
4.7005550546
 21
5.6664830705
  0
LINE
  5
328
100
AcDbEntity
  8
0
100
AcDbLine
 62
7
  6
CONTINUOUS
 10
4.9162090913
 20
6.3546359386
 11
4.919756983
 21
6.3654272339
  0
LINE
  5
329
100
AcDbEntity
  8
0
100
AcDbLine
 62
7
  6
CONTINUOUS
 10
4.6886205244
 20
5.6786191444
 11
4.6923189301
 21
5.6893597862
  0
LINE
  5
32A
100
AcDbEntity
  8
0
100
AcDbLine
 62
7
  6
CONTINUOUS
 10
5.0063026174
 20
6.2648688018
 11
5.0023897198
 21
6.2542173111
  0
LINE
  5
32B
100
AcDbEntity
  8
0
100
AcDbLine
 62
7
  6
CONTINUOUS
 10
4.9366006529
 20
6.3678783735
 11
4.940597325
 21
6.3785116327
  0
LINE
  5
32C
100
AcDbEntity
  8
0
100
AcDbLine
 62
7
  6
CONTINUOUS
 10
4.8109857305
 20
5.7495264695
 11
4.8068513316
 21
5.7389589832
  0
LINE
  5
32D
100
AcDbEntity
  8
0
100
AcDbLine
 62
7
  6
CONTINUOUS
 10
4.6809030746
 20
5.7019849809
 11
4.6850480076
 21
5.7125613281
  0
LINE
  5
32E
100
AcDbEntity
  8
0
100
AcDbLine
 62
7
  6
CONTINUOUS
 10
4.9575288632
 20
6.3802552826
 11
4.9619673042
 21
6.3907118513
  0
LINE
  5
32F
100
AcDbEntity
  8
0
100
AcDbLine
 62
7
  6
CONTINUOUS
 10
5.0275959651
 20
6.2769842557
 11
5.0231169723
 21
6.2665581517
  0
LINE
  5
330
100
AcDbEntity
  8
0
100
AcDbLine
 62
7
  6
CONTINUOUS
 10
4.674170854
 20
5.7256534949
 11
4.6787550427
 21
5.7360469931
  0
LINE
  5
331
100
AcDbEntity
  8
0
100
AcDbLine
 62
7
  6
CONTINUOUS
 10
4.8048988132
 20
5.7728688084
 11
4.8002031476
 21
5.7625384771
  0
LINE
  5
332
100
AcDbEntity
  8
0
100
AcDbLine
 62
7
  6
CONTINUOUS
 10
4.9789570071
 20
6.3917449525
 11
4.9838294305
 21
6.4020064865
  0
LINE
  5
333
100
AcDbEntity
  8
0
100
AcDbLine
 62
7
  6
CONTINUOUS
 10
4.6684356732
 20
5.7495831637
 11
4.6734510753
 21
5.7597755791
  0
LINE
  5
334
100
AcDbEntity
  8
0
100
AcDbLine
 62
7
  6
CONTINUOUS
 10
5.0495089324
 20
6.2879392885
 11
5.0444767585
 21
6.2777686323
  0
LINE
  5
335
100
AcDbEntity
  8
0
100
AcDbLine
 62
7
  6
CONTINUOUS
 10
4.8000736091
 20
5.7965042214
 11
4.7948302155
 21
5.7864408301
  0
LINE
  5
336
100
AcDbEntity
  8
0
100
AcDbLine
 62
7
  6
CONTINUOUS
 10
5.0719783385
 20
6.297702314
 11
5.0664074927
 21
6.2878164303
  0
LINE
  5
337
100
AcDbEntity
  8
0
100
AcDbLine
 62
7
  6
CONTINUOUS
 10
4.7965240305
 20
5.8203645616
 11
4.790748027
 21
5.8105971257
  0
LINE
  5
338
100
AcDbEntity
  8
0
100
AcDbLine
 62
7
  6
CONTINUOUS
 10
5.6581260677
 20
5.7039891835
 11
5.6679362707
 21
5.7096922473
  0
LINE
  5
339
100
AcDbEntity
  8
0
100
AcDbLine
 62
7
  6
CONTINUOUS
 10
5.6483735999
 20
5.681925532
 11
5.6584757815
 21
5.6870937955
  0
LINE
  5
33A
100
AcDbEntity
  8
0
100
AcDbLine
 62
7
  6
CONTINUOUS
 10
5.6374508891
 20
5.6604171677
 11
5.6478159221
 21
5.6650357294
  0
LINE
  5
33B
100
AcDbEntity
  8
0
100
AcDbLine
 62
7
  6
CONTINUOUS
 10
5.7586946783
 20
5.5939844773
 11
5.7482381095
 21
5.5895460362
  0
LINE
  5
33C
100
AcDbEntity
  8
0
100
AcDbLine
 62
7
  6
CONTINUOUS
 10
7.3620081862
 20
6.3205319155
 11
7.372490888
 21
6.3248805612
  0
LINE
  5
33D
100
AcDbEntity
  8
0
100
AcDbLine
 62
7
  6
CONTINUOUS
 10
6.8321239156
 20
6.1010532326
 11
6.842611262
 21
6.1053906652
  0
LINE
  5
33E
100
AcDbEntity
  8
0
100
AcDbLine
 62
7
  6
CONTINUOUS
 10
5.6253894284
 20
5.6395261049
 11
5.6359874276
 21
5.6435816483
  0
LINE
  5
33F
100
AcDbEntity
  8
0
100
AcDbLine
 62
7
  6
CONTINUOUS
 10
5.7464944597
 20
5.572614498
 11
5.7358612004
 21
5.5686178259
  0
LINE
  5
340
100
AcDbEntity
  8
0
100
AcDbLine
 62
7
  6
CONTINUOUS
 10
6.9366889595
 20
6.0596825621
 11
6.947342132
 21
6.0635473373
  0
LINE
  5
341
100
AcDbEntity
  8
0
100
AcDbLine
 62
7
  6
CONTINUOUS
 10
7.3496574976
 20
6.2082329071
 11
7.3603320386
 21
6.2120382649
  0
LINE
  5
342
100
AcDbEntity
  8
0
100
AcDbLine
 62
7
  6
CONTINUOUS
 10
7.3851870893
 20
6.3136660116
 11
7.3958830154
 21
6.3174600754
  0
LINE
  5
343
100
AcDbEntity
  8
0
100
AcDbLine
 62
7
  6
CONTINUOUS
 10
6.8445423799
 20
6.1222201166
 11
6.8552423574
 21
6.1260027396
  0
LINE
  5
344
100
AcDbEntity
  8
0
100
AcDbLine
 62
7
  6
CONTINUOUS
 10
5.7334100608
 20
5.551774156
 11
5.7226187655
 21
5.5482262644
  0
LINE
  5
345
100
AcDbEntity
  8
0
100
AcDbLine
 62
7
  6
CONTINUOUS
 10
5.6122239939
 20
5.6193125777
 11
5.6230244027
 21
5.6227934097
  0
LINE
  5
346
100
AcDbEntity
  8
0
100
AcDbLine
 62
7
  6
CONTINUOUS
 10
5.0237484922
 20
5.3293771272
 11
5.0235798039
 21
5.3293268374
  0
LINE
  5
347
100
AcDbEntity
  8
0
100
AcDbLine
 62
7
  6
CONTINUOUS
 10
6.9501924964
 20
6.0803395094
 11
6.9610869206
 21
6.0834601014
  0
LINE
  5
348
100
AcDbEntity
  8
0
100
AcDbLine
 62
7
  6
CONTINUOUS
 10
3.1780725489
 20
5.4102141895
 11
3.1702648779
 21
5.4184505739
  0
LINE
  5
349
100
AcDbEntity
  8
0
100
AcDbLine
 62
7
  6
CONTINUOUS
 10
3.1538611807
 20
5.4142222919
 11
3.1464952689
 21
5.4228560106
  0
LINE
  5
34A
100
AcDbEntity
  8
0
100
AcDbLine
 62
7
  6
CONTINUOUS
 10
3.1657087341
 20
5.5253601367
 11
3.1586183518
 21
5.5342005582
  0
LINE
  5
34B
100
AcDbEntity
  8
0
100
AcDbLine
 62
7
  6
CONTINUOUS
 10
3.1298927612
 20
5.4194920264
 11
3.1229887981
 21
5.4284994149
  0
LINE
  5
34C
100
AcDbEntity
  8
0
100
AcDbLine
 62
7
  6
CONTINUOUS
 10
3.6941581468
 20
5.778512442
 11
3.699049455
 21
5.7682716969
  0
LINE
  5
34D
100
AcDbEntity
  8
0
100
AcDbLine
 62
7
  6
CONTINUOUS
 10
3.4472482518
 20
6.2961838978
 11
3.4521286054
 21
6.2859379277
  0
LINE
  5
34E
100
AcDbEntity
  8
0
100
AcDbLine
 62
7
  6
CONTINUOUS
 10
3.4006152666
 20
6.1951483766
 11
3.405383964
 21
6.1848680022
  0
LINE
  5
34F
100
AcDbEntity
  8
0
100
AcDbLine
 62
7
  6
CONTINUOUS
 10
3.5842107254
 20
5.7965220778
 11
3.5889220685
 21
5.7862152928
  0
LINE
  5
350
100
AcDbEntity
  8
0
100
AcDbLine
 62
7
  6
CONTINUOUS
 10
3.6885147424
 20
5.7550059711
 11
3.6928633881
 21
5.7445232694
  0
LINE
  5
351
100
AcDbEntity
  8
0
100
AcDbLine
 62
7
  6
CONTINUOUS
 10
3.4690360595
 20
6.2848902417
 11
3.4733734922
 21
6.2744028954
  0
LINE
  5
352
100
AcDbEntity
  8
0
100
AcDbLine
 62
7
  6
CONTINUOUS
 10
3.4223593351
 20
6.183475739
 11
3.4264074151
 21
6.172890862
  0
LINE
  5
353
100
AcDbEntity
  8
0
100
AcDbLine
 62
7
  6
CONTINUOUS
 10
3.5780156513
 20
5.7731327973
 11
3.5820046917
 21
5.7625255295
  0
LINE
  5
354
100
AcDbEntity
  8
0
100
AcDbLine
 62
7
  6
CONTINUOUS
 10
3.6816488386
 20
5.731827068
 11
3.6854429024
 21
5.721131142
  0
LINE
  5
355
100
AcDbEntity
  8
0
100
AcDbLine
 62
7
  6
CONTINUOUS
 10
3.4902029436
 20
6.2724717774
 11
3.4939855666
 21
6.2617717999
  0
LINE
  5
356
100
AcDbEntity
  8
0
100
AcDbLine
 62
7
  6
CONTINUOUS
 10
4.8070590162
 20
6.258407203
 11
4.8078117584
 21
6.2697417947
  0
LINE
  5
357
100
AcDbEntity
  8
0
100
AcDbLine
 62
7
  6
CONTINUOUS
 10
4.7547391029
 20
5.5470297445
 11
4.7556502275
 21
5.5583527054
  0
LINE
  5
358
100
AcDbEntity
  8
0
100
AcDbLine
 62
7
  6
CONTINUOUS
 10
4.8235166797
 20
6.2763047776
 11
4.824743405
 21
6.2875979054
  0
LINE
  5
359
100
AcDbEntity
  8
0
100
AcDbLine
 62
7
  6
CONTINUOUS
 10
4.7414532638
 20
5.5677422486
 11
4.7428377455
 21
5.5790171234
  0
LINE
  5
35A
100
AcDbEntity
  8
0
100
AcDbLine
 62
7
  6
CONTINUOUS
 10
4.9285228324
 20
6.2055494211
 11
4.9269703534
 21
6.1943086547
  0
LINE
  5
35B
100
AcDbEntity
  8
0
100
AcDbLine
 62
7
  6
CONTINUOUS
 10
4.8407093797
 20
6.2934974776
 11
4.8424079361
 21
6.3047293295
  0
LINE
  5
35C
100
AcDbEntity
  8
0
100
AcDbLine
 62
7
  6
CONTINUOUS
 10
4.8475460952
 20
5.6604171677
 11
4.8457592992
 21
5.6492112594
  0
LINE
  5
35D
100
AcDbEntity
  8
0
100
AcDbLine
 62
7
  6
CONTINUOUS
 10
4.7290464282
 20
5.5889929375
 11
4.7309018382
 21
5.6001999462
  0
LINE
  5
35E
100
AcDbEntity
  8
0
100
AcDbLine
 62
7
  6
CONTINUOUS
 10
4.9467442453
 20
6.2219253484
 11
4.9445906379
 21
6.2107841188
  0
LINE
  5
35F
100
AcDbEntity
  8
0
100
AcDbLine
 62
7
  6
CONTINUOUS
 10
4.8586069543
 20
6.3099551411
 11
4.8607743619
 21
6.3211060126
  0
LINE
  5
360
100
AcDbEntity
  8
0
100
AcDbLine
 62
7
  6
CONTINUOUS
 10
4.717540362
 20
5.6107445303
 11
4.7198634454
 21
5.621864012
  0
LINE
  5
361
100
AcDbEntity
  8
0
100
AcDbLine
 62
7
  6
CONTINUOUS
 10
4.8366233844
 20
5.681925532
 11
4.8342376689
 21
5.6708316877
  0
LINE
  5
362
100
AcDbEntity
  8
0
100
AcDbLine
 62
7
  6
CONTINUOUS
 10
4.8771780052
 20
6.3256488958
 11
4.8798104616
 21
6.3366992245
  0
LINE
  5
363
100
AcDbEntity
  8
0
100
AcDbLine
 62
7
  6
CONTINUOUS
 10
4.9658183942
 20
6.2372996035
 11
4.9630698679
 21
6.2262900339
  0
LINE
  5
364
100
AcDbEntity
  8
0
100
AcDbLine
 62
7
  6
CONTINUOUS
 10
4.7069552508
 20
5.6329588673
 11
4.7097419319
 21
5.6439713147
  0
LINE
  5
365
100
AcDbEntity
  8
0
100
AcDbLine
 62
7
  6
CONTINUOUS
 10
4.8268709166
 20
5.7039891835
 11
4.8238931603
 21
5.6930393895
  0
LINE
  5
366
100
AcDbEntity
  8
0
100
AcDbLine
 62
7
  6
CONTINUOUS
 10
4.9856902835
 20
6.2516278587
 11
4.982354763
 21
6.2407816924
  0
LINE
  5
367
100
AcDbEntity
  8
0
100
AcDbLine
 62
7
  6
CONTINUOUS
 10
4.8183168108
 20
5.7265445069
 11
4.8147555992
 21
5.7157703344
  0
LINE
  5
368
100
AcDbEntity
  8
0
100
AcDbLine
 62
7
  6
CONTINUOUS
 10
5.6907366727
 20
5.8443810335
 11
5.69823603
 21
5.8528971746
  0
LINE
  5
369
100
AcDbEntity
  8
0
100
AcDbLine
 62
7
  6
CONTINUOUS
 10
5.6884729538
 20
5.8203645616
 11
5.6964186176
 21
5.8284658854
  0
LINE
  5
36A
100
AcDbEntity
  8
0
100
AcDbLine
 62
7
  6
CONTINUOUS
 10
5.6849233752
 20
5.7965042214
 11
5.693292436
 21
5.8041673697
  0
LINE
  5
36B
100
AcDbEntity
  8
0
100
AcDbLine
 62
7
  6
CONTINUOUS
 10
5.8222393238
 20
5.779348349
 11
5.8138240426
 21
5.7717179734
  0
LINE
  5
36C
100
AcDbEntity
  8
0
100
AcDbLine
 62
7
  6
CONTINUOUS
 10
5.8177455991
 20
5.7551548006
 11
5.8090181725
 21
5.7478835136
  0
LINE
  5
36D
100
AcDbEntity
  8
0
100
AcDbLine
 62
7
  6
CONTINUOUS
 10
5.6800981711
 20
5.7728688084
 11
5.6888664988
 21
5.7800716862
  0
LINE
  5
36E
100
AcDbEntity
  8
0
100
AcDbLine
 62
7
  6
CONTINUOUS
 10
5.8122426954
 20
5.7311706517
 11
5.8032184343
 21
5.7242712095
  0
LINE
  5
36F
100
AcDbEntity
  8
0
100
AcDbLine
 62
7
  6
CONTINUOUS
 10
5.6740112538
 20
5.7495264695
 11
5.683153567
 21
5.7562483093
  0
LINE
  5
370
100
AcDbEntity
  8
0
100
AcDbLine
 62
7
  6
CONTINUOUS
 10
5.8057402668
 20
5.7074379786
 11
5.7964350029
 21
5.7009224853
  0
LINE
  5
371
100
AcDbEntity
  8
0
100
AcDbLine
 62
7
  6
CONTINUOUS
 10
5.6666801735
 20
5.7265445069
 11
5.6761701126
 21
5.7327659277
  0
LINE
  5
372
100
AcDbEntity
  8
0
100
AcDbLine
 62
7
  6
CONTINUOUS
 10
5.7982497207
 20
5.6839984166
 11
5.7886797785
 21
5.6778783025
  0
LINE
  5
373
100
AcDbEntity
  8
0
100
AcDbLine
 62
7
  6
CONTINUOUS
 10
5.7897841981
 20
5.6608930866
 11
5.7799663666
 21
5.6551790885
  0
LINE
  5
374
100
AcDbEntity
  8
0
100
AcDbLine
 62
7
  6
CONTINUOUS
 10
7.3147321064
 20
6.3305807565
 11
7.3247028255
 21
6.3360013205
  0
LINE
  5
375
100
AcDbEntity
  8
0
100
AcDbLine
 62
7
  6
CONTINUOUS
 10
6.8106923667
 20
6.0569164122
 11
6.8206688771
 21
6.0623263101
  0
LINE
  5
376
100
AcDbEntity
  8
0
100
AcDbLine
 62
7
  6
CONTINUOUS
 10
6.9141112563
 20
6.0158240985
 11
6.9241310155
 21
6.0211185294
  0
LINE
  5
377
100
AcDbEntity
  8
0
100
AcDbLine
 62
7
  6
CONTINUOUS
 10
5.7803585504
 20
5.6381625232
 11
5.7703100535
 21
5.6328646653
  0
LINE
  5
378
100
AcDbEntity
  8
0
100
AcDbLine
 62
7
  6
CONTINUOUS
 10
7.3027000403
 20
6.2198068808
 11
7.3127491434
 21
6.2250454014
  0
LINE
  5
379
100
AcDbEntity
  8
0
100
AcDbLine
 62
7
  6
CONTINUOUS
 10
7.3385017154
 20
6.3261753198
 11
7.3487424604
 21
6.3310666281
  0
LINE
  5
37A
100
AcDbEntity
  8
0
100
AcDbLine
 62
7
  6
CONTINUOUS
 10
6.8208302595
 20
6.0792654248
 11
6.8310762296
 21
6.0841457785
  0
LINE
  5
37B
100
AcDbEntity
  8
0
100
AcDbLine
 62
7
  6
CONTINUOUS
 10
5.7699893134
 20
5.6158466035
 11
5.7597277795
 21
5.6109741801
  0
LINE
  5
37C
100
AcDbEntity
  8
0
100
AcDbLine
 62
7
  6
CONTINUOUS
 10
6.9246427442
 20
6.0381432102
 11
6.9350038978
 21
6.0427337512
  0
LINE
  5
37D
100
AcDbEntity
  8
0
100
AcDbLine
 62
7
  6
CONTINUOUS
 10
7.3263786325
 20
6.2148307722
 11
7.3367652029
 21
6.2193635117
  0
LINE
  5
37E
100
AcDbEntity
  8
0
100
AcDbLine
 62
7
  6
CONTINUOUS
 10
3.2269582007
 20
5.4060233367
 11
3.2183323644
 21
5.4133984775
  0
LINE
  5
37F
100
AcDbEntity
  8
0
100
AcDbLine
 62
7
  6
CONTINUOUS
 10
3.2145022241
 20
5.5181135623
 11
3.2062624241
 21
5.5258938108
  0
LINE
  5
380
100
AcDbEntity
  8
0
100
AcDbLine
 62
7
  6
CONTINUOUS
 10
3.2024605042
 20
5.4074787052
 11
3.1942324742
 21
5.41529518
  0
LINE
  5
381
100
AcDbEntity
  8
0
100
AcDbLine
 62
7
  6
CONTINUOUS
 10
3.1899803427
 20
5.520894266
 11
3.1822969441
 21
5.5292244495
  0
LINE
  5
382
100
AcDbEntity
  8
0
100
AcDbLine
 62
7
  6
CONTINUOUS
 10
3.3549738455
 20
6.2138614253
 11
3.3611122766
 21
6.2043353434
  0
LINE
  5
383
100
AcDbEntity
  8
0
100
AcDbLine
 62
7
  6
CONTINUOUS
 10
3.591693868
 20
5.844302432
 11
3.5977791264
 21
5.8347422959
  0
LINE
  5
384
100
AcDbEntity
  8
0
100
AcDbLine
 62
7
  6
CONTINUOUS
 10
3.7017189773
 20
5.8262496473
 11
3.7076539398
 21
5.8165762831
  0
LINE
  5
385
100
AcDbEntity
  8
0
100
AcDbLine
 62
7
  6
CONTINUOUS
 10
3.4020502788
 20
6.3152761329
 11
3.4079748929
 21
6.3055964271
  0
LINE
  5
386
100
AcDbEntity
  8
0
100
AcDbLine
 62
7
  6
CONTINUOUS
 10
3.3781176997
 20
6.2052930534
 11
3.3835842893
 21
6.1953661722
  0
LINE
  5
387
100
AcDbEntity
  8
0
100
AcDbLine
 62
7
  6
CONTINUOUS
 10
3.6985635834
 20
5.802282051
 11
3.7039841475
 21
5.7923113318
  0
LINE
  5
388
100
AcDbEntity
  8
0
100
AcDbLine
 62
7
  6
CONTINUOUS
 10
3.588777385
 20
5.8202830334
 11
3.5941885792
 21
5.8103258475
  0
LINE
  5
389
100
AcDbEntity
  8
0
100
AcDbLine
 62
7
  6
CONTINUOUS
 10
3.4248992392
 20
6.3063217907
 11
3.4303091371
 21
6.2963452803
  0
LINE
  5
38A
100
AcDbEntity
  8
0
100
AcDbLine
 62
7
  6
CONTINUOUS
 10
4.7491357839
 20
6.1804135045
 11
4.747987729
 21
6.1917149008
  0
LINE
  5
38B
100
AcDbEntity
  8
0
100
AcDbLine
 62
7
  6
CONTINUOUS
 10
4.8161840839
 20
5.4702728232
 11
4.8151941331
 21
5.4815891648
  0
LINE
  5
38C
100
AcDbEntity
  8
0
100
AcDbLine
 62
7
  6
CONTINUOUS
 10
4.8651752746
 20
6.1310137197
 11
4.8660545756
 21
6.1197003714
  0
LINE
  5
38D
100
AcDbEntity
  8
0
100
AcDbLine
 62
7
  6
CONTINUOUS
 10
4.7623782188
 20
6.200805066
 11
4.7617044243
 21
6.2121446247
  0
LINE
  5
38E
100
AcDbEntity
  8
0
100
AcDbLine
 62
7
  6
CONTINUOUS
 10
4.9022608694
 20
5.5811491324
 11
4.9029038082
 21
5.5698198937
  0
LINE
  5
38F
100
AcDbEntity
  8
0
100
AcDbLine
 62
7
  6
CONTINUOUS
 10
4.7996301008
 20
5.4884796074
 11
4.7991148975
 21
5.4998274775
  0
LINE
  5
390
100
AcDbEntity
  8
0
100
AcDbLine
 62
7
  6
CONTINUOUS
 10
4.8794871859
 20
6.1508973832
 11
4.8797579569
 21
6.1395531466
  0
LINE
  5
391
100
AcDbEntity
  8
0
100
AcDbLine
 62
7
  6
CONTINUOUS
 10
4.7764629478
 20
6.2206242051
 11
4.7762645958
 21
6.2319820326
  0
LINE
  5
392
100
AcDbEntity
  8
0
100
AcDbLine
 62
7
  6
CONTINUOUS
 10
4.7838530593
 20
5.50736363
 11
4.7838135075
 21
5.5187231206
  0
LINE
  5
393
100
AcDbEntity
  8
0
100
AcDbLine
 62
7
  6
CONTINUOUS
 10
4.8870044392
 20
5.5998348672
 11
4.8870383358
 21
5.5884874502
  0
LINE
  5
394
100
AcDbEntity
  8
0
100
AcDbLine
 62
7
  6
CONTINUOUS
 10
4.7913652615
 20
6.2398361522
 11
4.7916426999
 21
6.2511923231
  0
LINE
  5
395
100
AcDbEntity
  8
0
100
AcDbLine
 62
7
  6
CONTINUOUS
 10
4.8948457529
 20
6.1699841667
 11
4.8945072131
 21
6.1586417502
  0
LINE
  5
396
100
AcDbEntity
  8
0
100
AcDbLine
 62
7
  6
CONTINUOUS
 10
4.7688806378
 20
5.5268917621
 11
4.7693168067
 21
5.5382429447
  0
LINE
  5
397
100
AcDbEntity
  8
0
100
AcDbLine
 62
7
  6
CONTINUOUS
 10
4.8727729904
 20
5.6193125777
 11
4.8721977471
 21
5.6079797001
  0
LINE
  5
398
100
AcDbEntity
  8
0
100
AcDbLine
 62
7
  6
CONTINUOUS
 10
4.9112066926
 20
6.1882190379
 11
4.9102598182
 21
6.1769111447
  0
LINE
  5
399
100
AcDbEntity
  8
0
100
AcDbLine
 62
7
  6
CONTINUOUS
 10
4.8596075559
 20
5.6395261049
 11
4.8584248312
 21
5.6282404422
  0
LINE
  5
39A
100
AcDbEntity
  8
0
100
AcDbLine
 62
7
  6
CONTINUOUS
 10
5.6826694426
 20
5.9643772081
 11
5.6876407642
 21
5.9745777464
  0
LINE
  5
39B
100
AcDbEntity
  8
0
100
AcDbLine
 62
7
  6
CONTINUOUS
 10
5.686858344
 20
5.940620768
 11
5.6923700293
 21
5.9505397571
  0
LINE
  5
39C
100
AcDbEntity
  8
0
100
AcDbLine
 62
7
  6
CONTINUOUS
 10
5.8250020743
 20
5.9509736722
 11
5.8191513826
 21
5.9412366811
  0
LINE
  5
39D
100
AcDbEntity
  8
0
100
AcDbLine
 62
7
  6
CONTINUOUS
 10
5.6897660408
 20
5.9166737297
 11
5.6958021983
 21
5.9262825706
  0
LINE
  5
39E
100
AcDbEntity
  8
0
100
AcDbLine
 62
7
  6
CONTINUOUS
 10
5.8276928487
 20
5.9265138872
 11
5.8214395462
 21
5.9170304386
  0
LINE
  5
39F
100
AcDbEntity
  8
0
100
AcDbLine
 62
7
  6
CONTINUOUS
 10
5.6913841496
 20
5.8926051388
 11
5.6979273754
 21
5.9018761267
  0
LINE
  5
3A0
100
AcDbEntity
  8
0
100
AcDbLine
 62
7
  6
CONTINUOUS
 10
5.8293569933
 20
5.9019628797
 11
5.8227120505
 21
5.8927496108
  0
LINE
  5
3A1
100
AcDbEntity
  8
0
100
AcDbLine
 62
7
  6
CONTINUOUS
 10
5.8299915888
 20
5.8773637205
 11
5.822966663
 21
5.8684367945
  0
LINE
  5
3A2
100
AcDbEntity
  8
0
100
AcDbLine
 62
7
  6
CONTINUOUS
 10
5.6917080048
 20
5.8684843913
 11
5.698739433
 21
5.8773907956
  0
LINE
  5
3A3
100
AcDbEntity
  8
0
100
AcDbLine
 62
7
  6
CONTINUOUS
 10
5.8295955217
 20
5.8527595648
 11
5.8222029371
 21
5.8441346426
  0
LINE
  5
3A4
100
AcDbEntity
  8
0
100
AcDbLine
 62
7
  6
CONTINUOUS
 10
5.8281694869
 20
5.8281935767
 11
5.8204222126
 21
5.8198857893
  0
LINE
  5
3A5
100
AcDbEntity
  8
0
100
AcDbLine
 62
7
  6
CONTINUOUS
 10
5.8257159862
 20
5.8037088532
 11
5.8176276136
 21
5.7957327754
  0
LINE
  5
3A6
100
AcDbEntity
  8
0
100
AcDbLine
 62
7
  6
CONTINUOUS
 10
7.2424984922
 20
6.3362656652
 11
7.2514984922
 21
6.3431792572
  0
LINE
  5
3A7
100
AcDbEntity
  8
0
100
AcDbLine
 62
7
  6
CONTINUOUS
 10
6.7874748534
 20
5.9871213961
 11
6.7964822419
 21
5.9940253593
  0
LINE
  5
3A8
100
AcDbEntity
  8
0
100
AcDbLine
 62
7
  6
CONTINUOUS
 10
7.2545963989
 20
6.2248068165
 11
7.2638287383
 21
6.231378763
  0
LINE
  5
3A9
100
AcDbEntity
  8
0
100
AcDbLine
 62
7
  6
CONTINUOUS
 10
7.26666462
 20
6.3356328529
 11
7.2760141152
 21
6.3420659465
  0
LINE
  5
3AA
100
AcDbEntity
  8
0
100
AcDbLine
 62
7
  6
CONTINUOUS
 10
6.7939917761
 20
6.0107811711
 11
6.8033481458
 21
6.0172042624
  0
LINE
  5
3AB
100
AcDbEntity
  8
0
100
AcDbLine
 62
7
  6
CONTINUOUS
 10
6.9051446831
 20
5.9928315877
 11
6.9147752991
 21
5.9988046781
  0
LINE
  5
3AC
100
AcDbEntity
  8
0
100
AcDbLine
 62
7
  6
CONTINUOUS
 10
7.2907645101
 20
6.3337361504
 11
7.3004378743
 21
6.3396711129
  0
LINE
  5
3AD
100
AcDbEntity
  8
0
100
AcDbLine
 62
7
  6
CONTINUOUS
 10
7.2787345603
 20
6.2231375196
 11
7.2883983076
 21
6.2290568574
  0
LINE
  5
3AE
100
AcDbEntity
  8
0
100
AcDbLine
 62
7
  6
CONTINUOUS
 10
6.8017380245
 20
6.0340674519
 11
6.8114177302
 21
6.0399920659
  0
LINE
  5
3AF
100
AcDbEntity
  8
0
100
AcDbLine
 62
7
  6
CONTINUOUS
 10
7.5545170517
 20
5.7000144661
 11
7.5440036241
 21
5.6957842874
  0
LINE
  5
3B0
100
AcDbEntity
  8
0
100
AcDbLine
 62
7
  6
CONTINUOUS
 10
7.1469219691
 20
5.5372985567
 11
7.1363851349
 21
5.5331270224
  0
LINE
  5
3B1
100
AcDbEntity
  8
0
100
AcDbLine
 62
7
  6
CONTINUOUS
 10
7.099809895
 20
5.4353653188
 11
7.0891139689
 21
5.431571255
  0
LINE
  5
3B2
100
AcDbEntity
  8
0
100
AcDbLine
 62
7
  6
CONTINUOUS
 10
7.6404546044
 20
5.6268112138
 11
7.6297546269
 21
5.6230285908
  0
LINE
  5
3B3
100
AcDbEntity
  8
0
100
AcDbLine
 62
7
  6
CONTINUOUS
 10
7.541734559
 20
5.6789037374
 11
7.5309543372
 21
5.6754089715
  0
LINE
  5
3B4
100
AcDbEntity
  8
0
100
AcDbLine
 62
7
  6
CONTINUOUS
 10
7.1238847077
 20
5.544695987
 11
7.113085181
 21
5.5412613406
  0
LINE
  5
3B5
100
AcDbEntity
  8
0
100
AcDbLine
 62
7
  6
CONTINUOUS
 10
7.0770220915
 20
5.4434349033
 11
7.0661422578
 21
5.4402058206
  0
LINE
  5
3B6
100
AcDbEntity
  8
0
100
AcDbLine
 62
7
  6
CONTINUOUS
 10
7.62694537
 20
5.6063232705
 11
7.6160620893
 21
5.603105825
  0
LINE
  5
3B7
100
AcDbEntity
  8
0
100
AcDbLine
 62
7
  6
CONTINUOUS
 10
3.2760141152
 20
5.4069653839
 11
3.26666462
 21
5.4133984775
  0
LINE
  5
3B8
100
AcDbEntity
  8
0
100
AcDbLine
 62
7
  6
CONTINUOUS
 10
3.2638287383
 20
5.5176525674
 11
3.2545963989
 21
5.5242245139
  0
LINE
  5
3B9
100
AcDbEntity
  8
0
100
AcDbLine
 62
7
  6
CONTINUOUS
 10
2.906981333
 20
5.7731327973
 11
2.9015904711
 21
5.7770156652
  0
LINE
  5
3BA
100
AcDbEntity
  8
0
100
AcDbLine
 62
7
  6
CONTINUOUS
 10
3.2514984922
 20
5.4058520732
 11
3.2424984922
 21
5.4127656652
  0
LINE
  5
3BB
100
AcDbEntity
  8
0
100
AcDbLine
 62
7
  6
CONTINUOUS
 10
3.2391575206
 20
5.5170312769
 11
3.2304005855
 21
5.5242245139
  0
LINE
  5
3BC
100
AcDbEntity
  8
0
100
AcDbLine
 62
7
  6
CONTINUOUS
 10
3.3071909936
 20
6.226113632
 11
3.3145822882
 21
6.2175232108
  0
LINE
  5
3BD
100
AcDbEntity
  8
0
100
AcDbLine
 62
7
  6
CONTINUOUS
 10
3.3311358036
 20
6.3348090385
 11
3.3385017154
 21
6.3261753198
  0
LINE
  5
3BE
100
AcDbEntity
  8
0
100
AcDbLine
 62
7
  6
CONTINUOUS
 10
3.5925286408
 20
5.8926580194
 11
3.5998719566
 21
5.8840265487
  0
LINE
  5
3BF
100
AcDbEntity
  8
0
100
AcDbLine
 62
7
  6
CONTINUOUS
 10
3.7042484922
 20
5.8745156652
 11
3.7111620842
 21
5.8655156652
  0
LINE
  5
3C0
100
AcDbEntity
  8
0
100
AcDbLine
 62
7
  6
CONTINUOUS
 10
3.3551042231
 20
6.329539304
 11
3.3620081862
 21
6.3205319155
  0
LINE
  5
3C1
100
AcDbEntity
  8
0
100
AcDbLine
 62
7
  6
CONTINUOUS
 10
3.331293995
 20
6.2208126601
 11
3.3380750152
 21
6.2117327737
  0
LINE
  5
3C2
100
AcDbEntity
  8
0
100
AcDbLine
 62
7
  6
CONTINUOUS
 10
3.5929462761
 20
5.8684658106
 11
3.5996765997
 21
5.8593482826
  0
LINE
  5
3C3
100
AcDbEntity
  8
0
100
AcDbLine
 62
7
  6
CONTINUOUS
 10
3.7036156798
 20
5.8503495374
 11
3.7100487734
 21
5.8410000421
  0
LINE
  5
3C4
100
AcDbEntity
  8
0
100
AcDbLine
 62
7
  6
CONTINUOUS
 10
3.3787639981
 20
6.3230223813
 11
3.3851870893
 21
6.3136660116
  0
LINE
  5
3C5
100
AcDbEntity
  8
0
100
AcDbLine
 62
7
  6
CONTINUOUS
 10
4.7367588748
 20
6.1594852942
 11
4.7351385736
 21
6.1707287017
  0
LINE
  5
3C6
100
AcDbEntity
  8
0
100
AcDbLine
 62
7
  6
CONTINUOUS
 10
4.8334859673
 20
5.4527752183
 11
4.8320230057
 21
5.4640401787
  0
LINE
  5
3C7
100
AcDbEntity
  8
0
100
AcDbLine
 62
7
  6
CONTINUOUS
 10
5.0237484922
 20
2.7495156652
 11
5.0237484922
 21
5.8745156652
  0
LINE
  5
3C8
100
AcDbEntity
  8
0
100
AcDbLine
 62
7
  6
CONTINUOUS
 10
5.6533979517
 20
6.056139443
 11
5.6560806546
 21
6.0671652367
  0
LINE
  5
3C9
100
AcDbEntity
  8
0
100
AcDbLine
 62
7
  6
CONTINUOUS
 10
5.509338834
 20
5.5044341952
 11
5.5123819544
 21
5.5153660037
  0
LINE
  5
3CA
100
AcDbEntity
  8
0
100
AcDbLine
 62
7
  6
CONTINUOUS
 10
5.6625545392
 20
6.0338219107
 11
5.6658252021
 21
6.0446878108
  0
LINE
  5
3CB
100
AcDbEntity
  8
0
100
AcDbLine
 62
7
  6
CONTINUOUS
 10
5.568787893
 20
5.3943953918
 11
5.5652400013
 21
5.3836040965
  0
LINE
  5
3CC
100
AcDbEntity
  8
0
100
AcDbLine
 62
7
  6
CONTINUOUS
 10
5.4890894231
 20
5.4906446253
 11
5.492714939
 21
5.5013973298
  0
LINE
  5
3CD
100
AcDbEntity
  8
0
100
AcDbLine
 62
7
  6
CONTINUOUS
 10
5.7963764599
 20
6.070412186
 11
5.7926780542
 21
6.0596715442
  0
LINE
  5
3CE
100
AcDbEntity
  8
0
100
AcDbLine
 62
7
  6
CONTINUOUS
 10
5.6704999964
 20
6.0110450572
 11
5.6743491891
 21
6.0217197345
  0
LINE
  5
3CF
100
AcDbEntity
  8
0
100
AcDbLine
 62
7
  6
CONTINUOUS
 10
5.5483963314
 20
5.3811529569
 11
5.5443996593
 21
5.3705196977
  0
LINE
  5
3D0
100
AcDbEntity
  8
0
100
AcDbLine
 62
7
  6
CONTINUOUS
 10
5.8040939097
 20
6.0470463495
 11
5.7999489767
 21
6.0364700023
  0
LINE
  5
3D1
100
AcDbEntity
  8
0
100
AcDbLine
 62
7
  6
CONTINUOUS
 10
5.4681290267
 20
5.477961855
 11
5.4723264849
 21
5.4885044526
  0
LINE
  5
3D2
100
AcDbEntity
  8
0
100
AcDbLine
 62
7
  6
CONTINUOUS
 10
5.6772114144
 20
5.9878745542
 11
5.6816280388
 21
5.9983272309
  0
LINE
  5
3D3
100
AcDbEntity
  8
0
100
AcDbLine
 62
7
  6
CONTINUOUS
 10
5.5274681211
 20
5.3687760478
 11
5.5230296801
 21
5.3583194791
  0
LINE
  5
3D4
100
AcDbEntity
  8
0
100
AcDbLine
 62
7
  6
CONTINUOUS
 10
5.8108261303
 20
6.0233778355
 11
5.8062419416
 21
6.0129843373
  0
LINE
  5
3D5
100
AcDbEntity
  8
0
100
AcDbLine
 62
7
  6
CONTINUOUS
 10
5.5060399773
 20
5.3572863779
 11
5.5011675538
 21
5.3470248439
  0
LINE
  5
3D6
100
AcDbEntity
  8
0
100
AcDbLine
 62
7
  6
CONTINUOUS
 10
5.8165613111
 20
5.9994481667
 11
5.811545909
 21
5.9892557513
  0
LINE
  5
3D7
100
AcDbEntity
  8
0
100
AcDbLine
 62
7
  6
CONTINUOUS
 10
5.4841494921
 20
5.3467041039
 11
5.4788516341
 21
5.3366556069
  0
LINE
  5
3D8
100
AcDbEntity
  8
0
100
AcDbLine
 62
7
  6
CONTINUOUS
 10
5.8212893906
 20
5.9752993238
 11
5.8158515739
 21
5.9653258722
  0
LINE
  5
3D9
100
AcDbEntity
  8
0
100
AcDbLine
 62
7
  6
CONTINUOUS
 10
5.4618350689
 20
5.3370477907
 11
5.4612484922
 21
5.3360399305
  0
LINE
  5
3DA
100
AcDbEntity
  8
0
100
AcDbLine
 62
7
  6
CONTINUOUS
 10
7.1942324742
 20
6.3337361504
 11
7.2024605042
 21
6.3415526252
  0
LINE
  5
3DB
100
AcDbEntity
  8
0
100
AcDbLine
 62
7
  6
CONTINUOUS
 10
6.7781970165
 20
5.9389416084
 11
6.7864334009
 21
5.9467492794
  0
LINE
  5
3DC
100
AcDbEntity
  8
0
100
AcDbLine
 62
7
  6
CONTINUOUS
 10
7.2183323644
 20
6.3356328529
 11
7.2269582007
 21
6.3430079937
  0
LINE
  5
3DD
100
AcDbEntity
  8
0
100
AcDbLine
 62
7
  6
CONTINUOUS
 10
6.7822051188
 20
5.9631529766
 11
6.7908388375
 21
5.9705188884
  0
LINE
  5
3DE
100
AcDbEntity
  8
0
100
AcDbLine
 62
7
  6
CONTINUOUS
 10
6.892069539
 20
5.9452673352
 11
6.9007862589
 21
5.9525092525
  0
LINE
  5
3DF
100
AcDbEntity
  8
0
100
AcDbLine
 62
7
  6
CONTINUOUS
 10
7.2304005855
 20
6.2248068165
 11
7.2391575206
 21
6.2320000535
  0
LINE
  5
3E0
100
AcDbEntity
  8
0
100
AcDbLine
 62
7
  6
CONTINUOUS
 10
6.8977857545
 20
5.9692752478
 11
6.906981333
 21
5.9758985331
  0
LINE
  5
3E1
100
AcDbEntity
  8
0
100
AcDbLine
 62
7
  6
CONTINUOUS
 10
7.5658126339
 20
5.7219567724
 11
7.5556161018
 21
5.7170113397
  0
LINE
  5
3E2
100
AcDbEntity
  8
0
100
AcDbLine
 62
7
  6
CONTINUOUS
 10
7.1704146961
 20
5.5315081196
 11
7.1601907673
 21
5.5266195766
  0
LINE
  5
3E3
100
AcDbEntity
  8
0
100
AcDbLine
 62
7
  6
CONTINUOUS
 10
7.1464952689
 20
5.4228560106
 11
7.1362545239
 21
5.4179647023
  0
LINE
  5
3E4
100
AcDbEntity
  8
0
100
AcDbLine
 62
7
  6
CONTINUOUS
 10
7.6641667248
 20
5.6697659056
 11
7.6539207547
 21
5.6648855519
  0
LINE
  5
3E5
100
AcDbEntity
  8
0
100
AcDbLine
 62
7
  6
CONTINUOUS
 10
7.1229887981
 20
5.4284994149
 11
7.1125060964
 21
5.4241507692
  0
LINE
  5
3E6
100
AcDbEntity
  8
0
100
AcDbLine
 62
7
  6
CONTINUOUS
 10
7.6528730687
 20
5.6479780978
 11
7.6423857224
 21
5.6436406652
  0
LINE
  5
3E7
100
AcDbEntity
  8
0
100
AcDbLine
 62
7
  6
CONTINUOUS
 10
2.8310762296
 20
5.6648855519
 11
2.8208302595
 21
5.6697659056
  0
LINE
  5
3E8
100
AcDbEntity
  8
0
100
AcDbLine
 62
7
  6
CONTINUOUS
 10
3.3487424604
 20
5.4179647023
 11
3.3385017154
 21
5.4228560106
  0
LINE
  5
3E9
100
AcDbEntity
  8
0
100
AcDbLine
 62
7
  6
CONTINUOUS
 10
3.3127491434
 20
5.5239859289
 11
3.3027000403
 21
5.5292244495
  0
LINE
  5
3EA
100
AcDbEntity
  8
0
100
AcDbLine
 62
7
  6
CONTINUOUS
 10
2.9241310155
 20
5.727912801
 11
2.9141112563
 21
5.7332072319
  0
LINE
  5
3EB
100
AcDbEntity
  8
0
100
AcDbLine
 62
7
  6
CONTINUOUS
 10
2.8206688771
 20
5.6867050203
 11
2.8106923667
 21
5.6921149182
  0
LINE
  5
3EC
100
AcDbEntity
  8
0
100
AcDbLine
 62
7
  6
CONTINUOUS
 10
3.3247028255
 20
5.4130300099
 11
3.3147321064
 21
5.4184505739
  0
LINE
  5
3ED
100
AcDbEntity
  8
0
100
AcDbLine
 62
7
  6
CONTINUOUS
 10
3.2883983076
 20
5.519974473
 11
3.2787345603
 21
5.5258938108
  0
LINE
  5
3EE
100
AcDbEntity
  8
0
100
AcDbLine
 62
7
  6
CONTINUOUS
 10
3.3004378743
 20
5.4093602175
 11
3.2907645101
 21
5.41529518
  0
LINE
  5
3EF
100
AcDbEntity
  8
0
100
AcDbLine
 62
7
  6
CONTINUOUS
 10
2.9147752991
 20
5.7502266523
 11
2.9051446831
 21
5.7561997427
  0
LINE
  5
3F0
100
AcDbEntity
  8
0
100
AcDbLine
 62
7
  6
CONTINUOUS
 10
3.2581764538
 20
6.2316717257
 11
3.2666798883
 21
6.2241805191
  0
LINE
  5
3F1
100
AcDbEntity
  8
0
100
AcDbLine
 62
7
  6
CONTINUOUS
 10
3.5866991504
 20
5.9406681924
 11
3.5951607134
 21
5.9331297227
  0
LINE
  5
3F2
100
AcDbEntity
  8
0
100
AcDbLine
 62
7
  6
CONTINUOUS
 10
3.6985635834
 20
5.9467492794
 11
3.7067999679
 21
5.9389416084
  0
LINE
  5
3F3
100
AcDbEntity
  8
0
100
AcDbLine
 62
7
  6
CONTINUOUS
 10
3.2825364802
 20
6.3415526252
 11
3.2907645101
 21
6.3337361504
  0
LINE
  5
3F4
100
AcDbEntity
  8
0
100
AcDbLine
 62
7
  6
CONTINUOUS
 10
3.2827797028
 20
6.2297390795
 11
3.290746049
 21
6.2216790608
  0
LINE
  5
3F5
100
AcDbEntity
  8
0
100
AcDbLine
 62
7
  6
CONTINUOUS
 10
3.5904429525
 20
5.9167637716
 11
3.5983642662
 21
5.9086594912
  0
LINE
  5
3F6
100
AcDbEntity
  8
0
100
AcDbLine
 62
7
  6
CONTINUOUS
 10
3.7017189773
 20
5.9227816831
 11
3.7095354522
 21
5.9145536532
  0
LINE
  5
3F7
100
AcDbEntity
  8
0
100
AcDbLine
 62
7
  6
CONTINUOUS
 10
3.3069244354
 20
6.3388171409
 11
3.3147321064
 21
6.3305807565
  0
LINE
  5
3F8
100
AcDbEntity
  8
0
100
AcDbLine
 62
7
  6
CONTINUOUS
 10
3.7036156798
 20
5.898681793
 11
3.7109908206
 21
5.8900559566
  0
LINE
  5
3F9
100
AcDbEntity
  8
0
100
AcDbLine
 62
7
  6
CONTINUOUS
 10
4.6885619815
 20
6.0481088451
 11
4.6846394518
 21
6.0587696777
  0
LINE
  5
3FA
100
AcDbEntity
  8
0
100
AcDbLine
 62
7
  6
CONTINUOUS
 10
4.9301086417
 20
5.3769527733
 11
4.9263355323
 21
5.3876674005
  0
LINE
  5
3FB
100
AcDbEntity
  8
0
100
AcDbLine
 62
7
  6
CONTINUOUS
 10
4.6963172058
 20
6.0711530279
 11
4.6928445462
 21
6.0819687676
  0
LINE
  5
3FC
100
AcDbEntity
  8
0
100
AcDbLine
 62
7
  6
CONTINUOUS
 10
4.9095468893
 20
5.3904707497
 11
4.9062257716
 21
5.4013339798
  0
LINE
  5
3FD
100
AcDbEntity
  8
0
100
AcDbLine
 62
7
  6
CONTINUOUS
 10
4.97261503
 20
5.5153660037
 11
4.9756581503
 21
5.5044341952
  0
LINE
  5
3FE
100
AcDbEntity
  8
0
100
AcDbLine
 62
7
  6
CONTINUOUS
 10
4.7050306177
 20
6.0938522419
 11
4.7020139204
 21
6.1048039143
  0
LINE
  5
3FF
100
AcDbEntity
  8
0
100
AcDbLine
 62
7
  6
CONTINUOUS
 10
4.8895692472
 20
5.4048379054
 11
4.8867059475
 21
5.4158306805
  0
LINE
  5
400
100
AcDbEntity
  8
0
100
AcDbLine
 62
7
  6
CONTINUOUS
 10
4.8289163297
 20
6.0671652367
 11
4.8315990326
 21
6.056139443
  0
LINE
  5
401
100
AcDbEntity
  8
0
100
AcDbLine
 62
7
  6
CONTINUOUS
 10
4.7146869309
 20
6.1161666651
 11
4.7121314882
 21
6.1272350571
  0
LINE
  5
402
100
AcDbEntity
  8
0
100
AcDbLine
 62
7
  6
CONTINUOUS
 10
4.9537261585
 20
5.5303701991
 11
4.9561781092
 21
5.5192908057
  0
LINE
  5
403
100
AcDbEntity
  8
0
100
AcDbLine
 62
7
  6
CONTINUOUS
 10
4.8702107629
 20
5.4200290354
 11
4.8678103044
 21
5.4311320706
  0
LINE
  5
404
100
AcDbEntity
  8
0
100
AcDbLine
 62
7
  6
CONTINUOUS
 10
4.7252692049
 20
6.1380571503
 11
4.7231794999
 21
6.1492228443
  0
LINE
  5
405
100
AcDbEntity
  8
0
100
AcDbLine
 62
7
  6
CONTINUOUS
 10
4.8398533416
 20
6.089087204
 11
4.8419403497
 21
6.077933307
  0
LINE
  5
406
100
AcDbEntity
  8
0
100
AcDbLine
 62
7
  6
CONTINUOUS
 10
4.8515053977
 20
5.4360174895
 11
4.8495719918
 21
5.4472113061
  0
LINE
  5
407
100
AcDbEntity
  8
0
100
AcDbLine
 62
7
  6
CONTINUOUS
 10
4.9356698925
 20
5.546366655
 11
4.9375236038
 21
5.5351716215
  0
LINE
  5
408
100
AcDbEntity
  8
0
100
AcDbLine
 62
7
  6
CONTINUOUS
 10
4.8519512837
 20
6.110390506
 11
4.8534365795
 21
6.0991406652
  0
LINE
  5
409
100
AcDbEntity
  8
0
100
AcDbLine
 62
7
  6
CONTINUOUS
 10
4.9184982927
 20
5.5633092494
 11
4.91974842
 21
5.552030854
  0
LINE
  5
40A
100
AcDbEntity
  8
0
100
AcDbLine
 62
7
  6
CONTINUOUS
 10
5.4612484922
 20
2.7495156652
 11
5.4612484922
 21
5.8745156652
  0
LINE
  5
40B
100
AcDbEntity
  8
0
100
AcDbLine
 62
7
  6
CONTINUOUS
 10
5.6052390274
 20
6.1395531466
 11
5.6055097984
 21
6.1508973832
  0
LINE
  5
40C
100
AcDbEntity
  8
0
100
AcDbLine
 62
7
  6
CONTINUOUS
 10
5.5820931761
 20
5.5698198937
 11
5.5827361149
 21
5.5811491324
  0
LINE
  5
40D
100
AcDbEntity
  8
0
100
AcDbLine
 62
7
  6
CONTINUOUS
 10
5.6189424088
 20
6.1197003714
 11
5.6198217097
 21
6.1310137197
  0
LINE
  5
40E
100
AcDbEntity
  8
0
100
AcDbLine
 62
7
  6
CONTINUOUS
 10
5.6614803046
 20
5.4727265528
 11
5.6602535793
 21
5.461433425
  0
LINE
  5
40F
100
AcDbEntity
  8
0
100
AcDbLine
 62
7
  6
CONTINUOUS
 10
5.5652485643
 20
5.552030854
 11
5.5664986916
 21
5.5633092494
  0
LINE
  5
410
100
AcDbEntity
  8
0
100
AcDbLine
 62
7
  6
CONTINUOUS
 10
5.7435437205
 20
6.1812890818
 11
5.7421592388
 21
6.170014207
  0
LINE
  5
411
100
AcDbEntity
  8
0
100
AcDbLine
 62
7
  6
CONTINUOUS
 10
5.6315604048
 20
6.0991406652
 11
5.6330457006
 21
6.110390506
  0
LINE
  5
412
100
AcDbEntity
  8
0
100
AcDbLine
 62
7
  6
CONTINUOUS
 10
5.6442876046
 20
5.4555338528
 11
5.6425890483
 21
5.4443020009
  0
LINE
  5
413
100
AcDbEntity
  8
0
100
AcDbLine
 62
7
  6
CONTINUOUS
 10
5.5474733805
 20
5.5351716215
 11
5.5493270919
 21
5.546366655
  0
LINE
  5
414
100
AcDbEntity
  8
0
100
AcDbLine
 62
7
  6
CONTINUOUS
 10
5.7559505561
 20
6.1600383929
 11
5.7540951461
 21
6.1488313842
  0
LINE
  5
415
100
AcDbEntity
  8
0
100
AcDbLine
 62
7
  6
CONTINUOUS
 10
5.6430566347
 20
6.077933307
 11
5.6451436427
 21
6.089087204
  0
LINE
  5
416
100
AcDbEntity
  8
0
100
AcDbLine
 62
7
  6
CONTINUOUS
 10
5.62639003
 20
5.4390761893
 11
5.6242226224
 21
5.4279253178
  0
LINE
  5
417
100
AcDbEntity
  8
0
100
AcDbLine
 62
7
  6
CONTINUOUS
 10
5.7674566223
 20
6.1382868001
 11
5.765133539
 21
6.1271673184
  0
LINE
  5
418
100
AcDbEntity
  8
0
100
AcDbLine
 62
7
  6
CONTINUOUS
 10
5.5288188751
 20
5.5192908057
 11
5.5312708258
 21
5.5303701991
  0
LINE
  5
419
100
AcDbEntity
  8
0
100
AcDbLine
 62
7
  6
CONTINUOUS
 10
5.6078189792
 20
5.4233824346
 11
5.6051865228
 21
5.4123321059
  0
LINE
  5
41A
100
AcDbEntity
  8
0
100
AcDbLine
 62
7
  6
CONTINUOUS
 10
5.7780417335
 20
6.1160724631
 11
5.7752550524
 21
6.1050600157
  0
LINE
  5
41B
100
AcDbEntity
  8
0
100
AcDbLine
 62
7
  6
CONTINUOUS
 10
5.5886070321
 20
5.4084801208
 11
5.5855141451
 21
5.3975497211
  0
LINE
  5
41C
100
AcDbEntity
  8
0
100
AcDbLine
 62
7
  6
CONTINUOUS
 10
5.7876873199
 20
6.0934343534
 11
5.7844419297
 21
6.0825482599
  0
LINE
  5
41D
100
AcDbEntity
  8
0
100
AcDbLine
 62
7
  6
CONTINUOUS
 10
7.1464952689
 20
6.3261753198
 11
7.1538611807
 21
6.3348090385
  0
LINE
  5
41E
100
AcDbEntity
  8
0
100
AcDbLine
 62
7
  6
CONTINUOUS
 10
6.7740061637
 20
5.8900559566
 11
6.7813813045
 21
5.898681793
  0
LINE
  5
41F
100
AcDbEntity
  8
0
100
AcDbLine
 62
7
  6
CONTINUOUS
 10
6.885666251
 20
5.8963560337
 11
6.8933031163
 21
5.9047288983
  0
LINE
  5
420
100
AcDbEntity
  8
0
100
AcDbLine
 62
7
  6
CONTINUOUS
 10
7.1822969441
 20
6.2198068808
 11
7.1899803427
 21
6.2281370644
  0
LINE
  5
421
100
AcDbEntity
  8
0
100
AcDbLine
 62
7
  6
CONTINUOUS
 10
7.1702648779
 20
6.3305807565
 11
7.1780725489
 21
6.3388171409
  0
LINE
  5
422
100
AcDbEntity
  8
0
100
AcDbLine
 62
7
  6
CONTINUOUS
 10
6.7754615321
 20
5.9145536532
 11
6.783278007
 21
5.9227816831
  0
LINE
  5
423
100
AcDbEntity
  8
0
100
AcDbLine
 62
7
  6
CONTINUOUS
 10
6.8880232771
 20
5.9209222587
 11
6.8962195993
 21
5.928748297
  0
LINE
  5
424
100
AcDbEntity
  8
0
100
AcDbLine
 62
7
  6
CONTINUOUS
 10
7.2062624241
 20
6.2231375196
 11
7.2145022241
 21
6.2309177681
  0
LINE
  5
425
100
AcDbEntity
  8
0
100
AcDbLine
 62
7
  6
CONTINUOUS
 10
7.5837350946
 20
5.7679143933
 11
7.5743163851
 21
5.7616124503
  0
LINE
  5
426
100
AcDbEntity
  8
0
100
AcDbLine
 62
7
  6
CONTINUOUS
 10
7.218317096
 20
5.5248508113
 11
7.2088634196
 21
5.5186014453
  0
LINE
  5
427
100
AcDbEntity
  8
0
100
AcDbLine
 62
7
  6
CONTINUOUS
 10
7.1942324742
 20
5.41529518
 11
7.18455911
 21
5.4093602175
  0
LINE
  5
428
100
AcDbEntity
  8
0
100
AcDbLine
 62
7
  6
CONTINUOUS
 10
7.5755674769
 20
5.7446260914
 11
7.5657364314
 21
5.7389889718
  0
LINE
  5
429
100
AcDbEntity
  8
0
100
AcDbLine
 62
7
  6
CONTINUOUS
 10
7.1942509353
 20
5.5273522696
 11
7.1843886335
 21
5.5217700142
  0
LINE
  5
42A
100
AcDbEntity
  8
0
100
AcDbLine
 62
7
  6
CONTINUOUS
 10
7.1702648779
 20
5.4184505739
 11
7.1602941588
 21
5.4130300099
  0
LINE
  5
42B
100
AcDbEntity
  8
0
100
AcDbLine
 62
7
  6
CONTINUOUS
 10
7.6743046176
 20
5.6921149182
 11
7.6643281072
 21
5.6867050203
  0
LINE
  5
42C
100
AcDbEntity
  8
0
100
AcDbLine
 62
7
  6
CONTINUOUS
 10
2.8552423574
 20
5.6230285908
 11
2.8445423799
 21
5.6268112138
  0
LINE
  5
42D
100
AcDbEntity
  8
0
100
AcDbLine
 62
7
  6
CONTINUOUS
 10
3.3958830154
 20
5.431571255
 11
3.3851870893
 21
5.4353653188
  0
LINE
  5
42E
100
AcDbEntity
  8
0
100
AcDbLine
 62
7
  6
CONTINUOUS
 10
2.842611262
 20
5.6436406652
 11
2.8321239156
 21
5.6479780978
  0
LINE
  5
42F
100
AcDbEntity
  8
0
100
AcDbLine
 62
7
  6
CONTINUOUS
 10
3.372490888
 20
5.4241507692
 11
3.3620081862
 21
5.4284994149
  0
LINE
  5
430
100
AcDbEntity
  8
0
100
AcDbLine
 62
7
  6
CONTINUOUS
 10
3.3367652029
 20
5.5296678187
 11
3.3263786325
 21
5.5342005582
  0
LINE
  5
431
100
AcDbEntity
  8
0
100
AcDbLine
 62
7
  6
CONTINUOUS
 10
2.9350038978
 20
5.7062975792
 11
2.9246427442
 21
5.7108881202
  0
LINE
  5
432
100
AcDbEntity
  8
0
100
AcDbLine
 62
7
  6
CONTINUOUS
 10
3.2334984922
 20
6.2319023605
 11
3.2424984922
 21
6.2250156652
  0
LINE
  5
433
100
AcDbEntity
  8
0
100
AcDbLine
 62
7
  6
CONTINUOUS
 10
3.6885147424
 20
5.9940253593
 11
3.697522131
 21
5.9871213961
  0
LINE
  5
434
100
AcDbEntity
  8
0
100
AcDbLine
 62
7
  6
CONTINUOUS
 10
3.2334984922
 20
6.3431792572
 11
3.2424984922
 21
6.3362656652
  0
LINE
  5
435
100
AcDbEntity
  8
0
100
AcDbLine
 62
7
  6
CONTINUOUS
 10
3.5813150754
 20
5.9642573663
 11
3.5902765644
 21
5.9573206316
  0
LINE
  5
436
100
AcDbEntity
  8
0
100
AcDbLine
 62
7
  6
CONTINUOUS
 10
3.6941581468
 20
5.9705188884
 11
3.7027918655
 21
5.9631529766
  0
LINE
  5
437
100
AcDbEntity
  8
0
100
AcDbLine
 62
7
  6
CONTINUOUS
 10
3.2580387836
 20
6.3430079937
 11
3.26666462
 21
6.3356328529
  0
LINE
  5
438
100
AcDbEntity
  8
0
100
AcDbLine
 62
7
  6
CONTINUOUS
 10
4.6645747717
 20
5.9291455411
 11
4.658521447
 21
5.9387578691
  0
LINE
  5
439
100
AcDbEntity
  8
0
100
AcDbLine
 62
7
  6
CONTINUOUS
 10
4.6673693708
 20
5.953298555
 11
4.6617238784
 21
5.9631559383
  0
LINE
  5
43A
100
AcDbEntity
  8
0
100
AcDbLine
 62
7
  6
CONTINUOUS
 10
4.792626955
 20
5.9505397571
 11
4.7981386404
 21
5.940620768
  0
LINE
  5
43B
100
AcDbEntity
  8
0
100
AcDbLine
 62
7
  6
CONTINUOUS
 10
5.0174612775
 20
5.3318237618
 11
5.0119541416
 21
5.341759105
  0
LINE
  5
43C
100
AcDbEntity
  8
0
100
AcDbLine
 62
7
  6
CONTINUOUS
 10
4.6711729417
 20
5.977313357
 11
4.6659451858
 21
5.9873985023
  0
LINE
  5
43D
100
AcDbEntity
  8
0
100
AcDbLine
 62
7
  6
CONTINUOUS
 10
4.9949330951
 20
5.3417233753
 11
4.989846839
 21
5.3518806184
  0
LINE
  5
43E
100
AcDbEntity
  8
0
100
AcDbLine
 62
7
  6
CONTINUOUS
 10
4.7973562201
 20
5.9745777464
 11
4.8023275417
 21
5.9643772081
  0
LINE
  5
43F
100
AcDbEntity
  8
0
100
AcDbLine
 62
7
  6
CONTINUOUS
 10
4.6759788119
 20
6.0011478168
 11
4.6711779636
 21
6.0114430315
  0
LINE
  5
440
100
AcDbEntity
  8
0
100
AcDbLine
 62
7
  6
CONTINUOUS
 10
4.9728392266
 20
5.3525576875
 11
4.9681827732
 21
5.3629190113
  0
LINE
  5
441
100
AcDbEntity
  8
0
100
AcDbLine
 62
7
  6
CONTINUOUS
 10
4.8033689456
 20
5.9983272309
 11
4.8077855699
 21
5.9878745542
  0
LINE
  5
442
100
AcDbEntity
  8
0
100
AcDbLine
 62
7
  6
CONTINUOUS
 10
4.68177855
 20
6.0247601209
 11
4.6774130318
 21
6.0352473436
  0
LINE
  5
443
100
AcDbEntity
  8
0
100
AcDbLine
 62
7
  6
CONTINUOUS
 10
4.9512184321
 20
5.3643076913
 11
4.9469999503
 21
5.3748549185
  0
LINE
  5
444
100
AcDbEntity
  8
0
100
AcDbLine
 62
7
  6
CONTINUOUS
 10
5.0126704994
 20
5.4885044526
 11
5.0168679576
 21
5.477961855
  0
LINE
  5
445
100
AcDbEntity
  8
0
100
AcDbLine
 62
7
  6
CONTINUOUS
 10
4.8106477952
 20
6.0217197345
 11
4.8144969879
 21
6.0110450572
  0
LINE
  5
446
100
AcDbEntity
  8
0
100
AcDbLine
 62
7
  6
CONTINUOUS
 10
4.9922820453
 20
5.5013973298
 11
4.9959075612
 21
5.4906446253
  0
LINE
  5
447
100
AcDbEntity
  8
0
100
AcDbLine
 62
7
  6
CONTINUOUS
 10
4.8191717822
 20
6.0446878108
 11
4.8224424451
 21
6.0338219107
  0
LINE
  5
448
100
AcDbEntity
  8
0
100
AcDbLine
 62
7
  6
CONTINUOUS
 10
5.6265721531
 20
5.6282404422
 11
5.6253894284
 21
5.6395261049
  0
LINE
  5
449
100
AcDbEntity
  8
0
100
AcDbLine
 62
7
  6
CONTINUOUS
 10
5.7358612004
 20
5.5686178259
 11
5.7370092553
 21
5.5573164296
  0
LINE
  5
44A
100
AcDbEntity
  8
0
100
AcDbLine
 62
7
  6
CONTINUOUS
 10
5.6688129004
 20
6.2787585072
 11
5.6698028512
 21
6.2674421656
  0
LINE
  5
44B
100
AcDbEntity
  8
0
100
AcDbLine
 62
7
  6
CONTINUOUS
 10
5.5747371661
 20
6.1769111447
 11
5.5737902917
 21
6.1882190379
  0
LINE
  5
44C
100
AcDbEntity
  8
0
100
AcDbLine
 62
7
  6
CONTINUOUS
 10
5.7226187655
 20
5.5482262644
 11
5.72329256
 21
5.5368867057
  0
LINE
  5
44D
100
AcDbEntity
  8
0
100
AcDbLine
 62
7
  6
CONTINUOUS
 10
5.6127992372
 20
5.6079797001
 11
5.6122239939
 21
5.6193125777
  0
LINE
  5
44E
100
AcDbEntity
  8
0
100
AcDbLine
 62
7
  6
CONTINUOUS
 10
5.6853668835
 20
6.260551723
 11
5.6858820868
 21
6.2492038529
  0
LINE
  5
44F
100
AcDbEntity
  8
0
100
AcDbLine
 62
7
  6
CONTINUOUS
 10
5.5904897713
 20
6.1586417502
 11
5.5901512315
 21
6.1699841667
  0
LINE
  5
450
100
AcDbEntity
  8
0
100
AcDbLine
 62
7
  6
CONTINUOUS
 10
5.7085340365
 20
5.5284071253
 11
5.7087323885
 21
5.5170492978
  0
LINE
  5
451
100
AcDbEntity
  8
0
100
AcDbLine
 62
7
  6
CONTINUOUS
 10
5.701143925
 20
6.2416677004
 11
5.7011834768
 21
6.2303082098
  0
LINE
  5
452
100
AcDbEntity
  8
0
100
AcDbLine
 62
7
  6
CONTINUOUS
 10
5.5979586485
 20
5.5884874502
 11
5.5979925451
 21
5.5998348672
  0
LINE
  5
453
100
AcDbEntity
  8
0
100
AcDbLine
 62
7
  6
CONTINUOUS
 10
5.6936317228
 20
5.5091951782
 11
5.6933542844
 21
5.4978390073
  0
LINE
  5
454
100
AcDbEntity
  8
0
100
AcDbLine
 62
7
  6
CONTINUOUS
 10
5.7161163465
 20
6.2221395683
 11
5.7156801776
 21
6.2107883857
  0
LINE
  5
455
100
AcDbEntity
  8
0
100
AcDbLine
 62
7
  6
CONTINUOUS
 10
5.6779379681
 20
5.4906241274
 11
5.677185226
 21
5.4792895357
  0
LINE
  5
456
100
AcDbEntity
  8
0
100
AcDbLine
 62
7
  6
CONTINUOUS
 10
5.7302578814
 20
6.2020015858
 11
5.7293467569
 21
6.190678625
  0
LINE
  5
457
100
AcDbEntity
  8
0
100
AcDbLine
 62
7
  6
CONTINUOUS
 10
6.7773430445
 20
5.8165762831
 11
6.783278007
 21
5.8262496473
  0
LINE
  5
458
100
AcDbEntity
  8
0
100
AcDbLine
 62
7
  6
CONTINUOUS
 10
6.8860567321
 20
5.847028911
 11
6.8924683435
 21
5.856373311
  0
LINE
  5
459
100
AcDbEntity
  8
0
100
AcDbLine
 62
7
  6
CONTINUOUS
 10
7.099809895
 20
6.3136660116
 11
7.1062329862
 21
6.3230223813
  0
LINE
  5
45A
100
AcDbEntity
  8
0
100
AcDbLine
 62
7
  6
CONTINUOUS
 10
6.7749482109
 20
5.8410000421
 11
6.7813813045
 21
5.8503495374
  0
LINE
  5
45B
100
AcDbEntity
  8
0
100
AcDbLine
 62
7
  6
CONTINUOUS
 10
7.1353394867
 20
6.2082329071
 11
7.1418030637
 21
6.2175414378
  0
LINE
  5
45C
100
AcDbEntity
  8
0
100
AcDbLine
 62
7
  6
CONTINUOUS
 10
7.1229887981
 20
6.3205319155
 11
7.1298927612
 21
6.329539304
  0
LINE
  5
45D
100
AcDbEntity
  8
0
100
AcDbLine
 62
7
  6
CONTINUOUS
 10
6.7738349001
 20
5.8655156652
 11
6.7807484922
 21
5.8745156652
  0
LINE
  5
45E
100
AcDbEntity
  8
0
100
AcDbLine
 62
7
  6
CONTINUOUS
 10
6.8850096931
 20
5.8716857294
 11
6.8920507082
 21
5.8805655198
  0
LINE
  5
45F
100
AcDbEntity
  8
0
100
AcDbLine
 62
7
  6
CONTINUOUS
 10
7.1586183518
 20
6.2148307722
 11
7.1657087341
 21
6.2236711937
  0
LINE
  5
460
100
AcDbEntity
  8
0
100
AcDbLine
 62
7
  6
CONTINUOUS
 10
7.2666798883
 20
5.5248508113
 11
7.2581764538
 21
5.5173596047
  0
LINE
  5
461
100
AcDbEntity
  8
0
100
AcDbLine
 62
7
  6
CONTINUOUS
 10
7.26666462
 20
5.4133984775
 11
7.2580387836
 21
5.4060233367
  0
LINE
  5
462
100
AcDbEntity
  8
0
100
AcDbLine
 62
7
  6
CONTINUOUS
 10
7.2424984922
 20
5.4127656652
 11
7.2334984922
 21
5.4058520732
  0
LINE
  5
463
100
AcDbEntity
  8
0
100
AcDbLine
 62
7
  6
CONTINUOUS
 10
7.2424984922
 20
5.5240156652
 11
7.2334984922
 21
5.5171289699
  0
LINE
  5
464
100
AcDbEntity
  8
0
100
AcDbLine
 62
7
  6
CONTINUOUS
 10
7.2183323644
 20
5.4133984775
 11
7.2089828691
 21
5.4069653839
  0
LINE
  5
465
100
AcDbEntity
  8
0
100
AcDbLine
 62
7
  6
CONTINUOUS
 10
7.5275260702
 20
5.6587251887
 11
7.5165304268
 21
5.6559824896
  0
LINE
  5
466
100
AcDbEntity
  8
0
100
AcDbLine
 62
7
  6
CONTINUOUS
 10
7.101412695
 20
5.5536651582
 11
7.0904019404
 21
5.5509837673
  0
LINE
  5
467
100
AcDbEntity
  8
0
100
AcDbLine
 62
7
  6
CONTINUOUS
 10
7.0546878472
 20
5.4526860501
 11
7.0436539269
 21
5.4500307993
  0
LINE
  5
468
100
AcDbEntity
  8
0
100
AcDbLine
 62
7
  6
CONTINUOUS
 10
7.6123823935
 20
5.5865704238
 11
7.6013456399
 21
5.5839269746
  0
LINE
  5
469
100
AcDbEntity
  8
0
100
AcDbLine
 62
7
  6
CONTINUOUS
 10
2.8836513445
 20
5.5839269746
 11
2.8726145908
 21
5.5865704238
  0
LINE
  5
46A
100
AcDbEntity
  8
0
100
AcDbLine
 62
7
  6
CONTINUOUS
 10
3.4413430574
 20
5.4500307993
 11
3.4303091371
 21
5.4526860501
  0
LINE
  5
46B
100
AcDbEntity
  8
0
100
AcDbLine
 62
7
  6
CONTINUOUS
 10
3.3833373438
 20
5.5459267611
 11
3.3724257013
 21
5.548986603
  0
LINE
  5
46C
100
AcDbEntity
  8
0
100
AcDbLine
 62
7
  6
CONTINUOUS
 10
2.9610869206
 20
5.665571229
 11
2.9501924964
 21
5.668691821
  0
LINE
  5
46D
100
AcDbEntity
  8
0
100
AcDbLine
 62
7
  6
CONTINUOUS
 10
2.868934895
 20
5.603105825
 11
2.8580516143
 21
5.6063232705
  0
LINE
  5
46E
100
AcDbEntity
  8
0
100
AcDbLine
 62
7
  6
CONTINUOUS
 10
3.4188547265
 20
5.4402058206
 11
3.4079748929
 21
5.4434349033
  0
LINE
  5
46F
100
AcDbEntity
  8
0
100
AcDbLine
 62
7
  6
CONTINUOUS
 10
3.3603320386
 20
5.5369930655
 11
3.3496574976
 21
5.5407984233
  0
LINE
  5
470
100
AcDbEntity
  8
0
100
AcDbLine
 62
7
  6
CONTINUOUS
 10
2.947342132
 20
5.6854839931
 11
2.9366889595
 21
5.6893487683
  0
LINE
  5
471
100
AcDbEntity
  8
0
100
AcDbLine
 62
7
  6
CONTINUOUS
 10
3.1843886335
 20
6.2272613162
 11
3.1942509353
 21
6.2216790608
  0
LINE
  5
472
100
AcDbEntity
  8
0
100
AcDbLine
 62
7
  6
CONTINUOUS
 10
3.5657364314
 20
6.0100423586
 11
3.5755674769
 21
6.004405239
  0
LINE
  5
473
100
AcDbEntity
  8
0
100
AcDbLine
 62
7
  6
CONTINUOUS
 10
3.6735792541
 20
6.0399920659
 11
3.6832589598
 21
6.0340674519
  0
LINE
  5
474
100
AcDbEntity
  8
0
100
AcDbLine
 62
7
  6
CONTINUOUS
 10
3.18455911
 20
6.3396711129
 11
3.1942324742
 21
6.3337361504
  0
LINE
  5
475
100
AcDbEntity
  8
0
100
AcDbLine
 62
7
  6
CONTINUOUS
 10
3.2088634196
 20
6.2304298851
 11
3.218317096
 21
6.2241805191
  0
LINE
  5
476
100
AcDbEntity
  8
0
100
AcDbLine
 62
7
  6
CONTINUOUS
 10
3.5743163851
 20
5.98741888
 11
3.5837350946
 21
5.9811169371
  0
LINE
  5
477
100
AcDbEntity
  8
0
100
AcDbLine
 62
7
  6
CONTINUOUS
 10
3.6816488386
 20
6.0172042624
 11
3.6910052083
 21
6.0107811711
  0
LINE
  5
478
100
AcDbEntity
  8
0
100
AcDbLine
 62
7
  6
CONTINUOUS
 10
3.2089828691
 20
6.3420659465
 11
3.2183323644
 21
6.3356328529
  0
LINE
  5
479
100
AcDbEntity
  8
0
100
AcDbLine
 62
7
  6
CONTINUOUS
 10
4.6734510753
 20
5.7597755791
 11
4.6648778411
 21
5.7672280448
  0
LINE
  5
47A
100
AcDbEntity
  8
0
100
AcDbLine
 62
7
  6
CONTINUOUS
 10
4.6691454104
 20
5.7837054582
 11
4.6608917733
 21
5.7915103967
  0
LINE
  5
47B
100
AcDbEntity
  8
0
100
AcDbLine
 62
7
  6
CONTINUOUS
 10
4.6658456017
 20
5.8077946493
 11
4.6579260413
 21
5.815938368
  0
LINE
  5
47C
100
AcDbEntity
  8
0
100
AcDbLine
 62
7
  6
CONTINUOUS
 10
4.6635574381
 20
5.8320008918
 11
4.6559858481
 21
5.8404691037
  0
LINE
  5
47D
100
AcDbEntity
  8
0
100
AcDbLine
 62
7
  6
CONTINUOUS
 10
4.7867609544
 20
5.8528971746
 11
4.7942603116
 21
5.8443810335
  0
LINE
  5
47E
100
AcDbEntity
  8
0
100
AcDbLine
 62
7
  6
CONTINUOUS
 10
4.6622849339
 20
5.8562817196
 11
4.6550745973
 21
5.8650595687
  0
LINE
  5
47F
100
AcDbEntity
  8
0
100
AcDbLine
 62
7
  6
CONTINUOUS
 10
4.7862575513
 20
5.8773907956
 11
4.7932889795
 21
5.8684843913
  0
LINE
  5
480
100
AcDbEntity
  8
0
100
AcDbLine
 62
7
  6
CONTINUOUS
 10
4.6620303213
 20
5.8805945359
 11
4.6551938876
 21
5.889666623
  0
LINE
  5
481
100
AcDbEntity
  8
0
100
AcDbLine
 62
7
  6
CONTINUOUS
 10
4.787069609
 20
5.9018761267
 11
4.7936128347
 21
5.8926051388
  0
LINE
  5
482
100
AcDbEntity
  8
0
100
AcDbLine
 62
7
  6
CONTINUOUS
 10
4.6627940472
 20
5.9048966878
 11
4.6563435098
 21
5.9142470973
  0
LINE
  5
483
100
AcDbEntity
  8
0
100
AcDbLine
 62
7
  6
CONTINUOUS
 10
4.789194786
 20
5.9262825706
 11
4.7952309435
 21
5.9166737297
  0
LINE
  5
484
100
AcDbEntity
  8
0
100
AcDbLine
 62
7
  6
CONTINUOUS
 10
5.6392376851
 20
5.6492112594
 11
5.6374508891
 21
5.6604171677
  0
LINE
  5
485
100
AcDbEntity
  8
0
100
AcDbLine
 62
7
  6
CONTINUOUS
 10
5.5580266309
 20
6.1943086547
 11
5.5564741519
 21
6.2055494211
  0
LINE
  5
486
100
AcDbEntity
  8
0
100
AcDbLine
 62
7
  6
CONTINUOUS
 10
7.0328683789
 20
6.2859379277
 11
7.0377487325
 21
6.2961838978
  0
LINE
  5
487
100
AcDbEntity
  8
0
100
AcDbLine
 62
7
  6
CONTINUOUS
 10
6.7859475293
 20
5.7682716969
 11
6.7908388375
 21
5.778512442
  0
LINE
  5
488
100
AcDbEntity
  8
0
100
AcDbLine
 62
7
  6
CONTINUOUS
 10
6.8932335477
 20
5.7982251117
 11
6.8982978339
 21
5.808363138
  0
LINE
  5
489
100
AcDbEntity
  8
0
100
AcDbLine
 62
7
  6
CONTINUOUS
 10
7.0904222416
 20
6.1903052534
 11
7.0955429363
 21
6.2004149051
  0
LINE
  5
48A
100
AcDbEntity
  8
0
100
AcDbLine
 62
7
  6
CONTINUOUS
 10
7.0546878472
 20
6.2963452803
 11
7.0600977451
 21
6.3063217907
  0
LINE
  5
48B
100
AcDbEntity
  8
0
100
AcDbLine
 62
7
  6
CONTINUOUS
 10
6.7810128368
 20
5.7923113318
 11
6.7864334009
 21
5.802282051
  0
LINE
  5
48C
100
AcDbEntity
  8
0
100
AcDbLine
 62
7
  6
CONTINUOUS
 10
6.8888023783
 20
5.8225030795
 11
6.8945540318
 21
5.8322675588
  0
LINE
  5
48D
100
AcDbEntity
  8
0
100
AcDbLine
 62
7
  6
CONTINUOUS
 10
7.112571283
 20
6.2000447274
 11
7.1183772529
 21
6.209777008
  0
LINE
  5
48E
100
AcDbEntity
  8
0
100
AcDbLine
 62
7
  6
CONTINUOUS
 10
7.0770220915
 20
6.3055964271
 11
7.0829467055
 21
6.3152761329
  0
LINE
  5
48F
100
AcDbEntity
  8
0
100
AcDbLine
 62
7
  6
CONTINUOUS
 10
7.3145822882
 20
5.5315081196
 11
7.3071909936
 21
5.5229176984
  0
LINE
  5
490
100
AcDbEntity
  8
0
100
AcDbLine
 62
7
  6
CONTINUOUS
 10
7.3147321064
 20
5.4184505739
 11
7.3069244354
 21
5.4102141895
  0
LINE
  5
491
100
AcDbEntity
  8
0
100
AcDbLine
 62
7
  6
CONTINUOUS
 10
7.290746049
 20
5.5273522696
 11
7.2827797028
 21
5.5192922509
  0
LINE
  5
492
100
AcDbEntity
  8
0
100
AcDbLine
 62
7
  6
CONTINUOUS
 10
7.2907645101
 20
5.41529518
 11
7.2825364802
 21
5.4074787052
  0
LINE
  5
493
100
AcDbEntity
  8
0
100
AcDbLine
 62
7
  6
CONTINUOUS
 10
5.7194644363
 20
5.5315000123
 11
5.7085340365
 21
5.5284071253
  0
LINE
  5
494
100
AcDbEntity
  8
0
100
AcDbLine
 62
7
  6
CONTINUOUS
 10
5.0119541416
 20
5.341759105
 11
5.0009416942
 21
5.3389724238
  0
LINE
  5
495
100
AcDbEntity
  8
0
100
AcDbLine
 62
7
  6
CONTINUOUS
 10
7.0328683789
 20
5.4630934027
 11
7.0217106151
 21
5.4610192615
  0
LINE
  5
496
100
AcDbEntity
  8
0
100
AcDbLine
 62
7
  6
CONTINUOUS
 10
7.5968055909
 20
5.5676068151
 11
7.5856456153
 21
5.5655446077
  0
LINE
  5
497
100
AcDbEntity
  8
0
100
AcDbLine
 62
7
  6
CONTINUOUS
 10
7.5119592952
 20
5.6395749798
 11
7.5008006294
 21
5.6375974179
  0
LINE
  5
498
100
AcDbEntity
  8
0
100
AcDbLine
 62
7
  6
CONTINUOUS
 10
7.0796130204
 20
5.5641633282
 11
7.0684435092
 21
5.5622479709
  0
LINE
  5
499
100
AcDbEntity
  8
0
100
AcDbLine
 62
7
  6
CONTINUOUS
 10
7.0116234922
 20
5.474628435
 11
7.0003724675
 21
5.4731410887
  0
LINE
  5
49A
100
AcDbEntity
  8
0
100
AcDbLine
 62
7
  6
CONTINUOUS
 10
7.5802576572
 20
5.5494844222
 11
7.5690050484
 21
5.548009109
  0
LINE
  5
49B
100
AcDbEntity
  8
0
100
AcDbLine
 62
7
  6
CONTINUOUS
 10
6.9910114177
 20
5.4872595304
 11
6.9796979705
 21
5.4863630556
  0
LINE
  5
49C
100
AcDbEntity
  8
0
100
AcDbLine
 62
7
  6
CONTINUOUS
 10
7.5627839491
 20
5.5322529173
 11
7.5514695496
 21
5.531368542
  0
LINE
  5
49D
100
AcDbEntity
  8
0
100
AcDbLine
 62
7
  6
CONTINUOUS
 10
2.9335274347
 20
5.531368542
 11
2.9222130352
 21
5.5322529173
  0
LINE
  5
49E
100
AcDbEntity
  8
0
100
AcDbLine
 62
7
  6
CONTINUOUS
 10
3.5052990138
 20
5.4863630556
 11
3.4939855666
 21
5.4872595304
  0
LINE
  5
49F
100
AcDbEntity
  8
0
100
AcDbLine
 62
7
  6
CONTINUOUS
 10
2.9159919359
 20
5.548009109
 11
2.9047393271
 21
5.5494844222
  0
LINE
  5
4A0
100
AcDbEntity
  8
0
100
AcDbLine
 62
7
  6
CONTINUOUS
 10
3.4846245168
 20
5.4731410887
 11
3.4733734922
 21
5.474628435
  0
LINE
  5
4A1
100
AcDbEntity
  8
0
100
AcDbLine
 62
7
  6
CONTINUOUS
 10
3.4272280379
 20
5.5684417445
 11
3.4159990715
 21
5.5699704322
  0
LINE
  5
4A2
100
AcDbEntity
  8
0
100
AcDbLine
 62
7
  6
CONTINUOUS
 10
2.9925277698
 20
5.6288229954
 11
2.9813074953
 21
5.6304142249
  0
LINE
  5
4A3
100
AcDbEntity
  8
0
100
AcDbLine
 62
7
  6
CONTINUOUS
 10
2.899351369
 20
5.5655446077
 11
2.8881913934
 21
5.5676068151
  0
LINE
  5
4A4
100
AcDbEntity
  8
0
100
AcDbLine
 62
7
  6
CONTINUOUS
 10
3.4632863692
 20
5.4610192615
 11
3.4521286054
 21
5.4630934027
  0
LINE
  5
4A5
100
AcDbEntity
  8
0
100
AcDbLine
 62
7
  6
CONTINUOUS
 10
3.4056714877
 20
5.5564263326
 11
3.3945747427
 21
5.558726077
  0
LINE
  5
4A6
100
AcDbEntity
  8
0
100
AcDbLine
 62
7
  6
CONTINUOUS
 10
2.9761727635
 20
5.6466541804
 11
2.9650890046
 21
5.649015718
  0
LINE
  5
4A7
100
AcDbEntity
  8
0
100
AcDbLine
 62
7
  6
CONTINUOUS
 10
4.7838135075
 20
5.5187231206
 11
4.7728207324
 21
5.5215864202
  0
LINE
  5
4A8
100
AcDbEntity
  8
0
100
AcDbLine
 62
7
  6
CONTINUOUS
 10
5.4727867413
 20
5.3340310934
 11
5.4618350689
 21
5.3370477907
  0
LINE
  5
4A9
100
AcDbEntity
  8
0
100
AcDbLine
 62
7
  6
CONTINUOUS
 10
4.7693168067
 20
5.5382429447
 11
4.7584535767
 21
5.5415640624
  0
LINE
  5
4AA
100
AcDbEntity
  8
0
100
AcDbLine
 62
7
  6
CONTINUOUS
 10
4.7556502275
 20
5.5583527054
 11
4.7449356003
 21
5.5621258148
  0
LINE
  5
4AB
100
AcDbEntity
  8
0
100
AcDbLine
 62
7
  6
CONTINUOUS
 10
3.1363851349
 20
6.215904308
 11
3.1469219691
 21
6.2117327737
  0
LINE
  5
4AC
100
AcDbEntity
  8
0
100
AcDbLine
 62
7
  6
CONTINUOUS
 10
4.7428377455
 20
5.5790171234
 11
4.7322905183
 21
5.5832356051
  0
LINE
  5
4AD
100
AcDbEntity
  8
0
100
AcDbLine
 62
7
  6
CONTINUOUS
 10
3.5440036241
 20
6.053247043
 11
3.5545170517
 21
6.0490168643
  0
LINE
  5
4AE
100
AcDbEntity
  8
0
100
AcDbLine
 62
7
  6
CONTINUOUS
 10
3.6423857224
 20
6.1053906652
 11
3.6528730687
 21
6.1010532326
  0
LINE
  5
4AF
100
AcDbEntity
  8
0
100
AcDbLine
 62
7
  6
CONTINUOUS
 10
3.1125060964
 20
6.3248805612
 11
3.1229887981
 21
6.3205319155
  0
LINE
  5
4B0
100
AcDbEntity
  8
0
100
AcDbLine
 62
7
  6
CONTINUOUS
 10
4.7309018382
 20
5.6001999462
 11
4.7205405144
 21
5.6048563997
  0
LINE
  5
4B1
100
AcDbEntity
  8
0
100
AcDbLine
 62
7
  6
CONTINUOUS
 10
3.6539207547
 20
6.0841457785
 11
3.6641667248
 21
6.0792654248
  0
LINE
  5
4B2
100
AcDbEntity
  8
0
100
AcDbLine
 62
7
  6
CONTINUOUS
 10
3.1362545239
 20
6.3310666281
 11
3.1464952689
 21
6.3261753198
  0
LINE
  5
4B3
100
AcDbEntity
  8
0
100
AcDbLine
 62
7
  6
CONTINUOUS
 10
3.1601907673
 20
6.2224117537
 11
3.1704146961
 21
6.2175232108
  0
LINE
  5
4B4
100
AcDbEntity
  8
0
100
AcDbLine
 62
7
  6
CONTINUOUS
 10
3.5556161018
 20
6.0320199907
 11
3.5658126339
 21
6.027074558
  0
LINE
  5
4B5
100
AcDbEntity
  8
0
100
AcDbLine
 62
7
  6
CONTINUOUS
 10
4.7198634454
 20
5.621864012
 11
4.7097062022
 21
5.6269502682
  0
LINE
  5
4B6
100
AcDbEntity
  8
0
100
AcDbLine
 62
7
  6
CONTINUOUS
 10
4.8265212028
 20
5.6870937955
 11
4.8366233844
 21
5.681925532
  0
LINE
  5
4B7
100
AcDbEntity
  8
0
100
AcDbLine
 62
7
  6
CONTINUOUS
 10
3.6643281072
 20
6.0623263101
 11
3.6743046176
 21
6.0569164122
  0
LINE
  5
4B8
100
AcDbEntity
  8
0
100
AcDbLine
 62
7
  6
CONTINUOUS
 10
3.1602941588
 20
6.3360013205
 11
3.1702648779
 21
6.3305807565
  0
LINE
  5
4B9
100
AcDbEntity
  8
0
100
AcDbLine
 62
7
  6
CONTINUOUS
 10
4.7097419319
 20
5.6439713147
 11
4.6998065888
 21
5.6494784505
  0
LINE
  5
4BA
100
AcDbEntity
  8
0
100
AcDbLine
 62
7
  6
CONTINUOUS
 10
4.8170607136
 20
5.7096922473
 11
4.8268709166
 21
5.7039891835
  0
LINE
  5
4BB
100
AcDbEntity
  8
0
100
AcDbLine
 62
7
  6
CONTINUOUS
 10
4.7005550546
 20
5.6664830705
 11
4.6908590413
 21
5.6724014246
  0
LINE
  5
4BC
100
AcDbEntity
  8
0
100
AcDbLine
 62
7
  6
CONTINUOUS
 10
4.8088268717
 20
5.7327659277
 11
4.8183168108
 21
5.7265445069
  0
LINE
  5
4BD
100
AcDbEntity
  8
0
100
AcDbLine
 62
7
  6
CONTINUOUS
 10
4.6923189301
 20
5.6893597862
 11
4.6828792569
 21
5.6956789758
  0
LINE
  5
4BE
100
AcDbEntity
  8
0
100
AcDbLine
 62
7
  6
CONTINUOUS
 10
4.6850480076
 20
5.7125613281
 11
4.6758812347
 21
5.7192702673
  0
LINE
  5
4BF
100
AcDbEntity
  8
0
100
AcDbLine
 62
7
  6
CONTINUOUS
 10
4.8018434173
 20
5.7562483093
 11
4.8109857305
 21
5.7495264695
  0
LINE
  5
4C0
100
AcDbEntity
  8
0
100
AcDbLine
 62
7
  6
CONTINUOUS
 10
4.6787550427
 20
5.7360469931
 11
4.6698772518
 21
5.7431339119
  0
LINE
  5
4C1
100
AcDbEntity
  8
0
100
AcDbLine
 62
7
  6
CONTINUOUS
 10
4.7961304855
 20
5.7800716862
 11
4.8048988132
 21
5.7728688084
  0
LINE
  5
4C2
100
AcDbEntity
  8
0
100
AcDbLine
 62
7
  6
CONTINUOUS
 10
4.7917045483
 20
5.8041673697
 11
4.8000736091
 21
5.7965042214
  0
LINE
  5
4C3
100
AcDbEntity
  8
0
100
AcDbLine
 62
7
  6
CONTINUOUS
 10
4.7885783667
 20
5.8284658854
 11
4.7965240305
 21
5.8203645616
  0
LINE
  5
4C4
100
AcDbEntity
  8
0
100
AcDbLine
 62
7
  6
CONTINUOUS
 10
5.6781456527
 20
5.7389589832
 11
5.6740112538
 21
5.7495264695
  0
LINE
  5
4C5
100
AcDbEntity
  8
0
100
AcDbLine
 62
7
  6
CONTINUOUS
 10
5.4826072645
 20
6.2542173111
 11
5.478694367
 21
6.2648688018
  0
LINE
  5
4C6
100
AcDbEntity
  8
0
100
AcDbLine
 62
7
  6
CONTINUOUS
 10
5.6702413851
 20
5.7157703344
 11
5.6666801735
 21
5.7265445069
  0
LINE
  5
4C7
100
AcDbEntity
  8
0
100
AcDbLine
 62
7
  6
CONTINUOUS
 10
5.7886797785
 20
5.6778783025
 11
5.7921524381
 21
5.6670625628
  0
LINE
  5
4C8
100
AcDbEntity
  8
0
100
AcDbLine
 62
7
  6
CONTINUOUS
 10
5.5026422213
 20
6.2407816924
 11
5.4993067008
 21
6.2516278587
  0
LINE
  5
4C9
100
AcDbEntity
  8
0
100
AcDbLine
 62
7
  6
CONTINUOUS
 10
5.575450095
 20
6.3585605807
 11
5.5787712127
 21
6.3476973506
  0
LINE
  5
4CA
100
AcDbEntity
  8
0
100
AcDbLine
 62
7
  6
CONTINUOUS
 10
5.7799663666
 20
5.6551790885
 11
5.7829830639
 21
5.6442274161
  0
LINE
  5
4CB
100
AcDbEntity
  8
0
100
AcDbLine
 62
7
  6
CONTINUOUS
 10
5.661103824
 20
5.6930393895
 11
5.6581260677
 21
5.7039891835
  0
LINE
  5
4CC
100
AcDbEntity
  8
0
100
AcDbLine
 62
7
  6
CONTINUOUS
 10
5.5954277371
 20
6.344193425
 11
5.5982910368
 21
6.3332006499
  0
LINE
  5
4CD
100
AcDbEntity
  8
0
100
AcDbLine
 62
7
  6
CONTINUOUS
 10
5.5219271164
 20
6.2262900339
 11
5.5191785901
 21
6.2372996035
  0
LINE
  5
4CE
100
AcDbEntity
  8
0
100
AcDbLine
 62
7
  6
CONTINUOUS
 10
5.7703100535
 20
5.6328646653
 11
5.7728654962
 21
5.6217962733
  0
LINE
  5
4CF
100
AcDbEntity
  8
0
100
AcDbLine
 62
7
  6
CONTINUOUS
 10
5.6147862214
 20
6.3290022949
 11
5.6171866799
 21
6.3178992598
  0
LINE
  5
4D0
100
AcDbEntity
  8
0
100
AcDbLine
 62
7
  6
CONTINUOUS
 10
5.6507593154
 20
5.6708316877
 11
5.6483735999
 21
5.681925532
  0
LINE
  5
4D1
100
AcDbEntity
  8
0
100
AcDbLine
 62
7
  6
CONTINUOUS
 10
5.5404063464
 20
6.2107841188
 11
5.538252739
 21
6.2219253484
  0
LINE
  5
4D2
100
AcDbEntity
  8
0
100
AcDbLine
 62
7
  6
CONTINUOUS
 10
5.7597277795
 20
5.6109741801
 11
5.7618174844
 21
5.5998084861
  0
LINE
  5
4D3
100
AcDbEntity
  8
0
100
AcDbLine
 62
7
  6
CONTINUOUS
 10
5.6334915866
 20
6.3130138409
 11
5.6354249926
 21
6.3018200243
  0
LINE
  5
4D4
100
AcDbEntity
  8
0
100
AcDbLine
 62
7
  6
CONTINUOUS
 10
5.7482381095
 20
5.5895460362
 11
5.7498584107
 21
5.5783026287
  0
LINE
  5
4D5
100
AcDbEntity
  8
0
100
AcDbLine
 62
7
  6
CONTINUOUS
 10
5.651511017
 20
6.2962561121
 11
5.6529739786
 21
6.2849911517
  0
LINE
  5
4D6
100
AcDbEntity
  8
0
100
AcDbLine
 62
7
  6
CONTINUOUS
 10
6.9710886519
 20
6.2480792624
 11
6.9743060974
 21
6.2589625431
  0
LINE
  5
4D7
100
AcDbEntity
  8
0
100
AcDbLine
 62
7
  6
CONTINUOUS
 10
6.8081886476
 20
5.6981594309
 11
6.8114177302
 21
5.7090392645
  0
LINE
  5
4D8
100
AcDbEntity
  8
0
100
AcDbLine
 62
7
  6
CONTINUOUS
 10
6.9070600577
 20
5.7508738167
 11
6.9106805992
 21
5.7616124503
  0
LINE
  5
4D9
100
AcDbEntity
  8
0
100
AcDbLine
 62
7
  6
CONTINUOUS
 10
7.0484003933
 20
6.1663652464
 11
7.0520807122
 21
6.1770835403
  0
LINE
  5
4DA
100
AcDbEntity
  8
0
100
AcDbLine
 62
7
  6
CONTINUOUS
 10
6.9910114177
 20
6.2617717999
 11
6.9947940408
 21
6.2724717774
  0
LINE
  5
4DB
100
AcDbEntity
  8
0
100
AcDbLine
 62
7
  6
CONTINUOUS
 10
6.799554082
 20
5.721131142
 11
6.8033481458
 21
5.731827068
  0
LINE
  5
4DC
100
AcDbEntity
  8
0
100
AcDbLine
 62
7
  6
CONTINUOUS
 10
7.0116234922
 20
6.2744028954
 11
7.0159609248
 21
6.2848902417
  0
LINE
  5
4DD
100
AcDbEntity
  8
0
100
AcDbLine
 62
7
  6
CONTINUOUS
 10
6.7921335962
 20
5.7445232694
 11
6.7964822419
 21
5.7550059711
  0
LINE
  5
4DE
100
AcDbEntity
  8
0
100
AcDbLine
 62
7
  6
CONTINUOUS
 10
6.8993291235
 20
5.7743107031
 11
6.9036819089
 21
5.7847739641
  0
LINE
  5
4DF
100
AcDbEntity
  8
0
100
AcDbLine
 62
7
  6
CONTINUOUS
 10
7.0689979128
 20
6.1790608982
 11
7.0734089298
 21
6.189499744
  0
LINE
  5
4E0
100
AcDbEntity
  8
0
100
AcDbLine
 62
7
  6
CONTINUOUS
 10
7.3380750152
 20
5.5372985567
 11
7.331293995
 21
5.5282186703
  0
LINE
  5
4E1
100
AcDbEntity
  8
0
100
AcDbLine
 62
7
  6
CONTINUOUS
 10
7.3620081862
 20
5.4284994149
 11
7.3551042231
 21
5.4194920264
  0
LINE
  5
4E2
100
AcDbEntity
  8
0
100
AcDbLine
 62
7
  6
CONTINUOUS
 10
7.3385017154
 20
5.4228560106
 11
7.3311358036
 21
5.4142222919
  0
LINE
  5
4E3
100
AcDbEntity
  8
0
100
AcDbLine
 62
7
  6
CONTINUOUS
 10
7.3724257013
 20
6.2000447274
 11
7.3833373438
 21
6.2031045693
  0
LINE
  5
4E4
100
AcDbEntity
  8
0
100
AcDbLine
 62
7
  6
CONTINUOUS
 10
5.5979925451
 20
5.5998348672
 11
5.608964223
 21
5.6027309515
  0
LINE
  5
4E5
100
AcDbEntity
  8
0
100
AcDbLine
 62
7
  6
CONTINUOUS
 10
5.7046820514
 20
5.5118276346
 11
5.6936317228
 21
5.5091951782
  0
LINE
  5
4E6
100
AcDbEntity
  8
0
100
AcDbLine
 62
7
  6
CONTINUOUS
 10
4.989846839
 20
5.3518806184
 11
4.9787273573
 21
5.3495575351
  0
LINE
  5
4E7
100
AcDbEntity
  8
0
100
AcDbLine
 62
7
  6
CONTINUOUS
 10
5.5827361149
 20
5.5811491324
 11
5.5938474278
 21
5.583452119
  0
LINE
  5
4E8
100
AcDbEntity
  8
0
100
AcDbLine
 62
7
  6
CONTINUOUS
 10
5.6890888395
 20
5.4927915349
 11
5.6779379681
 21
5.4906241274
  0
LINE
  5
4E9
100
AcDbEntity
  8
0
100
AcDbLine
 62
7
  6
CONTINUOUS
 10
5.0225406968
 20
5.4747874691
 11
5.0237484922
 21
5.4749967179
  0
LINE
  5
4EA
100
AcDbEntity
  8
0
100
AcDbLine
 62
7
  6
CONTINUOUS
 10
4.9681827732
 20
5.3629190113
 11
4.9569757645
 21
5.3610636012
  0
LINE
  5
4EB
100
AcDbEntity
  8
0
100
AcDbLine
 62
7
  6
CONTINUOUS
 10
5.5664986916
 20
5.5633092494
 11
5.5777176026
 21
5.5650124981
  0
LINE
  5
4EC
100
AcDbEntity
  8
0
100
AcDbLine
 62
7
  6
CONTINUOUS
 10
5.6727121564
 20
5.4744251091
 11
5.6614803046
 21
5.4727265528
  0
LINE
  5
4ED
100
AcDbEntity
  8
0
100
AcDbLine
 62
7
  6
CONTINUOUS
 10
4.9469999503
 20
5.3748549185
 11
4.9357250756
 21
5.3734704368
  0
LINE
  5
4EE
100
AcDbEntity
  8
0
100
AcDbLine
 62
7
  6
CONTINUOUS
 10
5.0014017321
 20
5.4871703221
 11
5.0126704994
 21
5.4885044526
  0
LINE
  5
4EF
100
AcDbEntity
  8
0
100
AcDbLine
 62
7
  6
CONTINUOUS
 10
5.6555807324
 20
5.4567605781
 11
5.6442876046
 21
5.4555338528
  0
LINE
  5
4F0
100
AcDbEntity
  8
0
100
AcDbLine
 62
7
  6
CONTINUOUS
 10
7.4951084167
 20
5.6215443703
 11
7.4838399047
 21
5.6203413695
  0
LINE
  5
4F1
100
AcDbEntity
  8
0
100
AcDbLine
 62
7
  6
CONTINUOUS
 10
7.0585895692
 20
5.5761404684
 11
7.0473145293
 21
5.5750002722
  0
LINE
  5
4F2
100
AcDbEntity
  8
0
100
AcDbLine
 62
7
  6
CONTINUOUS
 10
5.5493270919
 20
5.546366655
 11
5.560621254
 21
5.5474652549
  0
LINE
  5
4F3
100
AcDbEntity
  8
0
100
AcDbLine
 62
7
  6
CONTINUOUS
 10
4.9263355323
 20
5.3876674005
 11
4.9150125715
 21
5.386756276
  0
LINE
  5
4F4
100
AcDbEntity
  8
0
100
AcDbLine
 62
7
  6
CONTINUOUS
 10
3.5627839491
 20
5.5322529173
 11
3.5514695496
 21
5.531368542
  0
LINE
  5
4F5
100
AcDbEntity
  8
0
100
AcDbLine
 62
7
  6
CONTINUOUS
 10
5.6377246217
 20
5.4398289314
 11
5.62639003
 21
5.4390761893
  0
LINE
  5
4F6
100
AcDbEntity
  8
0
100
AcDbLine
 62
7
  6
CONTINUOUS
 10
4.9809579117
 20
5.5006699921
 11
4.9922820453
 21
5.5013973298
  0
LINE
  5
4F7
100
AcDbEntity
  8
0
100
AcDbLine
 62
7
  6
CONTINUOUS
 10
5.5312708258
 20
5.5303701991
 11
5.5426076751
 21
5.5308609827
  0
LINE
  5
4F8
100
AcDbEntity
  8
0
100
AcDbLine
 62
7
  6
CONTINUOUS
 10
4.9062257716
 20
5.4013339798
 11
4.894874589
 21
5.4008978108
  0
LINE
  5
4F9
100
AcDbEntity
  8
0
100
AcDbLine
 62
7
  6
CONTINUOUS
 10
7.4770537369
 20
5.6047192843
 11
7.4657290783
 21
5.6042965774
  0
LINE
  5
4FA
100
AcDbEntity
  8
0
100
AcDbLine
 62
7
  6
CONTINUOUS
 10
7.0384425278
 20
5.5895395023
 11
7.0271156898
 21
5.5891799008
  0
LINE
  5
4FB
100
AcDbEntity
  8
0
100
AcDbLine
 62
7
  6
CONTINUOUS
 10
6.9710886519
 20
5.500952068
 11
6.9597437915
 21
5.5006489219
  0
LINE
  5
4FC
100
AcDbEntity
  8
0
100
AcDbLine
 62
7
  6
CONTINUOUS
 10
2.9710886519
 20
5.500952068
 11
2.9597437915
 21
5.5006489219
  0
LINE
  5
4FD
100
AcDbEntity
  8
0
100
AcDbLine
 62
7
  6
CONTINUOUS
 10
7.5444323608
 20
5.5159595309
 11
7.5330871827
 21
5.5156685175
  0
LINE
  5
4FE
100
AcDbEntity
  8
0
100
AcDbLine
 62
7
  6
CONTINUOUS
 10
3.5444323608
 20
5.5159595309
 11
3.5330871827
 21
5.5156685175
  0
LINE
  5
4FF
100
AcDbEntity
  8
0
100
AcDbLine
 62
7
  6
CONTINUOUS
 10
5.6191751501
 20
5.423659873
 11
5.6078189792
 21
5.4233824346
  0
LINE
  5
500
100
AcDbEntity
  8
0
100
AcDbLine
 62
7
  6
CONTINUOUS
 10
4.9612681806
 20
5.5152475559
 11
4.97261503
 21
5.5153660037
  0
LINE
  5
501
100
AcDbEntity
  8
0
100
AcDbLine
 62
7
  6
CONTINUOUS
 10
3.4676016456
 20
5.5967841036
 11
3.4562691447
 21
5.5967525321
  0
LINE
  5
502
100
AcDbEntity
  8
0
100
AcDbLine
 62
7
  6
CONTINUOUS
 10
3.0287278396
 20
5.5967525321
 11
3.0173953388
 21
5.5967841036
  0
LINE
  5
503
100
AcDbEntity
  8
0
100
AcDbLine
 62
7
  6
CONTINUOUS
 10
4.8867059475
 20
5.4158306805
 11
4.875346457
 21
5.4158702324
  0
LINE
  5
504
100
AcDbEntity
  8
0
100
AcDbLine
 62
7
  6
CONTINUOUS
 10
5.5123819544
 20
5.5153660037
 11
5.5237288037
 21
5.5152475559
  0
LINE
  5
505
100
AcDbEntity
  8
0
100
AcDbLine
 62
7
  6
CONTINUOUS
 10
5.5999648596
 20
5.4082817688
 11
5.5886070321
 21
5.4084801208
  0
LINE
  5
506
100
AcDbEntity
  8
0
100
AcDbLine
 62
7
  6
CONTINUOUS
 10
2.9519098016
 20
5.5156685175
 11
2.9405646235
 21
5.5159595309
  0
LINE
  5
507
100
AcDbEntity
  8
0
100
AcDbLine
 62
7
  6
CONTINUOUS
 10
6.9519098016
 20
5.5156685175
 11
6.9405646235
 21
5.5159595309
  0
LINE
  5
508
100
AcDbEntity
  8
0
100
AcDbLine
 62
7
  6
CONTINUOUS
 10
3.5252531928
 20
5.5006489219
 11
3.5139083324
 21
5.500952068
  0
LINE
  5
509
100
AcDbEntity
  8
0
100
AcDbLine
 62
7
  6
CONTINUOUS
 10
7.5252531928
 20
5.5006489219
 11
7.5139083324
 21
5.500952068
  0
LINE
  5
50A
100
AcDbEntity
  8
0
100
AcDbLine
 62
7
  6
CONTINUOUS
 10
7.4578812945
 20
5.5891799008
 11
7.4465544565
 21
5.5895395023
  0
LINE
  5
50B
100
AcDbEntity
  8
0
100
AcDbLine
 62
7
  6
CONTINUOUS
 10
4.9423893092
 20
5.5308609827
 11
4.9537261585
 21
5.5303701991
  0
LINE
  5
50C
100
AcDbEntity
  8
0
100
AcDbLine
 62
7
  6
CONTINUOUS
 10
4.8678103044
 20
5.4311320706
 11
4.8564624344
 21
5.4316472738
  0
LINE
  5
50D
100
AcDbEntity
  8
0
100
AcDbLine
 62
7
  6
CONTINUOUS
 10
5.5801274517
 20
5.3937215973
 11
5.568787893
 21
5.3943953918
  0
LINE
  5
50E
100
AcDbEntity
  8
0
100
AcDbLine
 62
7
  6
CONTINUOUS
 10
5.492714939
 20
5.5013973298
 11
5.5040390726
 21
5.5006699921
  0
LINE
  5
50F
100
AcDbEntity
  8
0
100
AcDbLine
 62
7
  6
CONTINUOUS
 10
3.4479042678
 20
5.5819157381
 11
3.436596591
 21
5.582666084
  0
LINE
  5
510
100
AcDbEntity
  8
0
100
AcDbLine
 62
7
  6
CONTINUOUS
 10
3.0100740004
 20
5.612162648
 11
2.99877068
 21
5.6129759864
  0
LINE
  5
511
100
AcDbEntity
  8
0
100
AcDbLine
 62
7
  6
CONTINUOUS
 10
6.9335274347
 20
5.531368542
 11
6.9222130352
 21
5.5322529173
  0
LINE
  5
512
100
AcDbEntity
  8
0
100
AcDbLine
 62
7
  6
CONTINUOUS
 10
4.8495719918
 20
5.4472113061
 11
4.8382556502
 21
5.4482012569
  0
LINE
  5
513
100
AcDbEntity
  8
0
100
AcDbLine
 62
7
  6
CONTINUOUS
 10
4.9243757303
 20
5.5474652549
 11
4.9356698925
 21
5.546366655
  0
LINE
  5
514
100
AcDbEntity
  8
0
100
AcDbLine
 62
7
  6
CONTINUOUS
 10
5.5596977278
 20
5.380004902
 11
5.5483963314
 21
5.3811529569
  0
LINE
  5
515
100
AcDbEntity
  8
0
100
AcDbLine
 62
7
  6
CONTINUOUS
 10
5.4723264849
 20
5.4885044526
 11
5.4835952522
 21
5.4871703221
  0
LINE
  5
516
100
AcDbEntity
  8
0
100
AcDbLine
 62
7
  6
CONTINUOUS
 10
4.8320230057
 20
5.4640401787
 11
4.8207580453
 21
5.4655031404
  0
LINE
  5
517
100
AcDbEntity
  8
0
100
AcDbLine
 62
7
  6
CONTINUOUS
 10
5.5387115287
 20
5.3671557466
 11
5.5274681211
 21
5.3687760478
  0
LINE
  5
518
100
AcDbEntity
  8
0
100
AcDbLine
 62
7
  6
CONTINUOUS
 10
4.9072793817
 20
5.5650124981
 11
4.9184982927
 21
5.5633092494
  0
LINE
  5
519
100
AcDbEntity
  8
0
100
AcDbLine
 62
7
  6
CONTINUOUS
 10
4.8151941331
 20
5.4815891648
 11
4.8040003164
 21
5.4835225708
  0
LINE
  5
51A
100
AcDbEntity
  8
0
100
AcDbLine
 62
7
  6
CONTINUOUS
 10
5.4612484922
 20
5.4749967179
 11
5.4624562875
 21
5.4747874691
  0
LINE
  5
51B
100
AcDbEntity
  8
0
100
AcDbLine
 62
7
  6
CONTINUOUS
 10
5.5172056713
 20
5.3551966729
 11
5.5060399773
 21
5.3572863779
  0
LINE
  5
51C
100
AcDbEntity
  8
0
100
AcDbLine
 62
7
  6
CONTINUOUS
 10
4.8911495565
 20
5.583452119
 11
4.9022608694
 21
5.5811491324
  0
LINE
  5
51D
100
AcDbEntity
  8
0
100
AcDbLine
 62
7
  6
CONTINUOUS
 10
4.7991148975
 20
5.4998274775
 11
4.7880118624
 21
5.5022279359
  0
LINE
  5
51E
100
AcDbEntity
  8
0
100
AcDbLine
 62
7
  6
CONTINUOUS
 10
5.4952178841
 20
5.3441486612
 11
5.4841494921
 21
5.3467041039
  0
LINE
  5
51F
100
AcDbEntity
  8
0
100
AcDbLine
 62
7
  6
CONTINUOUS
 10
3.0904019404
 20
6.1980475631
 11
3.101412695
 21
6.1953661722
  0
LINE
  5
520
100
AcDbEntity
  8
0
100
AcDbLine
 62
7
  6
CONTINUOUS
 10
3.5165304268
 20
6.0930488407
 11
3.5275260702
 21
6.0903061417
  0
LINE
  5
521
100
AcDbEntity
  8
0
100
AcDbLine
 62
7
  6
CONTINUOUS
 10
4.8760327613
 20
5.6027309515
 11
4.8870044392
 21
5.5998348672
  0
LINE
  5
522
100
AcDbEntity
  8
0
100
AcDbLine
 62
7
  6
CONTINUOUS
 10
3.6160620893
 20
6.1459255054
 11
3.62694537
 21
6.1427080599
  0
LINE
  5
523
100
AcDbEntity
  8
0
100
AcDbLine
 62
7
  6
CONTINUOUS
 10
3.0661422578
 20
6.3088255098
 11
3.0770220915
 21
6.3055964271
  0
LINE
  5
524
100
AcDbEntity
  8
0
100
AcDbLine
 62
7
  6
CONTINUOUS
 10
3.113085181
 20
6.2077699898
 11
3.1238847077
 21
6.2043353434
  0
LINE
  5
525
100
AcDbEntity
  8
0
100
AcDbLine
 62
7
  6
CONTINUOUS
 10
4.8619725816
 20
5.6227934097
 11
4.8727729904
 21
5.6193125777
  0
LINE
  5
526
100
AcDbEntity
  8
0
100
AcDbLine
 62
7
  6
CONTINUOUS
 10
3.5309543372
 20
6.0736223589
 11
3.541734559
 21
6.070127593
  0
LINE
  5
527
100
AcDbEntity
  8
0
100
AcDbLine
 62
7
  6
CONTINUOUS
 10
3.6297546269
 20
6.1260027396
 11
3.6404546044
 21
6.1222201166
  0
LINE
  5
528
100
AcDbEntity
  8
0
100
AcDbLine
 62
7
  6
CONTINUOUS
 10
3.0891139689
 20
6.3174600754
 11
3.099809895
 21
6.3136660116
  0
LINE
  5
529
100
AcDbEntity
  8
0
100
AcDbLine
 62
7
  6
CONTINUOUS
 10
4.8490095567
 20
5.6435816483
 11
4.8596075559
 21
5.6395261049
  0
LINE
  5
52A
100
AcDbEntity
  8
0
100
AcDbLine
 62
7
  6
CONTINUOUS
 10
4.8371810622
 20
5.6650357294
 11
4.8475460952
 21
5.6604171677
  0
LINE
  5
52B
100
AcDbEntity
  8
0
100
AcDbLine
 62
7
  6
CONTINUOUS
 10
5.3732695714
 20
6.3043115323
 11
5.3666710749
 21
6.3135432636
  0
LINE
  5
52C
100
AcDbEntity
  8
0
100
AcDbLine
 62
7
  6
CONTINUOUS
 10
5.6970286324
 20
5.834937715
 11
5.6907366727
 21
5.8443810335
  0
LINE
  5
52D
100
AcDbEntity
  8
0
100
AcDbLine
 62
7
  6
CONTINUOUS
 10
5.3961510415
 20
6.2966725751
 11
5.3900575859
 21
6.3062451828
  0
LINE
  5
52E
100
AcDbEntity
  8
0
100
AcDbLine
 62
7
  6
CONTINUOUS
 10
5.6942489574
 20
5.8105971257
 11
5.6884729538
 21
5.8203645616
  0
LINE
  5
52F
100
AcDbEntity
  8
0
100
AcDbLine
 62
7
  6
CONTINUOUS
 10
5.8176276136
 20
5.7957327754
 11
5.8232731059
 21
5.7858753921
  0
LINE
  5
530
100
AcDbEntity
  8
0
100
AcDbLine
 62
7
  6
CONTINUOUS
 10
5.4185894916
 20
6.2878164303
 11
5.4130186458
 21
6.297702314
  0
LINE
  5
531
100
AcDbEntity
  8
0
100
AcDbLine
 62
7
  6
CONTINUOUS
 10
5.4675357068
 20
6.4172075686
 11
5.4730428427
 21
6.4072722254
  0
LINE
  5
532
100
AcDbEntity
  8
0
100
AcDbLine
 62
7
  6
CONTINUOUS
 10
5.6901667688
 20
5.7864408301
 11
5.6849233752
 21
5.7965042214
  0
LINE
  5
533
100
AcDbEntity
  8
0
100
AcDbLine
 62
7
  6
CONTINUOUS
 10
5.8138240426
 20
5.7717179734
 11
5.8190517985
 21
5.761632828
  0
LINE
  5
534
100
AcDbEntity
  8
0
100
AcDbLine
 62
7
  6
CONTINUOUS
 10
5.4900638892
 20
6.4073079551
 11
5.4951501453
 21
6.397150712
  0
LINE
  5
535
100
AcDbEntity
  8
0
100
AcDbLine
 62
7
  6
CONTINUOUS
 10
5.4405202258
 20
6.2777686323
 11
5.435488052
 21
6.2879392885
  0
LINE
  5
536
100
AcDbEntity
  8
0
100
AcDbLine
 62
7
  6
CONTINUOUS
 10
5.8090181725
 20
5.7478835136
 11
5.8138190207
 21
5.7375882989
  0
LINE
  5
537
100
AcDbEntity
  8
0
100
AcDbLine
 62
7
  6
CONTINUOUS
 10
5.6847938367
 20
5.7625384771
 11
5.6800981711
 21
5.7728688084
  0
LINE
  5
538
100
AcDbEntity
  8
0
100
AcDbLine
 62
7
  6
CONTINUOUS
 10
5.5121577577
 20
6.3964736429
 11
5.5168142112
 21
6.3861123191
  0
LINE
  5
539
100
AcDbEntity
  8
0
100
AcDbLine
 62
7
  6
CONTINUOUS
 10
5.461880012
 20
6.2665581517
 11
5.4574010193
 21
6.2769842557
  0
LINE
  5
53A
100
AcDbEntity
  8
0
100
AcDbLine
 62
7
  6
CONTINUOUS
 10
5.8032184343
 20
5.7242712095
 11
5.8075839526
 21
5.7137839868
  0
LINE
  5
53B
100
AcDbEntity
  8
0
100
AcDbLine
 62
7
  6
CONTINUOUS
 10
5.5337785522
 20
6.3847236391
 11
5.537997034
 21
6.3741764119
  0
LINE
  5
53C
100
AcDbEntity
  8
0
100
AcDbLine
 62
7
  6
CONTINUOUS
 10
5.7964350029
 20
5.7009224853
 11
5.8003575325
 21
5.6902616527
  0
LINE
  5
53D
100
AcDbEntity
  8
0
100
AcDbLine
 62
7
  6
CONTINUOUS
 10
5.5548883426
 20
6.3720785571
 11
5.558661452
 21
6.3613639299
  0
LINE
  5
53E
100
AcDbEntity
  8
0
100
AcDbLine
 62
7
  6
CONTINUOUS
 10
6.9159919359
 20
6.2010222214
 11
6.9174672492
 21
6.2122748303
  0
LINE
  5
53F
100
AcDbEntity
  8
0
100
AcDbLine
 62
7
  6
CONTINUOUS
 10
6.8411239156
 20
5.6323896405
 11
6.842611262
 21
5.6436406652
  0
LINE
  5
540
100
AcDbEntity
  8
0
100
AcDbLine
 62
7
  6
CONTINUOUS
 10
6.9335274347
 20
6.2176627884
 11
6.9355896421
 21
6.228822764
  0
LINE
  5
541
100
AcDbEntity
  8
0
100
AcDbLine
 62
7
  6
CONTINUOUS
 10
6.8290020885
 20
5.6537277881
 11
6.8310762296
 21
5.6648855519
  0
LINE
  5
542
100
AcDbEntity
  8
0
100
AcDbLine
 62
7
  6
CONTINUOUS
 10
6.9272730177
 20
5.7058765528
 11
6.9293808826
 21
5.7170113397
  0
LINE
  5
543
100
AcDbEntity
  8
0
100
AcDbLine
 62
7
  6
CONTINUOUS
 10
7.0100740004
 20
6.1368686824
 11
7.0122438735
 21
6.1479915518
  0
LINE
  5
544
100
AcDbEntity
  8
0
100
AcDbLine
 62
7
  6
CONTINUOUS
 10
6.9519098016
 20
6.2333628129
 11
6.9545532508
 21
6.2443995666
  0
LINE
  5
545
100
AcDbEntity
  8
0
100
AcDbLine
 62
7
  6
CONTINUOUS
 10
6.8180136263
 20
5.6756710999
 11
6.8206688771
 21
5.6867050203
  0
LINE
  5
546
100
AcDbEntity
  8
0
100
AcDbLine
 62
7
  6
CONTINUOUS
 10
6.9163895088
 20
5.7280261401
 11
6.9192605529
 21
5.7389889718
  0
LINE
  5
547
100
AcDbEntity
  8
0
100
AcDbLine
 62
7
  6
CONTINUOUS
 10
7.0287278396
 20
6.1522787983
 11
7.0316599219
 21
6.1632254629
  0
LINE
  5
548
100
AcDbEntity
  8
0
100
AcDbLine
 62
7
  6
CONTINUOUS
 10
7.4303091371
 20
5.4526860501
 11
7.4248992392
 21
5.4427095397
  0
LINE
  5
549
100
AcDbEntity
  8
0
100
AcDbLine
 62
7
  6
CONTINUOUS
 10
7.3835842893
 20
5.5536651582
 11
7.3781176997
 21
5.543738277
  0
LINE
  5
54A
100
AcDbEntity
  8
0
100
AcDbLine
 62
7
  6
CONTINUOUS
 10
7.4079748929
 20
5.4434349033
 11
7.4020502788
 21
5.4337551975
  0
LINE
  5
54B
100
AcDbEntity
  8
0
100
AcDbLine
 62
7
  6
CONTINUOUS
 10
7.3611122766
 20
5.544695987
 11
7.3549738455
 21
5.5351699051
  0
LINE
  5
54C
100
AcDbEntity
  8
0
100
AcDbLine
 62
7
  6
CONTINUOUS
 10
7.3851870893
 20
5.4353653188
 11
7.3787639981
 21
5.4260089491
  0
LINE
  5
54D
100
AcDbEntity
  8
0
100
AcDbLine
 62
7
  6
CONTINUOUS
 10
7.4303091371
 20
6.2963452803
 11
7.4413430574
 21
6.2990005311
  0
LINE
  5
54E
100
AcDbEntity
  8
0
100
AcDbLine
 62
7
  6
CONTINUOUS
 10
3.0546878472
 20
5.4526860501
 11
3.0436539269
 21
5.4500307993
  0
LINE
  5
54F
100
AcDbEntity
  8
0
100
AcDbLine
 62
7
  6
CONTINUOUS
 10
6.8726145908
 20
6.1624609066
 11
6.8836513445
 21
6.1651043558
  0
LINE
  5
550
100
AcDbEntity
  8
0
100
AcDbLine
 62
7
  6
CONTINUOUS
 10
3.6123823935
 20
5.5865704238
 11
3.6013456399
 21
5.5839269746
  0
LINE
  5
551
100
AcDbEntity
  8
0
100
AcDbLine
 62
7
  6
CONTINUOUS
 10
6.9650890046
 20
6.1000156124
 11
6.9761727635
 21
6.10237715
  0
LINE
  5
552
100
AcDbEntity
  8
0
100
AcDbLine
 62
7
  6
CONTINUOUS
 10
7.3945747427
 20
6.1903052534
 11
7.4056714877
 21
6.1926049978
  0
LINE
  5
553
100
AcDbEntity
  8
0
100
AcDbLine
 62
7
  6
CONTINUOUS
 10
3.0328683789
 20
5.4630934027
 11
3.0217106151
 21
5.4610192615
  0
LINE
  5
554
100
AcDbEntity
  8
0
100
AcDbLine
 62
7
  6
CONTINUOUS
 10
7.4521286054
 20
6.2859379277
 11
7.4632863692
 21
6.2880120689
  0
LINE
  5
555
100
AcDbEntity
  8
0
100
AcDbLine
 62
7
  6
CONTINUOUS
 10
3.5968055909
 20
5.5676068151
 11
3.5856456153
 21
5.5655446077
  0
LINE
  5
556
100
AcDbEntity
  8
0
100
AcDbLine
 62
7
  6
CONTINUOUS
 10
6.8881913934
 20
6.1814245153
 11
6.899351369
 21
6.1834867227
  0
LINE
  5
557
100
AcDbEntity
  8
0
100
AcDbLine
 62
7
  6
CONTINUOUS
 10
6.9813074953
 20
6.1186171055
 11
6.9925277698
 21
6.120208335
  0
LINE
  5
558
100
AcDbEntity
  8
0
100
AcDbLine
 62
7
  6
CONTINUOUS
 10
3.5036894891
 20
5.6304142249
 11
3.4924692145
 21
5.6288229954
  0
LINE
  5
559
100
AcDbEntity
  8
0
100
AcDbLine
 62
7
  6
CONTINUOUS
 10
3.0689979128
 20
5.5699704322
 11
3.0577689464
 21
5.5684417445
  0
LINE
  5
55A
100
AcDbEntity
  8
0
100
AcDbLine
 62
7
  6
CONTINUOUS
 10
7.4159990715
 20
6.1790608982
 11
7.4272280379
 21
6.1805895859
  0
LINE
  5
55B
100
AcDbEntity
  8
0
100
AcDbLine
 62
7
  6
CONTINUOUS
 10
3.0116234922
 20
5.474628435
 11
3.0003724675
 21
5.4731410887
  0
LINE
  5
55C
100
AcDbEntity
  8
0
100
AcDbLine
 62
7
  6
CONTINUOUS
 10
3.5802576572
 20
5.5494844222
 11
3.5690050484
 21
5.548009109
  0
LINE
  5
55D
100
AcDbEntity
  8
0
100
AcDbLine
 62
7
  6
CONTINUOUS
 10
2.9910114177
 20
5.4872595304
 11
2.9796979705
 21
5.4863630556
  0
LINE
  5
55E
100
AcDbEntity
  8
0
100
AcDbLine
 62
7
  6
CONTINUOUS
 10
3.4862263043
 20
5.6129759864
 11
3.4749229839
 21
5.612162648
  0
LINE
  5
55F
100
AcDbEntity
  8
0
100
AcDbLine
 62
7
  6
CONTINUOUS
 10
3.0484003933
 20
5.582666084
 11
3.0370927165
 21
5.5819157381
  0
LINE
  5
560
100
AcDbEntity
  8
0
100
AcDbLine
 62
7
  6
CONTINUOUS
 10
2.7899984922
 20
5.7245156652
 11
1.4999984922
 21
5.7245156652
  0
LINE
  5
561
100
AcDbEntity
  8
0
100
AcDbLine
 62
7
  6
CONTINUOUS
 10
7.6949984922
 20
5.7245156652
 11
8.9849984922
 21
5.7245156652
  0
LINE
  5
562
100
AcDbEntity
  8
0
100
AcDbLine
 62
7
  6
CONTINUOUS
 10
3.2424984922
 20
5.7770156652
 11
2.8899984922
 21
5.7770156652
  0
LINE
  5
563
100
AcDbEntity
  8
0
100
AcDbLine
 62
7
  6
CONTINUOUS
 10
7.2424984922
 20
5.7770156652
 11
7.5949984922
 21
5.7770156652
  0
LINE
  5
564
100
AcDbEntity
  8
0
100
AcDbLine
 62
7
  6
CONTINUOUS
 10
7.019267906
 20
5.6042965774
 11
7.0079432474
 21
5.6047192843
  0
LINE
  5
565
100
AcDbEntity
  8
0
100
AcDbLine
 62
7
  6
CONTINUOUS
 10
7.5052990138
 20
5.4863630556
 11
7.4939855666
 21
5.4872595304
  0
LINE
  5
566
100
AcDbEntity
  8
0
100
AcDbLine
 62
7
  6
CONTINUOUS
 10
7.4376824551
 20
5.5750002722
 11
7.4264074151
 21
5.5761404684
  0
LINE
  5
567
100
AcDbEntity
  8
0
100
AcDbLine
 62
7
  6
CONTINUOUS
 10
3.0473145293
 20
6.1740310582
 11
3.0585895692
 21
6.172890862
  0
LINE
  5
568
100
AcDbEntity
  8
0
100
AcDbLine
 62
7
  6
CONTINUOUS
 10
7.0011570796
 20
5.6203413695
 11
6.9898885676
 21
5.6215443703
  0
LINE
  5
569
100
AcDbEntity
  8
0
100
AcDbLine
 62
7
  6
CONTINUOUS
 10
3.4838399047
 20
6.1286899609
 11
3.4951084167
 21
6.1274869601
  0
LINE
  5
56A
100
AcDbEntity
  8
0
100
AcDbLine
 62
7
  6
CONTINUOUS
 10
6.9159919359
 20
5.548009109
 11
6.9047393271
 21
5.5494844222
  0
LINE
  5
56B
100
AcDbEntity
  8
0
100
AcDbLine
 62
7
  6
CONTINUOUS
 10
7.4846245168
 20
5.4731410887
 11
7.4733734922
 21
5.474628435
  0
LINE
  5
56C
100
AcDbEntity
  8
0
100
AcDbLine
 62
7
  6
CONTINUOUS
 10
3.0684435092
 20
6.1867833595
 11
3.0796130204
 21
6.1848680022
  0
LINE
  5
56D
100
AcDbEntity
  8
0
100
AcDbLine
 62
7
  6
CONTINUOUS
 10
7.4165534751
 20
5.5622479709
 11
7.405383964
 21
5.5641633282
  0
LINE
  5
56E
100
AcDbEntity
  8
0
100
AcDbLine
 62
7
  6
CONTINUOUS
 10
3.5008006294
 20
6.1114339125
 11
3.5119592952
 21
6.1094563506
  0
LINE
  5
56F
100
AcDbEntity
  8
0
100
AcDbLine
 62
7
  6
CONTINUOUS
 10
6.9841963549
 20
5.6375974179
 11
6.9730376891
 21
5.6395749798
  0
LINE
  5
570
100
AcDbEntity
  8
0
100
AcDbLine
 62
7
  6
CONTINUOUS
 10
6.899351369
 20
5.5655446077
 11
6.8881913934
 21
5.5676068151
  0
LINE
  5
571
100
AcDbEntity
  8
0
100
AcDbLine
 62
7
  6
CONTINUOUS
 10
3.5856456153
 20
6.1834867227
 11
3.5968055909
 21
6.1814245153
  0
LINE
  5
572
100
AcDbEntity
  8
0
100
AcDbLine
 62
7
  6
CONTINUOUS
 10
7.4632863692
 20
5.4610192615
 11
7.4521286054
 21
5.4630934027
  0
LINE
  5
573
100
AcDbEntity
  8
0
100
AcDbLine
 62
7
  6
CONTINUOUS
 10
3.0217106151
 20
6.2880120689
 11
3.0328683789
 21
6.2859379277
  0
LINE
  5
574
100
AcDbEntity
  8
0
100
AcDbLine
 62
7
  6
CONTINUOUS
 10
3.6013456399
 20
6.1651043558
 11
3.6123823935
 21
6.1624609066
  0
LINE
  5
575
100
AcDbEntity
  8
0
100
AcDbLine
 62
7
  6
CONTINUOUS
 10
6.8836513445
 20
5.5839269746
 11
6.8726145908
 21
5.5865704238
  0
LINE
  5
576
100
AcDbEntity
  8
0
100
AcDbLine
 62
7
  6
CONTINUOUS
 10
3.0436539269
 20
6.2990005311
 11
3.0546878472
 21
6.2963452803
  0
LINE
  5
577
100
AcDbEntity
  8
0
100
AcDbLine
 62
7
  6
CONTINUOUS
 10
7.4413430574
 20
5.4500307993
 11
7.4303091371
 21
5.4526860501
  0
LINE
  5
578
100
AcDbEntity
  8
0
100
AcDbLine
 62
7
  6
CONTINUOUS
 10
5.6861699642
 20
5.9809096847
 11
5.6772114144
 21
5.9878745542
  0
LINE
  5
579
100
AcDbEntity
  8
0
100
AcDbLine
 62
7
  6
CONTINUOUS
 10
5.2545599529
 20
6.323603723
 11
5.2457487497
 21
6.3307540879
  0
LINE
  5
57A
100
AcDbEntity
  8
0
100
AcDbLine
 62
7
  6
CONTINUOUS
 10
5.6912412267
 20
5.9569415147
 11
5.6826694426
 21
5.9643772081
  0
LINE
  5
57B
100
AcDbEntity
  8
0
100
AcDbLine
 62
7
  6
CONTINUOUS
 10
5.2786480982
 20
6.3223088859
 11
5.2702334049
 21
6.3299218983
  0
LINE
  5
57C
100
AcDbEntity
  8
0
100
AcDbLine
 62
7
  6
CONTINUOUS
 10
5.6950186478
 20
5.9327356896
 11
5.686858344
 21
5.940620768
  0
LINE
  5
57D
100
AcDbEntity
  8
0
100
AcDbLine
 62
7
  6
CONTINUOUS
 10
5.3010757894
 20
6.459088116
 11
5.309219508
 21
6.4511685556
  0
LINE
  5
57E
100
AcDbEntity
  8
0
100
AcDbLine
 62
7
  6
CONTINUOUS
 10
5.3026320147
 20
6.319722945
 11
5.2946380932
 21
6.3277766546
  0
LINE
  5
57F
100
AcDbEntity
  8
0
100
AcDbLine
 62
7
  6
CONTINUOUS
 10
5.8191513826
 20
5.9412366811
 11
5.827070943
 21
5.9330929624
  0
LINE
  5
580
100
AcDbEntity
  8
0
100
AcDbLine
 62
7
  6
CONTINUOUS
 10
5.3255037607
 20
6.456122384
 11
5.3333086991
 21
6.4478687469
  0
LINE
  5
581
100
AcDbEntity
  8
0
100
AcDbLine
 62
7
  6
CONTINUOUS
 10
5.6974913361
 20
5.908362001
 11
5.6897660408
 21
5.9166737297
  0
LINE
  5
582
100
AcDbEntity
  8
0
100
AcDbLine
 62
7
  6
CONTINUOUS
 10
5.8214395462
 20
5.9170304386
 11
5.8290111362
 21
5.9085622267
  0
LINE
  5
583
100
AcDbEntity
  8
0
100
AcDbLine
 62
7
  6
CONTINUOUS
 10
5.3264425508
 20
6.3158533562
 11
5.3188924495
 21
6.3243245422
  0
LINE
  5
584
100
AcDbEntity
  8
0
100
AcDbLine
 62
7
  6
CONTINUOUS
 10
5.3497861125
 20
6.4521363162
 11
5.3572385782
 21
6.4435630821
  0
LINE
  5
585
100
AcDbEntity
  8
0
100
AcDbLine
 62
7
  6
CONTINUOUS
 10
5.6986521623
 20
5.8838907248
 11
5.6913841496
 21
5.8926051388
  0
LINE
  5
586
100
AcDbEntity
  8
0
100
AcDbLine
 62
7
  6
CONTINUOUS
 10
5.8227120505
 20
5.8927496108
 11
5.829922387
 21
5.8839717616
  0
LINE
  5
587
100
AcDbEntity
  8
0
100
AcDbLine
 62
7
  6
CONTINUOUS
 10
5.3500110543
 20
6.3107112767
 11
5.3429265422
 21
6.3195755143
  0
LINE
  5
588
100
AcDbEntity
  8
0
100
AcDbLine
 62
7
  6
CONTINUOUS
 10
5.3738802454
 20
6.4471369056
 11
5.3809671643
 21
6.4382591147
  0
LINE
  5
589
100
AcDbEntity
  8
0
100
AcDbLine
 62
7
  6
CONTINUOUS
 10
5.822966663
 20
5.8684367945
 11
5.8298030967
 21
5.8593647074
  0
LINE
  5
58A
100
AcDbEntity
  8
0
100
AcDbLine
 62
7
  6
CONTINUOUS
 10
5.6984977793
 20
5.8593924177
 11
5.6917080048
 21
5.8684843913
  0
LINE
  5
58B
100
AcDbEntity
  8
0
100
AcDbLine
 62
7
  6
CONTINUOUS
 10
5.3977438901
 20
6.4411329226
 11
5.4044528292
 21
6.4319661497
  0
LINE
  5
58C
100
AcDbEntity
  8
0
100
AcDbLine
 62
7
  6
CONTINUOUS
 10
5.8222029371
 20
5.8441346426
 11
5.8286534745
 21
5.8347842331
  0
LINE
  5
58D
100
AcDbEntity
  8
0
100
AcDbLine
 62
7
  6
CONTINUOUS
 10
5.4213351816
 20
6.4341349005
 11
5.4276543712
 21
6.4246952272
  0
LINE
  5
58E
100
AcDbEntity
  8
0
100
AcDbLine
 62
7
  6
CONTINUOUS
 10
5.8204222126
 20
5.8198857893
 11
5.8264755373
 21
5.8102734613
  0
LINE
  5
58F
100
AcDbEntity
  8
0
100
AcDbLine
 62
7
  6
CONTINUOUS
 10
5.4446127327
 20
6.4261551161
 11
5.4505310869
 21
6.4164591028
  0
LINE
  5
590
100
AcDbEntity
  8
0
100
AcDbLine
 62
7
  6
CONTINUOUS
 10
6.8552423574
 20
6.1260027396
 11
6.8543458826
 21
6.1373161868
  0
LINE
  5
591
100
AcDbEntity
  8
0
100
AcDbLine
 62
7
  6
CONTINUOUS
 10
6.9002357443
 20
5.5542302083
 11
6.899351369
 21
5.5655446077
  0
LINE
  5
592
100
AcDbEntity
  8
0
100
AcDbLine
 62
7
  6
CONTINUOUS
 10
6.868934895
 20
6.1459255054
 11
6.8686317488
 21
6.1572703658
  0
LINE
  5
593
100
AcDbEntity
  8
0
100
AcDbLine
 62
7
  6
CONTINUOUS
 10
6.8839423578
 20
5.5725817965
 11
6.8836513445
 21
5.5839269746
  0
LINE
  5
594
100
AcDbEntity
  8
0
100
AcDbLine
 62
7
  6
CONTINUOUS
 10
6.9686937306
 20
5.644652222
 11
6.9684665576
 21
5.6559824896
  0
LINE
  5
595
100
AcDbEntity
  8
0
100
AcDbLine
 62
7
  6
CONTINUOUS
 10
6.9610869206
 20
6.0834601014
 11
6.9609228812
 21
6.0947914589
  0
LINE
  5
596
100
AcDbEntity
  8
0
100
AcDbLine
 62
7
  6
CONTINUOUS
 10
6.8836513445
 20
6.1651043558
 11
6.8839423578
 21
6.1764495339
  0
LINE
  5
597
100
AcDbEntity
  8
0
100
AcDbLine
 62
7
  6
CONTINUOUS
 10
6.8686317488
 20
5.5917609646
 11
6.868934895
 21
5.603105825
  0
LINE
  5
598
100
AcDbEntity
  8
0
100
AcDbLine
 62
7
  6
CONTINUOUS
 10
6.9534875907
 20
5.6640900278
 11
6.9540426472
 21
5.6754089715
  0
LINE
  5
599
100
AcDbEntity
  8
0
100
AcDbLine
 62
7
  6
CONTINUOUS
 10
6.9761727635
 20
6.10237715
 11
6.9767908783
 21
6.1136928253
  0
LINE
  5
59A
100
AcDbEntity
  8
0
100
AcDbLine
 62
7
  6
CONTINUOUS
 10
6.899351369
 20
6.1834867227
 11
6.9002357443
 21
6.1948011221
  0
LINE
  5
59B
100
AcDbEntity
  8
0
100
AcDbLine
 62
7
  6
CONTINUOUS
 10
6.8543458826
 20
5.6117151436
 11
6.8552423574
 21
5.6230285908
  0
LINE
  5
59C
100
AcDbEntity
  8
0
100
AcDbLine
 62
7
  6
CONTINUOUS
 10
6.9396587195
 20
5.6845306077
 11
6.9409933602
 21
5.6957842874
  0
LINE
  5
59D
100
AcDbEntity
  8
0
100
AcDbLine
 62
7
  6
CONTINUOUS
 10
6.9925277698
 20
6.120208335
 11
6.9939250931
 21
6.1314544036
  0
LINE
  5
59E
100
AcDbEntity
  8
0
100
AcDbLine
 62
7
  6
CONTINUOUS
 10
7.5820046917
 20
5.9865058009
 11
7.5780156513
 21
5.9758985331
  0
LINE
  5
59F
100
AcDbEntity
  8
0
100
AcDbLine
 62
7
  6
CONTINUOUS
 10
7.4264074151
 20
5.5761404684
 11
7.4223593351
 21
5.5655555914
  0
LINE
  5
5A0
100
AcDbEntity
  8
0
100
AcDbLine
 62
7
  6
CONTINUOUS
 10
7.4733734922
 20
5.474628435
 11
7.4690360595
 21
5.4641410887
  0
LINE
  5
5A1
100
AcDbEntity
  8
0
100
AcDbLine
 62
7
  6
CONTINUOUS
 10
7.405383964
 20
5.5641633282
 11
7.4006152666
 21
5.5538829538
  0
LINE
  5
5A2
100
AcDbEntity
  8
0
100
AcDbLine
 62
7
  6
CONTINUOUS
 10
7.4521286054
 20
5.4630934027
 11
7.4472482518
 21
5.4528474325
  0
LINE
  5
5A3
100
AcDbEntity
  8
0
100
AcDbLine
 62
7
  6
CONTINUOUS
 10
3.112571283
 20
5.548986603
 11
3.1016596406
 21
5.5459267611
  0
LINE
  5
5A4
100
AcDbEntity
  8
0
100
AcDbLine
 62
7
  6
CONTINUOUS
 10
5.4295782758
 20
6.290646915
 11
5.4185894916
 21
6.2878164303
  0
LINE
  5
5A5
100
AcDbEntity
  8
0
100
AcDbLine
 62
7
  6
CONTINUOUS
 10
4.8945072131
 20
6.1586417502
 11
4.8834617361
 21
6.1560412773
  0
LINE
  5
5A6
100
AcDbEntity
  8
0
100
AcDbLine
 62
7
  6
CONTINUOUS
 10
3.5199079797
 20
5.649015718
 11
3.5088242208
 21
5.6466541804
  0
LINE
  5
5A7
100
AcDbEntity
  8
0
100
AcDbLine
 62
7
  6
CONTINUOUS
 10
3.0904222416
 20
5.558726077
 11
3.0793254967
 21
5.5564263326
  0
LINE
  5
5A8
100
AcDbEntity
  8
0
100
AcDbLine
 62
7
  6
CONTINUOUS
 10
5.451645099
 20
6.2800051957
 11
5.4405202258
 21
6.2777686323
  0
LINE
  5
5A9
100
AcDbEntity
  8
0
100
AcDbLine
 62
7
  6
CONTINUOUS
 10
4.9102598182
 20
6.1769111447
 11
4.8990906801
 21
6.1749073047
  0
LINE
  5
5AA
100
AcDbEntity
  8
0
100
AcDbLine
 62
7
  6
CONTINUOUS
 10
5.4731088985
 20
6.2681943451
 11
5.461880012
 21
6.2665581517
  0
LINE
  5
5AB
100
AcDbEntity
  8
0
100
AcDbLine
 62
7
  6
CONTINUOUS
 10
7.4733734922
 20
6.2744028954
 11
7.4846245168
 21
6.2758902417
  0
LINE
  5
5AC
100
AcDbEntity
  8
0
100
AcDbLine
 62
7
  6
CONTINUOUS
 10
6.9047393271
 20
6.1995469082
 11
6.9159919359
 21
6.2010222214
  0
LINE
  5
5AD
100
AcDbEntity
  8
0
100
AcDbLine
 62
7
  6
CONTINUOUS
 10
4.9269703534
 20
6.1943086547
 11
4.9157097577
 21
6.1929072253
  0
LINE
  5
5AE
100
AcDbEntity
  8
0
100
AcDbLine
 62
7
  6
CONTINUOUS
 10
5.4939077885
 20
6.2552484169
 11
5.4826072645
 21
6.2542173111
  0
LINE
  5
5AF
100
AcDbEntity
  8
0
100
AcDbLine
 62
7
  6
CONTINUOUS
 10
7.4939855666
 20
6.2617717999
 11
7.5052990138
 21
6.2626682748
  0
LINE
  5
5B0
100
AcDbEntity
  8
0
100
AcDbLine
 62
7
  6
CONTINUOUS
 10
6.9222130352
 20
6.2167784131
 11
6.9335274347
 21
6.2176627884
  0
LINE
  5
5B1
100
AcDbEntity
  8
0
100
AcDbLine
 62
7
  6
CONTINUOUS
 10
6.99877068
 20
6.136055344
 11
7.0100740004
 21
6.1368686824
  0
LINE
  5
5B2
100
AcDbEntity
  8
0
100
AcDbLine
 62
7
  6
CONTINUOUS
 10
4.9445906379
 20
6.2107841188
 11
4.9332710518
 21
6.2099891405
  0
LINE
  5
5B3
100
AcDbEntity
  8
0
100
AcDbLine
 62
7
  6
CONTINUOUS
 10
7.436596591
 20
6.1663652464
 11
7.4479042678
 21
6.1671155923
  0
LINE
  5
5B4
100
AcDbEntity
  8
0
100
AcDbLine
 62
7
  6
CONTINUOUS
 10
3.0079432474
 20
6.1443120461
 11
3.019267906
 21
6.144734753
  0
LINE
  5
5B5
100
AcDbEntity
  8
0
100
AcDbLine
 62
7
  6
CONTINUOUS
 10
5.5139818004
 20
6.2412047377
 11
5.5026422213
 21
6.2407816924
  0
LINE
  5
5B6
100
AcDbEntity
  8
0
100
AcDbLine
 62
7
  6
CONTINUOUS
 10
3.4465544565
 20
6.1594918281
 11
3.4578812945
 21
6.1598514296
  0
LINE
  5
5B7
100
AcDbEntity
  8
0
100
AcDbLine
 62
7
  6
CONTINUOUS
 10
7.5139083324
 20
6.2480792624
 11
7.5252531928
 21
6.2483824085
  0
LINE
  5
5B8
100
AcDbEntity
  8
0
100
AcDbLine
 62
7
  6
CONTINUOUS
 10
6.9405646235
 20
6.2330717995
 11
6.9519098016
 21
6.2333628129
  0
LINE
  5
5B9
100
AcDbEntity
  8
0
100
AcDbLine
 62
7
  6
CONTINUOUS
 10
4.9630698679
 20
6.2262900339
 11
4.9517239287
 21
6.2261037989
  0
LINE
  5
5BA
100
AcDbEntity
  8
0
100
AcDbLine
 62
7
  6
CONTINUOUS
 10
7.0173953388
 20
6.1522472268
 11
7.0287278396
 21
6.1522787983
  0
LINE
  5
5BB
100
AcDbEntity
  8
0
100
AcDbLine
 62
7
  6
CONTINUOUS
 10
3.2424984922
 20
5.9720156652
 11
2.8899984922
 21
5.9720156652
  0
LINE
  5
5BC
100
AcDbEntity
  8
0
100
AcDbLine
 62
7
  6
CONTINUOUS
 10
7.2424984922
 20
5.9720156652
 11
7.5949984922
 21
5.9720156652
  0
LINE
  5
5BD
100
AcDbEntity
  8
0
100
AcDbLine
 62
7
  6
CONTINUOUS
 10
2.7899984922
 20
6.0245156652
 11
1.4999984922
 21
6.0245156652
  0
LINE
  5
5BE
100
AcDbEntity
  8
0
100
AcDbLine
 62
7
  6
CONTINUOUS
 10
7.6949984922
 20
6.0245156652
 11
8.9849984922
 21
6.0245156652
  0
LINE
  5
5BF
100
AcDbEntity
  8
0
100
AcDbLine
 62
7
  6
CONTINUOUS
 10
7.4562691447
 20
6.1522787983
 11
7.4676016456
 21
6.1522472268
  0
LINE
  5
5C0
100
AcDbEntity
  8
0
100
AcDbLine
 62
7
  6
CONTINUOUS
 10
5.5332730556
 20
6.2261037989
 11
5.5219271164
 21
6.2262900339
  0
LINE
  5
5C1
100
AcDbEntity
  8
0
100
AcDbLine
 62
7
  6
CONTINUOUS
 10
3.5330871827
 20
6.2333628129
 11
3.5444323608
 21
6.2330717995
  0
LINE
  5
5C2
100
AcDbEntity
  8
0
100
AcDbLine
 62
7
  6
CONTINUOUS
 10
2.9597437915
 20
6.2483824085
 11
2.9710886519
 21
6.2480792624
  0
LINE
  5
5C3
100
AcDbEntity
  8
0
100
AcDbLine
 62
7
  6
CONTINUOUS
 10
3.0271156898
 20
6.1598514296
 11
3.0384425278
 21
6.1594918281
  0
LINE
  5
5C4
100
AcDbEntity
  8
0
100
AcDbLine
 62
7
  6
CONTINUOUS
 10
3.4657290783
 20
6.144734753
 11
3.4770537369
 21
6.1443120461
  0
LINE
  5
5C5
100
AcDbEntity
  8
0
100
AcDbLine
 62
7
  6
CONTINUOUS
 10
4.982354763
 20
6.2407816924
 11
4.9710151839
 21
6.2412047377
  0
LINE
  5
5C6
100
AcDbEntity
  8
0
100
AcDbLine
 62
7
  6
CONTINUOUS
 10
5.5517259325
 20
6.2099891405
 11
5.5404063464
 21
6.2107841188
  0
LINE
  5
5C7
100
AcDbEntity
  8
0
100
AcDbLine
 62
7
  6
CONTINUOUS
 10
3.5514695496
 20
6.2176627884
 11
3.5627839491
 21
6.2167784131
  0
LINE
  5
5C8
100
AcDbEntity
  8
0
100
AcDbLine
 62
7
  6
CONTINUOUS
 10
2.9796979705
 20
6.2626682748
 11
2.9910114177
 21
6.2617717999
  0
LINE
  5
5C9
100
AcDbEntity
  8
0
100
AcDbLine
 62
7
  6
CONTINUOUS
 10
5.0023897198
 20
6.2542173111
 11
4.9910891958
 21
6.2552484169
  0
LINE
  5
5CA
100
AcDbEntity
  8
0
100
AcDbLine
 62
7
  6
CONTINUOUS
 10
5.5692872266
 20
6.1929072253
 11
5.5580266309
 21
6.1943086547
  0
LINE
  5
5CB
100
AcDbEntity
  8
0
100
AcDbLine
 62
7
  6
CONTINUOUS
 10
3.5690050484
 20
6.2010222214
 11
3.5802576572
 21
6.1995469082
  0
LINE
  5
5CC
100
AcDbEntity
  8
0
100
AcDbLine
 62
7
  6
CONTINUOUS
 10
3.0003724675
 20
6.2758902417
 11
3.0116234922
 21
6.2744028954
  0
LINE
  5
5CD
100
AcDbEntity
  8
0
100
AcDbLine
 62
7
  6
CONTINUOUS
 10
5.0231169723
 20
6.2665581517
 11
5.0118880858
 21
6.2681943451
  0
LINE
  5
5CE
100
AcDbEntity
  8
0
100
AcDbLine
 62
7
  6
CONTINUOUS
 10
5.5859063042
 20
6.1749073047
 11
5.5747371661
 21
6.1769111447
  0
LINE
  5
5CF
100
AcDbEntity
  8
0
100
AcDbLine
 62
7
  6
CONTINUOUS
 10
5.0444767585
 20
6.2777686323
 11
5.0333518853
 21
6.2800051957
  0
LINE
  5
5D0
100
AcDbEntity
  8
0
100
AcDbLine
 62
7
  6
CONTINUOUS
 10
5.6015352482
 20
6.1560412773
 11
5.5904897713
 21
6.1586417502
  0
LINE
  5
5D1
100
AcDbEntity
  8
0
100
AcDbLine
 62
7
  6
CONTINUOUS
 10
7.3945950439
 20
5.5509837673
 11
7.3835842893
 21
5.5536651582
  0
LINE
  5
5D2
100
AcDbEntity
  8
0
100
AcDbLine
 62
7
  6
CONTINUOUS
 10
6.9684665576
 20
5.6559824896
 11
6.9574709141
 21
5.6587251887
  0
LINE
  5
5D3
100
AcDbEntity
  8
0
100
AcDbLine
 62
7
  6
CONTINUOUS
 10
5.0664074927
 20
6.2878164303
 11
5.0554187086
 21
6.290646915
  0
LINE
  5
5D4
100
AcDbEntity
  8
0
100
AcDbLine
 62
7
  6
CONTINUOUS
 10
5.6161289963
 20
6.1363635387
 11
5.6052390274
 21
6.1395531466
  0
LINE
  5
5D5
100
AcDbEntity
  8
0
100
AcDbLine
 62
7
  6
CONTINUOUS
 10
6.868934895
 20
5.603105825
 11
6.8580516143
 21
5.6063232705
  0
LINE
  5
5D6
100
AcDbEntity
  8
0
100
AcDbLine
 62
7
  6
CONTINUOUS
 10
7.4188547265
 20
5.4402058206
 11
7.4079748929
 21
5.4434349033
  0
LINE
  5
5D7
100
AcDbEntity
  8
0
100
AcDbLine
 62
7
  6
CONTINUOUS
 10
5.0888459428
 20
6.2966725751
 11
5.0780249313
 21
6.3000888202
  0
LINE
  5
5D8
100
AcDbEntity
  8
0
100
AcDbLine
 62
7
  6
CONTINUOUS
 10
7.3719118033
 20
5.5412613406
 11
7.3611122766
 21
5.544695987
  0
LINE
  5
5D9
100
AcDbEntity
  8
0
100
AcDbLine
 62
7
  6
CONTINUOUS
 10
6.9540426472
 20
5.6754089715
 11
6.9432624253
 21
5.6789037374
  0
LINE
  5
5DA
100
AcDbEntity
  8
0
100
AcDbLine
 62
7
  6
CONTINUOUS
 10
5.6296454709
 20
6.1159308249
 11
5.6189424088
 21
6.1197003714
  0
LINE
  5
5DB
100
AcDbEntity
  8
0
100
AcDbLine
 62
7
  6
CONTINUOUS
 10
6.8552423574
 20
5.6230285908
 11
6.8445423799
 21
5.6268112138
  0
LINE
  5
5DC
100
AcDbEntity
  8
0
100
AcDbLine
 62
7
  6
CONTINUOUS
 10
7.3958830154
 20
5.431571255
 11
7.3851870893
 21
5.4353653188
  0
LINE
  5
5DD
100
AcDbEntity
  8
0
100
AcDbLine
 62
7
  6
CONTINUOUS
 10
5.1117274129
 20
6.3043115323
 11
5.1011053739
 21
6.3083036879
  0
LINE
  5
5DE
100
AcDbEntity
  8
0
100
AcDbLine
 62
7
  6
CONTINUOUS
 10
6.842611262
 20
5.6436406652
 11
6.8321239156
 21
5.6479780978
  0
LINE
  5
5DF
100
AcDbEntity
  8
0
100
AcDbLine
 62
7
  6
CONTINUOUS
 10
5.6420457006
 20
6.0948020487
 11
5.6315604048
 21
6.0991406652
  0
LINE
  5
5E0
100
AcDbEntity
  8
0
100
AcDbLine
 62
7
  6
CONTINUOUS
 10
7.372490888
 20
5.4241507692
 11
7.3620081862
 21
5.4284994149
  0
LINE
  5
5E1
100
AcDbEntity
  8
0
100
AcDbLine
 62
7
  6
CONTINUOUS
 10
5.0817668138
 20
6.4396011256
 11
5.0922540365
 21
6.4352356074
  0
LINE
  5
5E2
100
AcDbEntity
  8
0
100
AcDbLine
 62
7
  6
CONTINUOUS
 10
5.13498593
 20
6.3107112767
 11
5.1245934894
 21
6.3152678323
  0
LINE
  5
5E3
100
AcDbEntity
  8
0
100
AcDbLine
 62
7
  6
CONTINUOUS
 10
5.7540951461
 20
6.1488313842
 11
5.7644564699
 21
6.1441749307
  0
LINE
  5
5E4
100
AcDbEntity
  8
0
100
AcDbLine
 62
7
  6
CONTINUOUS
 10
5.1055711258
 20
6.4458361938
 11
5.1158663405
 21
6.4410353455
  0
LINE
  5
5E5
100
AcDbEntity
  8
0
100
AcDbLine
 62
7
  6
CONTINUOUS
 10
6.8310762296
 20
5.6648855519
 11
6.8208302595
 21
5.6697659056
  0
LINE
  5
5E6
100
AcDbEntity
  8
0
100
AcDbLine
 62
7
  6
CONTINUOUS
 10
5.6532939322
 20
6.0730381298
 11
5.6430566347
 21
6.077933307
  0
LINE
  5
5E7
100
AcDbEntity
  8
0
100
AcDbLine
 62
7
  6
CONTINUOUS
 10
5.765133539
 20
6.1271673184
 11
5.7752907821
 21
6.1220810622
  0
LINE
  5
5E8
100
AcDbEntity
  8
0
100
AcDbLine
 62
7
  6
CONTINUOUS
 10
5.1585544336
 20
6.3158533562
 11
5.1484215556
 21
6.3209611742
  0
LINE
  5
5E9
100
AcDbEntity
  8
0
100
AcDbLine
 62
7
  6
CONTINUOUS
 10
5.129615655
 20
6.4510689716
 11
5.1397008004
 21
6.4458412156
  0
LINE
  5
5EA
100
AcDbEntity
  8
0
100
AcDbLine
 62
7
  6
CONTINUOUS
 10
5.6633577342
 20
6.0507018192
 11
5.6533979517
 21
6.056139443
  0
LINE
  5
5EB
100
AcDbEntity
  8
0
100
AcDbLine
 62
7
  6
CONTINUOUS
 10
5.7752550524
 20
6.1050600157
 11
5.7851903956
 21
6.0995528799
  0
LINE
  5
5EC
100
AcDbEntity
  8
0
100
AcDbLine
 62
7
  6
CONTINUOUS
 10
5.1538582191
 20
6.455290279
 11
5.1637156024
 21
6.4496447866
  0
LINE
  5
5ED
100
AcDbEntity
  8
0
100
AcDbLine
 62
7
  6
CONTINUOUS
 10
5.1823649696
 20
6.319722945
 11
5.1725208699
 21
6.3253672981
  0
LINE
  5
5EE
100
AcDbEntity
  8
0
100
AcDbLine
 62
7
  6
CONTINUOUS
 10
5.7844419297
 20
6.0825482599
 11
5.794137943
 21
6.0766299058
  0
LINE
  5
5EF
100
AcDbEntity
  8
0
100
AcDbLine
 62
7
  6
CONTINUOUS
 10
5.6722080901
 20
6.0278575184
 11
5.6625545392
 21
6.0338219107
  0
LINE
  5
5F0
100
AcDbEntity
  8
0
100
AcDbLine
 62
7
  6
CONTINUOUS
 10
5.1782562883
 20
6.4584927103
 11
5.1878686163
 21
6.4524393857
  0
LINE
  5
5F1
100
AcDbEntity
  8
0
100
AcDbLine
 62
7
  6
CONTINUOUS
 10
5.2063488862
 20
6.3223088859
 11
5.1968219479
 21
6.3284735
  0
LINE
  5
5F2
100
AcDbEntity
  8
0
100
AcDbLine
 62
7
  6
CONTINUOUS
 10
5.7926780542
 20
6.0596715442
 11
5.8021177275
 21
6.0533523546
  0
LINE
  5
5F3
100
AcDbEntity
  8
0
100
AcDbLine
 62
7
  6
CONTINUOUS
 10
5.2027670601
 20
6.4606706475
 11
5.2121174696
 21
6.4542201101
  0
LINE
  5
5F4
100
AcDbEntity
  8
0
100
AcDbLine
 62
7
  6
CONTINUOUS
 10
5.679819482
 20
6.0045710933
 11
5.6704999964
 21
6.0110450572
  0
LINE
  5
5F5
100
AcDbEntity
  8
0
100
AcDbLine
 62
7
  6
CONTINUOUS
 10
5.2304370314
 20
6.323603723
 11
5.2212547231
 21
6.330270824
  0
LINE
  5
5F6
100
AcDbEntity
  8
0
100
AcDbLine
 62
7
  6
CONTINUOUS
 10
5.7999489767
 20
6.0364700023
 11
5.8091157496
 21
6.0297610631
  0
LINE
  5
5F7
100
AcDbEntity
  8
0
100
AcDbLine
 62
7
  6
CONTINUOUS
 10
5.2273475344
 20
6.4618202697
 11
5.2364196215
 21
6.454983836
  0
LINE
  5
5F8
100
AcDbEntity
  8
0
100
AcDbLine
 62
7
  6
CONTINUOUS
 10
5.8062419416
 20
6.0129843373
 11
5.8151197325
 21
6.0058974185
  0
LINE
  5
5F9
100
AcDbEntity
  8
0
100
AcDbLine
 62
7
  6
CONTINUOUS
 10
5.2519545886
 20
6.46193956
 11
5.2607324378
 21
6.4547292235
  0
LINE
  5
5FA
100
AcDbEntity
  8
0
100
AcDbLine
 62
7
  6
CONTINUOUS
 10
5.811545909
 20
5.9892557513
 11
5.8201191432
 21
5.9818032856
  0
LINE
  5
5FB
100
AcDbEntity
  8
0
100
AcDbLine
 62
7
  6
CONTINUOUS
 10
5.2765450536
 20
6.4610283093
 11
5.2850132656
 21
6.4534567192
  0
LINE
  5
5FC
100
AcDbEntity
  8
0
100
AcDbLine
 62
7
  6
CONTINUOUS
 10
5.8158515739
 20
5.9653258722
 11
5.824105211
 21
5.9575209337
  0
LINE
  5
5FD
100
AcDbEntity
  8
0
100
AcDbLine
 62
7
  6
CONTINUOUS
 10
6.9852046747
 20
5.6263098201
 11
6.9841963549
 21
5.6375974179
  0
LINE
  5
5FE
100
AcDbEntity
  8
0
100
AcDbLine
 62
7
  6
CONTINUOUS
 10
6.947342132
 20
6.0635473373
 11
6.9463967201
 21
6.074840378
  0
LINE
  5
5FF
100
AcDbEntity
  8
0
100
AcDbLine
 62
7
  6
CONTINUOUS
 10
7.4838399047
 20
5.6203413695
 11
7.4820552432
 21
5.6091502322
  0
LINE
  5
600
100
AcDbEntity
  8
0
100
AcDbLine
 62
7
  6
CONTINUOUS
 10
7.5633569076
 20
6.0321739261
 11
7.5608659689
 21
6.0211185294
  0
LINE
  5
601
100
AcDbEntity
  8
0
100
AcDbLine
 62
7
  6
CONTINUOUS
 10
7.4657290783
 20
5.6042965774
 11
7.4631765798
 21
5.5932552313
  0
LINE
  5
602
100
AcDbEntity
  8
0
100
AcDbLine
 62
7
  6
CONTINUOUS
 10
7.5330871827
 20
5.5156685175
 11
7.5304437335
 21
5.5046317638
  0
LINE
  5
603
100
AcDbEntity
  8
0
100
AcDbLine
 62
7
  6
CONTINUOUS
 10
7.666983358
 20
6.0733602305
 11
7.6643281072
 21
6.0623263101
  0
LINE
  5
604
100
AcDbEntity
  8
0
100
AcDbLine
 62
7
  6
CONTINUOUS
 10
7.5139083324
 20
5.500952068
 11
7.5106908869
 21
5.4900687873
  0
LINE
  5
605
100
AcDbEntity
  8
0
100
AcDbLine
 62
7
  6
CONTINUOUS
 10
7.5734694132
 20
6.0096618801
 11
7.5702216852
 21
5.9988046781
  0
LINE
  5
606
100
AcDbEntity
  8
0
100
AcDbLine
 62
7
  6
CONTINUOUS
 10
7.4465544565
 20
5.5895395023
 11
7.4432462848
 21
5.5787005646
  0
LINE
  5
607
100
AcDbEntity
  8
0
100
AcDbLine
 62
7
  6
CONTINUOUS
 10
7.4939855666
 20
5.4872595304
 11
7.4902029436
 21
5.476559553
  0
LINE
  5
608
100
AcDbEntity
  8
0
100
AcDbLine
 62
7
  6
CONTINUOUS
 10
4.765532548
 20
6.2175313181
 11
4.7764629478
 21
6.2206242051
  0
LINE
  5
609
100
AcDbEntity
  8
0
100
AcDbLine
 62
7
  6
CONTINUOUS
 10
5.4730428427
 20
6.4072722254
 11
5.4840552901
 21
6.4100589066
  0
LINE
  5
60A
100
AcDbEntity
  8
0
100
AcDbLine
 62
7
  6
CONTINUOUS
 10
4.7803149329
 20
6.2372036958
 11
4.7913652615
 21
6.2398361522
  0
LINE
  5
60B
100
AcDbEntity
  8
0
100
AcDbLine
 62
7
  6
CONTINUOUS
 10
5.4951501453
 20
6.397150712
 11
5.5062696271
 21
6.3994737953
  0
LINE
  5
60C
100
AcDbEntity
  8
0
100
AcDbLine
 62
7
  6
CONTINUOUS
 10
4.7959081448
 20
6.2562397955
 11
4.8070590162
 21
6.258407203
  0
LINE
  5
60D
100
AcDbEntity
  8
0
100
AcDbLine
 62
7
  6
CONTINUOUS
 10
2.9730376891
 20
6.1094563506
 11
2.9841963549
 21
6.1114339125
  0
LINE
  5
60E
100
AcDbEntity
  8
0
100
AcDbLine
 62
7
  6
CONTINUOUS
 10
3.405383964
 20
6.1848680022
 11
3.4165534751
 21
6.1867833595
  0
LINE
  5
60F
100
AcDbEntity
  8
0
100
AcDbLine
 62
7
  6
CONTINUOUS
 10
5.5168142112
 20
6.3861123191
 11
5.5280212198
 21
6.3879677292
  0
LINE
  5
610
100
AcDbEntity
  8
0
100
AcDbLine
 62
7
  6
CONTINUOUS
 10
4.8122848279
 20
6.2746062213
 11
4.8235166797
 21
6.2763047776
  0
LINE
  5
611
100
AcDbEntity
  8
0
100
AcDbLine
 62
7
  6
CONTINUOUS
 10
3.4733734922
 20
6.2744028954
 11
3.4846245168
 21
6.2758902417
  0
LINE
  5
612
100
AcDbEntity
  8
0
100
AcDbLine
 62
7
  6
CONTINUOUS
 10
2.9047393271
 20
6.1995469082
 11
2.9159919359
 21
6.2010222214
  0
LINE
  5
613
100
AcDbEntity
  8
0
100
AcDbLine
 62
7
  6
CONTINUOUS
 10
5.537997034
 20
6.3741764119
 11
5.5492719087
 21
6.3755608936
  0
LINE
  5
614
100
AcDbEntity
  8
0
100
AcDbLine
 62
7
  6
CONTINUOUS
 10
4.829416252
 20
6.2922707523
 11
4.8407093797
 21
6.2934974776
  0
LINE
  5
615
100
AcDbEntity
  8
0
100
AcDbLine
 62
7
  6
CONTINUOUS
 10
2.9898885676
 20
6.1274869601
 11
3.0011570796
 21
6.1286899609
  0
LINE
  5
616
100
AcDbEntity
  8
0
100
AcDbLine
 62
7
  6
CONTINUOUS
 10
3.4264074151
 20
6.172890862
 11
3.4376824551
 21
6.1740310582
  0
LINE
  5
617
100
AcDbEntity
  8
0
100
AcDbLine
 62
7
  6
CONTINUOUS
 10
5.558661452
 20
6.3613639299
 11
5.5699844128
 21
6.3622750544
  0
LINE
  5
618
100
AcDbEntity
  8
0
100
AcDbLine
 62
7
  6
CONTINUOUS
 10
3.4939855666
 20
6.2617717999
 11
3.5052990138
 21
6.2626682748
  0
LINE
  5
619
100
AcDbEntity
  8
0
100
AcDbLine
 62
7
  6
CONTINUOUS
 10
2.9222130352
 20
6.2167784131
 11
2.9335274347
 21
6.2176627884
  0
LINE
  5
61A
100
AcDbEntity
  8
0
100
AcDbLine
 62
7
  6
CONTINUOUS
 10
4.8472723626
 20
6.309202399
 11
4.8586069543
 21
6.3099551411
  0
LINE
  5
61B
100
AcDbEntity
  8
0
100
AcDbLine
 62
7
  6
CONTINUOUS
 10
5.5787712127
 20
6.3476973506
 11
5.5901223953
 21
6.3481335196
  0
LINE
  5
61C
100
AcDbEntity
  8
0
100
AcDbLine
 62
7
  6
CONTINUOUS
 10
3.5139083324
 20
6.2480792624
 11
3.5252531928
 21
6.2483824085
  0
LINE
  5
61D
100
AcDbEntity
  8
0
100
AcDbLine
 62
7
  6
CONTINUOUS
 10
2.9405646235
 20
6.2330717995
 11
2.9519098016
 21
6.2333628129
  0
LINE
  5
61E
100
AcDbEntity
  8
0
100
AcDbLine
 62
7
  6
CONTINUOUS
 10
4.8658218342
 20
6.3253714574
 11
4.8771780052
 21
6.3256488958
  0
LINE
  5
61F
100
AcDbEntity
  8
0
100
AcDbLine
 62
7
  6
CONTINUOUS
 10
5.5982910368
 20
6.3332006499
 11
5.6096505273
 21
6.333161098
  0
LINE
  5
620
100
AcDbEntity
  8
0
100
AcDbLine
 62
7
  6
CONTINUOUS
 10
4.8850321247
 20
6.3407495616
 11
4.8963899522
 21
6.3405512095
  0
LINE
  5
621
100
AcDbEntity
  8
0
100
AcDbLine
 62
7
  6
CONTINUOUS
 10
7.5330871827
 20
6.2333628129
 11
7.5444323608
 21
6.2330717995
  0
LINE
  5
622
100
AcDbEntity
  8
0
100
AcDbLine
 62
7
  6
CONTINUOUS
 10
6.9597437915
 20
6.2483824085
 11
6.9710886519
 21
6.2480792624
  0
LINE
  5
623
100
AcDbEntity
  8
0
100
AcDbLine
 62
7
  6
CONTINUOUS
 10
5.6171866799
 20
6.3178992598
 11
5.62853455
 21
6.3173840566
  0
LINE
  5
624
100
AcDbEntity
  8
0
100
AcDbLine
 62
7
  6
CONTINUOUS
 10
4.9048695327
 20
6.3553097331
 11
4.9162090913
 21
6.3546359386
  0
LINE
  5
625
100
AcDbEntity
  8
0
100
AcDbLine
 62
7
  6
CONTINUOUS
 10
7.0370927165
 20
6.1671155923
 11
7.0484003933
 21
6.1663652464
  0
LINE
  5
626
100
AcDbEntity
  8
0
100
AcDbLine
 62
7
  6
CONTINUOUS
 10
7.4749229839
 20
6.1368686824
 11
7.4862263043
 21
6.136055344
  0
LINE
  5
627
100
AcDbEntity
  8
0
100
AcDbLine
 62
7
  6
CONTINUOUS
 10
7.5514695496
 20
6.2176627884
 11
7.5627839491
 21
6.2167784131
  0
LINE
  5
628
100
AcDbEntity
  8
0
100
AcDbLine
 62
7
  6
CONTINUOUS
 10
6.9796979705
 20
6.2626682748
 11
6.9910114177
 21
6.2617717999
  0
LINE
  5
629
100
AcDbEntity
  8
0
100
AcDbLine
 62
7
  6
CONTINUOUS
 10
5.6354249926
 20
6.3018200243
 11
5.6467413342
 21
6.3008300735
  0
LINE
  5
62A
100
AcDbEntity
  8
0
100
AcDbLine
 62
7
  6
CONTINUOUS
 10
4.9252992565
 20
6.3690264284
 11
4.9366006529
 21
6.3678783735
  0
LINE
  5
62B
100
AcDbEntity
  8
0
100
AcDbLine
 62
7
  6
CONTINUOUS
 10
5.6529739786
 20
6.2849911517
 11
5.664238939
 21
6.28352819
  0
LINE
  5
62C
100
AcDbEntity
  8
0
100
AcDbLine
 62
7
  6
CONTINUOUS
 10
7.5690050484
 20
6.2010222214
 11
7.5802576572
 21
6.1995469082
  0
LINE
  5
62D
100
AcDbEntity
  8
0
100
AcDbLine
 62
7
  6
CONTINUOUS
 10
7.0003724675
 20
6.2758902417
 11
7.0116234922
 21
6.2744028954
  0
LINE
  5
62E
100
AcDbEntity
  8
0
100
AcDbLine
 62
7
  6
CONTINUOUS
 10
7.0577689464
 20
6.1805895859
 11
7.0689979128
 21
6.1790608982
  0
LINE
  5
62F
100
AcDbEntity
  8
0
100
AcDbLine
 62
7
  6
CONTINUOUS
 10
7.4924692145
 20
6.120208335
 11
7.5036894891
 21
6.1186171055
  0
LINE
  5
630
100
AcDbEntity
  8
0
100
AcDbLine
 62
7
  6
CONTINUOUS
 10
4.9462854556
 20
6.3818755838
 11
4.9575288632
 21
6.3802552826
  0
LINE
  5
631
100
AcDbEntity
  8
0
100
AcDbLine
 62
7
  6
CONTINUOUS
 10
5.6698028512
 20
6.2674421656
 11
5.6809966679
 21
6.2655087596
  0
LINE
  5
632
100
AcDbEntity
  8
0
100
AcDbLine
 62
7
  6
CONTINUOUS
 10
4.967791313
 20
6.3938346575
 11
4.9789570071
 21
6.3917449525
  0
LINE
  5
633
100
AcDbEntity
  8
0
100
AcDbLine
 62
7
  6
CONTINUOUS
 10
5.6858820868
 20
6.2492038529
 11
5.6969851219
 21
6.2468033945
  0
LINE
  5
634
100
AcDbEntity
  8
0
100
AcDbLine
 62
7
  6
CONTINUOUS
 10
4.9897791002
 20
6.4048826692
 11
5.0008474923
 21
6.4023272265
  0
LINE
  5
635
100
AcDbEntity
  8
0
100
AcDbLine
 62
7
  6
CONTINUOUS
 10
5.7011834768
 20
6.2303082098
 11
5.712176252
 21
6.2274449102
  0
LINE
  5
636
100
AcDbEntity
  8
0
100
AcDbLine
 62
7
  6
CONTINUOUS
 10
5.0122102431
 20
6.415000237
 11
5.0231619154
 21
6.4119835397
  0
LINE
  5
637
100
AcDbEntity
  8
0
100
AcDbLine
 62
7
  6
CONTINUOUS
 10
5.7156801776
 20
6.2107883857
 11
5.7265434076
 21
6.207467268
  0
LINE
  5
638
100
AcDbEntity
  8
0
100
AcDbLine
 62
7
  6
CONTINUOUS
 10
5.0350453898
 20
6.4241696112
 11
5.0458611295
 21
6.4206969516
  0
LINE
  5
639
100
AcDbEntity
  8
0
100
AcDbLine
 62
7
  6
CONTINUOUS
 10
5.7293467569
 20
6.190678625
 11
5.740061384
 21
6.1869055156
  0
LINE
  5
63A
100
AcDbEntity
  8
0
100
AcDbLine
 62
7
  6
CONTINUOUS
 10
5.0582444797
 20
6.4323747055
 11
5.0689053123
 21
6.4284521759
  0
LINE
  5
63B
100
AcDbEntity
  8
0
100
AcDbLine
 62
7
  6
CONTINUOUS
 10
7.3486118494
 20
5.5331270224
 11
7.3380750152
 21
5.5372985567
  0
LINE
  5
63C
100
AcDbEntity
  8
0
100
AcDbLine
 62
7
  6
CONTINUOUS
 10
5.7421592388
 20
6.170014207
 11
5.752706466
 21
6.1657957253
  0
LINE
  5
63D
100
AcDbEntity
  8
0
100
AcDbLine
 62
7
  6
CONTINUOUS
 10
6.9409933602
 20
5.6957842874
 11
6.9304799326
 21
5.7000144661
  0
LINE
  5
63E
100
AcDbEntity
  8
0
100
AcDbLine
 62
7
  6
CONTINUOUS
 10
7.3487424604
 20
5.4179647023
 11
7.3385017154
 21
5.4228560106
  0
LINE
  5
63F
100
AcDbEntity
  8
0
100
AcDbLine
 62
7
  6
CONTINUOUS
 10
7.324806217
 20
5.5266195766
 11
7.3145822882
 21
5.5315081196
  0
LINE
  5
640
100
AcDbEntity
  8
0
100
AcDbLine
 62
7
  6
CONTINUOUS
 10
6.9293808826
 20
5.7170113397
 11
6.9191843504
 21
5.7219567724
  0
LINE
  5
641
100
AcDbEntity
  8
0
100
AcDbLine
 62
7
  6
CONTINUOUS
 10
6.8206688771
 20
5.6867050203
 11
6.8106923667
 21
5.6921149182
  0
LINE
  5
642
100
AcDbEntity
  8
0
100
AcDbLine
 62
7
  6
CONTINUOUS
 10
7.3247028255
 20
5.4130300099
 11
7.3147321064
 21
5.4184505739
  0
LINE
  5
643
100
AcDbEntity
  8
0
100
AcDbLine
 62
7
  6
CONTINUOUS
 10
7.3006083508
 20
5.5217700142
 11
7.290746049
 21
5.5273522696
  0
LINE
  5
644
100
AcDbEntity
  8
0
100
AcDbLine
 62
7
  6
CONTINUOUS
 10
6.9192605529
 20
5.7389889718
 11
6.9094295074
 21
5.7446260914
  0
LINE
  5
645
100
AcDbEntity
  8
0
100
AcDbLine
 62
7
  6
CONTINUOUS
 10
6.8114177302
 20
5.7090392645
 11
6.8017380245
 21
5.7149638785
  0
LINE
  5
646
100
AcDbEntity
  8
0
100
AcDbLine
 62
7
  6
CONTINUOUS
 10
7.3004378743
 20
5.4093602175
 11
7.2907645101
 21
5.41529518
  0
LINE
  5
647
100
AcDbEntity
  8
0
100
AcDbLine
 62
7
  6
CONTINUOUS
 10
7.2761335647
 20
5.5186014453
 11
7.2666798883
 21
5.5248508113
  0
LINE
  5
648
100
AcDbEntity
  8
0
100
AcDbLine
 62
7
  6
CONTINUOUS
 10
6.9106805992
 20
5.7616124503
 11
6.9012618898
 21
5.7679143933
  0
LINE
  5
649
100
AcDbEntity
  8
0
100
AcDbLine
 62
7
  6
CONTINUOUS
 10
6.8033481458
 20
5.731827068
 11
6.7939917761
 21
5.7382501593
  0
LINE
  5
64A
100
AcDbEntity
  8
0
100
AcDbLine
 62
7
  6
CONTINUOUS
 10
7.2760141152
 20
5.4069653839
 11
7.26666462
 21
5.4133984775
  0
LINE
  5
64B
100
AcDbEntity
  8
0
100
AcDbLine
 62
7
  6
CONTINUOUS
 10
6.7964822419
 20
5.7550059711
 11
6.7874748534
 21
5.7619099343
  0
LINE
  5
64C
100
AcDbEntity
  8
0
100
AcDbLine
 62
7
  6
CONTINUOUS
 10
7.2514984922
 20
5.4058520732
 11
7.2424984922
 21
5.4127656652
  0
LINE
  5
64D
100
AcDbEntity
  8
0
100
AcDbLine
 62
7
  6
CONTINUOUS
 10
6.7908388375
 20
5.778512442
 11
6.7822051188
 21
5.7858783538
  0
LINE
  5
64E
100
AcDbEntity
  8
0
100
AcDbLine
 62
7
  6
CONTINUOUS
 10
7.2269582007
 20
5.4060233367
 11
7.2183323644
 21
5.4133984775
  0
LINE
  5
64F
100
AcDbEntity
  8
0
100
AcDbLine
 62
7
  6
CONTINUOUS
 10
6.7864334009
 20
5.802282051
 11
6.7781970165
 21
5.810089722
  0
LINE
  5
650
100
AcDbEntity
  8
0
100
AcDbLine
 62
7
  6
CONTINUOUS
 10
7.2024605042
 20
5.4074787052
 11
7.1942324742
 21
5.41529518
  0
LINE
  5
651
100
AcDbEntity
  8
0
100
AcDbLine
 62
7
  6
CONTINUOUS
 10
7.0377487325
 20
5.4528474325
 11
7.0328683789
 21
5.4630934027
  0
LINE
  5
652
100
AcDbEntity
  8
0
100
AcDbLine
 62
7
  6
CONTINUOUS
 10
6.7964822419
 20
5.9940253593
 11
6.7921335962
 21
6.004508061
  0
LINE
  5
653
100
AcDbEntity
  8
0
100
AcDbLine
 62
7
  6
CONTINUOUS
 10
7.0159609248
 20
5.4641410887
 11
7.0116234922
 21
5.474628435
  0
LINE
  5
654
100
AcDbEntity
  8
0
100
AcDbLine
 62
7
  6
CONTINUOUS
 10
6.8033481458
 20
6.0172042624
 11
6.799554082
 21
6.0279001884
  0
LINE
  5
655
100
AcDbEntity
  8
0
100
AcDbLine
 62
7
  6
CONTINUOUS
 10
6.9947940408
 20
5.476559553
 11
6.9910114177
 21
5.4872595304
  0
LINE
  5
656
100
AcDbEntity
  8
0
100
AcDbLine
 62
7
  6
CONTINUOUS
 10
6.9147752991
 20
5.9988046781
 11
6.9115275711
 21
6.0096618801
  0
LINE
  5
657
100
AcDbEntity
  8
0
100
AcDbLine
 62
7
  6
CONTINUOUS
 10
6.8114177302
 20
6.0399920659
 11
6.8081886476
 21
6.0508718995
  0
LINE
  5
658
100
AcDbEntity
  8
0
100
AcDbLine
 62
7
  6
CONTINUOUS
 10
6.9743060974
 20
5.4900687873
 11
6.9710886519
 21
5.500952068
  0
LINE
  5
659
100
AcDbEntity
  8
0
100
AcDbLine
 62
7
  6
CONTINUOUS
 10
6.8206688771
 20
6.0623263101
 11
6.8180136263
 21
6.0733602305
  0
LINE
  5
65A
100
AcDbEntity
  8
0
100
AcDbLine
 62
7
  6
CONTINUOUS
 10
6.9545532508
 20
5.5046317638
 11
6.9519098016
 21
5.5156685175
  0
LINE
  5
65B
100
AcDbEntity
  8
0
100
AcDbLine
 62
7
  6
CONTINUOUS
 10
7.0218204046
 20
5.5932552313
 11
7.019267906
 21
5.6042965774
  0
LINE
  5
65C
100
AcDbEntity
  8
0
100
AcDbLine
 62
7
  6
CONTINUOUS
 10
6.9241310155
 20
6.0211185294
 11
6.9216400767
 21
6.0321739261
  0
LINE
  5
65D
100
AcDbEntity
  8
0
100
AcDbLine
 62
7
  6
CONTINUOUS
 10
6.8310762296
 20
6.0841457785
 11
6.8290020885
 21
6.0953035423
  0
LINE
  5
65E
100
AcDbEntity
  8
0
100
AcDbLine
 62
7
  6
CONTINUOUS
 10
6.9355896421
 20
5.5202085664
 11
6.9335274347
 21
5.531368542
  0
LINE
  5
65F
100
AcDbEntity
  8
0
100
AcDbLine
 62
7
  6
CONTINUOUS
 10
7.0029417411
 20
5.6091502322
 11
7.0011570796
 21
5.6203413695
  0
LINE
  5
660
100
AcDbEntity
  8
0
100
AcDbLine
 62
7
  6
CONTINUOUS
 10
6.9350038978
 20
6.0427337512
 11
6.9332816188
 21
6.0539346587
  0
LINE
  5
661
100
AcDbEntity
  8
0
100
AcDbLine
 62
7
  6
CONTINUOUS
 10
6.842611262
 20
6.1053906652
 11
6.8411239156
 21
6.1166416899
  0
LINE
  5
662
100
AcDbEntity
  8
0
100
AcDbLine
 62
7
  6
CONTINUOUS
 10
6.9174672492
 20
5.5367565001
 11
6.9159919359
 21
5.548009109
  0
LINE
  5
663
100
AcDbEntity
  8
0
100
AcDbLine
 62
7
  6
CONTINUOUS
 10
7.4174984922
 20
5.9720156652
 11
7.4174984922
 21
5.7770156652
  0
LINE
  5
664
100
AcDbEntity
  8
0
100
AcDbLine
 62
7
  6
CONTINUOUS
 10
7.5240741032
 20
6.0947914589
 11
7.5239100637
 21
6.0834601014
  0
LINE
  5
665
100
AcDbEntity
  8
0
100
AcDbLine
 62
7
  6
CONTINUOUS
 10
7.5165304268
 20
5.6559824896
 11
7.5163032538
 21
5.644652222
  0
LINE
  5
666
100
AcDbEntity
  8
0
100
AcDbLine
 62
7
  6
CONTINUOUS
 10
7.5856456153
 20
5.5655446077
 11
7.58476124
 21
5.5542302083
  0
LINE
  5
667
100
AcDbEntity
  8
0
100
AcDbLine
 62
7
  6
CONTINUOUS
 10
7.6306511018
 20
6.1373161868
 11
7.6297546269
 21
6.1260027396
  0
LINE
  5
668
100
AcDbEntity
  8
0
100
AcDbLine
 62
7
  6
CONTINUOUS
 10
7.5386002642
 20
6.074840378
 11
7.5376548523
 21
6.0635473373
  0
LINE
  5
669
100
AcDbEntity
  8
0
100
AcDbLine
 62
7
  6
CONTINUOUS
 10
7.5008006294
 20
5.6375974179
 11
7.4997923096
 21
5.6263098201
  0
LINE
  5
66A
100
AcDbEntity
  8
0
100
AcDbLine
 62
7
  6
CONTINUOUS
 10
7.5690050484
 20
5.548009109
 11
7.5675297352
 21
5.5367565001
  0
LINE
  5
66B
100
AcDbEntity
  8
0
100
AcDbLine
 62
7
  6
CONTINUOUS
 10
7.6438730687
 20
6.1166416899
 11
7.6423857224
 21
6.1053906652
  0
LINE
  5
66C
100
AcDbEntity
  8
0
100
AcDbLine
 62
7
  6
CONTINUOUS
 10
7.5517153655
 20
6.0539346587
 11
7.5499930865
 21
6.0427337512
  0
LINE
  5
66D
100
AcDbEntity
  8
0
100
AcDbLine
 62
7
  6
CONTINUOUS
 10
7.5514695496
 20
5.531368542
 11
7.5494073422
 21
5.5202085664
  0
LINE
  5
66E
100
AcDbEntity
  8
0
100
AcDbLine
 62
7
  6
CONTINUOUS
 10
7.6559948958
 20
6.0953035423
 11
7.6539207547
 21
6.0841457785
  0
LINE
  5
66F
100
AcDbEntity
  8
0
100
AcDbLine
 62
7
  6
CONTINUOUS
 10
2.9574709141
 20
6.0903061417
 11
2.9684665576
 21
6.0930488407
  0
LINE
  5
670
100
AcDbEntity
  8
0
100
AcDbLine
 62
7
  6
CONTINUOUS
 10
3.3835842893
 20
6.1953661722
 11
3.3945950439
 21
6.1980475631
  0
LINE
  5
671
100
AcDbEntity
  8
0
100
AcDbLine
 62
7
  6
CONTINUOUS
 10
3.4303091371
 20
6.2963452803
 11
3.4413430574
 21
6.2990005311
  0
LINE
  5
672
100
AcDbEntity
  8
0
100
AcDbLine
 62
7
  6
CONTINUOUS
 10
2.8726145908
 20
6.1624609066
 11
2.8836513445
 21
6.1651043558
  0
LINE
  5
673
100
AcDbEntity
  8
0
100
AcDbLine
 62
7
  6
CONTINUOUS
 10
3.4521286054
 20
6.2859379277
 11
3.4632863692
 21
6.2880120689
  0
LINE
  5
674
100
AcDbEntity
  8
0
100
AcDbLine
 62
7
  6
CONTINUOUS
 10
2.8881913934
 20
6.1814245153
 11
2.899351369
 21
6.1834867227
  0
LINE
  5
675
100
AcDbEntity
  8
0
100
AcDbLine
 62
7
  6
CONTINUOUS
 10
7.5856456153
 20
6.1834867227
 11
7.5968055909
 21
6.1814245153
  0
LINE
  5
676
100
AcDbEntity
  8
0
100
AcDbLine
 62
7
  6
CONTINUOUS
 10
7.0217106151
 20
6.2880120689
 11
7.0328683789
 21
6.2859379277
  0
LINE
  5
677
100
AcDbEntity
  8
0
100
AcDbLine
 62
7
  6
CONTINUOUS
 10
7.0793254967
 20
6.1926049978
 11
7.0904222416
 21
6.1903052534
  0
LINE
  5
678
100
AcDbEntity
  8
0
100
AcDbLine
 62
7
  6
CONTINUOUS
 10
7.5088242208
 20
6.10237715
 11
7.5199079797
 21
6.1000156124
  0
LINE
  5
679
100
AcDbEntity
  8
0
100
AcDbLine
 62
7
  6
CONTINUOUS
 10
7.6013456399
 20
6.1651043558
 11
7.6123823935
 21
6.1624609066
  0
LINE
  5
67A
100
AcDbEntity
  8
0
100
AcDbLine
 62
7
  6
CONTINUOUS
 10
7.0436539269
 20
6.2990005311
 11
7.0546878472
 21
6.2963452803
  0
LINE
  5
67B
100
AcDbEntity
  8
0
100
AcDbLine
 62
7
  6
CONTINUOUS
 10
7.1016596406
 20
6.2031045693
 11
7.112571283
 21
6.2000447274
  0
LINE
  5
67C
100
AcDbEntity
  8
0
100
AcDbLine
 62
7
  6
CONTINUOUS
 10
7.5239100637
 20
6.0834601014
 11
7.5348044879
 21
6.0803395094
  0
LINE
  5
67D
100
AcDbEntity
  8
0
100
AcDbLine
 62
7
  6
CONTINUOUS
 10
7.6160620893
 20
6.1459255054
 11
7.62694537
 21
6.1427080599
  0
LINE
  5
67E
100
AcDbEntity
  8
0
100
AcDbLine
 62
7
  6
CONTINUOUS
 10
7.0661422578
 20
6.3088255098
 11
7.0770220915
 21
6.3055964271
  0
LINE
  5
67F
100
AcDbEntity
  8
0
100
AcDbLine
 62
7
  6
CONTINUOUS
 10
7.1246649457
 20
6.2120382649
 11
7.1353394867
 21
6.2082329071
  0
LINE
  5
680
100
AcDbEntity
  8
0
100
AcDbLine
 62
7
  6
CONTINUOUS
 10
7.5376548523
 20
6.0635473373
 11
7.5483080249
 21
6.0596825621
  0
LINE
  5
681
100
AcDbEntity
  8
0
100
AcDbLine
 62
7
  6
CONTINUOUS
 10
7.2514984922
 20
5.5171289699
 11
7.2424984922
 21
5.5240156652
  0
LINE
  5
682
100
AcDbEntity
  8
0
100
AcDbLine
 62
7
  6
CONTINUOUS
 10
6.9036819089
 20
5.7847739641
 11
6.8947204199
 21
5.7917106988
  0
LINE
  5
683
100
AcDbEntity
  8
0
100
AcDbLine
 62
7
  6
CONTINUOUS
 10
7.2268205305
 20
5.5173596047
 11
7.218317096
 21
5.5248508113
  0
LINE
  5
684
100
AcDbEntity
  8
0
100
AcDbLine
 62
7
  6
CONTINUOUS
 10
6.8982978339
 20
5.808363138
 11
6.889836271
 21
5.8159016077
  0
LINE
  5
685
100
AcDbEntity
  8
0
100
AcDbLine
 62
7
  6
CONTINUOUS
 10
7.2022172815
 20
5.5192922509
 11
7.1942509353
 21
5.5273522696
  0
LINE
  5
686
100
AcDbEntity
  8
0
100
AcDbLine
 62
7
  6
CONTINUOUS
 10
6.8945540318
 20
5.8322675588
 11
6.8866327181
 21
5.8403718392
  0
LINE
  5
687
100
AcDbEntity
  8
0
100
AcDbLine
 62
7
  6
CONTINUOUS
 10
6.783278007
 20
5.8262496473
 11
6.7754615321
 21
5.8344776772
  0
LINE
  5
688
100
AcDbEntity
  8
0
100
AcDbLine
 62
7
  6
CONTINUOUS
 10
7.1780725489
 20
5.4102141895
 11
7.1702648779
 21
5.4184505739
  0
LINE
  5
689
100
AcDbEntity
  8
0
100
AcDbLine
 62
7
  6
CONTINUOUS
 10
7.1778059908
 20
5.5229176984
 11
7.1704146961
 21
5.5315081196
  0
LINE
  5
68A
100
AcDbEntity
  8
0
100
AcDbLine
 62
7
  6
CONTINUOUS
 10
6.7813813045
 20
5.8503495374
 11
6.7740061637
 21
5.8589753738
  0
LINE
  5
68B
100
AcDbEntity
  8
0
100
AcDbLine
 62
7
  6
CONTINUOUS
 10
7.1538611807
 20
5.4142222919
 11
7.1464952689
 21
5.4228560106
  0
LINE
  5
68C
100
AcDbEntity
  8
0
100
AcDbLine
 62
7
  6
CONTINUOUS
 10
6.8924683435
 20
5.856373311
 11
6.8851250277
 21
5.8650047817
  0
LINE
  5
68D
100
AcDbEntity
  8
0
100
AcDbLine
 62
7
  6
CONTINUOUS
 10
6.7807484922
 20
5.8745156652
 11
6.7738349001
 21
5.8835156652
  0
LINE
  5
68E
100
AcDbEntity
  8
0
100
AcDbLine
 62
7
  6
CONTINUOUS
 10
7.1298927612
 20
5.4194920264
 11
7.1229887981
 21
5.4284994149
  0
LINE
  5
68F
100
AcDbEntity
  8
0
100
AcDbLine
 62
7
  6
CONTINUOUS
 10
7.1537029893
 20
5.5282186703
 11
7.1469219691
 21
5.5372985567
  0
LINE
  5
690
100
AcDbEntity
  8
0
100
AcDbLine
 62
7
  6
CONTINUOUS
 10
6.8920507082
 20
5.8805655198
 11
6.8853203846
 21
5.8896830478
  0
LINE
  5
691
100
AcDbEntity
  8
0
100
AcDbLine
 62
7
  6
CONTINUOUS
 10
6.7813813045
 20
5.898681793
 11
6.7749482109
 21
5.9080312883
  0
LINE
  5
692
100
AcDbEntity
  8
0
100
AcDbLine
 62
7
  6
CONTINUOUS
 10
7.1062329862
 20
5.4260089491
 11
7.099809895
 21
5.4353653188
  0
LINE
  5
693
100
AcDbEntity
  8
0
100
AcDbLine
 62
7
  6
CONTINUOUS
 10
7.1300231388
 20
5.5351699051
 11
7.1238847077
 21
5.544695987
  0
LINE
  5
694
100
AcDbEntity
  8
0
100
AcDbLine
 62
7
  6
CONTINUOUS
 10
6.8933031163
 20
5.9047288983
 11
6.8872178579
 21
5.9142890345
  0
LINE
  5
695
100
AcDbEntity
  8
0
100
AcDbLine
 62
7
  6
CONTINUOUS
 10
6.783278007
 20
5.9227816831
 11
6.7773430445
 21
5.9324550473
  0
LINE
  5
696
100
AcDbEntity
  8
0
100
AcDbLine
 62
7
  6
CONTINUOUS
 10
7.0829467055
 20
5.4337551975
 11
7.0770220915
 21
5.4434349033
  0
LINE
  5
697
100
AcDbEntity
  8
0
100
AcDbLine
 62
7
  6
CONTINUOUS
 10
7.1068792846
 20
5.543738277
 11
7.101412695
 21
5.5536651582
  0
LINE
  5
698
100
AcDbEntity
  8
0
100
AcDbLine
 62
7
  6
CONTINUOUS
 10
6.7864334009
 20
5.9467492794
 11
6.7810128368
 21
5.9567199986
  0
LINE
  5
699
100
AcDbEntity
  8
0
100
AcDbLine
 62
7
  6
CONTINUOUS
 10
6.8962195993
 20
5.928748297
 11
6.8908084051
 21
5.9387054829
  0
LINE
  5
69A
100
AcDbEntity
  8
0
100
AcDbLine
 62
7
  6
CONTINUOUS
 10
7.0600977451
 20
5.4427095397
 11
7.0546878472
 21
5.4526860501
  0
LINE
  5
69B
100
AcDbEntity
  8
0
100
AcDbLine
 62
7
  6
CONTINUOUS
 10
6.7908388375
 20
5.9705188884
 11
6.7859475293
 21
5.9807596334
  0
LINE
  5
69C
100
AcDbEntity
  8
0
100
AcDbLine
 62
7
  6
CONTINUOUS
 10
7.0843817177
 20
5.5538829538
 11
7.0796130204
 21
5.5641633282
  0
LINE
  5
69D
100
AcDbEntity
  8
0
100
AcDbLine
 62
7
  6
CONTINUOUS
 10
6.9007862589
 20
5.9525092525
 11
6.8960749158
 21
5.9628160376
  0
LINE
  5
69E
100
AcDbEntity
  8
0
100
AcDbLine
 62
7
  6
CONTINUOUS
 10
7.0626376492
 20
5.5655555914
 11
7.0585895692
 21
5.5761404684
  0
LINE
  5
69F
100
AcDbEntity
  8
0
100
AcDbLine
 62
7
  6
CONTINUOUS
 10
6.906981333
 20
5.9758985331
 11
6.9029922926
 21
5.9865058009
  0
LINE
  5
6A0
100
AcDbEntity
  8
0
100
AcDbLine
 62
7
  6
CONTINUOUS
 10
7.0417506996
 20
5.5787005646
 11
7.0384425278
 21
5.5895395023
  0
LINE
  5
6A1
100
AcDbEntity
  8
0
100
AcDbLine
 62
7
  6
CONTINUOUS
 10
7.6297546269
 20
5.6230285908
 11
7.6306511018
 21
5.6117151436
  0
LINE
  5
6A2
100
AcDbEntity
  8
0
100
AcDbLine
 62
7
  6
CONTINUOUS
 10
7.58476124
 20
6.1948011221
 11
7.5856456153
 21
6.1834867227
  0
LINE
  5
6A3
100
AcDbEntity
  8
0
100
AcDbLine
 62
7
  6
CONTINUOUS
 10
7.5082061061
 20
6.1136928253
 11
7.5088242208
 21
6.10237715
  0
LINE
  5
6A4
100
AcDbEntity
  8
0
100
AcDbLine
 62
7
  6
CONTINUOUS
 10
7.5309543372
 20
5.6754089715
 11
7.5315093936
 21
5.6640900278
  0
LINE
  5
6A5
100
AcDbEntity
  8
0
100
AcDbLine
 62
7
  6
CONTINUOUS
 10
7.6160620893
 20
5.603105825
 11
7.6163652355
 21
5.5917609646
  0
LINE
  5
6A6
100
AcDbEntity
  8
0
100
AcDbLine
 62
7
  6
CONTINUOUS
 10
7.6010546265
 20
6.1764495339
 11
7.6013456399
 21
6.1651043558
  0
LINE
  5
6A7
100
AcDbEntity
  8
0
100
AcDbLine
 62
7
  6
CONTINUOUS
 10
7.5949984922
 20
5.7575156652
 11
7.5949984922
 21
5.9915156652
  0
LINE
  5
6A8
100
AcDbEntity
  8
0
100
AcDbLine
 62
7
  6
CONTINUOUS
 10
7.6324984922
 20
6.0245156652
 11
7.6324984922
 21
5.7245156652
  0
LINE
  5
6A9
100
AcDbEntity
  8
0
100
AcDbLine
 62
7
  6
CONTINUOUS
 10
7.6949984922
 20
6.0245156652
 11
7.6949984922
 21
5.7245156652
  0
LINE
  5
6AA
100
AcDbEntity
  8
0
100
AcDbLine
 62
7
  6
CONTINUOUS
 10
7.6013456399
 20
5.5839269746
 11
7.6010546265
 21
5.5725817965
  0
LINE
  5
6AB
100
AcDbEntity
  8
0
100
AcDbLine
 62
7
  6
CONTINUOUS
 10
7.6163652355
 20
6.1572703658
 11
7.6160620893
 21
6.1459255054
  0
LINE
  5
6AC
100
AcDbEntity
  8
0
100
AcDbLine
 62
7
  6
CONTINUOUS
 10
7.6297546269
 20
6.1260027396
 11
7.6404546044
 21
6.1222201166
  0
LINE
  5
6AD
100
AcDbEntity
  8
0
100
AcDbLine
 62
7
  6
CONTINUOUS
 10
7.0891139689
 20
6.3174600754
 11
7.099809895
 21
6.3136660116
  0
LINE
  5
6AE
100
AcDbEntity
  8
0
100
AcDbLine
 62
7
  6
CONTINUOUS
 10
7.6423857224
 20
6.1053906652
 11
7.6528730687
 21
6.1010532326
  0
LINE
  5
6AF
100
AcDbEntity
  8
0
100
AcDbLine
 62
7
  6
CONTINUOUS
 10
7.1125060964
 20
6.3248805612
 11
7.1229887981
 21
6.3205319155
  0
LINE
  5
6B0
100
AcDbEntity
  8
0
100
AcDbLine
 62
7
  6
CONTINUOUS
 10
7.1482317814
 20
6.2193635117
 11
7.1586183518
 21
6.2148307722
  0
LINE
  5
6B1
100
AcDbEntity
  8
0
100
AcDbLine
 62
7
  6
CONTINUOUS
 10
7.5499930865
 20
6.0427337512
 11
7.5603542401
 21
6.0381432102
  0
LINE
  5
6B2
100
AcDbEntity
  8
0
100
AcDbLine
 62
7
  6
CONTINUOUS
 10
7.6539207547
 20
6.0841457785
 11
7.6641667248
 21
6.0792654248
  0
LINE
  5
6B3
100
AcDbEntity
  8
0
100
AcDbLine
 62
7
  6
CONTINUOUS
 10
7.1362545239
 20
6.3310666281
 11
7.1464952689
 21
6.3261753198
  0
LINE
  5
6B4
100
AcDbEntity
  8
0
100
AcDbLine
 62
7
  6
CONTINUOUS
 10
7.1722478409
 20
6.2250454014
 11
7.1822969441
 21
6.2198068808
  0
LINE
  5
6B5
100
AcDbEntity
  8
0
100
AcDbLine
 62
7
  6
CONTINUOUS
 10
7.5608659689
 20
6.0211185294
 11
7.570885728
 21
6.0158240985
  0
LINE
  5
6B6
100
AcDbEntity
  8
0
100
AcDbLine
 62
7
  6
CONTINUOUS
 10
7.6643281072
 20
6.0623263101
 11
7.6743046176
 21
6.0569164122
  0
LINE
  5
6B7
100
AcDbEntity
  8
0
100
AcDbLine
 62
7
  6
CONTINUOUS
 10
7.1602941588
 20
6.3360013205
 11
7.1702648779
 21
6.3305807565
  0
LINE
  5
6B8
100
AcDbEntity
  8
0
100
AcDbLine
 62
7
  6
CONTINUOUS
 10
7.1965986767
 20
6.2290568574
 11
7.2062624241
 21
6.2231375196
  0
LINE
  5
6B9
100
AcDbEntity
  8
0
100
AcDbLine
 62
7
  6
CONTINUOUS
 10
7.18455911
 20
6.3396711129
 11
7.1942324742
 21
6.3337361504
  0
LINE
  5
6BA
100
AcDbEntity
  8
0
100
AcDbLine
 62
7
  6
CONTINUOUS
 10
7.5702216852
 20
5.9988046781
 11
7.5798523012
 21
5.9928315877
  0
LINE
  5
6BB
100
AcDbEntity
  8
0
100
AcDbLine
 62
7
  6
CONTINUOUS
 10
7.2211682461
 20
6.231378763
 11
7.2304005855
 21
6.2248068165
  0
LINE
  5
6BC
100
AcDbEntity
  8
0
100
AcDbLine
 62
7
  6
CONTINUOUS
 10
7.5780156513
 20
5.9758985331
 11
7.5834065132
 21
5.9720156652
  0
LINE
  5
6BD
100
AcDbEntity
  8
0
100
AcDbLine
 62
7
  6
CONTINUOUS
 10
7.4533370624
 20
6.1632254629
 11
7.4562691447
 21
6.1522787983
  0
LINE
  5
6BE
100
AcDbEntity
  8
0
100
AcDbLine
 62
7
  6
CONTINUOUS
 10
7.5657364314
 20
5.7389889718
 11
7.5686074755
 21
5.7280261401
  0
LINE
  5
6BF
100
AcDbEntity
  8
0
100
AcDbLine
 62
7
  6
CONTINUOUS
 10
7.4727531109
 20
6.1479915518
 11
7.4749229839
 21
6.1368686824
  0
LINE
  5
6C0
100
AcDbEntity
  8
0
100
AcDbLine
 62
7
  6
CONTINUOUS
 10
7.5556161018
 20
5.7170113397
 11
7.5577239667
 21
5.7058765528
  0
LINE
  5
6C1
100
AcDbEntity
  8
0
100
AcDbLine
 62
7
  6
CONTINUOUS
 10
7.6539207547
 20
5.6648855519
 11
7.6559948958
 21
5.6537277881
  0
LINE
  5
6C2
100
AcDbEntity
  8
0
100
AcDbLine
 62
7
  6
CONTINUOUS
 10
7.5494073422
 20
6.228822764
 11
7.5514695496
 21
6.2176627884
  0
LINE
  5
6C3
100
AcDbEntity
  8
0
100
AcDbLine
 62
7
  6
CONTINUOUS
 10
7.6423857224
 20
5.6436406652
 11
7.6438730687
 21
5.6323896405
  0
LINE
  5
6C4
100
AcDbEntity
  8
0
100
AcDbLine
 62
7
  6
CONTINUOUS
 10
7.5675297352
 20
6.2122748303
 11
7.5690050484
 21
6.2010222214
  0
LINE
  5
6C5
100
AcDbEntity
  8
0
100
AcDbLine
 62
7
  6
CONTINUOUS
 10
7.4910718912
 20
6.1314544036
 11
7.4924692145
 21
6.120208335
  0
LINE
  5
6C6
100
AcDbEntity
  8
0
100
AcDbLine
 62
7
  6
CONTINUOUS
 10
7.5440036241
 20
5.6957842874
 11
7.5453382648
 21
5.6845306077
  0
LINE
  5
6C7
100
AcDbEntity
  8
0
100
AcDbLine
 62
7
  6
CONTINUOUS
 10
7.2089828691
 20
6.3420659465
 11
7.2183323644
 21
6.3356328529
  0
LINE
  5
6C8
100
AcDbEntity
  8
0
100
AcDbLine
 62
7
  6
CONTINUOUS
 10
7.2334984922
 20
6.3431792572
 11
7.2424984922
 21
6.3362656652
  0
LINE
  5
6C9
100
AcDbEntity
  8
0
100
AcDbLine
 62
7
  6
CONTINUOUS
 10
7.2458394637
 20
6.2320000535
 11
7.2545963989
 21
6.2248068165
  0
LINE
  5
6CA
100
AcDbEntity
  8
0
100
AcDbLine
 62
7
  6
CONTINUOUS
 10
7.2580387836
 20
6.3430079937
 11
7.26666462
 21
6.3356328529
  0
LINE
  5
6CB
100
AcDbEntity
  8
0
100
AcDbLine
 62
7
  6
CONTINUOUS
 10
7.2704947602
 20
6.2309177681
 11
7.2787345603
 21
6.2231375196
  0
LINE
  5
6CC
100
AcDbEntity
  8
0
100
AcDbLine
 62
7
  6
CONTINUOUS
 10
7.2825364802
 20
6.3415526252
 11
7.2907645101
 21
6.3337361504
  0
LINE
  5
6CD
100
AcDbEntity
  8
0
100
AcDbLine
 62
7
  6
CONTINUOUS
 10
7.3069244354
 20
6.3388171409
 11
7.3147321064
 21
6.3305807565
  0
LINE
  5
6CE
100
AcDbEntity
  8
0
100
AcDbLine
 62
7
  6
CONTINUOUS
 10
7.2950166416
 20
6.2281370644
 11
7.3027000403
 21
6.2198068808
  0
LINE
  5
6CF
100
AcDbEntity
  8
0
100
AcDbLine
 62
7
  6
CONTINUOUS
 10
7.3311358036
 20
6.3348090385
 11
7.3385017154
 21
6.3261753198
  0
LINE
  5
6D0
100
AcDbEntity
  8
0
100
AcDbLine
 62
7
  6
CONTINUOUS
 10
7.3192882502
 20
6.2236711937
 11
7.3263786325
 21
6.2148307722
  0
LINE
  5
6D1
100
AcDbEntity
  8
0
100
AcDbLine
 62
7
  6
CONTINUOUS
 10
7.3551042231
 20
6.329539304
 11
7.3620081862
 21
6.3205319155
  0
LINE
  5
6D2
100
AcDbEntity
  8
0
100
AcDbLine
 62
7
  6
CONTINUOUS
 10
7.3431939206
 20
6.2175414378
 11
7.3496574976
 21
6.2082329071
  0
LINE
  5
6D3
100
AcDbEntity
  8
0
100
AcDbLine
 62
7
  6
CONTINUOUS
 10
7.3787639981
 20
6.3230223813
 11
7.3851870893
 21
6.3136660116
  0
LINE
  5
6D4
100
AcDbEntity
  8
0
100
AcDbLine
 62
7
  6
CONTINUOUS
 10
7.4020502788
 20
6.3152761329
 11
7.4079748929
 21
6.3055964271
  0
LINE
  5
6D5
100
AcDbEntity
  8
0
100
AcDbLine
 62
7
  6
CONTINUOUS
 10
7.3666197314
 20
6.209777008
 11
7.3724257013
 21
6.2000447274
  0
LINE
  5
6D6
100
AcDbEntity
  8
0
100
AcDbLine
 62
7
  6
CONTINUOUS
 10
7.4248992392
 20
6.3063217907
 11
7.4303091371
 21
6.2963452803
  0
LINE
  5
6D7
100
AcDbEntity
  8
0
100
AcDbLine
 62
7
  6
CONTINUOUS
 10
7.389454048
 20
6.2004149051
 11
7.3945747427
 21
6.1903052534
  0
LINE
  5
6D8
100
AcDbEntity
  8
0
100
AcDbLine
 62
7
  6
CONTINUOUS
 10
7.4472482518
 20
6.2961838978
 11
7.4521286054
 21
6.2859379277
  0
LINE
  5
6D9
100
AcDbEntity
  8
0
100
AcDbLine
 62
7
  6
CONTINUOUS
 10
7.4115880545
 20
6.189499744
 11
7.4159990715
 21
6.1790608982
  0
LINE
  5
6DA
100
AcDbEntity
  8
0
100
AcDbLine
 62
7
  6
CONTINUOUS
 10
7.5845425788
 20
5.7770156652
 11
7.5856678608
 21
5.7743107031
  0
LINE
  5
6DB
100
AcDbEntity
  8
0
100
AcDbLine
 62
7
  6
CONTINUOUS
 10
7.4690360595
 20
6.2848902417
 11
7.4733734922
 21
6.2744028954
  0
LINE
  5
6DC
100
AcDbEntity
  8
0
100
AcDbLine
 62
7
  6
CONTINUOUS
 10
7.4902029436
 20
6.2724717774
 11
7.4939855666
 21
6.2617717999
  0
LINE
  5
6DD
100
AcDbEntity
  8
0
100
AcDbLine
 62
7
  6
CONTINUOUS
 10
7.4329162722
 20
6.1770835403
 11
7.436596591
 21
6.1663652464
  0
LINE
  5
6DE
100
AcDbEntity
  8
0
100
AcDbLine
 62
7
  6
CONTINUOUS
 10
7.5743163851
 20
5.7616124503
 11
7.5779369266
 21
5.7508738167
  0
LINE
  5
6DF
100
AcDbEntity
  8
0
100
AcDbLine
 62
7
  6
CONTINUOUS
 10
7.5106908869
 20
6.2589625431
 11
7.5139083324
 21
6.2480792624
  0
LINE
  5
6E0
100
AcDbEntity
  8
0
100
AcDbLine
 62
7
  6
CONTINUOUS
 10
7.6643281072
 20
5.6867050203
 11
7.666983358
 21
5.6756710999
  0
LINE
  5
6E1
100
AcDbEntity
  8
0
100
AcDbLine
 62
7
  6
CONTINUOUS
 10
7.5304437335
 20
6.2443995666
 11
7.5330871827
 21
6.2333628129
  0
LINE
  5
6E2
100
AcDbEntity
  8
0
100
AcDbLine
 62
7
  6
CONTINUOUS
 10
8.9849984922
 20
5.7132656652
 11
8.9849984922
 21
6.0357656652
  0
LINE
  5
6E3
100
AcDbEntity
  8
0
100
AcDbLine
 62
7
  6
CONTINUOUS
 10
9.0449984922
 20
5.7132656652
 11
9.0449984922
 21
6.0357656652
  0
ARC
  5
6E4
100
AcDbEntity
  8
0
100
AcDbCircle
 62
7
  6
CONTINUOUS
 10
1.4699984922
 20
5.7132656652
 40
0.03
100
AcDbArc
 50
180.0
 51
360.0
  0
ARC
  5
6E5
100
AcDbEntity
  8
0
100
AcDbCircle
 62
7
  6
CONTINUOUS
 10
1.4699984922
 20
6.0357656652
 40
0.03
100
AcDbArc
 50
0.0
 51
180.0
  0
ARC
  5
6E6
100
AcDbEntity
  8
0
100
AcDbCircle
 62
7
  6
CONTINUOUS
 10
2.8899984922
 20
5.719708847
 40
0.0378068182
100
AcDbArc
 50
90.0
 51
172.6955544394
  0
ARC
  5
6E7
100
AcDbEntity
  8
0
100
AcDbCircle
 62
7
  6
CONTINUOUS
 10
2.8212484922
 20
5.7245156652
 40
0.03125
100
AcDbArc
 50
180.0
 51
360.0
  0
ARC
  5
6E8
100
AcDbEntity
  8
0
100
AcDbCircle
 62
7
  6
CONTINUOUS
 10
2.8899984922
 20
6.0293224834
 40
0.0378068182
100
AcDbArc
 50
187.3044455606
 51
270.0
  0
ARC
  5
6E9
100
AcDbEntity
  8
0
100
AcDbCircle
 62
7
  6
CONTINUOUS
 10
2.8212484922
 20
6.0245156652
 40
0.03125
100
AcDbArc
 50
0.0
 51
180.0
  0
ARC
  5
6EA
100
AcDbEntity
  8
0
100
AcDbCircle
 62
7
  6
CONTINUOUS
 10
3.2424984922
 20
5.8745156652
 40
0.46875
100
AcDbArc
 50
202.4267351028
 51
157.5732648972
  0
ARC
  5
6EB
100
AcDbEntity
  8
0
100
AcDbCircle
 62
7
  6
CONTINUOUS
 10
3.2424984922
 20
5.8745156652
 40
0.41
100
AcDbArc
 50
199.6167627464
 51
160.3832372536
  0
ARC
  5
6EC
100
AcDbEntity
  8
0
100
AcDbCircle
 62
7
  6
CONTINUOUS
 10
3.2424984922
 20
5.8745156652
 40
0.376612128
100
AcDbArc
 50
198.160884381
 51
161.839115619
  0
ARC
  5
6ED
100
AcDbEntity
  8
0
100
AcDbCircle
 62
7
  6
CONTINUOUS
 10
3.2424984922
 20
5.8745156652
 40
0.3623030399
100
AcDbArc
 50
195.6115299652
 51
164.3884700245
  0
ARC
  5
6EE
100
AcDbEntity
  8
0
100
AcDbCircle
 62
7
  6
CONTINUOUS
 10
3.2424984922
 20
5.8745156652
 40
0.3575
100
AcDbArc
 50
87.4865196799
 51
88.5574363641
  0
ARC
  5
6EF
100
AcDbEntity
  8
0
100
AcDbCircle
 62
7
  6
CONTINUOUS
 10
3.2424984922
 20
5.8745156652
 40
0.3575
100
AcDbArc
 50
83.5304757238
 51
84.6013924081
  0
ARC
  5
6F0
100
AcDbEntity
  8
0
100
AcDbCircle
 62
7
  6
CONTINUOUS
 10
3.2424984922
 20
5.8745156652
 40
0.3575
100
AcDbArc
 50
79.5744317678
 51
80.645348452
  0
ARC
  5
6F1
100
AcDbEntity
  8
0
100
AcDbCircle
 62
7
  6
CONTINUOUS
 10
3.2424984922
 20
5.8745156652
 40
0.3575
100
AcDbArc
 50
75.6183878117
 51
76.689304496
  0
ARC
  5
6F2
100
AcDbEntity
  8
0
100
AcDbCircle
 62
7
  6
CONTINUOUS
 10
3.2424984922
 20
5.8745156652
 40
0.3575
100
AcDbArc
 50
71.6623438557
 51
72.7332605399
  0
ARC
  5
6F3
100
AcDbEntity
  8
0
100
AcDbCircle
 62
7
  6
CONTINUOUS
 10
3.2424984922
 20
5.8745156652
 40
0.3575
100
AcDbArc
 50
67.7062998996
 51
68.7772165839
  0
ARC
  5
6F4
100
AcDbEntity
  8
0
100
AcDbCircle
 62
7
  6
CONTINUOUS
 10
3.2424984922
 20
5.8745156652
 40
0.3575
100
AcDbArc
 50
63.7502559436
 51
64.8211726278
  0
ARC
  5
6F5
100
AcDbEntity
  8
0
100
AcDbCircle
 62
7
  6
CONTINUOUS
 10
3.2424984922
 20
5.8745156652
 40
0.3575
100
AcDbArc
 50
59.7942119875
 51
60.8651286718
  0
ARC
  5
6F6
100
AcDbEntity
  8
0
100
AcDbCircle
 62
7
  6
CONTINUOUS
 10
3.2424984922
 20
5.8745156652
 40
0.3575
100
AcDbArc
 50
55.8381680315
 51
56.9090847157
  0
ARC
  5
6F7
100
AcDbEntity
  8
0
100
AcDbCircle
 62
7
  6
CONTINUOUS
 10
3.2424984922
 20
5.8745156652
 40
0.3575
100
AcDbArc
 50
51.8821240755
 51
52.9530407597
  0
ARC
  5
6F8
100
AcDbEntity
  8
0
100
AcDbCircle
 62
7
  6
CONTINUOUS
 10
3.2424984922
 20
5.8745156652
 40
0.3575
100
AcDbArc
 50
47.9260801194
 51
48.9969968037
  0
ARC
  5
6F9
100
AcDbEntity
  8
0
100
AcDbCircle
 62
7
  6
CONTINUOUS
 10
3.2424984922
 20
5.8745156652
 40
0.3575
100
AcDbArc
 50
43.9700361634
 51
45.0409528476
  0
ARC
  5
6FA
100
AcDbEntity
  8
0
100
AcDbCircle
 62
7
  6
CONTINUOUS
 10
3.2424984922
 20
5.8745156652
 40
0.3575
100
AcDbArc
 50
40.0139922073
 51
41.0849088916
  0
ARC
  5
6FB
100
AcDbEntity
  8
0
100
AcDbCircle
 62
7
  6
CONTINUOUS
 10
3.2424984922
 20
5.8745156652
 40
0.3575
100
AcDbArc
 50
36.0579482513
 51
37.1288649355
  0
ARC
  5
6FC
100
AcDbEntity
  8
0
100
AcDbCircle
 62
7
  6
CONTINUOUS
 10
3.2424984922
 20
5.8745156652
 40
0.3575
100
AcDbArc
 50
32.1019042952
 51
33.1728209795
  0
ARC
  5
6FD
100
AcDbEntity
  8
0
100
AcDbCircle
 62
7
  6
CONTINUOUS
 10
3.2424984922
 20
5.8745156652
 40
0.3575
100
AcDbArc
 50
28.1458603392
 51
29.2167770234
  0
ARC
  5
6FE
100
AcDbEntity
  8
0
100
AcDbCircle
 62
7
  6
CONTINUOUS
 10
3.2424984922
 20
5.8745156652
 40
0.3575
100
AcDbArc
 50
24.1898163832
 51
25.2607330674
  0
ARC
  5
6FF
100
AcDbEntity
  8
0
100
AcDbCircle
 62
7
  6
CONTINUOUS
 10
3.2424984922
 20
5.8745156652
 40
0.3575
100
AcDbArc
 50
20.2337724271
 51
21.3046891114
  0
ARC
  5
700
100
AcDbEntity
  8
0
100
AcDbCircle
 62
7
  6
CONTINUOUS
 10
3.2424984922
 20
5.8745156652
 40
0.3575
100
AcDbArc
 50
16.2777284711
 51
17.3486451553
  0
ARC
  5
701
100
AcDbEntity
  8
0
100
AcDbCircle
 62
7
  6
CONTINUOUS
 10
3.2424984922
 20
5.8745156652
 40
0.3575
100
AcDbArc
 50
12.321684515
 51
13.3926011993
  0
ARC
  5
702
100
AcDbEntity
  8
0
100
AcDbCircle
 62
7
  6
CONTINUOUS
 10
3.2424984922
 20
5.8745156652
 40
0.3575
100
AcDbArc
 50
8.365640559
 51
9.4365572432
  0
ARC
  5
703
100
AcDbEntity
  8
0
100
AcDbCircle
 62
7
  6
CONTINUOUS
 10
3.2424984922
 20
5.8745156652
 40
0.3575
100
AcDbArc
 50
4.4095966029
 51
5.4805132872
  0
ARC
  5
704
100
AcDbEntity
  8
0
100
AcDbCircle
 62
7
  6
CONTINUOUS
 10
3.2424984922
 20
5.8745156652
 40
0.3575
100
AcDbArc
 50
0.4535526469
 51
1.5244693311
  0
ARC
  5
705
100
AcDbEntity
  8
0
100
AcDbCircle
 62
7
  6
CONTINUOUS
 10
3.2424984922
 20
5.8745156652
 40
0.3575
100
AcDbArc
 50
356.4975086908
 51
357.5684253751
  0
ARC
  5
706
100
AcDbEntity
  8
0
100
AcDbCircle
 62
7
  6
CONTINUOUS
 10
3.2424984922
 20
5.8745156652
 40
0.3575
100
AcDbArc
 50
352.5414647348
 51
353.612381419
  0
ARC
  5
707
100
AcDbEntity
  8
0
100
AcDbCircle
 62
7
  6
CONTINUOUS
 10
3.2424984922
 20
5.8745156652
 40
0.3575
100
AcDbArc
 50
348.5854207788
 51
349.656337463
  0
ARC
  5
708
100
AcDbEntity
  8
0
100
AcDbCircle
 62
7
  6
CONTINUOUS
 10
3.2424984922
 20
5.8745156652
 40
0.3575
100
AcDbArc
 50
344.6293768227
 51
345.700293507
  0
ARC
  5
709
100
AcDbEntity
  8
0
100
AcDbCircle
 62
7
  6
CONTINUOUS
 10
3.2424984922
 20
5.8745156652
 40
0.3575
100
AcDbArc
 50
340.6733328667
 51
341.7442495509
  0
ARC
  5
70A
100
AcDbEntity
  8
0
100
AcDbCircle
 62
7
  6
CONTINUOUS
 10
3.2424984922
 20
5.8745156652
 40
0.3575
100
AcDbArc
 50
336.7172889106
 51
337.7882055949
  0
ARC
  5
70B
100
AcDbEntity
  8
0
100
AcDbCircle
 62
7
  6
CONTINUOUS
 10
3.2424984922
 20
5.8745156652
 40
0.3575
100
AcDbArc
 50
332.7612449546
 51
333.8321616388
  0
ARC
  5
70C
100
AcDbEntity
  8
0
100
AcDbCircle
 62
7
  6
CONTINUOUS
 10
3.2424984922
 20
5.8745156652
 40
0.3575
100
AcDbArc
 50
328.8052009985
 51
329.8761176828
  0
ARC
  5
70D
100
AcDbEntity
  8
0
100
AcDbCircle
 62
7
  6
CONTINUOUS
 10
3.2424984922
 20
5.8745156652
 40
0.3575
100
AcDbArc
 50
324.8491570425
 51
325.9200737267
  0
ARC
  5
70E
100
AcDbEntity
  8
0
100
AcDbCircle
 62
7
  6
CONTINUOUS
 10
3.2424984922
 20
5.8745156652
 40
0.3575
100
AcDbArc
 50
320.8931130864
 51
321.9640297707
  0
ARC
  5
70F
100
AcDbEntity
  8
0
100
AcDbCircle
 62
7
  6
CONTINUOUS
 10
3.2424984922
 20
5.8745156652
 40
0.3575
100
AcDbArc
 50
316.9370691304
 51
318.0079858147
  0
ARC
  5
710
100
AcDbEntity
  8
0
100
AcDbCircle
 62
7
  6
CONTINUOUS
 10
3.2424984922
 20
5.8745156652
 40
0.3575
100
AcDbArc
 50
312.9810251744
 51
314.0519418586
  0
ARC
  5
711
100
AcDbEntity
  8
0
100
AcDbCircle
 62
7
  6
CONTINUOUS
 10
3.2424984922
 20
5.8745156652
 40
0.3575
100
AcDbArc
 50
309.0249812183
 51
310.0958979026
  0
ARC
  5
712
100
AcDbEntity
  8
0
100
AcDbCircle
 62
7
  6
CONTINUOUS
 10
3.2424984922
 20
5.8745156652
 40
0.3575
100
AcDbArc
 50
305.0689372623
 51
306.1398539465
  0
ARC
  5
713
100
AcDbEntity
  8
0
100
AcDbCircle
 62
7
  6
CONTINUOUS
 10
3.2424984922
 20
5.8745156652
 40
0.3575
100
AcDbArc
 50
301.1128933062
 51
302.1838099905
  0
ARC
  5
714
100
AcDbEntity
  8
0
100
AcDbCircle
 62
7
  6
CONTINUOUS
 10
3.2424984922
 20
5.8745156652
 40
0.3575
100
AcDbArc
 50
297.1568493502
 51
298.2277660344
  0
ARC
  5
715
100
AcDbEntity
  8
0
100
AcDbCircle
 62
7
  6
CONTINUOUS
 10
3.2424984922
 20
5.8745156652
 40
0.3575
100
AcDbArc
 50
293.2008053941
 51
294.2717220784
  0
ARC
  5
716
100
AcDbEntity
  8
0
100
AcDbCircle
 62
7
  6
CONTINUOUS
 10
3.2424984922
 20
5.8745156652
 40
0.3575
100
AcDbArc
 50
289.2447614381
 51
290.3156781223
  0
ARC
  5
717
100
AcDbEntity
  8
0
100
AcDbCircle
 62
7
  6
CONTINUOUS
 10
3.2424984922
 20
5.8745156652
 40
0.3575
100
AcDbArc
 50
285.2887174821
 51
286.3596341663
  0
ARC
  5
718
100
AcDbEntity
  8
0
100
AcDbCircle
 62
7
  6
CONTINUOUS
 10
3.2424984922
 20
5.8745156652
 40
0.3575
100
AcDbArc
 50
281.332673526
 51
282.4035902103
  0
ARC
  5
719
100
AcDbEntity
  8
0
100
AcDbCircle
 62
7
  6
CONTINUOUS
 10
3.2424984922
 20
5.8745156652
 40
0.3575
100
AcDbArc
 50
277.37662957
 51
278.4475462542
  0
ARC
  5
71A
100
AcDbEntity
  8
0
100
AcDbCircle
 62
7
  6
CONTINUOUS
 10
3.2424984922
 20
5.8745156652
 40
0.3575
100
AcDbArc
 50
273.4205856139
 51
274.4915022982
  0
ARC
  5
71B
100
AcDbEntity
  8
0
100
AcDbCircle
 62
7
  6
CONTINUOUS
 10
3.2424984922
 20
5.8745156652
 40
0.3575
100
AcDbArc
 50
269.4645416579
 51
270.5354583421
  0
ARC
  5
71C
100
AcDbEntity
  8
0
100
AcDbCircle
 62
7
  6
CONTINUOUS
 10
3.2424984922
 20
5.8745156652
 40
0.3575
100
AcDbArc
 50
265.5084977018
 51
266.5794143861
  0
ARC
  5
71D
100
AcDbEntity
  8
0
100
AcDbCircle
 62
7
  6
CONTINUOUS
 10
3.2424984922
 20
5.8745156652
 40
0.3575
100
AcDbArc
 50
261.5524537458
 51
262.62337043
  0
ARC
  5
71E
100
AcDbEntity
  8
0
100
AcDbCircle
 62
7
  6
CONTINUOUS
 10
3.2424984922
 20
5.8745156652
 40
0.3575
100
AcDbArc
 50
257.5964097897
 51
258.667326474
  0
ARC
  5
71F
100
AcDbEntity
  8
0
100
AcDbCircle
 62
7
  6
CONTINUOUS
 10
3.2424984922
 20
5.8745156652
 40
0.3575
100
AcDbArc
 50
253.6403658337
 51
254.7112825179
  0
ARC
  5
720
100
AcDbEntity
  8
0
100
AcDbCircle
 62
7
  6
CONTINUOUS
 10
3.2424984922
 20
5.8745156652
 40
0.3575
100
AcDbArc
 50
249.6843218777
 51
250.7552385619
  0
ARC
  5
721
100
AcDbEntity
  8
0
100
AcDbCircle
 62
7
  6
CONTINUOUS
 10
3.2424984922
 20
5.8745156652
 40
0.3575
100
AcDbArc
 50
245.7282779216
 51
246.7991946059
  0
ARC
  5
722
100
AcDbEntity
  8
0
100
AcDbCircle
 62
7
  6
CONTINUOUS
 10
3.2424984922
 20
5.8745156652
 40
0.3575
100
AcDbArc
 50
241.7722339656
 51
242.8431506498
  0
ARC
  5
723
100
AcDbEntity
  8
0
100
AcDbCircle
 62
7
  6
CONTINUOUS
 10
3.2424984922
 20
5.8745156652
 40
0.3575
100
AcDbArc
 50
237.8161900095
 51
238.8871066938
  0
ARC
  5
724
100
AcDbEntity
  8
0
100
AcDbCircle
 62
7
  6
CONTINUOUS
 10
3.2424984922
 20
5.8745156652
 40
0.3575
100
AcDbArc
 50
233.8601460535
 51
234.9310627377
  0
ARC
  5
725
100
AcDbEntity
  8
0
100
AcDbCircle
 62
7
  6
CONTINUOUS
 10
3.2424984922
 20
5.8745156652
 40
0.3575
100
AcDbArc
 50
229.9041020974
 51
230.9750187817
  0
ARC
  5
726
100
AcDbEntity
  8
0
100
AcDbCircle
 62
7
  6
CONTINUOUS
 10
3.2424984922
 20
5.8745156652
 40
0.3575
100
AcDbArc
 50
225.9480581414
 51
227.0189748256
  0
ARC
  5
727
100
AcDbEntity
  8
0
100
AcDbCircle
 62
7
  6
CONTINUOUS
 10
3.2424984922
 20
5.8745156652
 40
0.3575
100
AcDbArc
 50
221.9920141853
 51
223.0629308696
  0
ARC
  5
728
100
AcDbEntity
  8
0
100
AcDbCircle
 62
7
  6
CONTINUOUS
 10
3.2424984922
 20
5.8745156652
 40
0.3575
100
AcDbArc
 50
218.0359702293
 51
219.1068869136
  0
ARC
  5
729
100
AcDbEntity
  8
0
100
AcDbCircle
 62
7
  6
CONTINUOUS
 10
3.2424984922
 20
5.8745156652
 40
0.3575
100
AcDbArc
 50
214.0799262733
 51
215.1508429575
  0
ARC
  5
72A
100
AcDbEntity
  8
0
100
AcDbCircle
 62
7
  6
CONTINUOUS
 10
3.2424984922
 20
5.8745156652
 40
0.3575
100
AcDbArc
 50
210.1238823172
 51
211.1947990015
  0
ARC
  5
72B
100
AcDbEntity
  8
0
100
AcDbCircle
 62
7
  6
CONTINUOUS
 10
3.2424984922
 20
5.8745156652
 40
0.3575
100
AcDbArc
 50
206.1678383612
 51
207.2387550454
  0
ARC
  5
72C
100
AcDbEntity
  8
0
100
AcDbCircle
 62
7
  6
CONTINUOUS
 10
3.2424984922
 20
5.8745156652
 40
0.3575
100
AcDbArc
 50
202.2117944051
 51
203.2827110894
  0
ARC
  5
72D
100
AcDbEntity
  8
0
100
AcDbCircle
 62
7
  6
CONTINUOUS
 10
3.2424984922
 20
5.8745156652
 40
0.3575
100
AcDbArc
 50
198.2557504491
 51
199.3266671333
  0
ARC
  5
72E
100
AcDbEntity
  8
0
100
AcDbCircle
 62
7
  6
CONTINUOUS
 10
3.2424984922
 20
5.8745156652
 40
0.3575
100
AcDbArc
 50
162.6513548447
 51
163.7222715289
  0
ARC
  5
72F
100
AcDbEntity
  8
0
100
AcDbCircle
 62
7
  6
CONTINUOUS
 10
3.2424984922
 20
5.8745156652
 40
0.3575
100
AcDbArc
 50
158.6953108886
 51
159.7662275729
  0
ARC
  5
730
100
AcDbEntity
  8
0
100
AcDbCircle
 62
7
  6
CONTINUOUS
 10
3.2424984922
 20
5.8745156652
 40
0.3575
100
AcDbArc
 50
154.7392669326
 51
155.8101836168
  0
ARC
  5
731
100
AcDbEntity
  8
0
100
AcDbCircle
 62
7
  6
CONTINUOUS
 10
3.2424984922
 20
5.8745156652
 40
0.3575
100
AcDbArc
 50
150.7832229766
 51
151.8541396608
  0
ARC
  5
732
100
AcDbEntity
  8
0
100
AcDbCircle
 62
7
  6
CONTINUOUS
 10
3.2424984922
 20
5.8745156652
 40
0.3575
100
AcDbArc
 50
146.8271790205
 51
147.8980957048
  0
ARC
  5
733
100
AcDbEntity
  8
0
100
AcDbCircle
 62
7
  6
CONTINUOUS
 10
3.2424984922
 20
5.8745156652
 40
0.3575
100
AcDbArc
 50
142.8711350645
 51
143.9420517487
  0
ARC
  5
734
100
AcDbEntity
  8
0
100
AcDbCircle
 62
7
  6
CONTINUOUS
 10
3.2424984922
 20
5.8745156652
 40
0.3575
100
AcDbArc
 50
138.9150911084
 51
139.9860077927
  0
ARC
  5
735
100
AcDbEntity
  8
0
100
AcDbCircle
 62
7
  6
CONTINUOUS
 10
3.2424984922
 20
5.8745156652
 40
0.3575
100
AcDbArc
 50
134.9590471524
 51
136.0299638366
  0
ARC
  5
736
100
AcDbEntity
  8
0
100
AcDbCircle
 62
7
  6
CONTINUOUS
 10
3.2424984922
 20
5.8745156652
 40
0.3575
100
AcDbArc
 50
131.0030031963
 51
132.0739198806
  0
ARC
  5
737
100
AcDbEntity
  8
0
100
AcDbCircle
 62
7
  6
CONTINUOUS
 10
3.2424984922
 20
5.8745156652
 40
0.3575
100
AcDbArc
 50
127.0469592403
 51
128.1178759245
  0
ARC
  5
738
100
AcDbEntity
  8
0
100
AcDbCircle
 62
7
  6
CONTINUOUS
 10
3.2424984922
 20
5.8745156652
 40
0.3575
100
AcDbArc
 50
123.0909152843
 51
124.1618319685
  0
ARC
  5
739
100
AcDbEntity
  8
0
100
AcDbCircle
 62
7
  6
CONTINUOUS
 10
3.2424984922
 20
5.8745156652
 40
0.3575
100
AcDbArc
 50
119.1348713282
 51
120.2057880125
  0
ARC
  5
73A
100
AcDbEntity
  8
0
100
AcDbCircle
 62
7
  6
CONTINUOUS
 10
3.2424984922
 20
5.8745156652
 40
0.3575
100
AcDbArc
 50
115.1788273722
 51
116.2497440564
  0
ARC
  5
73B
100
AcDbEntity
  8
0
100
AcDbCircle
 62
7
  6
CONTINUOUS
 10
3.2424984922
 20
5.8745156652
 40
0.3575
100
AcDbArc
 50
111.2227834161
 51
112.2937001004
  0
ARC
  5
73C
100
AcDbEntity
  8
0
100
AcDbCircle
 62
7
  6
CONTINUOUS
 10
3.2424984922
 20
5.8745156652
 40
0.3575
100
AcDbArc
 50
107.2667394601
 51
108.3376561443
  0
ARC
  5
73D
100
AcDbEntity
  8
0
100
AcDbCircle
 62
7
  6
CONTINUOUS
 10
3.2424984922
 20
5.8745156652
 40
0.3575
100
AcDbArc
 50
103.310695504
 51
104.3816121883
  0
ARC
  5
73E
100
AcDbEntity
  8
0
100
AcDbCircle
 62
7
  6
CONTINUOUS
 10
3.2424984922
 20
5.8745156652
 40
0.3575
100
AcDbArc
 50
99.354651548
 51
100.4255682322
  0
ARC
  5
73F
100
AcDbEntity
  8
0
100
AcDbCircle
 62
7
  6
CONTINUOUS
 10
3.2424984922
 20
5.8745156652
 40
0.3575
100
AcDbArc
 50
95.3986075919
 51
96.4695242762
  0
ARC
  5
740
100
AcDbEntity
  8
0
100
AcDbCircle
 62
7
  6
CONTINUOUS
 10
3.2424984922
 20
5.8745156652
 40
0.3575
100
AcDbArc
 50
91.4425636359
 51
92.5134803201
  0
ARC
  5
741
100
AcDbEntity
  8
0
100
AcDbCircle
 62
7
  6
CONTINUOUS
 10
3.2424984922
 20
5.8745156652
 40
0.3457531755
100
AcDbArc
 50
196.3801445441
 51
163.6198554559
  0
ARC
  5
742
100
AcDbEntity
  8
0
100
AcDbCircle
 62
7
  6
CONTINUOUS
 10
3.2424984922
 20
5.8745156652
 40
0.2416529628
100
AcDbArc
 50
203.7962321613
 51
156.2037678387
  0
ARC
  5
743
100
AcDbEntity
  8
0
100
AcDbCircle
 62
7
  6
CONTINUOUS
 10
3.2424984922
 20
5.8745156652
 40
0.2291609373
100
AcDbArc
 50
205.1818329806
 51
154.8181670192
  0
ARC
  5
744
100
AcDbEntity
  8
0
100
AcDbCircle
 62
7
  6
CONTINUOUS
 10
3.2424984922
 20
5.8745156652
 40
0.215
100
AcDbArc
 50
206.9690230326
 51
153.0309769374
  0
ARC
  5
745
100
AcDbEntity
  8
0
100
AcDbCircle
 62
7
  6
CONTINUOUS
 10
3.2424984922
 20
5.8745156652
 40
0.2
100
AcDbArc
 50
209.1771612353
 51
150.8228387647
  0
ARC
  5
746
100
AcDbEntity
  8
0
100
AcDbCircle
 62
7
  6
CONTINUOUS
 10
3.2424984922
 20
5.8745156652
 40
0.185
100
AcDbArc
 50
211.8070852223
 51
148.192914776
  0
ARC
  5
747
100
AcDbEntity
  8
0
100
AcDbCircle
 62
7
  6
CONTINUOUS
 10
3.2424984922
 20
5.8745156652
 40
0.18375
100
AcDbArc
 50
212.0491040452
 51
147.9508959548
  0
ARC
  5
748
100
AcDbEntity
  8
0
100
AcDbCircle
 62
7
  6
CONTINUOUS
 10
3.2424984922
 20
5.8745156652
 40
0.15375
100
AcDbArc
 50
219.3600199988
 51
140.6399800012
  0
ARC
  5
749
100
AcDbEntity
  8
0
100
AcDbCircle
 62
7
  6
CONTINUOUS
 10
3.2424984922
 20
5.8745156652
 40
0.1075
100
AcDbArc
 50
245.097401663
 51
114.902598361
  0
ARC
  5
74A
100
AcDbEntity
  8
0
100
AcDbCircle
 62
7
  6
CONTINUOUS
 10
3.2424984922
 20
5.8745156652
 40
0.0975
100
AcDbArc
 50
270.0
 51
90.0
  0
ARC
  5
74B
100
AcDbEntity
  8
0
100
AcDbCircle
 62
7
  6
CONTINUOUS
 10
5.2424984922
 20
2.7495156652
 40
0.2525
100
AcDbArc
 50
150.041330812
 51
29.958669188
  0
ARC
  5
74C
100
AcDbEntity
  8
0
100
AcDbCircle
 62
7
  6
CONTINUOUS
 10
5.2424984922
 20
2.7495156652
 40
0.2225
100
AcDbArc
 50
169.4889600272
 51
10.5110399728
  0
ARC
  5
74D
100
AcDbEntity
  8
0
100
AcDbCircle
 62
7
  6
CONTINUOUS
 10
5.2424984922
 20
2.7495156652
 40
0.21875
100
AcDbArc
 50
180.0
 51
360.0
  0
ARC
  5
74E
100
AcDbEntity
  8
0
100
AcDbCircle
 62
7
  6
CONTINUOUS
 10
5.2424984922
 20
5.8745156652
 40
0.5875
100
AcDbArc
 50
12.9285070426
 51
14.6712913473
  0
ARC
  5
74F
100
AcDbEntity
  8
0
100
AcDbCircle
 62
7
  6
CONTINUOUS
 10
5.2424984922
 20
5.8745156652
 40
0.5875
100
AcDbArc
 50
17.7287232742
 51
19.4718854116
  0
ARC
  5
750
100
AcDbEntity
  8
0
100
AcDbCircle
 62
7
  6
CONTINUOUS
 10
5.2424984922
 20
5.8745156652
 40
0.5875
100
AcDbArc
 50
29.7279418433
 51
31.4713101052
  0
ARC
  5
751
100
AcDbEntity
  8
0
100
AcDbCircle
 62
7
  6
CONTINUOUS
 10
5.2424984922
 20
5.8745156652
 40
0.5875
100
AcDbArc
 50
34.5286633476
 51
36.2714057648
  0
ARC
  5
752
100
AcDbEntity
  8
0
100
AcDbCircle
 62
7
  6
CONTINUOUS
 10
5.2424984922
 20
5.8745156652
 40
0.5875
100
AcDbArc
 50
51.3282673389
 51
53.0712604254
  0
ARC
  5
753
100
AcDbEntity
  8
0
100
AcDbCircle
 62
7
  6
CONTINUOUS
 10
5.2424984922
 20
5.8745156652
 40
0.5875
100
AcDbArc
 50
56.1287351755
 51
57.8716022749
  0
ARC
  5
754
100
AcDbEntity
  8
0
100
AcDbCircle
 62
7
  6
CONTINUOUS
 10
5.2424984922
 20
5.8745156652
 40
0.5875
100
AcDbArc
 50
72.9285105288
 51
74.6712909933
  0
ARC
  5
755
100
AcDbEntity
  8
0
100
AcDbCircle
 62
7
  6
CONTINUOUS
 10
5.2424984922
 20
5.8745156652
 40
0.5875
100
AcDbArc
 50
77.7287260948
 51
79.4718854847
  0
ARC
  5
756
100
AcDbEntity
  8
0
100
AcDbCircle
 62
7
  6
CONTINUOUS
 10
5.2424984922
 20
5.8745156652
 40
0.5875
100
AcDbArc
 50
86.6777569135
 51
89.7222430865
  0
ARC
  5
757
100
AcDbEntity
  8
0
100
AcDbCircle
 62
7
  6
CONTINUOUS
 10
5.2424984922
 20
5.8745156652
 40
0.5875
100
AcDbArc
 50
89.7279418203
 51
91.4713123943
  0
ARC
  5
758
100
AcDbEntity
  8
0
100
AcDbCircle
 62
7
  6
CONTINUOUS
 10
5.2424984922
 20
5.8745156652
 40
0.5875
100
AcDbArc
 50
91.4777569135
 51
94.5222430865
  0
ARC
  5
759
100
AcDbEntity
  8
0
100
AcDbCircle
 62
7
  6
CONTINUOUS
 10
5.2424984922
 20
5.8745156652
 40
0.5875
100
AcDbArc
 50
94.5286625785
 51
96.2714034041
  0
ARC
  5
75A
100
AcDbEntity
  8
0
100
AcDbCircle
 62
7
  6
CONTINUOUS
 10
5.2424984922
 20
5.8745156652
 40
0.5875
100
AcDbArc
 50
96.2777569135
 51
99.3222430865
  0
ARC
  5
75B
100
AcDbEntity
  8
0
100
AcDbCircle
 62
7
  6
CONTINUOUS
 10
5.2424984922
 20
5.8745156652
 40
0.5875
100
AcDbArc
 50
99.3286279976
 51
108.2716654357
  0
ARC
  5
75C
100
AcDbEntity
  8
0
100
AcDbCircle
 62
7
  6
CONTINUOUS
 10
5.2424984922
 20
5.8745156652
 40
0.5875
100
AcDbArc
 50
108.2777569135
 51
111.3222430865
  0
ARC
  5
75D
100
AcDbEntity
  8
0
100
AcDbCircle
 62
7
  6
CONTINUOUS
 10
5.2424984922
 20
5.8745156652
 40
0.5875
100
AcDbArc
 50
111.3282686516
 51
113.0712614313
  0
ARC
  5
75E
100
AcDbEntity
  8
0
100
AcDbCircle
 62
7
  6
CONTINUOUS
 10
5.2424984922
 20
5.8745156652
 40
0.5875
100
AcDbArc
 50
113.0777569135
 51
116.1222430865
  0
ARC
  5
75F
100
AcDbEntity
  8
0
100
AcDbCircle
 62
7
  6
CONTINUOUS
 10
5.2424984922
 20
5.8745156652
 40
0.5875
100
AcDbArc
 50
116.1287370684
 51
117.8716027042
  0
ARC
  5
760
100
AcDbEntity
  8
0
100
AcDbCircle
 62
7
  6
CONTINUOUS
 10
5.2424984922
 20
5.8745156652
 40
0.5875
100
AcDbArc
 50
117.8777569135
 51
120.9222430865
  0
ARC
  5
761
100
AcDbEntity
  8
0
100
AcDbCircle
 62
7
  6
CONTINUOUS
 10
5.2424984922
 20
5.8745156652
 40
0.5875
100
AcDbArc
 50
120.9284544618
 51
129.871448151
  0
ARC
  5
762
100
AcDbEntity
  8
0
100
AcDbCircle
 62
7
  6
CONTINUOUS
 10
5.2424984922
 20
5.8745156652
 40
0.5875
100
AcDbArc
 50
129.8777569135
 51
132.9222430865
  0
ARC
  5
763
100
AcDbEntity
  8
0
100
AcDbCircle
 62
7
  6
CONTINUOUS
 10
5.2424984922
 20
5.8745156652
 40
0.5875
100
AcDbArc
 50
132.9285063496
 51
134.6712897404
  0
ARC
  5
764
100
AcDbEntity
  8
0
100
AcDbCircle
 62
7
  6
CONTINUOUS
 10
5.2424984922
 20
5.8745156652
 40
0.5875
100
AcDbArc
 50
134.6777569135
 51
137.7222430865
  0
ARC
  5
765
100
AcDbEntity
  8
0
100
AcDbCircle
 62
7
  6
CONTINUOUS
 10
5.2424984922
 20
5.8745156652
 40
0.5875
100
AcDbArc
 50
137.7287218304
 51
139.4718832576
  0
ARC
  5
766
100
AcDbEntity
  8
0
100
AcDbCircle
 62
7
  6
CONTINUOUS
 10
5.2424984922
 20
5.8745156652
 40
0.5875
100
AcDbArc
 50
139.4777569135
 51
142.5222430865
  0
ARC
  5
767
100
AcDbEntity
  8
0
100
AcDbCircle
 62
7
  6
CONTINUOUS
 10
5.2424984922
 20
5.8745156652
 40
0.5875
100
AcDbArc
 50
142.5281944284
 51
146.6719682972
  0
ARC
  5
768
100
AcDbEntity
  8
0
100
AcDbCircle
 62
7
  6
CONTINUOUS
 10
5.2424984922
 20
5.8745156652
 40
0.5875
100
AcDbArc
 50
146.6777569135
 51
149.7222430865
  0
ARC
  5
769
100
AcDbEntity
  8
0
100
AcDbCircle
 62
7
  6
CONTINUOUS
 10
5.2424984922
 20
5.8745156652
 40
0.5875
100
AcDbArc
 50
149.7279427043
 51
151.4713141479
  0
ARC
  5
76A
100
AcDbEntity
  8
0
100
AcDbCircle
 62
7
  6
CONTINUOUS
 10
5.2424984922
 20
5.8745156652
 40
0.5875
100
AcDbArc
 50
151.4777569135
 51
154.5222430865
  0
ARC
  5
76B
100
AcDbEntity
  8
0
100
AcDbCircle
 62
7
  6
CONTINUOUS
 10
5.2424984922
 20
5.8745156652
 40
0.5875
100
AcDbArc
 50
154.5286638782
 51
156.271404393
  0
ARC
  5
76C
100
AcDbEntity
  8
0
100
AcDbCircle
 62
7
  6
CONTINUOUS
 10
5.2424984922
 20
5.8745156652
 40
0.5875
100
AcDbArc
 50
156.2777569135
 51
159.3222430865
  0
ARC
  5
76D
100
AcDbEntity
  8
0
100
AcDbCircle
 62
7
  6
CONTINUOUS
 10
5.2424984922
 20
5.8745156652
 40
0.5875
100
AcDbArc
 50
159.32862999
 51
168.2716646816
  0
ARC
  5
76E
100
AcDbEntity
  8
0
100
AcDbCircle
 62
7
  6
CONTINUOUS
 10
5.2424984922
 20
5.8745156652
 40
0.5875
100
AcDbArc
 50
168.2777569135
 51
171.3222430865
  0
ARC
  5
76F
100
AcDbEntity
  8
0
100
AcDbCircle
 62
7
  6
CONTINUOUS
 10
5.2424984922
 20
5.8745156652
 40
0.5875
100
AcDbArc
 50
171.3282671224
 51
173.0712582855
  0
ARC
  5
770
100
AcDbEntity
  8
0
100
AcDbCircle
 62
7
  6
CONTINUOUS
 10
5.2424984922
 20
5.8745156652
 40
0.5875
100
AcDbArc
 50
173.0777569135
 51
176.1222430865
  0
ARC
  5
771
100
AcDbEntity
  8
0
100
AcDbCircle
 62
7
  6
CONTINUOUS
 10
5.2424984922
 20
5.8745156652
 40
0.5875
100
AcDbArc
 50
176.1287337959
 51
177.8716002409
  0
ARC
  5
772
100
AcDbEntity
  8
0
100
AcDbCircle
 62
7
  6
CONTINUOUS
 10
5.2424984922
 20
5.8745156652
 40
0.5875
100
AcDbArc
 50
82.5281958009
 51
86.6719660519
  0
ARC
  5
773
100
AcDbEntity
  8
0
100
AcDbCircle
 62
7
  6
CONTINUOUS
 10
5.2424984922
 20
5.8745156652
 40
0.5875
100
AcDbArc
 50
79.4777569135
 51
82.5222430865
  0
ARC
  5
774
100
AcDbEntity
  8
0
100
AcDbCircle
 62
7
  6
CONTINUOUS
 10
5.2424984922
 20
5.8745156652
 40
0.5875
100
AcDbArc
 50
74.6777569135
 51
77.7222430865
  0
ARC
  5
775
100
AcDbEntity
  8
0
100
AcDbCircle
 62
7
  6
CONTINUOUS
 10
5.2424984922
 20
5.8745156652
 40
0.5875
100
AcDbArc
 50
69.8777569135
 51
72.9222430865
  0
ARC
  5
776
100
AcDbEntity
  8
0
100
AcDbCircle
 62
7
  6
CONTINUOUS
 10
5.2424984922
 20
5.8745156652
 40
0.5875
100
AcDbArc
 50
356.1287337959
 51
357.8716002409
  0
ARC
  5
777
100
AcDbEntity
  8
0
100
AcDbCircle
 62
7
  6
CONTINUOUS
 10
5.2424984922
 20
5.8745156652
 40
0.5875
100
AcDbArc
 50
351.3282671224
 51
353.0712582855
  0
ARC
  5
778
100
AcDbEntity
  8
0
100
AcDbCircle
 62
7
  6
CONTINUOUS
 10
5.2424984922
 20
5.8745156652
 40
0.5875
100
AcDbArc
 50
334.5286638782
 51
336.271404393
  0
ARC
  5
779
100
AcDbEntity
  8
0
100
AcDbCircle
 62
7
  6
CONTINUOUS
 10
5.2424984922
 20
5.8745156652
 40
0.5875
100
AcDbArc
 50
329.7279427043
 51
331.4713141479
  0
ARC
  5
77A
100
AcDbEntity
  8
0
100
AcDbCircle
 62
7
  6
CONTINUOUS
 10
5.2424984922
 20
5.8745156652
 40
0.5875
100
AcDbArc
 50
317.7287218304
 51
319.4718832576
  0
ARC
  5
77B
100
AcDbEntity
  8
0
100
AcDbCircle
 62
7
  6
CONTINUOUS
 10
5.2424984922
 20
5.8745156652
 40
0.5875
100
AcDbArc
 50
312.9285063496
 51
314.6712897404
  0
ARC
  5
77C
100
AcDbEntity
  8
0
100
AcDbCircle
 62
7
  6
CONTINUOUS
 10
5.2424984922
 20
5.8745156652
 40
0.5875
100
AcDbArc
 50
296.1287370684
 51
297.8716027042
  0
ARC
  5
77D
100
AcDbEntity
  8
0
100
AcDbCircle
 62
7
  6
CONTINUOUS
 10
5.2424984922
 20
5.8745156652
 40
0.5875
100
AcDbArc
 50
291.8617217979
 51
293.0712614313
  0
ARC
  5
77E
100
AcDbEntity
  8
0
100
AcDbCircle
 62
7
  6
CONTINUOUS
 10
5.2424984922
 20
5.8745156652
 40
0.5875
100
AcDbArc
 50
236.1287351755
 51
237.8716022749
  0
ARC
  5
77F
100
AcDbEntity
  8
0
100
AcDbCircle
 62
7
  6
CONTINUOUS
 10
5.2424984922
 20
5.8745156652
 40
0.5875
100
AcDbArc
 50
231.3282673389
 51
233.0712604254
  0
ARC
  5
780
100
AcDbEntity
  8
0
100
AcDbCircle
 62
7
  6
CONTINUOUS
 10
5.2424984922
 20
5.8745156652
 40
0.5875
100
AcDbArc
 50
219.3286317054
 51
228.2716674935
  0
ARC
  5
781
100
AcDbEntity
  8
0
100
AcDbCircle
 62
7
  6
CONTINUOUS
 10
5.2424984922
 20
5.8745156652
 40
0.5875
100
AcDbArc
 50
216.2777569135
 51
219.3222430865
  0
ARC
  5
782
100
AcDbEntity
  8
0
100
AcDbCircle
 62
7
  6
CONTINUOUS
 10
5.2424984922
 20
5.8745156652
 40
0.5875
100
AcDbArc
 50
214.5286633476
 51
216.2714057648
  0
ARC
  5
783
100
AcDbEntity
  8
0
100
AcDbCircle
 62
7
  6
CONTINUOUS
 10
5.2424984922
 20
5.8745156652
 40
0.5875
100
AcDbArc
 50
211.4777569135
 51
214.5222430865
  0
ARC
  5
784
100
AcDbEntity
  8
0
100
AcDbCircle
 62
7
  6
CONTINUOUS
 10
5.2424984922
 20
5.8745156652
 40
0.5875
100
AcDbArc
 50
209.7279418433
 51
211.4713101052
  0
ARC
  5
785
100
AcDbEntity
  8
0
100
AcDbCircle
 62
7
  6
CONTINUOUS
 10
5.2424984922
 20
5.8745156652
 40
0.5875
100
AcDbArc
 50
206.6777569135
 51
209.7222430865
  0
ARC
  5
786
100
AcDbEntity
  8
0
100
AcDbCircle
 62
7
  6
CONTINUOUS
 10
5.2424984922
 20
5.8745156652
 40
0.5875
100
AcDbArc
 50
202.5281927874
 51
206.6719629016
  0
ARC
  5
787
100
AcDbEntity
  8
0
100
AcDbCircle
 62
7
  6
CONTINUOUS
 10
5.2424984922
 20
5.8745156652
 40
0.5875
100
AcDbArc
 50
199.4777569135
 51
202.5222430865
  0
ARC
  5
788
100
AcDbEntity
  8
0
100
AcDbCircle
 62
7
  6
CONTINUOUS
 10
5.2424984922
 20
5.8745156652
 40
0.5875
100
AcDbArc
 50
197.7287232742
 51
199.4718854116
  0
ARC
  5
789
100
AcDbEntity
  8
0
100
AcDbCircle
 62
7
  6
CONTINUOUS
 10
5.2424984922
 20
5.8745156652
 40
0.5875
100
AcDbArc
 50
194.6777569135
 51
197.7222430865
  0
ARC
  5
78A
100
AcDbEntity
  8
0
100
AcDbCircle
 62
7
  6
CONTINUOUS
 10
5.2424984922
 20
5.8745156652
 40
0.5875
100
AcDbArc
 50
192.9285070426
 51
194.6712913473
  0
ARC
  5
78B
100
AcDbEntity
  8
0
100
AcDbCircle
 62
7
  6
CONTINUOUS
 10
5.2424984922
 20
5.8745156652
 40
0.5875
100
AcDbArc
 50
189.8777569135
 51
192.9222430865
  0
ARC
  5
78C
100
AcDbEntity
  8
0
100
AcDbCircle
 62
7
  6
CONTINUOUS
 10
5.2424984922
 20
5.8745156652
 40
0.5875
100
AcDbArc
 50
180.9284556725
 51
189.8714504347
  0
ARC
  5
78D
100
AcDbEntity
  8
0
100
AcDbCircle
 62
7
  6
CONTINUOUS
 10
5.2424984922
 20
5.8745156652
 40
0.5875
100
AcDbArc
 50
177.8777569135
 51
180.9222430865
  0
ARC
  5
78E
100
AcDbEntity
  8
0
100
AcDbCircle
 62
7
  6
CONTINUOUS
 10
5.2424984922
 20
5.8745156652
 40
0.5875
100
AcDbArc
 50
60.9284518989
 51
69.8714441828
  0
ARC
  5
78F
100
AcDbEntity
  8
0
100
AcDbCircle
 62
7
  6
CONTINUOUS
 10
5.2424984922
 20
5.8745156652
 40
0.5875
100
AcDbArc
 50
57.8777569135
 51
60.9222430865
  0
ARC
  5
790
100
AcDbEntity
  8
0
100
AcDbCircle
 62
7
  6
CONTINUOUS
 10
5.2424984922
 20
5.8745156652
 40
0.5875
100
AcDbArc
 50
53.0777569135
 51
56.1222430865
  0
ARC
  5
791
100
AcDbEntity
  8
0
100
AcDbCircle
 62
7
  6
CONTINUOUS
 10
5.2424984922
 20
5.8745156652
 40
0.5875
100
AcDbArc
 50
48.2777569135
 51
51.3222430865
  0
ARC
  5
792
100
AcDbEntity
  8
0
100
AcDbCircle
 62
7
  6
CONTINUOUS
 10
5.2424984922
 20
5.8745156652
 40
0.5875
100
AcDbArc
 50
39.3286317054
 51
48.2716674935
  0
ARC
  5
793
100
AcDbEntity
  8
0
100
AcDbCircle
 62
7
  6
CONTINUOUS
 10
5.2424984922
 20
5.8745156652
 40
0.5875
100
AcDbArc
 50
36.2777569135
 51
39.3222430865
  0
ARC
  5
794
100
AcDbEntity
  8
0
100
AcDbCircle
 62
7
  6
CONTINUOUS
 10
5.2424984922
 20
5.8745156652
 40
0.5875
100
AcDbArc
 50
31.4777569135
 51
34.5222430865
  0
ARC
  5
795
100
AcDbEntity
  8
0
100
AcDbCircle
 62
7
  6
CONTINUOUS
 10
5.2424984922
 20
5.8745156652
 40
0.5875
100
AcDbArc
 50
26.6777569135
 51
29.7222430865
  0
ARC
  5
796
100
AcDbEntity
  8
0
100
AcDbCircle
 62
7
  6
CONTINUOUS
 10
5.2424984922
 20
5.8745156652
 40
0.5875
100
AcDbArc
 50
22.5281927874
 51
26.6719629016
  0
ARC
  5
797
100
AcDbEntity
  8
0
100
AcDbCircle
 62
7
  6
CONTINUOUS
 10
5.2424984922
 20
5.8745156652
 40
0.5875
100
AcDbArc
 50
19.4777569135
 51
22.5222430865
  0
ARC
  5
798
100
AcDbEntity
  8
0
100
AcDbCircle
 62
7
  6
CONTINUOUS
 10
5.2424984922
 20
5.8745156652
 40
0.5875
100
AcDbArc
 50
14.6777569135
 51
17.7222430865
  0
ARC
  5
799
100
AcDbEntity
  8
0
100
AcDbCircle
 62
7
  6
CONTINUOUS
 10
5.2424984922
 20
5.8745156652
 40
0.5875
100
AcDbArc
 50
9.8777569135
 51
12.9222430865
  0
ARC
  5
79A
100
AcDbEntity
  8
0
100
AcDbCircle
 62
7
  6
CONTINUOUS
 10
5.2424984922
 20
5.8745156652
 40
0.5875
100
AcDbArc
 50
0.9284556725
 51
9.8714504347
  0
ARC
  5
79B
100
AcDbEntity
  8
0
100
AcDbCircle
 62
7
  6
CONTINUOUS
 10
5.2424984922
 20
5.8745156652
 40
0.5875
100
AcDbArc
 50
357.8777569135
 51
0.9222430865
  0
ARC
  5
79C
100
AcDbEntity
  8
0
100
AcDbCircle
 62
7
  6
CONTINUOUS
 10
5.2424984922
 20
5.8745156652
 40
0.5875
100
AcDbArc
 50
353.0777569135
 51
356.1222430865
  0
ARC
  5
79D
100
AcDbEntity
  8
0
100
AcDbCircle
 62
7
  6
CONTINUOUS
 10
5.2424984922
 20
5.8745156652
 40
0.5875
100
AcDbArc
 50
348.2777569135
 51
351.3222430865
  0
ARC
  5
79E
100
AcDbEntity
  8
0
100
AcDbCircle
 62
7
  6
CONTINUOUS
 10
5.2424984922
 20
5.8745156652
 40
0.5875
100
AcDbArc
 50
339.32862999
 51
348.2716646816
  0
ARC
  5
79F
100
AcDbEntity
  8
0
100
AcDbCircle
 62
7
  6
CONTINUOUS
 10
5.2424984922
 20
5.8745156652
 40
0.5875
100
AcDbArc
 50
336.2777569135
 51
339.3222430865
  0
ARC
  5
7A0
100
AcDbEntity
  8
0
100
AcDbCircle
 62
7
  6
CONTINUOUS
 10
5.2424984922
 20
5.8745156652
 40
0.5875
100
AcDbArc
 50
331.4777569135
 51
334.5222430865
  0
ARC
  5
7A1
100
AcDbEntity
  8
0
100
AcDbCircle
 62
7
  6
CONTINUOUS
 10
5.2424984922
 20
5.8745156652
 40
0.5875
100
AcDbArc
 50
326.6777569135
 51
329.7222430865
  0
ARC
  5
7A2
100
AcDbEntity
  8
0
100
AcDbCircle
 62
7
  6
CONTINUOUS
 10
5.2424984922
 20
5.8745156652
 40
0.5875
100
AcDbArc
 50
322.5281944284
 51
326.6719682972
  0
ARC
  5
7A3
100
AcDbEntity
  8
0
100
AcDbCircle
 62
7
  6
CONTINUOUS
 10
5.2424984922
 20
5.8745156652
 40
0.5875
100
AcDbArc
 50
319.4777569135
 51
322.5222430865
  0
ARC
  5
7A4
100
AcDbEntity
  8
0
100
AcDbCircle
 62
7
  6
CONTINUOUS
 10
5.2424984922
 20
5.8745156652
 40
0.5875
100
AcDbArc
 50
314.6777569135
 51
317.7222430865
  0
ARC
  5
7A5
100
AcDbEntity
  8
0
100
AcDbCircle
 62
7
  6
CONTINUOUS
 10
5.2424984922
 20
5.8745156652
 40
0.5875
100
AcDbArc
 50
309.8777569135
 51
312.9222430865
  0
ARC
  5
7A6
100
AcDbEntity
  8
0
100
AcDbCircle
 62
7
  6
CONTINUOUS
 10
5.2424984922
 20
5.8745156652
 40
0.5875
100
AcDbArc
 50
300.9284544618
 51
309.871448151
  0
ARC
  5
7A7
100
AcDbEntity
  8
0
100
AcDbCircle
 62
7
  6
CONTINUOUS
 10
5.2424984922
 20
5.8745156652
 40
0.5875
100
AcDbArc
 50
297.8777569135
 51
300.9222430865
  0
ARC
  5
7A8
100
AcDbEntity
  8
0
100
AcDbCircle
 62
7
  6
CONTINUOUS
 10
5.2424984922
 20
5.8745156652
 40
0.5875
100
AcDbArc
 50
293.0777569135
 51
296.1222430865
  0
ARC
  5
7A9
100
AcDbEntity
  8
0
100
AcDbCircle
 62
7
  6
CONTINUOUS
 10
5.2424984922
 20
5.8745156652
 40
0.5875
100
AcDbArc
 50
240.9284518989
 51
248.1382782021
  0
ARC
  5
7AA
100
AcDbEntity
  8
0
100
AcDbCircle
 62
7
  6
CONTINUOUS
 10
5.2424984922
 20
5.8745156652
 40
0.5875
100
AcDbArc
 50
237.8777569135
 51
240.9222430865
  0
ARC
  5
7AB
100
AcDbEntity
  8
0
100
AcDbCircle
 62
7
  6
CONTINUOUS
 10
5.2424984922
 20
5.8745156652
 40
0.5875
100
AcDbArc
 50
233.0777569135
 51
236.1222430865
  0
ARC
  5
7AC
100
AcDbEntity
  8
0
100
AcDbCircle
 62
7
  6
CONTINUOUS
 10
5.2424984922
 20
5.8745156652
 40
0.5875
100
AcDbArc
 50
228.2777569135
 51
231.3222430865
  0
ARC
  5
7AD
100
AcDbEntity
  8
0
100
AcDbCircle
 62
7
  6
CONTINUOUS
 10
5.2424984922
 20
5.8745156652
 40
0.5414469601
100
AcDbArc
 50
293.829800416
 51
246.170199584
  0
ARC
  5
7AE
100
AcDbEntity
  8
0
100
AcDbCircle
 62
7
  6
CONTINUOUS
 10
5.2424984922
 20
5.8745156652
 40
0.4970909501
100
AcDbArc
 50
296.1103773365
 51
243.8896226635
  0
ARC
  5
7AF
100
AcDbEntity
  8
0
100
AcDbCircle
 62
7
  6
CONTINUOUS
 10
5.2424984922
 20
5.8745156652
 40
0.4837841471
100
AcDbArc
 50
296.8833333831
 51
243.1166666178
  0
ARC
  5
7B0
100
AcDbEntity
  8
0
100
AcDbCircle
 62
7
  6
CONTINUOUS
 10
5.2424984922
 20
5.8745156652
 40
0.45625
100
AcDbArc
 50
298.8225991193
 51
299.6389393423
  0
ARC
  5
7B1
100
AcDbEntity
  8
0
100
AcDbCircle
 62
7
  6
CONTINUOUS
 10
5.2424984922
 20
5.8745156652
 40
0.45625
100
AcDbArc
 50
301.8995221962
 51
302.7158624192
  0
ARC
  5
7B2
100
AcDbEntity
  8
0
100
AcDbCircle
 62
7
  6
CONTINUOUS
 10
5.2424984922
 20
5.8745156652
 40
0.45625
100
AcDbArc
 50
304.9764452731
 51
305.7927854961
  0
ARC
  5
7B3
100
AcDbEntity
  8
0
100
AcDbCircle
 62
7
  6
CONTINUOUS
 10
5.2424984922
 20
5.8745156652
 40
0.45625
100
AcDbArc
 50
308.05336835
 51
308.8697085731
  0
ARC
  5
7B4
100
AcDbEntity
  8
0
100
AcDbCircle
 62
7
  6
CONTINUOUS
 10
5.2424984922
 20
5.8745156652
 40
0.45625
100
AcDbArc
 50
311.1302914269
 51
311.94663165
  0
ARC
  5
7B5
100
AcDbEntity
  8
0
100
AcDbCircle
 62
7
  6
CONTINUOUS
 10
5.2424984922
 20
5.8745156652
 40
0.45625
100
AcDbArc
 50
314.2072145039
 51
315.0235547269
  0
ARC
  5
7B6
100
AcDbEntity
  8
0
100
AcDbCircle
 62
7
  6
CONTINUOUS
 10
5.2424984922
 20
5.8745156652
 40
0.45625
100
AcDbArc
 50
317.2841375808
 51
318.1004778038
  0
ARC
  5
7B7
100
AcDbEntity
  8
0
100
AcDbCircle
 62
7
  6
CONTINUOUS
 10
5.2424984922
 20
5.8745156652
 40
0.45625
100
AcDbArc
 50
320.3610606577
 51
321.1774008807
  0
ARC
  5
7B8
100
AcDbEntity
  8
0
100
AcDbCircle
 62
7
  6
CONTINUOUS
 10
5.2424984922
 20
5.8745156652
 40
0.45625
100
AcDbArc
 50
323.4379837346
 51
324.2543239577
  0
ARC
  5
7B9
100
AcDbEntity
  8
0
100
AcDbCircle
 62
7
  6
CONTINUOUS
 10
5.2424984922
 20
5.8745156652
 40
0.45625
100
AcDbArc
 50
326.5149068116
 51
327.3312470346
  0
ARC
  5
7BA
100
AcDbEntity
  8
0
100
AcDbCircle
 62
7
  6
CONTINUOUS
 10
5.2424984922
 20
5.8745156652
 40
0.45625
100
AcDbArc
 50
329.5918298885
 51
330.4081701115
  0
ARC
  5
7BB
100
AcDbEntity
  8
0
100
AcDbCircle
 62
7
  6
CONTINUOUS
 10
5.2424984922
 20
5.8745156652
 40
0.45625
100
AcDbArc
 50
332.6687529654
 51
333.4850931884
  0
ARC
  5
7BC
100
AcDbEntity
  8
0
100
AcDbCircle
 62
7
  6
CONTINUOUS
 10
5.2424984922
 20
5.8745156652
 40
0.45625
100
AcDbArc
 50
335.7456760423
 51
336.5620162654
  0
ARC
  5
7BD
100
AcDbEntity
  8
0
100
AcDbCircle
 62
7
  6
CONTINUOUS
 10
5.2424984922
 20
5.8745156652
 40
0.45625
100
AcDbArc
 50
338.8225991193
 51
339.6389393423
  0
ARC
  5
7BE
100
AcDbEntity
  8
0
100
AcDbCircle
 62
7
  6
CONTINUOUS
 10
5.2424984922
 20
5.8745156652
 40
0.45625
100
AcDbArc
 50
341.8995221962
 51
342.7158624192
  0
ARC
  5
7BF
100
AcDbEntity
  8
0
100
AcDbCircle
 62
7
  6
CONTINUOUS
 10
5.2424984922
 20
5.8745156652
 40
0.45625
100
AcDbArc
 50
344.9764452731
 51
345.7927854961
  0
ARC
  5
7C0
100
AcDbEntity
  8
0
100
AcDbCircle
 62
7
  6
CONTINUOUS
 10
5.2424984922
 20
5.8745156652
 40
0.45625
100
AcDbArc
 50
348.05336835
 51
348.8697085731
  0
ARC
  5
7C1
100
AcDbEntity
  8
0
100
AcDbCircle
 62
7
  6
CONTINUOUS
 10
5.2424984922
 20
5.8745156652
 40
0.45625
100
AcDbArc
 50
351.1302914269
 51
351.94663165
  0
ARC
  5
7C2
100
AcDbEntity
  8
0
100
AcDbCircle
 62
7
  6
CONTINUOUS
 10
5.2424984922
 20
5.8745156652
 40
0.45625
100
AcDbArc
 50
354.2072145039
 51
355.0235547269
  0
ARC
  5
7C3
100
AcDbEntity
  8
0
100
AcDbCircle
 62
7
  6
CONTINUOUS
 10
5.2424984922
 20
5.8745156652
 40
0.45625
100
AcDbArc
 50
357.2841375808
 51
358.1004778038
  0
ARC
  5
7C4
100
AcDbEntity
  8
0
100
AcDbCircle
 62
7
  6
CONTINUOUS
 10
5.2424984922
 20
5.8745156652
 40
0.45625
100
AcDbArc
 50
0.3610606577
 51
1.1774008807
  0
ARC
  5
7C5
100
AcDbEntity
  8
0
100
AcDbCircle
 62
7
  6
CONTINUOUS
 10
5.2424984922
 20
5.8745156652
 40
0.45625
100
AcDbArc
 50
3.4379837346
 51
4.2543239577
  0
ARC
  5
7C6
100
AcDbEntity
  8
0
100
AcDbCircle
 62
7
  6
CONTINUOUS
 10
5.2424984922
 20
5.8745156652
 40
0.45625
100
AcDbArc
 50
6.5149068116
 51
7.3312470346
  0
ARC
  5
7C7
100
AcDbEntity
  8
0
100
AcDbCircle
 62
7
  6
CONTINUOUS
 10
5.2424984922
 20
5.8745156652
 40
0.45625
100
AcDbArc
 50
9.5918298885
 51
10.4081701115
  0
ARC
  5
7C8
100
AcDbEntity
  8
0
100
AcDbCircle
 62
7
  6
CONTINUOUS
 10
5.2424984922
 20
5.8745156652
 40
0.45625
100
AcDbArc
 50
12.6687529654
 51
13.4850931884
  0
ARC
  5
7C9
100
AcDbEntity
  8
0
100
AcDbCircle
 62
7
  6
CONTINUOUS
 10
5.2424984922
 20
5.8745156652
 40
0.45625
100
AcDbArc
 50
15.7456760423
 51
16.5620162654
  0
ARC
  5
7CA
100
AcDbEntity
  8
0
100
AcDbCircle
 62
7
  6
CONTINUOUS
 10
5.2424984922
 20
5.8745156652
 40
0.45625
100
AcDbArc
 50
18.8225991193
 51
19.6389393423
  0
ARC
  5
7CB
100
AcDbEntity
  8
0
100
AcDbCircle
 62
7
  6
CONTINUOUS
 10
5.2424984922
 20
5.8745156652
 40
0.45625
100
AcDbArc
 50
21.8995221962
 51
22.7158624192
  0
ARC
  5
7CC
100
AcDbEntity
  8
0
100
AcDbCircle
 62
7
  6
CONTINUOUS
 10
5.2424984922
 20
5.8745156652
 40
0.45625
100
AcDbArc
 50
24.9764452731
 51
25.7927854961
  0
ARC
  5
7CD
100
AcDbEntity
  8
0
100
AcDbCircle
 62
7
  6
CONTINUOUS
 10
5.2424984922
 20
5.8745156652
 40
0.45625
100
AcDbArc
 50
28.05336835
 51
28.8697085731
  0
ARC
  5
7CE
100
AcDbEntity
  8
0
100
AcDbCircle
 62
7
  6
CONTINUOUS
 10
5.2424984922
 20
5.8745156652
 40
0.45625
100
AcDbArc
 50
31.1302914269
 51
31.94663165
  0
ARC
  5
7CF
100
AcDbEntity
  8
0
100
AcDbCircle
 62
7
  6
CONTINUOUS
 10
5.2424984922
 20
5.8745156652
 40
0.45625
100
AcDbArc
 50
34.2072145039
 51
35.0235547269
  0
ARC
  5
7D0
100
AcDbEntity
  8
0
100
AcDbCircle
 62
7
  6
CONTINUOUS
 10
5.2424984922
 20
5.8745156652
 40
0.45625
100
AcDbArc
 50
37.2841375808
 51
38.1004778038
  0
ARC
  5
7D1
100
AcDbEntity
  8
0
100
AcDbCircle
 62
7
  6
CONTINUOUS
 10
5.2424984922
 20
5.8745156652
 40
0.45625
100
AcDbArc
 50
40.3610606577
 51
41.1774008807
  0
ARC
  5
7D2
100
AcDbEntity
  8
0
100
AcDbCircle
 62
7
  6
CONTINUOUS
 10
5.2424984922
 20
5.8745156652
 40
0.45625
100
AcDbArc
 50
43.4379837346
 51
44.2543239577
  0
ARC
  5
7D3
100
AcDbEntity
  8
0
100
AcDbCircle
 62
7
  6
CONTINUOUS
 10
5.2424984922
 20
5.8745156652
 40
0.45625
100
AcDbArc
 50
46.5149068116
 51
47.3312470346
  0
ARC
  5
7D4
100
AcDbEntity
  8
0
100
AcDbCircle
 62
7
  6
CONTINUOUS
 10
5.2424984922
 20
5.8745156652
 40
0.45625
100
AcDbArc
 50
49.5918298885
 51
50.4081701115
  0
ARC
  5
7D5
100
AcDbEntity
  8
0
100
AcDbCircle
 62
7
  6
CONTINUOUS
 10
5.2424984922
 20
5.8745156652
 40
0.45625
100
AcDbArc
 50
52.6687529654
 51
53.4850931884
  0
ARC
  5
7D6
100
AcDbEntity
  8
0
100
AcDbCircle
 62
7
  6
CONTINUOUS
 10
5.2424984922
 20
5.8745156652
 40
0.45625
100
AcDbArc
 50
55.7456760423
 51
56.5620162654
  0
ARC
  5
7D7
100
AcDbEntity
  8
0
100
AcDbCircle
 62
7
  6
CONTINUOUS
 10
5.2424984922
 20
5.8745156652
 40
0.45625
100
AcDbArc
 50
58.8225991193
 51
59.6389393423
  0
ARC
  5
7D8
100
AcDbEntity
  8
0
100
AcDbCircle
 62
7
  6
CONTINUOUS
 10
5.2424984922
 20
5.8745156652
 40
0.45625
100
AcDbArc
 50
61.8995221962
 51
62.7158624192
  0
ARC
  5
7D9
100
AcDbEntity
  8
0
100
AcDbCircle
 62
7
  6
CONTINUOUS
 10
5.2424984922
 20
5.8745156652
 40
0.45625
100
AcDbArc
 50
64.9764452731
 51
65.7927854961
  0
ARC
  5
7DA
100
AcDbEntity
  8
0
100
AcDbCircle
 62
7
  6
CONTINUOUS
 10
5.2424984922
 20
5.8745156652
 40
0.45625
100
AcDbArc
 50
68.05336835
 51
68.8697085731
  0
ARC
  5
7DB
100
AcDbEntity
  8
0
100
AcDbCircle
 62
7
  6
CONTINUOUS
 10
5.2424984922
 20
5.8745156652
 40
0.45625
100
AcDbArc
 50
71.1302914269
 51
71.94663165
  0
ARC
  5
7DC
100
AcDbEntity
  8
0
100
AcDbCircle
 62
7
  6
CONTINUOUS
 10
5.2424984922
 20
5.8745156652
 40
0.45625
100
AcDbArc
 50
74.2072145039
 51
75.0235547269
  0
ARC
  5
7DD
100
AcDbEntity
  8
0
100
AcDbCircle
 62
7
  6
CONTINUOUS
 10
5.2424984922
 20
5.8745156652
 40
0.45625
100
AcDbArc
 50
77.2841375808
 51
78.1004778038
  0
ARC
  5
7DE
100
AcDbEntity
  8
0
100
AcDbCircle
 62
7
  6
CONTINUOUS
 10
5.2424984922
 20
5.8745156652
 40
0.45625
100
AcDbArc
 50
80.3610606577
 51
81.1774008807
  0
ARC
  5
7DF
100
AcDbEntity
  8
0
100
AcDbCircle
 62
7
  6
CONTINUOUS
 10
5.2424984922
 20
5.8745156652
 40
0.45625
100
AcDbArc
 50
83.4379837346
 51
84.2543239577
  0
ARC
  5
7E0
100
AcDbEntity
  8
0
100
AcDbCircle
 62
7
  6
CONTINUOUS
 10
5.2424984922
 20
5.8745156652
 40
0.45625
100
AcDbArc
 50
86.5149068116
 51
87.3312470346
  0
ARC
  5
7E1
100
AcDbEntity
  8
0
100
AcDbCircle
 62
7
  6
CONTINUOUS
 10
5.2424984922
 20
5.8745156652
 40
0.45625
100
AcDbArc
 50
89.5918298885
 51
90.4081701115
  0
ARC
  5
7E2
100
AcDbEntity
  8
0
100
AcDbCircle
 62
7
  6
CONTINUOUS
 10
5.2424984922
 20
5.8745156652
 40
0.45625
100
AcDbArc
 50
92.6687529654
 51
93.4850931884
  0
ARC
  5
7E3
100
AcDbEntity
  8
0
100
AcDbCircle
 62
7
  6
CONTINUOUS
 10
5.2424984922
 20
5.8745156652
 40
0.45625
100
AcDbArc
 50
95.7456760423
 51
96.5620162654
  0
ARC
  5
7E4
100
AcDbEntity
  8
0
100
AcDbCircle
 62
7
  6
CONTINUOUS
 10
5.2424984922
 20
5.8745156652
 40
0.45625
100
AcDbArc
 50
98.8225991193
 51
99.6389393423
  0
ARC
  5
7E5
100
AcDbEntity
  8
0
100
AcDbCircle
 62
7
  6
CONTINUOUS
 10
5.2424984922
 20
5.8745156652
 40
0.45625
100
AcDbArc
 50
101.8995221962
 51
102.7158624192
  0
ARC
  5
7E6
100
AcDbEntity
  8
0
100
AcDbCircle
 62
7
  6
CONTINUOUS
 10
5.2424984922
 20
5.8745156652
 40
0.45625
100
AcDbArc
 50
104.9764452731
 51
105.7927854961
  0
ARC
  5
7E7
100
AcDbEntity
  8
0
100
AcDbCircle
 62
7
  6
CONTINUOUS
 10
5.2424984922
 20
5.8745156652
 40
0.45625
100
AcDbArc
 50
108.05336835
 51
108.8697085731
  0
ARC
  5
7E8
100
AcDbEntity
  8
0
100
AcDbCircle
 62
7
  6
CONTINUOUS
 10
5.2424984922
 20
5.8745156652
 40
0.45625
100
AcDbArc
 50
111.1302914269
 51
111.94663165
  0
ARC
  5
7E9
100
AcDbEntity
  8
0
100
AcDbCircle
 62
7
  6
CONTINUOUS
 10
5.2424984922
 20
5.8745156652
 40
0.45625
100
AcDbArc
 50
114.2072145039
 51
115.0235547269
  0
ARC
  5
7EA
100
AcDbEntity
  8
0
100
AcDbCircle
 62
7
  6
CONTINUOUS
 10
5.2424984922
 20
5.8745156652
 40
0.45625
100
AcDbArc
 50
117.2841375808
 51
118.1004778038
  0
ARC
  5
7EB
100
AcDbEntity
  8
0
100
AcDbCircle
 62
7
  6
CONTINUOUS
 10
5.2424984922
 20
5.8745156652
 40
0.45625
100
AcDbArc
 50
120.3610606577
 51
121.1774008807
  0
ARC
  5
7EC
100
AcDbEntity
  8
0
100
AcDbCircle
 62
7
  6
CONTINUOUS
 10
5.2424984922
 20
5.8745156652
 40
0.45625
100
AcDbArc
 50
123.4379837346
 51
124.2543239577
  0
ARC
  5
7ED
100
AcDbEntity
  8
0
100
AcDbCircle
 62
7
  6
CONTINUOUS
 10
5.2424984922
 20
5.8745156652
 40
0.45625
100
AcDbArc
 50
126.5149068116
 51
127.3312470346
  0
ARC
  5
7EE
100
AcDbEntity
  8
0
100
AcDbCircle
 62
7
  6
CONTINUOUS
 10
5.2424984922
 20
5.8745156652
 40
0.45625
100
AcDbArc
 50
129.5918298885
 51
130.4081701115
  0
ARC
  5
7EF
100
AcDbEntity
  8
0
100
AcDbCircle
 62
7
  6
CONTINUOUS
 10
5.2424984922
 20
5.8745156652
 40
0.45625
100
AcDbArc
 50
132.6687529654
 51
133.4850931884
  0
ARC
  5
7F0
100
AcDbEntity
  8
0
100
AcDbCircle
 62
7
  6
CONTINUOUS
 10
5.2424984922
 20
5.8745156652
 40
0.45625
100
AcDbArc
 50
135.7456760423
 51
136.5620162654
  0
ARC
  5
7F1
100
AcDbEntity
  8
0
100
AcDbCircle
 62
7
  6
CONTINUOUS
 10
5.2424984922
 20
5.8745156652
 40
0.45625
100
AcDbArc
 50
138.8225991193
 51
139.6389393423
  0
ARC
  5
7F2
100
AcDbEntity
  8
0
100
AcDbCircle
 62
7
  6
CONTINUOUS
 10
5.2424984922
 20
5.8745156652
 40
0.45625
100
AcDbArc
 50
141.8995221962
 51
142.7158624192
  0
ARC
  5
7F3
100
AcDbEntity
  8
0
100
AcDbCircle
 62
7
  6
CONTINUOUS
 10
5.2424984922
 20
5.8745156652
 40
0.45625
100
AcDbArc
 50
144.9764452731
 51
145.7927854961
  0
ARC
  5
7F4
100
AcDbEntity
  8
0
100
AcDbCircle
 62
7
  6
CONTINUOUS
 10
5.2424984922
 20
5.8745156652
 40
0.45625
100
AcDbArc
 50
148.05336835
 51
148.8697085731
  0
ARC
  5
7F5
100
AcDbEntity
  8
0
100
AcDbCircle
 62
7
  6
CONTINUOUS
 10
5.2424984922
 20
5.8745156652
 40
0.45625
100
AcDbArc
 50
151.1302914269
 51
151.94663165
  0
ARC
  5
7F6
100
AcDbEntity
  8
0
100
AcDbCircle
 62
7
  6
CONTINUOUS
 10
5.2424984922
 20
5.8745156652
 40
0.45625
100
AcDbArc
 50
154.2072145039
 51
155.0235547269
  0
ARC
  5
7F7
100
AcDbEntity
  8
0
100
AcDbCircle
 62
7
  6
CONTINUOUS
 10
5.2424984922
 20
5.8745156652
 40
0.45625
100
AcDbArc
 50
157.2841375808
 51
158.1004778038
  0
ARC
  5
7F8
100
AcDbEntity
  8
0
100
AcDbCircle
 62
7
  6
CONTINUOUS
 10
5.2424984922
 20
5.8745156652
 40
0.45625
100
AcDbArc
 50
160.3610606577
 51
161.1774008807
  0
ARC
  5
7F9
100
AcDbEntity
  8
0
100
AcDbCircle
 62
7
  6
CONTINUOUS
 10
5.2424984922
 20
5.8745156652
 40
0.45625
100
AcDbArc
 50
163.4379837346
 51
164.2543239577
  0
ARC
  5
7FA
100
AcDbEntity
  8
0
100
AcDbCircle
 62
7
  6
CONTINUOUS
 10
5.2424984922
 20
5.8745156652
 40
0.45625
100
AcDbArc
 50
166.5149068116
 51
167.3312470346
  0
ARC
  5
7FB
100
AcDbEntity
  8
0
100
AcDbCircle
 62
7
  6
CONTINUOUS
 10
5.2424984922
 20
5.8745156652
 40
0.45625
100
AcDbArc
 50
169.5918298885
 51
170.4081701115
  0
ARC
  5
7FC
100
AcDbEntity
  8
0
100
AcDbCircle
 62
7
  6
CONTINUOUS
 10
5.2424984922
 20
5.8745156652
 40
0.45625
100
AcDbArc
 50
172.6687529654
 51
173.4850931884
  0
ARC
  5
7FD
100
AcDbEntity
  8
0
100
AcDbCircle
 62
7
  6
CONTINUOUS
 10
5.2424984922
 20
5.8745156652
 40
0.45625
100
AcDbArc
 50
175.7456760423
 51
176.5620162654
  0
ARC
  5
7FE
100
AcDbEntity
  8
0
100
AcDbCircle
 62
7
  6
CONTINUOUS
 10
5.2424984922
 20
5.8745156652
 40
0.45625
100
AcDbArc
 50
178.8225991193
 51
179.6389393423
  0
ARC
  5
7FF
100
AcDbEntity
  8
0
100
AcDbCircle
 62
7
  6
CONTINUOUS
 10
5.2424984922
 20
5.8745156652
 40
0.45625
100
AcDbArc
 50
181.8995221962
 51
182.7158624192
  0
ARC
  5
800
100
AcDbEntity
  8
0
100
AcDbCircle
 62
7
  6
CONTINUOUS
 10
5.2424984922
 20
5.8745156652
 40
0.45625
100
AcDbArc
 50
184.9764452731
 51
185.7927854961
  0
ARC
  5
801
100
AcDbEntity
  8
0
100
AcDbCircle
 62
7
  6
CONTINUOUS
 10
5.2424984922
 20
5.8745156652
 40
0.45625
100
AcDbArc
 50
188.05336835
 51
188.8697085731
  0
ARC
  5
802
100
AcDbEntity
  8
0
100
AcDbCircle
 62
7
  6
CONTINUOUS
 10
5.2424984922
 20
5.8745156652
 40
0.45625
100
AcDbArc
 50
191.1302914269
 51
191.94663165
  0
ARC
  5
803
100
AcDbEntity
  8
0
100
AcDbCircle
 62
7
  6
CONTINUOUS
 10
5.2424984922
 20
5.8745156652
 40
0.45625
100
AcDbArc
 50
194.2072145039
 51
195.0235547269
  0
ARC
  5
804
100
AcDbEntity
  8
0
100
AcDbCircle
 62
7
  6
CONTINUOUS
 10
5.2424984922
 20
5.8745156652
 40
0.45625
100
AcDbArc
 50
197.2841375808
 51
198.1004778038
  0
ARC
  5
805
100
AcDbEntity
  8
0
100
AcDbCircle
 62
7
  6
CONTINUOUS
 10
5.2424984922
 20
5.8745156652
 40
0.45625
100
AcDbArc
 50
200.3610606577
 51
201.1774008807
  0
ARC
  5
806
100
AcDbEntity
  8
0
100
AcDbCircle
 62
7
  6
CONTINUOUS
 10
5.2424984922
 20
5.8745156652
 40
0.45625
100
AcDbArc
 50
203.4379837346
 51
204.2543239577
  0
ARC
  5
807
100
AcDbEntity
  8
0
100
AcDbCircle
 62
7
  6
CONTINUOUS
 10
5.2424984922
 20
5.8745156652
 40
0.45625
100
AcDbArc
 50
206.5149068116
 51
207.3312470346
  0
ARC
  5
808
100
AcDbEntity
  8
0
100
AcDbCircle
 62
7
  6
CONTINUOUS
 10
5.2424984922
 20
5.8745156652
 40
0.45625
100
AcDbArc
 50
209.5918298885
 51
210.4081701115
  0
ARC
  5
809
100
AcDbEntity
  8
0
100
AcDbCircle
 62
7
  6
CONTINUOUS
 10
5.2424984922
 20
5.8745156652
 40
0.45625
100
AcDbArc
 50
212.6687529654
 51
213.4850931884
  0
ARC
  5
80A
100
AcDbEntity
  8
0
100
AcDbCircle
 62
7
  6
CONTINUOUS
 10
5.2424984922
 20
5.8745156652
 40
0.45625
100
AcDbArc
 50
215.7456760423
 51
216.5620162654
  0
ARC
  5
80B
100
AcDbEntity
  8
0
100
AcDbCircle
 62
7
  6
CONTINUOUS
 10
5.2424984922
 20
5.8745156652
 40
0.45625
100
AcDbArc
 50
218.8225991193
 51
219.6389393423
  0
ARC
  5
80C
100
AcDbEntity
  8
0
100
AcDbCircle
 62
7
  6
CONTINUOUS
 10
5.2424984922
 20
5.8745156652
 40
0.45625
100
AcDbArc
 50
221.8995221962
 51
222.7158624192
  0
ARC
  5
80D
100
AcDbEntity
  8
0
100
AcDbCircle
 62
7
  6
CONTINUOUS
 10
5.2424984922
 20
5.8745156652
 40
0.45625
100
AcDbArc
 50
224.9764452731
 51
225.7927854961
  0
ARC
  5
80E
100
AcDbEntity
  8
0
100
AcDbCircle
 62
7
  6
CONTINUOUS
 10
5.2424984922
 20
5.8745156652
 40
0.45625
100
AcDbArc
 50
228.05336835
 51
228.8697085731
  0
ARC
  5
80F
100
AcDbEntity
  8
0
100
AcDbCircle
 62
7
  6
CONTINUOUS
 10
5.2424984922
 20
5.8745156652
 40
0.45625
100
AcDbArc
 50
231.1302914269
 51
231.94663165
  0
ARC
  5
810
100
AcDbEntity
  8
0
100
AcDbCircle
 62
7
  6
CONTINUOUS
 10
5.2424984922
 20
5.8745156652
 40
0.45625
100
AcDbArc
 50
234.2072145039
 51
235.0235547269
  0
ARC
  5
811
100
AcDbEntity
  8
0
100
AcDbCircle
 62
7
  6
CONTINUOUS
 10
5.2424984922
 20
5.8745156652
 40
0.45625
100
AcDbArc
 50
237.2841375808
 51
238.1004778038
  0
ARC
  5
812
100
AcDbEntity
  8
0
100
AcDbCircle
 62
7
  6
CONTINUOUS
 10
5.2424984922
 20
5.8745156652
 40
0.45625
100
AcDbArc
 50
240.3610606577
 51
241.1774008807
  0
ARC
  5
813
100
AcDbEntity
  8
0
100
AcDbCircle
 62
7
  6
CONTINUOUS
 10
5.2424984922
 20
5.8745156652
 40
0.4393611446
100
AcDbArc
 50
299.8607905448
 51
240.1392094552
  0
ARC
  5
814
100
AcDbEntity
  8
0
100
AcDbCircle
 62
7
  6
CONTINUOUS
 10
5.2424984922
 20
5.8745156652
 40
0.3168033698
100
AcDbArc
 50
313.675130726
 51
226.3248692741
  0
ARC
  5
815
100
AcDbEntity
  8
0
100
AcDbCircle
 62
7
  6
CONTINUOUS
 10
5.2424984922
 20
5.8745156652
 40
0.3053135784
100
AcDbArc
 50
315.7700706904
 51
224.2299292957
  0
ARC
  5
816
100
AcDbEntity
  8
0
100
AcDbCircle
 62
7
  6
CONTINUOUS
 10
5.2424984922
 20
5.8745156652
 40
0.29625
100
AcDbArc
 50
317.5996459144
 51
222.4003540841
  0
ARC
  5
817
100
AcDbEntity
  8
0
100
AcDbCircle
 62
7
  6
CONTINUOUS
 10
5.2424984922
 20
5.8745156652
 40
0.28125
100
AcDbArc
 50
321.0596230044
 51
218.9403769958
  0
ARC
  5
818
100
AcDbEntity
  8
0
100
AcDbCircle
 62
7
  6
CONTINUOUS
 10
5.2424984922
 20
5.8745156652
 40
0.26625
100
AcDbArc
 50
325.253582796
 51
214.7464172001
  0
ARC
  5
819
100
AcDbEntity
  8
0
100
AcDbCircle
 62
7
  6
CONTINUOUS
 10
5.2424984922
 20
5.8745156652
 40
0.22
100
AcDbArc
 50
353.9409457912
 51
186.0590542088
  0
ARC
  5
81A
100
AcDbEntity
  8
0
100
AcDbCircle
 62
7
  6
CONTINUOUS
 10
5.2424984922
 20
5.8745156652
 40
0.21875
100
AcDbArc
 50
0.0
 51
180.0
  0
ARC
  5
81B
100
AcDbEntity
  8
0
100
AcDbCircle
 62
7
  6
CONTINUOUS
 10
7.5949984922
 20
5.719708847
 40
0.0378068182
100
AcDbArc
 50
7.3044455606
 51
90.0
  0
ARC
  5
81C
100
AcDbEntity
  8
0
100
AcDbCircle
 62
7
  6
CONTINUOUS
 10
7.6637484922
 20
5.7245156652
 40
0.03125
100
AcDbArc
 50
180.0
 51
360.0
  0
ARC
  5
81D
100
AcDbEntity
  8
0
100
AcDbCircle
 62
7
  6
CONTINUOUS
 10
9.0149984922
 20
5.7132656652
 40
0.03
100
AcDbArc
 50
180.0
 51
360.0
  0
ARC
  5
81E
100
AcDbEntity
  8
0
100
AcDbCircle
 62
7
  6
CONTINUOUS
 10
7.2424984922
 20
5.8745156652
 40
0.46875
100
AcDbArc
 50
22.4267351028
 51
337.5732648972
  0
ARC
  5
81F
100
AcDbEntity
  8
0
100
AcDbCircle
 62
7
  6
CONTINUOUS
 10
7.2424984922
 20
5.8745156652
 40
0.41
100
AcDbArc
 50
19.6170700132
 51
340.3829299868
  0
ARC
  5
820
100
AcDbEntity
  8
0
100
AcDbCircle
 62
7
  6
CONTINUOUS
 10
7.2424984922
 20
5.8745156652
 40
0.376612128
100
AcDbArc
 50
18.1607143573
 51
341.8392856427
  0
ARC
  5
821
100
AcDbEntity
  8
0
100
AcDbCircle
 62
7
  6
CONTINUOUS
 10
7.2424984922
 20
5.8745156652
 40
0.3623030399
100
AcDbArc
 50
15.6119115094
 51
344.3880884974
  0
ARC
  5
822
100
AcDbEntity
  8
0
100
AcDbCircle
 62
7
  6
CONTINUOUS
 10
7.2424984922
 20
5.8745156652
 40
0.3575
100
AcDbArc
 50
267.4865196799
 51
268.5574363641
  0
ARC
  5
823
100
AcDbEntity
  8
0
100
AcDbCircle
 62
7
  6
CONTINUOUS
 10
7.2424984922
 20
5.8745156652
 40
0.3575
100
AcDbArc
 50
263.5304757238
 51
264.6013924081
  0
ARC
  5
824
100
AcDbEntity
  8
0
100
AcDbCircle
 62
7
  6
CONTINUOUS
 10
7.2424984922
 20
5.8745156652
 40
0.3575
100
AcDbArc
 50
259.5744317678
 51
260.645348452
  0
ARC
  5
825
100
AcDbEntity
  8
0
100
AcDbCircle
 62
7
  6
CONTINUOUS
 10
7.2424984922
 20
5.8745156652
 40
0.3575
100
AcDbArc
 50
255.6183878117
 51
256.689304496
  0
ARC
  5
826
100
AcDbEntity
  8
0
100
AcDbCircle
 62
7
  6
CONTINUOUS
 10
7.2424984922
 20
5.8745156652
 40
0.3575
100
AcDbArc
 50
251.6623438557
 51
252.7332605399
  0
ARC
  5
827
100
AcDbEntity
  8
0
100
AcDbCircle
 62
7
  6
CONTINUOUS
 10
7.2424984922
 20
5.8745156652
 40
0.3575
100
AcDbArc
 50
247.7062998996
 51
248.7772165839
  0
ARC
  5
828
100
AcDbEntity
  8
0
100
AcDbCircle
 62
7
  6
CONTINUOUS
 10
7.2424984922
 20
5.8745156652
 40
0.3575
100
AcDbArc
 50
243.7502559436
 51
244.8211726278
  0
ARC
  5
829
100
AcDbEntity
  8
0
100
AcDbCircle
 62
7
  6
CONTINUOUS
 10
7.2424984922
 20
5.8745156652
 40
0.3575
100
AcDbArc
 50
239.7942119875
 51
240.8651286718
  0
ARC
  5
82A
100
AcDbEntity
  8
0
100
AcDbCircle
 62
7
  6
CONTINUOUS
 10
7.2424984922
 20
5.8745156652
 40
0.3575
100
AcDbArc
 50
235.8381680315
 51
236.9090847157
  0
ARC
  5
82B
100
AcDbEntity
  8
0
100
AcDbCircle
 62
7
  6
CONTINUOUS
 10
7.2424984922
 20
5.8745156652
 40
0.3575
100
AcDbArc
 50
231.8821240755
 51
232.9530407597
  0
ARC
  5
82C
100
AcDbEntity
  8
0
100
AcDbCircle
 62
7
  6
CONTINUOUS
 10
7.2424984922
 20
5.8745156652
 40
0.3575
100
AcDbArc
 50
227.9260801194
 51
228.9969968037
  0
ARC
  5
82D
100
AcDbEntity
  8
0
100
AcDbCircle
 62
7
  6
CONTINUOUS
 10
7.2424984922
 20
5.8745156652
 40
0.3575
100
AcDbArc
 50
223.9700361634
 51
225.0409528476
  0
ARC
  5
82E
100
AcDbEntity
  8
0
100
AcDbCircle
 62
7
  6
CONTINUOUS
 10
7.2424984922
 20
5.8745156652
 40
0.3575
100
AcDbArc
 50
220.0139922073
 51
221.0849088916
  0
ARC
  5
82F
100
AcDbEntity
  8
0
100
AcDbCircle
 62
7
  6
CONTINUOUS
 10
7.2424984922
 20
5.8745156652
 40
0.3575
100
AcDbArc
 50
216.0579482513
 51
217.1288649355
  0
ARC
  5
830
100
AcDbEntity
  8
0
100
AcDbCircle
 62
7
  6
CONTINUOUS
 10
7.2424984922
 20
5.8745156652
 40
0.3575
100
AcDbArc
 50
212.1019042952
 51
213.1728209795
  0
ARC
  5
831
100
AcDbEntity
  8
0
100
AcDbCircle
 62
7
  6
CONTINUOUS
 10
7.2424984922
 20
5.8745156652
 40
0.3575
100
AcDbArc
 50
208.1458603392
 51
209.2167770234
  0
ARC
  5
832
100
AcDbEntity
  8
0
100
AcDbCircle
 62
7
  6
CONTINUOUS
 10
7.2424984922
 20
5.8745156652
 40
0.3575
100
AcDbArc
 50
204.1898163832
 51
205.2607330674
  0
ARC
  5
833
100
AcDbEntity
  8
0
100
AcDbCircle
 62
7
  6
CONTINUOUS
 10
7.2424984922
 20
5.8745156652
 40
0.3575
100
AcDbArc
 50
200.2337724271
 51
201.3046891114
  0
ARC
  5
834
100
AcDbEntity
  8
0
100
AcDbCircle
 62
7
  6
CONTINUOUS
 10
7.2424984922
 20
5.8745156652
 40
0.3575
100
AcDbArc
 50
196.2777284711
 51
197.3486451553
  0
ARC
  5
835
100
AcDbEntity
  8
0
100
AcDbCircle
 62
7
  6
CONTINUOUS
 10
7.2424984922
 20
5.8745156652
 40
0.3575
100
AcDbArc
 50
192.321684515
 51
193.3926011993
  0
ARC
  5
836
100
AcDbEntity
  8
0
100
AcDbCircle
 62
7
  6
CONTINUOUS
 10
7.2424984922
 20
5.8745156652
 40
0.3575
100
AcDbArc
 50
188.365640559
 51
189.4365572432
  0
ARC
  5
837
100
AcDbEntity
  8
0
100
AcDbCircle
 62
7
  6
CONTINUOUS
 10
7.2424984922
 20
5.8745156652
 40
0.3575
100
AcDbArc
 50
184.4095966029
 51
185.4805132872
  0
ARC
  5
838
100
AcDbEntity
  8
0
100
AcDbCircle
 62
7
  6
CONTINUOUS
 10
7.2424984922
 20
5.8745156652
 40
0.3575
100
AcDbArc
 50
180.4535526469
 51
181.5244693311
  0
ARC
  5
839
100
AcDbEntity
  8
0
100
AcDbCircle
 62
7
  6
CONTINUOUS
 10
7.2424984922
 20
5.8745156652
 40
0.3575
100
AcDbArc
 50
176.4975086908
 51
177.5684253751
  0
ARC
  5
83A
100
AcDbEntity
  8
0
100
AcDbCircle
 62
7
  6
CONTINUOUS
 10
7.2424984922
 20
5.8745156652
 40
0.3575
100
AcDbArc
 50
172.5414647348
 51
173.612381419
  0
ARC
  5
83B
100
AcDbEntity
  8
0
100
AcDbCircle
 62
7
  6
CONTINUOUS
 10
7.2424984922
 20
5.8745156652
 40
0.3575
100
AcDbArc
 50
168.5854207788
 51
169.656337463
  0
ARC
  5
83C
100
AcDbEntity
  8
0
100
AcDbCircle
 62
7
  6
CONTINUOUS
 10
7.2424984922
 20
5.8745156652
 40
0.3575
100
AcDbArc
 50
164.6293768227
 51
165.700293507
  0
ARC
  5
83D
100
AcDbEntity
  8
0
100
AcDbCircle
 62
7
  6
CONTINUOUS
 10
7.2424984922
 20
5.8745156652
 40
0.3575
100
AcDbArc
 50
160.6733328667
 51
161.7442495509
  0
ARC
  5
83E
100
AcDbEntity
  8
0
100
AcDbCircle
 62
7
  6
CONTINUOUS
 10
7.2424984922
 20
5.8745156652
 40
0.3575
100
AcDbArc
 50
156.7172889106
 51
157.7882055949
  0
ARC
  5
83F
100
AcDbEntity
  8
0
100
AcDbCircle
 62
7
  6
CONTINUOUS
 10
7.2424984922
 20
5.8745156652
 40
0.3575
100
AcDbArc
 50
152.7612449546
 51
153.8321616388
  0
ARC
  5
840
100
AcDbEntity
  8
0
100
AcDbCircle
 62
7
  6
CONTINUOUS
 10
7.2424984922
 20
5.8745156652
 40
0.3575
100
AcDbArc
 50
148.8052009985
 51
149.8761176828
  0
ARC
  5
841
100
AcDbEntity
  8
0
100
AcDbCircle
 62
7
  6
CONTINUOUS
 10
7.2424984922
 20
5.8745156652
 40
0.3575
100
AcDbArc
 50
144.8491570425
 51
145.9200737267
  0
ARC
  5
842
100
AcDbEntity
  8
0
100
AcDbCircle
 62
7
  6
CONTINUOUS
 10
7.2424984922
 20
5.8745156652
 40
0.3575
100
AcDbArc
 50
140.8931130864
 51
141.9640297707
  0
ARC
  5
843
100
AcDbEntity
  8
0
100
AcDbCircle
 62
7
  6
CONTINUOUS
 10
7.2424984922
 20
5.8745156652
 40
0.3575
100
AcDbArc
 50
136.9370691304
 51
138.0079858147
  0
ARC
  5
844
100
AcDbEntity
  8
0
100
AcDbCircle
 62
7
  6
CONTINUOUS
 10
7.2424984922
 20
5.8745156652
 40
0.3575
100
AcDbArc
 50
132.9810251744
 51
134.0519418586
  0
ARC
  5
845
100
AcDbEntity
  8
0
100
AcDbCircle
 62
7
  6
CONTINUOUS
 10
7.2424984922
 20
5.8745156652
 40
0.3575
100
AcDbArc
 50
129.0249812183
 51
130.0958979026
  0
ARC
  5
846
100
AcDbEntity
  8
0
100
AcDbCircle
 62
7
  6
CONTINUOUS
 10
7.2424984922
 20
5.8745156652
 40
0.3575
100
AcDbArc
 50
125.0689372623
 51
126.1398539465
  0
ARC
  5
847
100
AcDbEntity
  8
0
100
AcDbCircle
 62
7
  6
CONTINUOUS
 10
7.2424984922
 20
5.8745156652
 40
0.3575
100
AcDbArc
 50
121.1128933062
 51
122.1838099905
  0
ARC
  5
848
100
AcDbEntity
  8
0
100
AcDbCircle
 62
7
  6
CONTINUOUS
 10
7.2424984922
 20
5.8745156652
 40
0.3575
100
AcDbArc
 50
117.1568493502
 51
118.2277660344
  0
ARC
  5
849
100
AcDbEntity
  8
0
100
AcDbCircle
 62
7
  6
CONTINUOUS
 10
7.2424984922
 20
5.8745156652
 40
0.3575
100
AcDbArc
 50
113.2008053941
 51
114.2717220784
  0
ARC
  5
84A
100
AcDbEntity
  8
0
100
AcDbCircle
 62
7
  6
CONTINUOUS
 10
7.2424984922
 20
5.8745156652
 40
0.3575
100
AcDbArc
 50
109.2447614381
 51
110.3156781223
  0
ARC
  5
84B
100
AcDbEntity
  8
0
100
AcDbCircle
 62
7
  6
CONTINUOUS
 10
7.2424984922
 20
5.8745156652
 40
0.3575
100
AcDbArc
 50
105.2887174821
 51
106.3596341663
  0
ARC
  5
84C
100
AcDbEntity
  8
0
100
AcDbCircle
 62
7
  6
CONTINUOUS
 10
7.2424984922
 20
5.8745156652
 40
0.3575
100
AcDbArc
 50
101.332673526
 51
102.4035902103
  0
ARC
  5
84D
100
AcDbEntity
  8
0
100
AcDbCircle
 62
7
  6
CONTINUOUS
 10
7.2424984922
 20
5.8745156652
 40
0.3575
100
AcDbArc
 50
97.37662957
 51
98.4475462542
  0
ARC
  5
84E
100
AcDbEntity
  8
0
100
AcDbCircle
 62
7
  6
CONTINUOUS
 10
7.2424984922
 20
5.8745156652
 40
0.3575
100
AcDbArc
 50
93.4205856139
 51
94.4915022982
  0
ARC
  5
84F
100
AcDbEntity
  8
0
100
AcDbCircle
 62
7
  6
CONTINUOUS
 10
7.2424984922
 20
5.8745156652
 40
0.3575
100
AcDbArc
 50
89.4645416579
 51
90.5354583421
  0
ARC
  5
850
100
AcDbEntity
  8
0
100
AcDbCircle
 62
7
  6
CONTINUOUS
 10
7.2424984922
 20
5.8745156652
 40
0.3575
100
AcDbArc
 50
85.5084977018
 51
86.5794143861
  0
ARC
  5
851
100
AcDbEntity
  8
0
100
AcDbCircle
 62
7
  6
CONTINUOUS
 10
7.2424984922
 20
5.8745156652
 40
0.3575
100
AcDbArc
 50
81.5524537458
 51
82.62337043
  0
ARC
  5
852
100
AcDbEntity
  8
0
100
AcDbCircle
 62
7
  6
CONTINUOUS
 10
7.2424984922
 20
5.8745156652
 40
0.3575
100
AcDbArc
 50
77.5964097897
 51
78.667326474
  0
ARC
  5
853
100
AcDbEntity
  8
0
100
AcDbCircle
 62
7
  6
CONTINUOUS
 10
7.2424984922
 20
5.8745156652
 40
0.3575
100
AcDbArc
 50
73.6403658337
 51
74.7112825179
  0
ARC
  5
854
100
AcDbEntity
  8
0
100
AcDbCircle
 62
7
  6
CONTINUOUS
 10
7.2424984922
 20
5.8745156652
 40
0.3575
100
AcDbArc
 50
69.6843218777
 51
70.7552385619
  0
ARC
  5
855
100
AcDbEntity
  8
0
100
AcDbCircle
 62
7
  6
CONTINUOUS
 10
7.2424984922
 20
5.8745156652
 40
0.3575
100
AcDbArc
 50
65.7282779216
 51
66.7991946059
  0
ARC
  5
856
100
AcDbEntity
  8
0
100
AcDbCircle
 62
7
  6
CONTINUOUS
 10
7.2424984922
 20
5.8745156652
 40
0.3575
100
AcDbArc
 50
61.7722339656
 51
62.8431506498
  0
ARC
  5
857
100
AcDbEntity
  8
0
100
AcDbCircle
 62
7
  6
CONTINUOUS
 10
7.2424984922
 20
5.8745156652
 40
0.3575
100
AcDbArc
 50
57.8161900095
 51
58.8871066938
  0
ARC
  5
858
100
AcDbEntity
  8
0
100
AcDbCircle
 62
7
  6
CONTINUOUS
 10
7.2424984922
 20
5.8745156652
 40
0.3575
100
AcDbArc
 50
53.8601460535
 51
54.9310627377
  0
ARC
  5
859
100
AcDbEntity
  8
0
100
AcDbCircle
 62
7
  6
CONTINUOUS
 10
7.2424984922
 20
5.8745156652
 40
0.3575
100
AcDbArc
 50
49.9041020974
 51
50.9750187817
  0
ARC
  5
85A
100
AcDbEntity
  8
0
100
AcDbCircle
 62
7
  6
CONTINUOUS
 10
7.2424984922
 20
5.8745156652
 40
0.3575
100
AcDbArc
 50
45.9480581414
 51
47.0189748256
  0
ARC
  5
85B
100
AcDbEntity
  8
0
100
AcDbCircle
 62
7
  6
CONTINUOUS
 10
7.2424984922
 20
5.8745156652
 40
0.3575
100
AcDbArc
 50
41.9920141853
 51
43.0629308696
  0
ARC
  5
85C
100
AcDbEntity
  8
0
100
AcDbCircle
 62
7
  6
CONTINUOUS
 10
7.2424984922
 20
5.8745156652
 40
0.3575
100
AcDbArc
 50
38.0359702293
 51
39.1068869136
  0
ARC
  5
85D
100
AcDbEntity
  8
0
100
AcDbCircle
 62
7
  6
CONTINUOUS
 10
7.2424984922
 20
5.8745156652
 40
0.3575
100
AcDbArc
 50
34.0799262733
 51
35.1508429575
  0
ARC
  5
85E
100
AcDbEntity
  8
0
100
AcDbCircle
 62
7
  6
CONTINUOUS
 10
7.2424984922
 20
5.8745156652
 40
0.3575
100
AcDbArc
 50
30.1238823172
 51
31.1947990015
  0
ARC
  5
85F
100
AcDbEntity
  8
0
100
AcDbCircle
 62
7
  6
CONTINUOUS
 10
7.2424984922
 20
5.8745156652
 40
0.3575
100
AcDbArc
 50
26.1678383612
 51
27.2387550454
  0
ARC
  5
860
100
AcDbEntity
  8
0
100
AcDbCircle
 62
7
  6
CONTINUOUS
 10
7.2424984922
 20
5.8745156652
 40
0.3575
100
AcDbArc
 50
22.2117944051
 51
23.2827110894
  0
ARC
  5
861
100
AcDbEntity
  8
0
100
AcDbCircle
 62
7
  6
CONTINUOUS
 10
7.2424984922
 20
5.8745156652
 40
0.3575
100
AcDbArc
 50
18.2557504491
 51
19.3266671333
  0
ARC
  5
862
100
AcDbEntity
  8
0
100
AcDbCircle
 62
7
  6
CONTINUOUS
 10
7.2424984922
 20
5.8745156652
 40
0.3575
100
AcDbArc
 50
342.6513548447
 51
343.7222715289
  0
ARC
  5
863
100
AcDbEntity
  8
0
100
AcDbCircle
 62
7
  6
CONTINUOUS
 10
7.2424984922
 20
5.8745156652
 40
0.3575
100
AcDbArc
 50
338.6953108886
 51
339.7662275729
  0
ARC
  5
864
100
AcDbEntity
  8
0
100
AcDbCircle
 62
7
  6
CONTINUOUS
 10
7.2424984922
 20
5.8745156652
 40
0.3575
100
AcDbArc
 50
334.7392669326
 51
335.8101836168
  0
ARC
  5
865
100
AcDbEntity
  8
0
100
AcDbCircle
 62
7
  6
CONTINUOUS
 10
7.2424984922
 20
5.8745156652
 40
0.3575
100
AcDbArc
 50
330.7832229766
 51
331.8541396608
  0
ARC
  5
866
100
AcDbEntity
  8
0
100
AcDbCircle
 62
7
  6
CONTINUOUS
 10
7.2424984922
 20
5.8745156652
 40
0.3575
100
AcDbArc
 50
326.8271790205
 51
327.8980957048
  0
ARC
  5
867
100
AcDbEntity
  8
0
100
AcDbCircle
 62
7
  6
CONTINUOUS
 10
7.2424984922
 20
5.8745156652
 40
0.3575
100
AcDbArc
 50
322.8711350645
 51
323.9420517487
  0
ARC
  5
868
100
AcDbEntity
  8
0
100
AcDbCircle
 62
7
  6
CONTINUOUS
 10
7.2424984922
 20
5.8745156652
 40
0.3575
100
AcDbArc
 50
318.9150911084
 51
319.9860077927
  0
ARC
  5
869
100
AcDbEntity
  8
0
100
AcDbCircle
 62
7
  6
CONTINUOUS
 10
7.2424984922
 20
5.8745156652
 40
0.3575
100
AcDbArc
 50
314.9590471524
 51
316.0299638366
  0
ARC
  5
86A
100
AcDbEntity
  8
0
100
AcDbCircle
 62
7
  6
CONTINUOUS
 10
7.2424984922
 20
5.8745156652
 40
0.3575
100
AcDbArc
 50
311.0030031963
 51
312.0739198806
  0
ARC
  5
86B
100
AcDbEntity
  8
0
100
AcDbCircle
 62
7
  6
CONTINUOUS
 10
7.2424984922
 20
5.8745156652
 40
0.3575
100
AcDbArc
 50
307.0469592403
 51
308.1178759245
  0
ARC
  5
86C
100
AcDbEntity
  8
0
100
AcDbCircle
 62
7
  6
CONTINUOUS
 10
7.2424984922
 20
5.8745156652
 40
0.3575
100
AcDbArc
 50
303.0909152843
 51
304.1618319685
  0
ARC
  5
86D
100
AcDbEntity
  8
0
100
AcDbCircle
 62
7
  6
CONTINUOUS
 10
7.2424984922
 20
5.8745156652
 40
0.3575
100
AcDbArc
 50
299.1348713282
 51
300.2057880125
  0
ARC
  5
86E
100
AcDbEntity
  8
0
100
AcDbCircle
 62
7
  6
CONTINUOUS
 10
7.2424984922
 20
5.8745156652
 40
0.3575
100
AcDbArc
 50
295.1788273722
 51
296.2497440564
  0
ARC
  5
86F
100
AcDbEntity
  8
0
100
AcDbCircle
 62
7
  6
CONTINUOUS
 10
7.2424984922
 20
5.8745156652
 40
0.3575
100
AcDbArc
 50
291.2227834161
 51
292.2937001004
  0
ARC
  5
870
100
AcDbEntity
  8
0
100
AcDbCircle
 62
7
  6
CONTINUOUS
 10
7.2424984922
 20
5.8745156652
 40
0.3575
100
AcDbArc
 50
287.2667394601
 51
288.3376561443
  0
ARC
  5
871
100
AcDbEntity
  8
0
100
AcDbCircle
 62
7
  6
CONTINUOUS
 10
7.2424984922
 20
5.8745156652
 40
0.3575
100
AcDbArc
 50
283.310695504
 51
284.3816121883
  0
ARC
  5
872
100
AcDbEntity
  8
0
100
AcDbCircle
 62
7
  6
CONTINUOUS
 10
7.2424984922
 20
5.8745156652
 40
0.3575
100
AcDbArc
 50
279.354651548
 51
280.4255682322
  0
ARC
  5
873
100
AcDbEntity
  8
0
100
AcDbCircle
 62
7
  6
CONTINUOUS
 10
7.2424984922
 20
5.8745156652
 40
0.3575
100
AcDbArc
 50
275.3986075919
 51
276.4695242762
  0
ARC
  5
874
100
AcDbEntity
  8
0
100
AcDbCircle
 62
7
  6
CONTINUOUS
 10
7.2424984922
 20
5.8745156652
 40
0.3575
100
AcDbArc
 50
271.4425636359
 51
272.5134803201
  0
ARC
  5
875
100
AcDbEntity
  8
0
100
AcDbCircle
 62
7
  6
CONTINUOUS
 10
7.2424984922
 20
5.8745156652
 40
0.3457531755
100
AcDbArc
 50
16.3798893509
 51
343.6201106491
  0
ARC
  5
876
100
AcDbEntity
  8
0
100
AcDbCircle
 62
7
  6
CONTINUOUS
 10
7.2424984922
 20
5.8745156652
 40
0.2416529628
100
AcDbArc
 50
23.7967939213
 51
336.2032060788
  0
ARC
  5
877
100
AcDbEntity
  8
0
100
AcDbCircle
 62
7
  6
CONTINUOUS
 10
7.2424984922
 20
5.8745156652
 40
0.2291609373
100
AcDbArc
 50
25.1813665427
 51
334.8186334575
  0
ARC
  5
878
100
AcDbEntity
  8
0
100
AcDbCircle
 62
7
  6
CONTINUOUS
 10
7.2424984922
 20
5.8745156652
 40
0.215
100
AcDbArc
 50
26.9694015949
 51
333.0305983843
  0
ARC
  5
879
100
AcDbEntity
  8
0
100
AcDbCircle
 62
7
  6
CONTINUOUS
 10
7.2424984922
 20
5.8745156652
 40
0.2
100
AcDbArc
 50
29.1772814808
 51
330.8227185192
  0
ARC
  5
87A
100
AcDbEntity
  8
0
100
AcDbCircle
 62
7
  6
CONTINUOUS
 10
7.2424984922
 20
5.8745156652
 40
0.185
100
AcDbArc
 50
31.8058987735
 51
328.1941012301
  0
ARC
  5
87B
100
AcDbEntity
  8
0
100
AcDbCircle
 62
7
  6
CONTINUOUS
 10
7.2424984922
 20
5.8745156652
 40
0.18375
100
AcDbArc
 50
32.0491040452
 51
327.9508959548
  0
ARC
  5
87C
100
AcDbEntity
  8
0
100
AcDbCircle
 62
7
  6
CONTINUOUS
 10
7.2424984922
 20
5.8745156652
 40
0.15375
100
AcDbArc
 50
39.3591804689
 51
320.6408195311
  0
ARC
  5
87D
100
AcDbEntity
  8
0
100
AcDbCircle
 62
7
  6
CONTINUOUS
 10
7.2424984922
 20
5.8745156652
 40
0.1075
100
AcDbArc
 50
65.1004177775
 51
294.8995822337
  0
ARC
  5
87E
100
AcDbEntity
  8
0
100
AcDbCircle
 62
7
  6
CONTINUOUS
 10
7.2424984922
 20
5.8745156652
 40
0.0975
100
AcDbArc
 50
90.0
 51
270.0
  0
ARC
  5
87F
100
AcDbEntity
  8
0
100
AcDbCircle
 62
7
  6
CONTINUOUS
 10
7.5949984922
 20
6.0293224834
 40
0.0378068182
100
AcDbArc
 50
270.0
 51
352.6955544394
  0
ARC
  5
880
100
AcDbEntity
  8
0
100
AcDbCircle
 62
7
  6
CONTINUOUS
 10
7.6637484922
 20
6.0245156652
 40
0.03125
100
AcDbArc
 50
0.0
 51
180.0
  0
ARC
  5
881
100
AcDbEntity
  8
0
100
AcDbCircle
 62
7
  6
CONTINUOUS
 10
9.0149984922
 20
6.0357656652
 40
0.03
100
AcDbArc
 50
0.0
 51
180.0
  0
ENDSEC
  0
SECTION
  2
OBJECTS
  0
DICTIONARY
  5
C
100
AcDbDictionary
280
0
281
1
  3
ACAD_GROUP
350
D
  3
ACAD_MLINESTYLE
350
17
  3
ACAD_LAYOUT
350
1A
  3
ACAD_PLOTSETTINGS
350
19
  3
ACAD_PLOTSTYLENAME
350
E
  0
DICTIONARY
  5
D
102
{ACAD_REACTORS
330
C
102
}
100
AcDbDictionary
280
0
281
1
  0
ACDBDICTIONARYWDFLT
  5
E
102
{ACAD_REACTORS
330
C
102
}
100
AcDbDictionary
281
1
  3
Normal
350
F
100
AcDbDictionaryWithDefault
340
F
  0
DICTIONARY
  5
17
102
{ACAD_REACTORS
330
C
102
}
100
AcDbDictionary
280
0
281
1
  3
Standard
350
18
  0
DICTIONARY
  5
19
102
{ACAD_REACTORS
330
C
102
}
100
AcDbDictionary
281
1
  0
DICTIONARY
  5
1A
102
{ACAD_REACTORS
330
C
102
}
100
AcDbDictionary
281
1
  3
Model
350
882
  3
Layout1
350
883
  0
ACDBPLACEHOLDER
  5
F
102
{ACAD_REACTORS
330
E
102
}
  0
MLINESTYLE
  5
18
102
{ACAD_REACTORS
330
17
102
}
100
AcDbMlineStyle
  2
STANDARD
 70
0
  3

 62
256
 51
90.0
 52
90.0
 71
2
 49
0.5
 62
256
  6
BYLAYER
 49
-0.5
 62
256
  6
BYLAYER
  0
LAYOUT
  5
882
102
{ACAD_REACTORS
330
1A
102
}
100
AcDbPlotSettings
  1

  2
none_device
  4
ANSI_A_(11.00_x_8.50_Inches)
  6

 40
0.0
 41
0.0
 42
0.0
 43
0.0
 44
279.4
 45
215.9
 46
0.0
 47
0.0
 48
0.0
 49
0.0
140
0.0
141
0.0
142
1.0
143
1.0
 70
1024
 72
0
 73
0
 74
0
  7

 75
0
147
1.0
148
0.0
149
0.0
100
AcDbLayout
  1
Model
 70
0
 71
0
 10
0.0
 20
0.0
 11
11.0
 21
8.5
 12
0.0
 22
0.0
 32
0.0
 14
0.0
 24
0.0
 34
0.0
 15
0.0
 25
0.0
 35
0.0
146
0.0
 13
0.0
 23
0.0
 33
0.0
 16
1.0
 26
0.0
 36
0.0
 17
0.0
 27
1.0
 37
0.0
 76
0
330
202
345
0
346
0
  0
LAYOUT
  5
883
102
{ACAD_REACTORS
330
1A
102
}
100
AcDbPlotSettings
  1

  2
none_device
  4
ANSI_A_(11.00_x_8.50_Inches)
  6

 40
0.0
 41
0.0
 42
0.0
 43
0.0
 44
279.4
 45
215.9
 46
0.0
 47
0.0
 48
0.0
 49
0.0
140
0.0
141
0.0
142
1.0
143
1.0
 70
0
 72
0
 73
0
 74
0
  7

 75
0
147
1.0
148
0.0
149
0.0
100
AcDbLayout
  1
Layout1
 70
0
 71
1
 10
0.0
 20
0.0
 11
11.0
 21
8.5
 12
0.0
 22
0.0
 32
0.0
 14
0.0
 24
0.0
 34
0.0
 15
0.0
 25
0.0
 35
0.0
146
0.0
 13
0.0
 23
0.0
 33
0.0
 16
1.0
 26
0.0
 36
0.0
 17
0.0
 27
1.0
 37
0.0
 76
0
330
203
345
0
346
0
  0
ENDSEC
  0
EOF
