999
DXF file: 2940c_right.dxf
999
Pro/ENGINEER 2019352 by Parametric Technology Corporation
  0
SECTION
  2
HEADER
  9
$ACADVER
  1
AC1032
  9
$DWGCODEPAGE
  3
ANSI_1252
  9
$EXTMAX
 10
11.0
 20
8.5
 30
0.0
  9
$EXTMIN
 10
0.0
 20
0.0
 30
0.0
  9
$LIMMIN
 10
0.0
 20
0.0
  9
$LIMMAX
 10
11.0
 20
8.5
  9
$VIEWCTR
 10
5.5
 20
4.25
  9
$VIEWSIZE
 40
8.5
  9
$CLAYER
  8
0
  9
$LTSCALE
 40
0.605
  9
$CELTYPE
  6
BYLAYER
  9
$DIMSCALE
 40
1.0
  9
$DIMASZ
 40
0.1
  9
$DIMEXO
 40
0.0625
  9
$DIMDLI
 40
0.418
  9
$DIMEXE
 40
0.125
  9
$DIMCEN
 40
0.099
  9
$DIMLFAC
 40
1.0
  9
$DIMBLK
  1
_FILLED
  9
$DIMALT
 70
1
  9
$DIMALTD
 70
2
  9
$DIMALTTD
 70
2
  9
$DIMALTF
 40
25.4
  9
$DIMTXT
 40
0.08
  9
$DIMTOL
 70
1
  9
$DIMLIM
 70
0
  9
$DIMTFAC
 40
1.0
  9
$DIMTP
 40
0.001
  9
$DIMTM
 40
0.001
  9
$DIMGAP
 40
0.09
  9
$DIMDSEP
 70
46
  9
$AUNITS
 70
0
  9
$PDMODE
 70
3
  9
$PDSIZE
 40
0.3125
  9
$HANDSEED
  5
4AE
  9
$TILEMODE
 70
1
  9
$MEASUREMENT
 70
0
  9
$INSUNITS
 70
1
  0
ENDSEC
  0
SECTION
  2
CLASSES
  0
CLASS
  1
ACDBDICTIONARYWDFLT
  2
AcDbDictionaryWithDefault
  3
AutoCAD 2000
 90
0
 91
1
280
0
281
0
  0
CLASS
  1
ACDBPLACEHOLDER
  2
AcDbPlaceHolder
  3
AutoCAD 2000
 90
0
 91
1
280
0
281
0
  0
CLASS
  1
LAYOUT
  2
AcDbLayout
  3
AutoCAD 2000
 90
0
 91
0
280
0
281
0
  0
ENDSEC
  0
SECTION
  2
TABLES
  0
TABLE
  2
VPORT
  5
8
100
AcDbSymbolTable
 70
2
  0
VPORT
  5
1F4
100
AcDbSymbolTableRecord
100
AcDbViewportTableRecord
  2
*ACTIVE
 70
0
 10
0.0
 20
0.0
 11
1.0
 21
1.0
 12
5.5
 22
4.25
 13
0.0
 23
0.0
 14
1.0
 24
1.0
 15
0.0
 25
0.0
 16
0.0
 26
0.0
 36
1.0
 17
0.0
 27
0.0
 37
0.0
 40
8.5
 41
1.2941176471
 42
50.0
 43
0.0
 44
0.0
 50
0.0
 51
0.0
 71
0
 72
100
 73
1
 74
1
 75
0
 76
0
 77
0
 78
0
  0
ENDTAB
  0
TABLE
  2
LTYPE
  5
5
100
AcDbSymbolTable
 70
6
  0
LTYPE
  5
14
100
AcDbSymbolTableRecord
100
AcDbLinetypeTableRecord
  2
BYBLOCK
 70
0
  3

 72
65
 73
0
 40
0.0
  0
LTYPE
  5
15
100
AcDbSymbolTableRecord
100
AcDbLinetypeTableRecord
  2
BYLAYER
 70
0
  3

 72
65
 73
0
 40
0.0
  0
LTYPE
  5
16
100
AcDbSymbolTableRecord
100
AcDbLinetypeTableRecord
  2
CONTINUOUS
 70
64
  3
Solid line
 72
65
 73
0
 40
0.0
  0
LTYPE
  5
1F5
100
AcDbSymbolTableRecord
100
AcDbLinetypeTableRecord
  2
CENTER
 70
64
  3
____ _ ____ _ ____ _ ____ _ ____ _ ____ _ ____
 72
65
 73
4
 40
0.6
 49
0.375
 74
0
 49
-0.075
 74
0
 49
0.075
 74
0
 49
-0.075
 74
0
  0
LTYPE
  5
1F6
100
AcDbSymbolTableRecord
100
AcDbLinetypeTableRecord
  2
HIDDEN
 70
64
  3
- - - - - - - - - - - - - - - - - - - -
 72
65
 73
2
 40
0.2
 49
0.1
 74
0
 49
-0.1
 74
0
  0
LTYPE
  5
1F7
100
AcDbSymbolTableRecord
100
AcDbLinetypeTableRecord
  2
PHANTOM
 70
64
  3
_____ _ _ _____ _ _ _____ _ _ _____
 72
65
 73
6
 40
0.8
 49
0.45
 74
0
 49
-0.05
 74
0
 49
0.1
 74
0
 49
-0.05
 74
0
 49
0.1
 74
0
 49
-0.05
 74
0
  0
LTYPE
  5
1F8
100
AcDbSymbolTableRecord
100
AcDbLinetypeTableRecord
  2
DOT
 70
64
  3
. . . . . . . . . . . . . . . . . . . .
 72
65
 73
2
 40
0.2
 49
0.1
 74
0
 49
-0.1
 74
0
  0
LTYPE
  5
1F9
100
AcDbSymbolTableRecord
100
AcDbLinetypeTableRecord
  2
DASHED
 70
64
  3
- - - - - - - - - - - - - - - - - - - -
 72
65
 73
2
 40
0.2
 49
0.1
 74
0
 49
-0.1
 74
0
  0
ENDTAB
  0
TABLE
  2
LAYER
  5
2
100
AcDbSymbolTable
 70
36
  0
LAYER
  5
10
100
AcDbSymbolTableRecord
100
AcDbLayerTableRecord
  2
0
 70
0
 62
7
  6
CONTINUOUS
370
-3
390
F
  0
LAYER
  5
1FA
100
AcDbSymbolTableRecord
100
AcDbLayerTableRecord
  2
DEFAULT_1
 70
0
 62
7
  6
CENTER
370
-3
390
F
  0
LAYER
  5
1FB
100
AcDbSymbolTableRecord
100
AcDbLayerTableRecord
  2
DEFAULT_2
 70
0
 62
8
  6
HIDDEN
370
-3
390
F
  0
LAYER
  5
1FC
100
AcDbSymbolTableRecord
100
AcDbLayerTableRecord
  2
DEFAULT_3
 70
0
 62
7
  6
PHANTOM
370
-3
390
F
  0
LAYER
  5
1FD
100
AcDbSymbolTableRecord
100
AcDbLayerTableRecord
  2
2-127_ASSY_PLANES
 70
0
 62
7
  6
CONTINUOUS
370
-3
390
F
  0
LAYER
  5
1FE
100
AcDbSymbolTableRecord
100
AcDbLayerTableRecord
  2
ALL_ASSEMBLY_MEMBERS
 70
0
 62
7
  6
CONTINUOUS
370
-3
390
F
  0
LAYER
  5
1FF
100
AcDbSymbolTableRecord
100
AcDbLayerTableRecord
  2
ALL_FEATURES
 70
0
 62
7
  6
CONTINUOUS
370
-3
390
F
  0
LAYER
  5
200
100
AcDbSymbolTableRecord
100
AcDbLayerTableRecord
  2
AXES_FEATURES
 70
0
 62
7
  6
CONTINUOUS
370
-3
390
F
  0
LAYER
  5
201
100
AcDbSymbolTableRecord
100
AcDbLayerTableRecord
  2
CHAMFER_FEATURES
 70
0
 62
7
  6
CONTINUOUS
370
-3
390
F
  0
LAYER
  5
202
100
AcDbSymbolTableRecord
100
AcDbLayerTableRecord
  2
CUT_FEATURES
 70
0
 62
7
  6
CONTINUOUS
370
-3
390
F
  0
LAYER
  5
203
100
AcDbSymbolTableRecord
100
AcDbLayerTableRecord
  2
DATUM_CURVES
 70
0
 62
7
  6
CONTINUOUS
370
-3
390
F
  0
LAYER
  5
204
100
AcDbSymbolTableRecord
100
AcDbLayerTableRecord
  2
DATUM_PLANES
 70
0
 62
7
  6
CONTINUOUS
370
-3
390
F
  0
LAYER
  5
205
100
AcDbSymbolTableRecord
100
AcDbLayerTableRecord
  2
DATUM_POINTS
 70
0
 62
7
  6
CONTINUOUS
370
-3
390
F
  0
LAYER
  5
206
100
AcDbSymbolTableRecord
100
AcDbLayerTableRecord
  2
DEFAULT_COORDINATE_SYSTEM
 70
0
 62
7
  6
CONTINUOUS
370
-3
390
F
  0
LAYER
  5
207
100
AcDbSymbolTableRecord
100
AcDbLayerTableRecord
  2
DEFAULT_DATUM_AXES
 70
0
 62
7
  6
CONTINUOUS
370
-3
390
F
  0
LAYER
  5
208
100
AcDbSymbolTableRecord
100
AcDbLayerTableRecord
  2
DEFAULT_DATUM_CURVES
 70
0
 62
7
  6
CONTINUOUS
370
-3
390
F
  0
LAYER
  5
209
100
AcDbSymbolTableRecord
100
AcDbLayerTableRecord
  2
DEFAULT_DATUM_PLANES
 70
0
 62
7
  6
CONTINUOUS
370
-3
390
F
  0
LAYER
  5
20A
100
AcDbSymbolTableRecord
100
AcDbLayerTableRecord
  2
DEFAULT_SURFACES
 70
0
 62
7
  6
CONTINUOUS
370
-3
390
F
  0
LAYER
  5
20B
100
AcDbSymbolTableRecord
100
AcDbLayerTableRecord
  2
DIMENSIONS
 70
0
 62
7
  6
CONTINUOUS
370
-3
390
F
  0
LAYER
  5
20C
100
AcDbSymbolTableRecord
100
AcDbLayerTableRecord
  2
HOLE_FEATURES
 70
0
 62
7
  6
CONTINUOUS
370
-3
390
F
  0
LAYER
  5
20D
100
AcDbSymbolTableRecord
100
AcDbLayerTableRecord
  2
NONE
 70
0
 62
7
  6
CONTINUOUS
370
-3
390
F
  0
LAYER
  5
20E
100
AcDbSymbolTableRecord
100
AcDbLayerTableRecord
  2
PART_REFERENCE_DIMENSIONS
 70
0
 62
7
  6
CONTINUOUS
370
-3
390
F
  0
LAYER
  5
20F
100
AcDbSymbolTableRecord
100
AcDbLayerTableRecord
  2
PLATED_SURFACE
 70
0
 62
7
  6
CONTINUOUS
370
-3
390
F
  0
LAYER
  5
210
100
AcDbSymbolTableRecord
100
AcDbLayerTableRecord
  2
POINTS
 70
0
 62
7
  6
CONTINUOUS
370
-3
390
F
  0
LAYER
  5
211
100
AcDbSymbolTableRecord
100
AcDbLayerTableRecord
  2
PROTRUSION_FEATURES
 70
0
 62
7
  6
CONTINUOUS
370
-3
390
F
  0
LAYER
  5
212
100
AcDbSymbolTableRecord
100
AcDbLayerTableRecord
  2
QUILTS
 70
0
 62
7
  6
CONTINUOUS
370
-3
390
F
  0
LAYER
  5
213
100
AcDbSymbolTableRecord
100
AcDbLayerTableRecord
  2
REFERENCE_DIMENSIONS
 70
0
 62
7
  6
CONTINUOUS
370
-3
390
F
  0
LAYER
  5
214
100
AcDbSymbolTableRecord
100
AcDbLayerTableRecord
  2
ROUND_FEATURES
 70
0
 62
7
  6
CONTINUOUS
370
-3
390
F
  0
LAYER
  5
215
100
AcDbSymbolTableRecord
100
AcDbLayerTableRecord
  2
SIZE_REF
 70
0
 62
7
  6
CONTINUOUS
370
-3
390
F
  0
LAYER
  5
216
100
AcDbSymbolTableRecord
100
AcDbLayerTableRecord
  2
SURFACE_FEATURES
 70
0
 62
7
  6
CONTINUOUS
370
-3
390
F
  0
LAYER
  5
217
100
AcDbSymbolTableRecord
100
AcDbLayerTableRecord
  2
WETTED_SURFACES
 70
0
 62
7
  6
CONTINUOUS
370
-3
390
F
  0
LAYER
  5
218
100
AcDbSymbolTableRecord
100
AcDbLayerTableRecord
  2
WETTED_SURFACE_AREA
 70
0
 62
7
  6
CONTINUOUS
370
-3
390
F
  0
LAYER
  5
219
100
AcDbSymbolTableRecord
100
AcDbLayerTableRecord
  2
XSEC_DATUMS
 70
0
 62
7
  6
CONTINUOUS
370
-3
390
F
  0
ENDTAB
  0
TABLE
  2
STYLE
  5
3
100
AcDbSymbolTable
 70
1
  0
STYLE
  5
11
100
AcDbSymbolTableRecord
100
AcDbTextStyleTableRecord
  2
STANDARD
 70
0
 40
0.0
 41
0.8
 50
0.0
 71
0
 42
0.2
  3
txt
  4

  0
STYLE
  5
21A
100
AcDbSymbolTableRecord
100
AcDbTextStyleTableRecord
  2
TEXTSTYLE_1
 70
0
 40
0.0
 41
0.8
 50
0.0
 71
0
 42
0.2
  3
gdt
  4

  0
ENDTAB
  0
TABLE
  2
VIEW
  5
6
100
AcDbSymbolTable
 70
0
  0
ENDTAB
  0
TABLE
  2
UCS
  5
7
100
AcDbSymbolTable
 70
0
  0
ENDTAB
  0
TABLE
  2
APPID
  5
9
100
AcDbSymbolTable
 70
1
  0
APPID
  5
21B
100
AcDbSymbolTableRecord
100
AcDbRegAppTableRecord
  2
ACAD
 70
0
  0
ENDTAB
  0
TABLE
  2
BLOCK_RECORD
  5
1
100
AcDbSymbolTable
 70
0
  0
BLOCK_RECORD
  5
21C
100
AcDbSymbolTableRecord
100
AcDbBlockTableRecord
  2
*Model_Space
  0
BLOCK_RECORD
  5
21D
100
AcDbSymbolTableRecord
100
AcDbBlockTableRecord
  2
*Paper_Space
  0
BLOCK_RECORD
  5
21E
100
AcDbSymbolTableRecord
100
AcDbBlockTableRecord
  2
_FILLED
  0
ENDTAB
  0
TABLE
  2
DIMSTYLE
  5
A
100
AcDbSymbolTable
 70
1
100
AcDbDimStyleTable
 71
0
  0
DIMSTYLE
105
21F
100
AcDbSymbolTableRecord
100
AcDbDimStyleTableRecord
  2
STANDARD
 70
0
  3

  4

 40
1.0
 41
0.1
 42
0.0625
 43
0.38
 44
0.125
 45
0.0
 46
0.0
 47
0.001
 48
0.001
140
0.08
141
0.09
142
0.0
143
25.4
144
1.0
145
0.0
146
1.0
147
0.09
 71
1.0
 72
0.0
 73
1
 74
1
 75
0
 76
0
 77
0
 78
4
 79
1
170
1
171
2
172
0
173
0
174
0
175
0
176
0
177
0
178
0
270
2
179
3
271
3
272
3
273
2
274
2
275
0
280
0
281
0
282
0
283
1
284
4
285
0
286
0
287
3
288
0
340
11
278
46
341
21E
342
21E
343
21E
344
21E
  0
ENDTAB
  0
ENDSEC
  0
SECTION
  2
BLOCKS
  0
BLOCK
  5
20
100
AcDbEntity
  8
0
100
AcDbBlockBegin
  2
*Model_Space
 70
0
 10
0.0
 20
0.0
 30
0.0
  3
*Model_Space
  1

  0
ENDBLK
  5
21
100
AcDbEntity
  8
0
100
AcDbBlockEnd
  0
BLOCK
  5
1C
100
AcDbEntity
  8
0
100
AcDbBlockBegin
  2
*Paper_Space
 70
0
 10
0.0
 20
0.0
 30
0.0
  3
*Paper_Space
  1

  0
ENDBLK
  5
1D
100
AcDbEntity
  8
0
100
AcDbBlockEnd
  0
BLOCK
  5
220
100
AcDbEntity
  8
0
100
AcDbBlockBegin
  2
_FILLED
 70
64
 10
0.0
 20
0.0
  3
_FILLED
  1

  0
SOLID
  5
221
100
AcDbEntity
  8
0
  6
BYBLOCK
 62
0
100
AcDbTrace
 10
0.0
 20
0.0
 11
-1.0
 21
0.2
 12
-1.0
 22
-0.2
 13
-1.0
 23
-0.2
  0
ENDBLK
  5
222
100
AcDbEntity
  8
0
  6
BYBLOCK
 62
0
100
AcDbBlockEnd
  0
ENDSEC
  0
SECTION
  2
ENTITIES
  0
MTEXT
  5
223
100
AcDbEntity
  8
0
100
AcDbMText
 62
2
  6
CONTINUOUS
  7
STANDARD
 71
3
 72
1
 10
5.7583457613
 20
0.7318134909
 30
0.0
 11
1.0
 21
0.0
 31
0.0
 73
2
 44
0.9
  1
SCALE 0.500
 40
0.08
 41
0.704
  0
LINE
  5
224
100
AcDbEntity
  8
0
100
AcDbLine
 62
7
  6
CONTINUOUS
 10
0.0
 20
0.0
 11
0.0
 21
8.5
  0
LINE
  5
225
100
AcDbEntity
  8
0
100
AcDbLine
 62
7
  6
CONTINUOUS
 10
0.0
 20
0.0
 11
11.0
 21
0.0
  0
LINE
  5
226
100
AcDbEntity
  8
0
100
AcDbLine
 62
7
  6
CONTINUOUS
 10
0.0
 20
8.5
 11
11.0
 21
8.5
  0
LINE
  5
227
100
AcDbEntity
  8
0
100
AcDbLine
 62
7
  6
CONTINUOUS
 10
11.0
 20
0.0
 11
11.0
 21
8.5
  0
LINE
  5
228
100
AcDbEntity
  8
ALL_FEATURES
100
AcDbLine
 62
7
  6
CONTINUOUS
 10
7.5641130803
 20
1.5488178823
 11
6.7221130803
 21
1.5488178823
  0
LINE
  5
229
100
AcDbEntity
  8
ALL_FEATURES
100
AcDbLine
 62
7
  6
CONTINUOUS
 10
7.6376130803
 20
1.5498178823
 11
7.5699304759
 21
1.5498178823
  0
LINE
  5
22A
100
AcDbEntity
  8
ALL_FEATURES
100
AcDbLine
 62
7
  6
CONTINUOUS
 10
6.7162956847
 20
1.5498178823
 11
6.6486130803
 21
1.5498178823
  0
LINE
  5
22B
100
AcDbEntity
  8
ALL_FEATURES
100
AcDbLine
 62
7
  6
CONTINUOUS
 10
6.5556130803
 20
1.5588178823
 11
7.7306130803
 21
1.5588178823
  0
LINE
  5
22C
100
AcDbEntity
  8
ALL_FEATURES
100
AcDbLine
 62
7
  6
CONTINUOUS
 10
6.5556130803
 20
1.5988178823
 11
7.7306130803
 21
1.5988178823
  0
LINE
  5
22D
100
AcDbEntity
  8
ALL_FEATURES
100
AcDbLine
 62
7
  6
CONTINUOUS
 10
6.5806130803
 20
1.6238178823
 11
7.7056130803
 21
1.6238178823
  0
LINE
  5
22E
100
AcDbEntity
  8
0
100
AcDbLine
 62
7
  6
CONTINUOUS
 10
6.6682214422
 20
1.6738178823
 11
6.6681983511
 21
1.6738178823
  0
LINE
  5
22F
100
AcDbEntity
  8
0
100
AcDbLine
 62
7
  6
CONTINUOUS
 10
7.6180278095
 20
1.6738178823
 11
6.6683781816
 21
1.6738178823
  0
LINE
  5
230
100
AcDbEntity
  8
0
100
AcDbLine
 62
7
  6
CONTINUOUS
 10
6.6681983511
 20
1.7138178823
 11
7.617847979
 21
1.7138178823
  0
LINE
  5
231
100
AcDbEntity
  8
0
100
AcDbLine
 62
7
  6
CONTINUOUS
 10
7.6180047432
 20
1.7138178823
 11
7.6180278095
 21
1.7138178823
  0
LINE
  5
232
100
AcDbEntity
  8
0
100
AcDbLine
 62
7
  6
CONTINUOUS
 10
7.7305369752
 20
1.7188178823
 11
7.601798065
 21
1.7188178823
  0
LINE
  5
233
100
AcDbEntity
  8
0
100
AcDbLine
 62
7
  6
CONTINUOUS
 10
7.6017585131
 20
1.7188178823
 11
7.5413931706
 21
1.7188178823
  0
LINE
  5
234
100
AcDbEntity
  8
0
100
AcDbLine
 62
7
  6
CONTINUOUS
 10
6.74483299
 20
1.7188178823
 11
6.5560160508
 21
1.7188178823
  0
LINE
  5
235
100
AcDbEntity
  8
0
100
AcDbLine
 62
7
  6
CONTINUOUS
 10
6.5558379265
 20
1.7188178823
 11
6.5556199837
 21
1.7188178823
  0
LINE
  5
236
100
AcDbEntity
  8
0
100
AcDbLine
 62
7
  6
CONTINUOUS
 10
7.5259752083
 20
1.7383178823
 11
6.7602509524
 21
1.7383178823
  0
LINE
  5
237
100
AcDbEntity
  8
0
100
AcDbLine
 62
7
  6
CONTINUOUS
 10
7.5116661202
 20
1.7488178823
 11
6.7745600404
 21
1.7488178823
  0
LINE
  5
238
100
AcDbEntity
  8
0
100
AcDbLine
 62
7
  6
CONTINUOUS
 10
6.8306167419
 20
1.7538178823
 11
7.4556094187
 21
1.7538178823
  0
LINE
  5
239
100
AcDbEntity
  8
0
100
AcDbLine
 62
7
  6
CONTINUOUS
 10
6.5556199837
 20
1.7588178823
 11
6.8306130803
 21
1.7588178823
  0
LINE
  5
23A
100
AcDbEntity
  8
0
100
AcDbLine
 62
7
  6
CONTINUOUS
 10
7.4556130803
 20
1.7588178823
 11
7.6017585131
 21
1.7588178823
  0
LINE
  5
23B
100
AcDbEntity
  8
0
100
AcDbLine
 62
7
  6
CONTINUOUS
 10
7.601798065
 20
1.7588178823
 11
7.7305369752
 21
1.7588178823
  0
LINE
  5
23C
100
AcDbEntity
  8
0
100
AcDbLine
 62
7
  6
CONTINUOUS
 10
7.6402040304
 20
1.7857409593
 11
7.4556130803
 21
1.7857409593
  0
LINE
  5
23D
100
AcDbEntity
  8
0
100
AcDbLine
 62
7
  6
CONTINUOUS
 10
6.8306130803
 20
1.7857409593
 11
6.6460221302
 21
1.7857409593
  0
LINE
  5
23E
100
AcDbEntity
  8
0
100
AcDbLine
 62
7
  6
CONTINUOUS
 10
7.6268972274
 20
1.7938178823
 11
7.4556130803
 21
1.7938178823
  0
LINE
  5
23F
100
AcDbEntity
  8
0
100
AcDbLine
 62
7
  6
CONTINUOUS
 10
6.8306130803
 20
1.7938178823
 11
6.6593289332
 21
1.7938178823
  0
LINE
  5
240
100
AcDbEntity
  8
0
100
AcDbLine
 62
7
  6
CONTINUOUS
 10
7.5493630803
 20
1.7988178823
 11
7.4556130803
 21
1.7988178823
  0
LINE
  5
241
100
AcDbEntity
  8
0
100
AcDbLine
 62
7
  6
CONTINUOUS
 10
6.8306130803
 20
1.7988178823
 11
6.7368630803
 21
1.7988178823
  0
LINE
  5
242
100
AcDbEntity
  8
ALL_ASSEMBLY_MEMBERS
100
AcDbLine
 62
7
  6
CONTINUOUS
 10
3.3613630803
 20
4.9013439353
 11
3.3613630803
 21
4.6262955538
  0
LINE
  5
243
100
AcDbEntity
  8
ALL_FEATURES
100
AcDbLine
 62
7
  6
CONTINUOUS
 10
3.3613630803
 20
4.9663178823
 11
3.3613630803
 21
5.3408178823
  0
LINE
  5
244
100
AcDbEntity
  8
0
100
AcDbLine
 62
7
  6
CONTINUOUS
 10
7.5005974686
 20
2.3638178823
 11
7.4208762134
 21
2.3638178823
  0
LINE
  5
245
100
AcDbEntity
  8
0
100
AcDbLine
 62
7
  6
CONTINUOUS
 10
6.7858663362
 20
2.3638178823
 11
6.785726385
 21
2.3638178823
  0
LINE
  5
246
100
AcDbEntity
  8
0
100
AcDbLine
 62
7
  6
CONTINUOUS
 10
7.4208446419
 20
2.3638178823
 11
6.7859570198
 21
2.3638178823
  0
LINE
  5
247
100
AcDbEntity
  8
0
100
AcDbLine
 62
7
  6
CONTINUOUS
 10
6.785726385
 20
2.4138178823
 11
7.4208446419
 21
2.4138178823
  0
LINE
  5
248
100
AcDbEntity
  8
0
100
AcDbLine
 62
7
  6
CONTINUOUS
 10
7.4208762134
 20
2.4138178823
 11
7.5005974686
 21
2.4138178823
  0
LINE
  5
249
100
AcDbEntity
  8
0
100
AcDbLine
 62
7
  6
CONTINUOUS
 10
7.3847660431
 20
2.4696214538
 11
6.9014601175
 21
2.4696214538
  0
LINE
  5
24A
100
AcDbEntity
  8
0
100
AcDbLine
 62
7
  6
CONTINUOUS
 10
7.3722740176
 20
2.4763178823
 11
6.913952143
 21
2.4763178823
  0
LINE
  5
24B
100
AcDbEntity
  8
0
100
AcDbLine
 62
7
  6
CONTINUOUS
 10
6.9431130803
 20
2.4913178823
 11
7.3431130803
 21
2.4913178823
  0
LINE
  5
24C
100
AcDbEntity
  8
ALL_ASSEMBLY_MEMBERS
100
AcDbLine
 62
7
  6
CONTINUOUS
 10
3.7988630803
 20
4.9013439353
 11
3.7988630803
 21
4.6262955538
  0
LINE
  5
24D
100
AcDbEntity
  8
ALL_FEATURES
100
AcDbLine
 62
7
  6
CONTINUOUS
 10
3.7988630803
 20
4.9663178823
 11
3.7988630803
 21
5.3408178823
  0
LINE
  5
24E
100
AcDbEntity
  8
0
100
AcDbLine
 62
7
  6
CONTINUOUS
 10
7.3431130803
 20
2.5363178823
 11
6.9431130803
 21
2.5363178823
  0
LINE
  5
24F
100
AcDbEntity
  8
0
100
AcDbLine
 62
7
  6
CONTINUOUS
 10
7.3281098454
 20
2.5513178823
 11
6.9581163152
 21
2.5513178823
  0
LINE
  5
250
100
AcDbEntity
  8
0
100
AcDbLine
 62
7
  6
CONTINUOUS
 10
7.2918630803
 20
2.6571316127
 11
6.9943630803
 21
2.6571316127
  0
LINE
  5
251
100
AcDbEntity
  8
0
100
AcDbLine
 62
7
  6
CONTINUOUS
 10
7.3006130803
 20
2.6670531801
 11
6.9856130803
 21
2.6670531801
  0
LINE
  5
252
100
AcDbEntity
  8
ALL_FEATURES
100
AcDbLine
 62
7
  6
CONTINUOUS
 10
7.296860393
 20
2.7268178823
 11
6.9893630803
 21
2.7268178823
  0
LINE
  5
253
100
AcDbEntity
  8
0
100
AcDbLine
 62
7
  6
CONTINUOUS
 10
7.0456130803
 20
2.7368178823
 11
7.1058130325
 21
2.7368178823
  0
LINE
  5
254
100
AcDbEntity
  8
0
100
AcDbLine
 62
7
  6
CONTINUOUS
 10
7.1804131281
 20
2.7368178823
 11
7.2406130803
 21
2.7368178823
  0
LINE
  5
255
100
AcDbEntity
  8
0
100
AcDbLine
 62
7
  6
CONTINUOUS
 10
7.0456130803
 20
2.7493178823
 11
7.066057184
 21
2.7493178823
  0
LINE
  5
256
100
AcDbEntity
  8
0
100
AcDbLine
 62
7
  6
CONTINUOUS
 10
7.2201689766
 20
2.7493178823
 11
7.2406130803
 21
2.7493178823
  0
LINE
  5
257
100
AcDbEntity
  8
0
100
AcDbLine
 62
7
  6
CONTINUOUS
 10
6.6869745385
 20
2.9688178823
 11
6.6869518561
 21
2.9688178823
  0
LINE
  5
258
100
AcDbEntity
  8
0
100
AcDbLine
 62
7
  6
CONTINUOUS
 10
6.6871263818
 20
2.9688178823
 11
6.9571240123
 21
2.9688178823
  0
LINE
  5
259
100
AcDbEntity
  8
0
100
AcDbLine
 62
7
  6
CONTINUOUS
 10
7.3291021483
 20
2.9688178823
 11
7.494701214
 21
2.9688178823
  0
LINE
  5
25A
100
AcDbEntity
  8
0
100
AcDbLine
 62
7
  6
CONTINUOUS
 10
7.494887449
 20
2.9688178823
 11
7.599351503
 21
2.9688178823
  0
LINE
  5
25B
100
AcDbEntity
  8
0
100
AcDbLine
 62
7
  6
CONTINUOUS
 10
6.6871263818
 20
3.0188178823
 11
6.9768791272
 21
3.0188178823
  0
LINE
  5
25C
100
AcDbEntity
  8
0
100
AcDbLine
 62
7
  6
CONTINUOUS
 10
7.3093470334
 20
3.0188178823
 11
7.494701214
 21
3.0188178823
  0
LINE
  5
25D
100
AcDbEntity
  8
0
100
AcDbLine
 62
7
  6
CONTINUOUS
 10
7.5988165302
 20
3.0188178823
 11
7.599351503
 21
3.0188178823
  0
LINE
  5
25E
100
AcDbEntity
  8
0
100
AcDbLine
 62
7
  6
CONTINUOUS
 10
7.494887449
 20
3.0188178823
 11
7.5985193134
 21
3.0188178823
  0
LINE
  5
25F
100
AcDbEntity
  8
0
100
AcDbLine
 62
7
  6
CONTINUOUS
 10
6.8263097105
 20
3.0759607395
 11
7.0266765653
 21
3.0759607395
  0
LINE
  5
260
100
AcDbEntity
  8
0
100
AcDbLine
 62
7
  6
CONTINUOUS
 10
7.2595495953
 20
3.0759607395
 11
7.4599164501
 21
3.0759607395
  0
LINE
  5
261
100
AcDbEntity
  8
0
100
AcDbLine
 62
7
  6
CONTINUOUS
 10
6.8377995019
 20
3.0813178823
 11
7.034039177
 21
3.0813178823
  0
LINE
  5
262
100
AcDbEntity
  8
0
100
AcDbLine
 62
7
  6
CONTINUOUS
 10
7.2521869836
 20
3.0813178823
 11
7.4484266587
 21
3.0813178823
  0
LINE
  5
263
100
AcDbEntity
  8
0
100
AcDbLine
 62
7
  6
CONTINUOUS
 10
7.4243630803
 20
3.0963178823
 11
7.2266024974
 21
3.0963178823
  0
LINE
  5
264
100
AcDbEntity
  8
0
100
AcDbLine
 62
7
  6
CONTINUOUS
 10
7.0596236632
 20
3.0963178823
 11
6.8618630803
 21
3.0963178823
  0
LINE
  5
265
100
AcDbEntity
  8
0
100
AcDbLine
 62
7
  6
CONTINUOUS
 10
6.8618630803
 20
3.1413178823
 11
7.4243630803
 21
3.1413178823
  0
LINE
  5
266
100
AcDbEntity
  8
0
100
AcDbLine
 62
7
  6
CONTINUOUS
 10
6.8768630803
 20
3.1563178823
 11
7.4093630803
 21
3.1563178823
  0
LINE
  5
267
100
AcDbEntity
  8
ALL_FEATURES
100
AcDbLine
 62
7
  6
CONTINUOUS
 10
7.6181130803
 20
1.5988178823
 11
7.5931130803
 21
1.6238178823
  0
LINE
  5
268
100
AcDbEntity
  8
ALL_FEATURES
100
AcDbLine
 62
7
  6
CONTINUOUS
 10
7.7306130803
 20
1.5988178823
 11
7.7056130803
 21
1.6238178823
  0
LINE
  5
269
100
AcDbEntity
  8
ALL_ASSEMBLY_MEMBERS
100
AcDbLine
 62
7
  6
CONTINUOUS
 10
3.8026130803
 20
4.5613178823
 11
3.3576130803
 21
4.5613178823
  0
LINE
  5
26A
100
AcDbEntity
  8
ALL_ASSEMBLY_MEMBERS
100
AcDbLine
 62
7
  6
CONTINUOUS
 10
3.8036845089
 20
4.6212987436
 11
3.3565416517
 21
4.6212987436
  0
LINE
  5
26B
100
AcDbEntity
  8
ALL_ASSEMBLY_MEMBERS
100
AcDbLine
 62
7
  6
CONTINUOUS
 10
3.7988630803
 20
4.6262955538
 11
3.3613630803
 21
4.6262955538
  0
LINE
  5
26C
100
AcDbEntity
  8
ALL_ASSEMBLY_MEMBERS
100
AcDbLine
 62
7
  6
CONTINUOUS
 10
3.7988630803
 20
4.9013439353
 11
3.3613630803
 21
4.9013439353
  0
LINE
  5
26D
100
AcDbEntity
  8
ALL_ASSEMBLY_MEMBERS
100
AcDbLine
 62
7
  6
CONTINUOUS
 10
3.8038630803
 20
4.9063439353
 11
3.3563630803
 21
4.9063439353
  0
LINE
  5
26E
100
AcDbEntity
  8
ALL_ASSEMBLY_MEMBERS
100
AcDbLine
 62
7
  6
CONTINUOUS
 10
3.8026130803
 20
4.9663178823
 11
3.3576130803
 21
4.9663178823
  0
LINE
  5
26F
100
AcDbEntity
  8
ALL_FEATURES
100
AcDbLine
 62
7
  6
CONTINUOUS
 10
7.3618630803
 20
5.3408178823
 11
6.9243630803
 21
5.3408178823
  0
LINE
  5
270
100
AcDbEntity
  8
ALL_FEATURES
100
AcDbLine
 62
7
  6
CONTINUOUS
 10
3.3613630803
 20
5.3408178823
 11
3.7988630803
 21
5.3408178823
  0
LINE
  5
271
100
AcDbEntity
  8
ALL_FEATURES
100
AcDbLine
 62
7
  6
CONTINUOUS
 10
6.5556130803
 20
1.5588178823
 11
6.5556130803
 21
1.5988178823
  0
LINE
  5
272
100
AcDbEntity
  8
0
100
AcDbLine
 62
7
  6
CONTINUOUS
 10
6.5556199837
 20
1.7188178823
 11
6.5556199837
 21
1.7588178823
  0
LINE
  5
273
100
AcDbEntity
  8
0
100
AcDbLine
 62
7
  6
CONTINUOUS
 10
6.5558084758
 20
1.7188178823
 11
6.5558084758
 21
1.7588178823
  0
LINE
  5
274
100
AcDbEntity
  8
0
100
AcDbLine
 62
7
  6
CONTINUOUS
 10
6.5560160508
 20
1.7188178823
 11
6.5560160508
 21
1.7588178823
  0
LINE
  5
275
100
AcDbEntity
  8
0
100
AcDbLine
 62
7
  6
CONTINUOUS
 10
6.556958098
 20
1.7188178823
 11
6.556958098
 21
1.7588178823
  0
LINE
  5
276
100
AcDbEntity
  8
0
100
AcDbLine
 62
7
  6
CONTINUOUS
 10
6.5574420855
 20
1.7188178823
 11
6.5574420855
 21
1.7588178823
  0
LINE
  5
277
100
AcDbEntity
  8
0
100
AcDbLine
 62
7
  6
CONTINUOUS
 10
6.5591360352
 20
1.7188178823
 11
6.5591360352
 21
1.7588178823
  0
LINE
  5
278
100
AcDbEntity
  8
0
100
AcDbLine
 62
7
  6
CONTINUOUS
 10
6.5598955862
 20
1.7188178823
 11
6.5598955862
 21
1.7588178823
  0
LINE
  5
279
100
AcDbEntity
  8
0
100
AcDbLine
 62
7
  6
CONTINUOUS
 10
6.5623384665
 20
1.7188178823
 11
6.5623384665
 21
1.7588178823
  0
LINE
  5
27A
100
AcDbEntity
  8
0
100
AcDbLine
 62
7
  6
CONTINUOUS
 10
6.5633722486
 20
1.7188178823
 11
6.5633722486
 21
1.7588178823
  0
LINE
  5
27B
100
AcDbEntity
  8
0
100
AcDbLine
 62
7
  6
CONTINUOUS
 10
6.5665597739
 20
1.7188178823
 11
6.5665597739
 21
1.7588178823
  0
LINE
  5
27C
100
AcDbEntity
  8
0
100
AcDbLine
 62
7
  6
CONTINUOUS
 10
6.5678659734
 20
1.7188178823
 11
6.5678659734
 21
1.7588178823
  0
LINE
  5
27D
100
AcDbEntity
  8
0
100
AcDbLine
 62
7
  6
CONTINUOUS
 10
6.5717925517
 20
1.7188178823
 11
6.5717925517
 21
1.7588178823
  0
LINE
  5
27E
100
AcDbEntity
  8
0
100
AcDbLine
 62
7
  6
CONTINUOUS
 10
6.5733688771
 20
1.7188178823
 11
6.5733688771
 21
1.7588178823
  0
LINE
  5
27F
100
AcDbEntity
  8
0
100
AcDbLine
 62
7
  6
CONTINUOUS
 10
6.5780276199
 20
1.7188178823
 11
6.5780276199
 21
1.7588178823
  0
LINE
  5
280
100
AcDbEntity
  8
0
100
AcDbLine
 62
7
  6
CONTINUOUS
 10
6.5798713057
 20
1.7188178823
 11
6.5798713057
 21
1.7588178823
  0
LINE
  5
281
100
AcDbEntity
  8
ALL_FEATURES
100
AcDbLine
 62
7
  6
CONTINUOUS
 10
6.5806130803
 20
1.6238178823
 11
6.5806130803
 21
1.7188178823
  0
LINE
  5
282
100
AcDbEntity
  8
0
100
AcDbLine
 62
7
  6
CONTINUOUS
 10
6.58525404
 20
1.7188178823
 11
6.58525404
 21
1.7588178823
  0
LINE
  5
283
100
AcDbEntity
  8
0
100
AcDbLine
 62
7
  6
CONTINUOUS
 10
6.5873618518
 20
1.7188178823
 11
6.5873618518
 21
1.7588178823
  0
LINE
  5
284
100
AcDbEntity
  8
0
100
AcDbLine
 62
7
  6
CONTINUOUS
 10
6.5934591343
 20
1.7188178823
 11
6.5934591343
 21
1.7588178823
  0
LINE
  5
285
100
AcDbEntity
  8
0
100
AcDbLine
 62
7
  6
CONTINUOUS
 10
6.5958273744
 20
1.7188178823
 11
6.5958273744
 21
1.7588178823
  0
LINE
  5
286
100
AcDbEntity
  8
0
100
AcDbLine
 62
7
  6
CONTINUOUS
 10
6.6026285085
 20
1.7188178823
 11
6.6026285085
 21
1.7588178823
  0
LINE
  5
287
100
AcDbEntity
  8
0
100
AcDbLine
 62
7
  6
CONTINUOUS
 10
6.605253022
 20
1.7188178823
 11
6.605253022
 21
1.7588178823
  0
LINE
  5
288
100
AcDbEntity
  8
0
100
AcDbLine
 62
7
  6
CONTINUOUS
 10
6.6127460763
 20
1.7188178823
 11
6.6127460763
 21
1.7588178823
  0
LINE
  5
289
100
AcDbEntity
  8
0
100
AcDbLine
 62
7
  6
CONTINUOUS
 10
6.615622259
 20
1.7188178823
 11
6.615622259
 21
1.7588178823
  0
LINE
  5
28A
100
AcDbEntity
  8
0
100
AcDbLine
 62
7
  6
CONTINUOUS
 10
6.623794088
 20
1.7188178823
 11
6.623794088
 21
1.7588178823
  0
LINE
  5
28B
100
AcDbEntity
  8
0
100
AcDbLine
 62
7
  6
CONTINUOUS
 10
6.6269168942
 20
1.7188178823
 11
6.6269168942
 21
1.7588178823
  0
LINE
  5
28C
100
AcDbEntity
  8
0
100
AcDbLine
 62
7
  6
CONTINUOUS
 10
6.6357531617
 20
1.7188178823
 11
6.6357531617
 21
1.7588178823
  0
LINE
  5
28D
100
AcDbEntity
  8
0
100
AcDbLine
 62
7
  6
CONTINUOUS
 10
6.6391171128
 20
1.7188178823
 11
6.6391171128
 21
1.7588178823
  0
LINE
  5
28E
100
AcDbEntity
  8
0
100
AcDbLine
 62
7
  6
CONTINUOUS
 10
6.6486023171
 20
1.7188178823
 11
6.6486023171
 21
1.7588178823
  0
LINE
  5
28F
100
AcDbEntity
  8
0
100
AcDbLine
 62
7
  6
CONTINUOUS
 10
6.6522015116
 20
1.7188178823
 11
6.6522015116
 21
1.7588178823
  0
LINE
  5
290
100
AcDbEntity
  8
0
100
AcDbLine
 62
7
  6
CONTINUOUS
 10
6.6623190124
 20
1.7188178823
 11
6.6623190124
 21
1.7588178823
  0
LINE
  5
291
100
AcDbEntity
  8
0
100
AcDbLine
 62
7
  6
CONTINUOUS
 10
6.6661471362
 20
1.7188178823
 11
6.6661471362
 21
1.7588178823
  0
LINE
  5
292
100
AcDbEntity
  8
ALL_FEATURES
100
AcDbLine
 62
7
  6
CONTINUOUS
 10
6.6681130803
 20
1.5588178823
 11
6.6681130803
 21
1.5988178823
  0
LINE
  5
293
100
AcDbEntity
  8
0
100
AcDbLine
 62
7
  6
CONTINUOUS
 10
6.6681983511
 20
1.6738178823
 11
6.6681983511
 21
1.7138178823
  0
LINE
  5
294
100
AcDbEntity
  8
0
100
AcDbLine
 62
7
  6
CONTINUOUS
 10
6.6683781816
 20
1.6738178823
 11
6.6683781816
 21
1.7138178823
  0
LINE
  5
295
100
AcDbEntity
  8
0
100
AcDbLine
 62
7
  6
CONTINUOUS
 10
6.6693202288
 20
1.6738178823
 11
6.6693202288
 21
1.7138178823
  0
LINE
  5
296
100
AcDbEntity
  8
0
100
AcDbLine
 62
7
  6
CONTINUOUS
 10
6.6698592275
 20
1.6738178823
 11
6.6698592275
 21
1.7138178823
  0
LINE
  5
297
100
AcDbEntity
  8
0
100
AcDbLine
 62
7
  6
CONTINUOUS
 10
6.6717407399
 20
1.6738178823
 11
6.6717407399
 21
1.7138178823
  0
LINE
  5
298
100
AcDbEntity
  8
0
100
AcDbLine
 62
7
  6
CONTINUOUS
 10
6.6726374293
 20
1.6738178823
 11
6.6726374293
 21
1.7138178823
  0
LINE
  5
299
100
AcDbEntity
  8
0
100
AcDbLine
 62
7
  6
CONTINUOUS
 10
6.6754532497
 20
1.6738178823
 11
6.6754532497
 21
1.7138178823
  0
LINE
  5
29A
100
AcDbEntity
  8
0
100
AcDbLine
 62
7
  6
CONTINUOUS
 10
6.6767051722
 20
1.6738178823
 11
6.6767051722
 21
1.7138178823
  0
LINE
  5
29B
100
AcDbEntity
  8
0
100
AcDbLine
 62
7
  6
CONTINUOUS
 10
6.6768791839
 20
1.7188178823
 11
6.6768791839
 21
1.7588178823
  0
LINE
  5
29C
100
AcDbEntity
  8
0
100
AcDbLine
 62
7
  6
CONTINUOUS
 10
6.6804475826
 20
1.6738178823
 11
6.6804475826
 21
1.7138178823
  0
LINE
  5
29D
100
AcDbEntity
  8
0
100
AcDbLine
 62
7
  6
CONTINUOUS
 10
6.680929521
 20
1.7188178823
 11
6.680929521
 21
1.7588178823
  0
LINE
  5
29E
100
AcDbEntity
  8
0
100
AcDbLine
 62
7
  6
CONTINUOUS
 10
6.6820513067
 20
1.6738178823
 11
6.6820513067
 21
1.7138178823
  0
LINE
  5
29F
100
AcDbEntity
  8
0
100
AcDbLine
 62
7
  6
CONTINUOUS
 10
6.6867100495
 20
1.6738178823
 11
6.6867100495
 21
1.7138178823
  0
LINE
  5
2A0
100
AcDbEntity
  8
0
100
AcDbLine
 62
7
  6
CONTINUOUS
 10
6.6869518561
 20
3.0188178823
 11
6.6869518561
 21
2.9688178823
  0
LINE
  5
2A1
100
AcDbEntity
  8
0
100
AcDbLine
 62
7
  6
CONTINUOUS
 10
6.6871263818
 20
3.0188178823
 11
6.6871263818
 21
2.9688178823
  0
LINE
  5
2A2
100
AcDbEntity
  8
0
100
AcDbLine
 62
7
  6
CONTINUOUS
 10
6.6880925612
 20
3.0188178823
 11
6.6880925612
 21
2.9688178823
  0
LINE
  5
2A3
100
AcDbEntity
  8
0
100
AcDbLine
 62
7
  6
CONTINUOUS
 10
6.6886156353
 20
3.0188178823
 11
6.6886156353
 21
2.9688178823
  0
LINE
  5
2A4
100
AcDbEntity
  8
0
100
AcDbLine
 62
7
  6
CONTINUOUS
 10
6.6886611795
 20
1.6738178823
 11
6.6886611795
 21
1.7138178823
  0
LINE
  5
2A5
100
AcDbEntity
  8
0
100
AcDbLine
 62
7
  6
CONTINUOUS
 10
6.6905452082
 20
3.0188178823
 11
6.6905452082
 21
2.9688178823
  0
LINE
  5
2A6
100
AcDbEntity
  8
0
100
AcDbLine
 62
7
  6
CONTINUOUS
 10
6.6914153226
 20
3.0188178823
 11
6.6914153226
 21
2.9688178823
  0
LINE
  5
2A7
100
AcDbEntity
  8
0
100
AcDbLine
 62
7
  6
CONTINUOUS
 10
6.6919798497
 20
1.7588178823
 11
6.6919798497
 21
1.7188178823
  0
LINE
  5
2A8
100
AcDbEntity
  8
0
100
AcDbLine
 62
7
  6
CONTINUOUS
 10
6.6922572881
 20
1.7188178823
 11
6.6922572881
 21
1.7588178823
  0
LINE
  5
2A9
100
AcDbEntity
  8
ALL_FEATURES
100
AcDbLine
 62
7
  6
CONTINUOUS
 10
6.6931130803
 20
1.6238178823
 11
6.6931130803
 21
1.6738178823
  0
LINE
  5
2AA
100
AcDbEntity
  8
0
100
AcDbLine
 62
7
  6
CONTINUOUS
 10
6.6942234854
 20
1.6738178823
 11
6.6942234854
 21
1.7138178823
  0
LINE
  5
2AB
100
AcDbEntity
  8
0
100
AcDbLine
 62
7
  6
CONTINUOUS
 10
6.6943027256
 20
3.0188178823
 11
6.6943027256
 21
2.9688178823
  0
LINE
  5
2AC
100
AcDbEntity
  8
0
100
AcDbLine
 62
7
  6
CONTINUOUS
 10
6.6955173714
 20
3.0188178823
 11
6.6955173714
 21
2.9688178823
  0
LINE
  5
2AD
100
AcDbEntity
  8
0
100
AcDbLine
 62
7
  6
CONTINUOUS
 10
6.6965166733
 20
1.6738178823
 11
6.6965166733
 21
1.7138178823
  0
LINE
  5
2AE
100
AcDbEntity
  8
0
100
AcDbLine
 62
7
  6
CONTINUOUS
 10
6.6965227329
 20
1.7188178823
 11
6.6965227329
 21
1.7588178823
  0
LINE
  5
2AF
100
AcDbEntity
  8
0
100
AcDbLine
 62
7
  6
CONTINUOUS
 10
6.6993542795
 20
3.0188178823
 11
6.6993542795
 21
2.9688178823
  0
LINE
  5
2B0
100
AcDbEntity
  8
0
100
AcDbLine
 62
7
  6
CONTINUOUS
 10
6.7009099545
 20
3.0188178823
 11
6.7009099545
 21
2.9688178823
  0
LINE
  5
2B1
100
AcDbEntity
  8
0
100
AcDbLine
 62
7
  6
CONTINUOUS
 10
6.7029672964
 20
1.6738178823
 11
6.7029672964
 21
1.7138178823
  0
LINE
  5
2B2
100
AcDbEntity
  8
0
100
AcDbLine
 62
7
  6
CONTINUOUS
 10
6.7055962569
 20
1.6738178823
 11
6.7055962569
 21
1.7138178823
  0
LINE
  5
2B3
100
AcDbEntity
  8
0
100
AcDbLine
 62
7
  6
CONTINUOUS
 10
6.7056853048
 20
3.0188178823
 11
6.7056853048
 21
2.9688178823
  0
LINE
  5
2B4
100
AcDbEntity
  8
0
100
AcDbLine
 62
7
  6
CONTINUOUS
 10
6.7075775238
 20
3.0188178823
 11
6.7075775238
 21
2.9688178823
  0
LINE
  5
2B5
100
AcDbEntity
  8
0
100
AcDbLine
 62
7
  6
CONTINUOUS
 10
6.7076736044
 20
1.7588178823
 11
6.7076736044
 21
1.7188178823
  0
LINE
  5
2B6
100
AcDbEntity
  8
0
100
AcDbLine
 62
7
  6
CONTINUOUS
 10
6.7084263465
 20
1.7188178823
 11
6.7084263465
 21
1.7588178823
  0
LINE
  5
2B7
100
AcDbEntity
  8
0
100
AcDbLine
 62
7
  6
CONTINUOUS
 10
6.712899416
 20
1.7188178823
 11
6.712899416
 21
1.7588178823
  0
LINE
  5
2B8
100
AcDbEntity
  8
0
100
AcDbLine
 62
7
  6
CONTINUOUS
 10
6.7129175165
 20
1.6738178823
 11
6.7129175165
 21
1.7138178823
  0
LINE
  5
2B9
100
AcDbEntity
  8
0
100
AcDbLine
 62
7
  6
CONTINUOUS
 10
6.7132775477
 20
3.0188178823
 11
6.7132775477
 21
2.9688178823
  0
LINE
  5
2BA
100
AcDbEntity
  8
0
100
AcDbLine
 62
7
  6
CONTINUOUS
 10
6.7155008547
 20
3.0188178823
 11
6.7155008547
 21
2.9688178823
  0
LINE
  5
2BB
100
AcDbEntity
  8
0
100
AcDbLine
 62
7
  6
CONTINUOUS
 10
6.7158750437
 20
1.6738178823
 11
6.7158750437
 21
1.7138178823
  0
LINE
  5
2BC
100
AcDbEntity
  8
0
100
AcDbLine
 62
7
  6
CONTINUOUS
 10
6.7221091176
 20
3.0188178823
 11
6.7221091176
 21
2.9688178823
  0
LINE
  5
2BD
100
AcDbEntity
  8
0
100
AcDbLine
 62
7
  6
CONTINUOUS
 10
6.7240468727
 20
1.6738178823
 11
6.7240468727
 21
1.7138178823
  0
LINE
  5
2BE
100
AcDbEntity
  8
0
100
AcDbLine
 62
7
  6
CONTINUOUS
 10
6.7241312679
 20
1.7588178823
 11
6.7241312679
 21
1.7188178823
  0
LINE
  5
2BF
100
AcDbEntity
  8
0
100
AcDbLine
 62
7
  6
CONTINUOUS
 10
6.7246571025
 20
3.0188178823
 11
6.7246571025
 21
2.9688178823
  0
LINE
  5
2C0
100
AcDbEntity
  8
0
100
AcDbLine
 62
7
  6
CONTINUOUS
 10
6.7253579932
 20
1.7188178823
 11
6.7253579932
 21
1.7588178823
  0
LINE
  5
2C1
100
AcDbEntity
  8
0
100
AcDbLine
 62
7
  6
CONTINUOUS
 10
6.7273248602
 20
1.6738178823
 11
6.7273248602
 21
1.7138178823
  0
LINE
  5
2C2
100
AcDbEntity
  8
0
100
AcDbLine
 62
7
  6
CONTINUOUS
 10
6.7300308401
 20
1.7188178823
 11
6.7300308401
 21
1.7588178823
  0
LINE
  5
2C3
100
AcDbEntity
  8
0
100
AcDbLine
 62
7
  6
CONTINUOUS
 10
6.732154551
 20
3.0188178823
 11
6.732154551
 21
2.9688178823
  0
LINE
  5
2C4
100
AcDbEntity
  8
0
100
AcDbLine
 62
7
  6
CONTINUOUS
 10
6.7350198671
 20
3.0188178823
 11
6.7350198671
 21
2.9688178823
  0
LINE
  5
2C5
100
AcDbEntity
  8
0
100
AcDbLine
 62
7
  6
CONTINUOUS
 10
6.7363248602
 20
1.6738178823
 11
6.7363248602
 21
1.7138178823
  0
LINE
  5
2C6
100
AcDbEntity
  8
0
100
AcDbLine
 62
7
  6
CONTINUOUS
 10
6.7368630803
 20
1.7988178823
 11
6.7368630803
 21
2.9688178823
  0
LINE
  5
2C7
100
AcDbEntity
  8
0
100
AcDbLine
 62
7
  6
CONTINUOUS
 10
6.7399143233
 20
1.6738178823
 11
6.7399143233
 21
1.7138178823
  0
LINE
  5
2C8
100
AcDbEntity
  8
0
100
AcDbLine
 62
7
  6
CONTINUOUS
 10
6.7413239679
 20
1.7588178823
 11
6.7413239679
 21
1.7188178823
  0
LINE
  5
2C9
100
AcDbEntity
  8
0
100
AcDbLine
 62
7
  6
CONTINUOUS
 10
6.7430225242
 20
1.7188178823
 11
6.7430225242
 21
1.7588178823
  0
LINE
  5
2CA
100
AcDbEntity
  8
0
100
AcDbLine
 62
7
  6
CONTINUOUS
 10
6.7433848842
 20
3.0188178823
 11
6.7433848842
 21
2.9688178823
  0
LINE
  5
2CB
100
AcDbEntity
  8
0
100
AcDbLine
 62
7
  6
CONTINUOUS
 10
6.7465592701
 20
3.0188178823
 11
6.7465592701
 21
2.9688178823
  0
LINE
  5
2CC
100
AcDbEntity
  8
0
100
AcDbLine
 62
7
  6
CONTINUOUS
 10
6.7478869508
 20
1.7208716841
 11
6.7478869508
 21
1.7588178823
  0
LINE
  5
2CD
100
AcDbEntity
  8
0
100
AcDbLine
 62
7
  6
CONTINUOUS
 10
6.749717826
 20
1.6738178823
 11
6.749717826
 21
1.7138178823
  0
LINE
  5
2CE
100
AcDbEntity
  8
0
100
AcDbLine
 62
7
  6
CONTINUOUS
 10
6.7536089262
 20
1.6738178823
 11
6.7536089262
 21
1.7138178823
  0
LINE
  5
2CF
100
AcDbEntity
  8
0
100
AcDbLine
 62
7
  6
CONTINUOUS
 10
6.7557677372
 20
3.0188178823
 11
6.7557677372
 21
2.9688178823
  0
LINE
  5
2D0
100
AcDbEntity
  8
0
100
AcDbLine
 62
7
  6
CONTINUOUS
 10
6.7592215425
 20
1.7588178823
 11
6.7592215425
 21
1.7354854146
  0
LINE
  5
2D1
100
AcDbEntity
  8
0
100
AcDbLine
 62
7
  6
CONTINUOUS
 10
6.7592420404
 20
3.0188178823
 11
6.7592420404
 21
2.9688178823
  0
LINE
  5
2D2
100
AcDbEntity
  8
0
100
AcDbLine
 62
7
  6
CONTINUOUS
 10
6.76138895
 20
1.7409708528
 11
6.76138895
 21
1.7588178823
  0
LINE
  5
2D3
100
AcDbEntity
  8
0
100
AcDbLine
 62
7
  6
CONTINUOUS
 10
6.7641890608
 20
1.6738178823
 11
6.7641890608
 21
1.7138178823
  0
LINE
  5
2D4
100
AcDbEntity
  8
0
100
AcDbLine
 62
7
  6
CONTINUOUS
 10
6.7664364224
 20
1.7464032932
 11
6.7664364224
 21
1.7588178823
  0
LINE
  5
2D5
100
AcDbEntity
  8
0
100
AcDbLine
 62
7
  6
CONTINUOUS
 10
6.7681130803
 20
1.7938178823
 11
6.7681130803
 21
1.7988178823
  0
LINE
  5
2D6
100
AcDbEntity
  8
0
100
AcDbLine
 62
7
  6
CONTINUOUS
 10
6.768371133
 20
1.6738178823
 11
6.768371133
 21
1.7138178823
  0
LINE
  5
2D7
100
AcDbEntity
  8
0
100
AcDbLine
 62
7
  6
CONTINUOUS
 10
6.7692674072
 20
3.0188178823
 11
6.7692674072
 21
2.9688178823
  0
LINE
  5
2D8
100
AcDbEntity
  8
0
100
AcDbLine
 62
7
  6
CONTINUOUS
 10
6.7730316103
 20
3.0188178823
 11
6.7730316103
 21
2.9688178823
  0
LINE
  5
2D9
100
AcDbEntity
  8
0
100
AcDbLine
 62
7
  6
CONTINUOUS
 10
6.7777925933
 20
1.7588178823
 11
6.7777925933
 21
1.7488178823
  0
LINE
  5
2DA
100
AcDbEntity
  8
0
100
AcDbLine
 62
7
  6
CONTINUOUS
 10
6.7794087703
 20
1.7138178823
 11
6.7794087703
 21
1.6738178823
  0
LINE
  5
2DB
100
AcDbEntity
  8
0
100
AcDbLine
 62
7
  6
CONTINUOUS
 10
6.7796989
 20
1.6738178823
 11
6.7796989
 21
1.7138178823
  0
LINE
  5
2DC
100
AcDbEntity
  8
0
100
AcDbLine
 62
7
  6
CONTINUOUS
 10
6.7804250497
 20
1.7488178823
 11
6.7804250497
 21
1.7588178823
  0
LINE
  5
2DD
100
AcDbEntity
  8
0
100
AcDbLine
 62
7
  6
CONTINUOUS
 10
6.783844971
 20
3.0188178823
 11
6.783844971
 21
2.9688178823
  0
LINE
  5
2DE
100
AcDbEntity
  8
0
100
AcDbLine
 62
7
  6
CONTINUOUS
 10
6.7841604813
 20
1.6738178823
 11
6.7841604813
 21
1.7138178823
  0
LINE
  5
2DF
100
AcDbEntity
  8
0
100
AcDbLine
 62
7
  6
CONTINUOUS
 10
6.7856467129
 20
1.7488178823
 11
6.7856467129
 21
1.7588178823
  0
LINE
  5
2E0
100
AcDbEntity
  8
0
100
AcDbLine
 62
7
  6
CONTINUOUS
 10
6.785726385
 20
2.3638178823
 11
6.785726385
 21
2.4138178823
  0
LINE
  5
2E1
100
AcDbEntity
  8
0
100
AcDbLine
 62
7
  6
CONTINUOUS
 10
6.7859570198
 20
2.3638178823
 11
6.7859570198
 21
2.4138178823
  0
LINE
  5
2E2
100
AcDbEntity
  8
0
100
AcDbLine
 62
7
  6
CONTINUOUS
 10
6.7871988604
 20
2.3638178823
 11
6.7871988604
 21
2.4138178823
  0
LINE
  5
2E3
100
AcDbEntity
  8
0
100
AcDbLine
 62
7
  6
CONTINUOUS
 10
6.7878882208
 20
3.0188178823
 11
6.7878882208
 21
2.9688178823
  0
LINE
  5
2E4
100
AcDbEntity
  8
0
100
AcDbLine
 62
7
  6
CONTINUOUS
 10
6.787889666
 20
2.3638178823
 11
6.787889666
 21
2.4138178823
  0
LINE
  5
2E5
100
AcDbEntity
  8
0
100
AcDbLine
 62
7
  6
CONTINUOUS
 10
6.7903674293
 20
2.3638178823
 11
6.7903674293
 21
2.4138178823
  0
LINE
  5
2E6
100
AcDbEntity
  8
0
100
AcDbLine
 62
7
  6
CONTINUOUS
 10
6.7915151135
 20
2.3638178823
 11
6.7915151135
 21
2.4138178823
  0
LINE
  5
2E7
100
AcDbEntity
  8
0
100
AcDbLine
 62
7
  6
CONTINUOUS
 10
6.7952169917
 20
2.3638178823
 11
6.7952169917
 21
2.4138178823
  0
LINE
  5
2E8
100
AcDbEntity
  8
0
100
AcDbLine
 62
7
  6
CONTINUOUS
 10
6.795321302
 20
1.7138178823
 11
6.795321302
 21
1.6738178823
  0
LINE
  5
2E9
100
AcDbEntity
  8
0
100
AcDbLine
 62
7
  6
CONTINUOUS
 10
6.7962048322
 20
1.6738178823
 11
6.7962048322
 21
1.7138178823
  0
LINE
  5
2EA
100
AcDbEntity
  8
0
100
AcDbLine
 62
7
  6
CONTINUOUS
 10
6.7968160854
 20
2.3638178823
 11
6.7968160854
 21
2.4138178823
  0
LINE
  5
2EB
100
AcDbEntity
  8
0
100
AcDbLine
 62
7
  6
CONTINUOUS
 10
6.7970045404
 20
1.7588178823
 11
6.7970045404
 21
1.7488178823
  0
LINE
  5
2EC
100
AcDbEntity
  8
0
100
AcDbLine
 62
7
  6
CONTINUOUS
 10
6.7989676142
 20
2.9688178823
 11
6.7989676142
 21
3.0188178823
  0
LINE
  5
2ED
100
AcDbEntity
  8
0
100
AcDbLine
 62
7
  6
CONTINUOUS
 10
6.7994583978
 20
3.0188178823
 11
6.7994583978
 21
2.9688178823
  0
LINE
  5
2EE
100
AcDbEntity
  8
0
100
AcDbLine
 62
7
  6
CONTINUOUS
 10
6.8000974274
 20
1.7488178823
 11
6.8000974274
 21
1.7588178823
  0
LINE
  5
2EF
100
AcDbEntity
  8
0
100
AcDbLine
 62
7
  6
CONTINUOUS
 10
6.8009336938
 20
1.6738178823
 11
6.8009336938
 21
1.7138178823
  0
LINE
  5
2F0
100
AcDbEntity
  8
0
100
AcDbLine
 62
7
  6
CONTINUOUS
 10
6.8017244375
 20
2.3638178823
 11
6.8017244375
 21
2.4138178823
  0
LINE
  5
2F1
100
AcDbEntity
  8
0
100
AcDbLine
 62
7
  6
CONTINUOUS
 10
6.8037673202
 20
2.3638178823
 11
6.8037673202
 21
2.4138178823
  0
LINE
  5
2F2
100
AcDbEntity
  8
0
100
AcDbLine
 62
7
  6
CONTINUOUS
 10
6.8037690366
 20
3.0188178823
 11
6.8037690366
 21
2.9688178823
  0
LINE
  5
2F3
100
AcDbEntity
  8
0
100
AcDbLine
 62
7
  6
CONTINUOUS
 10
6.8054841208
 20
1.7488178823
 11
6.8054841208
 21
1.7588178823
  0
LINE
  5
2F4
100
AcDbEntity
  8
0
100
AcDbLine
 62
7
  6
CONTINUOUS
 10
6.8098587557
 20
2.3638178823
 11
6.8098587557
 21
2.4138178823
  0
LINE
  5
2F5
100
AcDbEntity
  8
0
100
AcDbLine
 62
7
  6
CONTINUOUS
 10
6.8121871067
 20
1.7138178823
 11
6.8121871067
 21
1.6738178823
  0
LINE
  5
2F6
100
AcDbEntity
  8
0
100
AcDbLine
 62
7
  6
CONTINUOUS
 10
6.8123356921
 20
2.3638178823
 11
6.8123356921
 21
2.4138178823
  0
LINE
  5
2F7
100
AcDbEntity
  8
0
100
AcDbLine
 62
7
  6
CONTINUOUS
 10
6.8136616158
 20
1.6738178823
 11
6.8136616158
 21
1.7138178823
  0
LINE
  5
2F8
100
AcDbEntity
  8
0
100
AcDbLine
 62
7
  6
CONTINUOUS
 10
6.8149640701
 20
2.9688178823
 11
6.8149640701
 21
3.0188178823
  0
LINE
  5
2F9
100
AcDbEntity
  8
0
100
AcDbLine
 62
7
  6
CONTINUOUS
 10
6.81606267
 20
3.0188178823
 11
6.81606267
 21
2.9688178823
  0
LINE
  5
2FA
100
AcDbEntity
  8
0
100
AcDbLine
 62
7
  6
CONTINUOUS
 10
6.8168236795
 20
1.7588178823
 11
6.8168236795
 21
1.7488178823
  0
LINE
  5
2FB
100
AcDbEntity
  8
0
100
AcDbLine
 62
7
  6
CONTINUOUS
 10
6.8186447962
 20
1.6738178823
 11
6.8186447962
 21
1.7138178823
  0
LINE
  5
2FC
100
AcDbEntity
  8
0
100
AcDbLine
 62
7
  6
CONTINUOUS
 10
6.8195811824
 20
2.3638178823
 11
6.8195811824
 21
2.4138178823
  0
LINE
  5
2FD
100
AcDbEntity
  8
0
100
AcDbLine
 62
7
  6
CONTINUOUS
 10
6.8203715711
 20
1.7488178823
 11
6.8203715711
 21
1.7588178823
  0
LINE
  5
2FE
100
AcDbEntity
  8
0
100
AcDbLine
 62
7
  6
CONTINUOUS
 10
6.8206282691
 20
3.0188178823
 11
6.8206282691
 21
2.9688178823
  0
LINE
  5
2FF
100
AcDbEntity
  8
0
100
AcDbLine
 62
7
  6
CONTINUOUS
 10
6.8224803689
 20
2.3638178823
 11
6.8224803689
 21
2.4138178823
  0
LINE
  5
300
100
AcDbEntity
  8
0
100
AcDbLine
 62
7
  6
CONTINUOUS
 10
6.8259138447
 20
1.7488178823
 11
6.8259138447
 21
1.7588178823
  0
LINE
  5
301
100
AcDbEntity
  8
0
100
AcDbLine
 62
7
  6
CONTINUOUS
 10
6.8299599565
 20
1.7138178823
 11
6.8299599565
 21
1.6738178823
  0
LINE
  5
302
100
AcDbEntity
  8
0
100
AcDbLine
 62
7
  6
CONTINUOUS
 10
6.8306130803
 20
1.7538178823
 11
6.8306130803
 21
2.3638178823
  0
LINE
  5
303
100
AcDbEntity
  8
0
100
AcDbLine
 62
7
  6
CONTINUOUS
 10
6.830845386
 20
2.3638178823
 11
6.830845386
 21
2.4138178823
  0
LINE
  5
304
100
AcDbEntity
  8
0
100
AcDbLine
 62
7
  6
CONTINUOUS
 10
6.8319066645
 20
2.9688178823
 11
6.8319066645
 21
3.0188178823
  0
LINE
  5
305
100
AcDbEntity
  8
0
100
AcDbLine
 62
7
  6
CONTINUOUS
 10
6.832021403
 20
1.6738178823
 11
6.832021403
 21
1.7138178823
  0
LINE
  5
306
100
AcDbEntity
  8
0
100
AcDbLine
 62
7
  6
CONTINUOUS
 10
6.8336099132
 20
3.0188178823
 11
6.8336099132
 21
2.9688178823
  0
LINE
  5
307
100
AcDbEntity
  8
0
100
AcDbLine
 62
7
  6
CONTINUOUS
 10
6.8341530065
 20
2.3638178823
 11
6.8341530065
 21
2.4138178823
  0
LINE
  5
308
100
AcDbEntity
  8
0
100
AcDbLine
 62
7
  6
CONTINUOUS
 10
6.837215241
 20
1.7538178823
 11
6.837215241
 21
1.7488178823
  0
LINE
  5
309
100
AcDbEntity
  8
0
100
AcDbLine
 62
7
  6
CONTINUOUS
 10
6.8372452436
 20
1.6738178823
 11
6.8372452436
 21
1.7138178823
  0
LINE
  5
30A
100
AcDbEntity
  8
0
100
AcDbLine
 62
7
  6
CONTINUOUS
 10
6.8384173088
 20
3.0188178823
 11
6.8384173088
 21
2.9688178823
  0
LINE
  5
30B
100
AcDbEntity
  8
0
100
AcDbLine
 62
7
  6
CONTINUOUS
 10
6.8412119131
 20
1.7488178823
 11
6.8412119131
 21
1.7538178823
  0
LINE
  5
30C
100
AcDbEntity
  8
0
100
AcDbLine
 62
7
  6
CONTINUOUS
 10
6.8431130803
 20
1.7488178823
 11
6.8431130803
 21
1.7538178823
  0
LINE
  5
30D
100
AcDbEntity
  8
0
100
AcDbLine
 62
7
  6
CONTINUOUS
 10
6.8435976873
 20
2.3638178823
 11
6.8435976873
 21
2.4138178823
  0
LINE
  5
30E
100
AcDbEntity
  8
0
100
AcDbLine
 62
7
  6
CONTINUOUS
 10
6.8472979797
 20
2.3638178823
 11
6.8472979797
 21
2.4138178823
  0
LINE
  5
30F
100
AcDbEntity
  8
0
100
AcDbLine
 62
7
  6
CONTINUOUS
 10
6.8485911373
 20
1.7138178823
 11
6.8485911373
 21
1.6738178823
  0
LINE
  5
310
100
AcDbEntity
  8
0
100
AcDbLine
 62
7
  6
CONTINUOUS
 10
6.8497465475
 20
2.9688178823
 11
6.8497465475
 21
3.0188178823
  0
LINE
  5
311
100
AcDbEntity
  8
0
100
AcDbLine
 62
7
  6
CONTINUOUS
 10
6.8512338709
 20
1.6738178823
 11
6.8512338709
 21
1.7138178823
  0
LINE
  5
312
100
AcDbEntity
  8
0
100
AcDbLine
 62
7
  6
CONTINUOUS
 10
6.8520495341
 20
3.0188178823
 11
6.8520495341
 21
2.9688178823
  0
LINE
  5
313
100
AcDbEntity
  8
0
100
AcDbLine
 62
7
  6
CONTINUOUS
 10
6.8566840534
 20
1.6738178823
 11
6.8566840534
 21
1.7138178823
  0
LINE
  5
314
100
AcDbEntity
  8
0
100
AcDbLine
 62
7
  6
CONTINUOUS
 10
6.8570848653
 20
3.0188178823
 11
6.8570848653
 21
2.9688178823
  0
LINE
  5
315
100
AcDbEntity
  8
0
100
AcDbLine
 62
7
  6
CONTINUOUS
 10
6.8577773159
 20
2.3638178823
 11
6.8577773159
 21
2.4138178823
  0
LINE
  5
316
100
AcDbEntity
  8
0
100
AcDbLine
 62
7
  6
CONTINUOUS
 10
6.8618526464
 20
2.3638178823
 11
6.8618526464
 21
2.4138178823
  0
LINE
  5
317
100
AcDbEntity
  8
0
100
AcDbLine
 62
7
  6
CONTINUOUS
 10
6.8618630803
 20
3.0963178823
 11
6.8618630803
 21
3.1413178823
  0
LINE
  5
318
100
AcDbEntity
  8
0
100
AcDbLine
 62
7
  6
CONTINUOUS
 10
6.8680295822
 20
1.7138178823
 11
6.8680295822
 21
1.6738178823
  0
LINE
  5
319
100
AcDbEntity
  8
0
100
AcDbLine
 62
7
  6
CONTINUOUS
 10
6.8684322823
 20
2.9688178823
 11
6.8684322823
 21
3.0188178823
  0
LINE
  5
31A
100
AcDbEntity
  8
0
100
AcDbLine
 62
7
  6
CONTINUOUS
 10
6.8712463593
 20
1.6738178823
 11
6.8712463593
 21
1.7138178823
  0
LINE
  5
31B
100
AcDbEntity
  8
0
100
AcDbLine
 62
7
  6
CONTINUOUS
 10
6.8713283666
 20
3.0188178823
 11
6.8713283666
 21
2.9688178823
  0
LINE
  5
31C
100
AcDbEntity
  8
0
100
AcDbLine
 62
7
  6
CONTINUOUS
 10
6.8728939925
 20
2.4138178823
 11
6.8728939925
 21
2.3638178823
  0
LINE
  5
31D
100
AcDbEntity
  8
0
100
AcDbLine
 62
7
  6
CONTINUOUS
 10
6.8733166994
 20
2.3638178823
 11
6.8733166994
 21
2.4138178823
  0
LINE
  5
31E
100
AcDbEntity
  8
0
100
AcDbLine
 62
7
  6
CONTINUOUS
 10
6.8765771152
 20
3.0188178823
 11
6.8765771152
 21
2.9688178823
  0
LINE
  5
31F
100
AcDbEntity
  8
0
100
AcDbLine
 62
7
  6
CONTINUOUS
 10
6.8769079454
 20
1.6738178823
 11
6.8769079454
 21
1.7138178823
  0
LINE
  5
320
100
AcDbEntity
  8
0
100
AcDbLine
 62
7
  6
CONTINUOUS
 10
6.8777476473
 20
2.3638178823
 11
6.8777476473
 21
2.4138178823
  0
LINE
  5
321
100
AcDbEntity
  8
0
100
AcDbLine
 62
7
  6
CONTINUOUS
 10
6.8879099928
 20
2.9688178823
 11
6.8879099928
 21
3.0188178823
  0
LINE
  5
322
100
AcDbEntity
  8
0
100
AcDbLine
 62
7
  6
CONTINUOUS
 10
6.8882220119
 20
1.7138178823
 11
6.8882220119
 21
1.6738178823
  0
LINE
  5
323
100
AcDbEntity
  8
0
100
AcDbLine
 62
7
  6
CONTINUOUS
 10
6.8889387846
 20
2.4138178823
 11
6.8889387846
 21
2.3638178823
  0
LINE
  5
324
100
AcDbEntity
  8
0
100
AcDbLine
 62
7
  6
CONTINUOUS
 10
6.8901417854
 20
2.3638178823
 11
6.8901417854
 21
2.4138178823
  0
LINE
  5
325
100
AcDbEntity
  8
0
100
AcDbLine
 62
7
  6
CONTINUOUS
 10
6.8913908248
 20
3.0188178823
 11
6.8913908248
 21
2.9688178823
  0
LINE
  5
326
100
AcDbEntity
  8
0
100
AcDbLine
 62
7
  6
CONTINUOUS
 10
6.8920040156
 20
1.6738178823
 11
6.8920040156
 21
1.7138178823
  0
LINE
  5
327
100
AcDbEntity
  8
0
100
AcDbLine
 62
7
  6
CONTINUOUS
 10
6.8949072352
 20
2.3638178823
 11
6.8949072352
 21
2.4138178823
  0
LINE
  5
328
100
AcDbEntity
  8
0
100
AcDbLine
 62
7
  6
CONTINUOUS
 10
6.8968378573
 20
3.0188178823
 11
6.8968378573
 21
2.9688178823
  0
LINE
  5
329
100
AcDbEntity
  8
0
100
AcDbLine
 62
7
  6
CONTINUOUS
 10
6.8978614871
 20
1.6738178823
 11
6.8978614871
 21
1.7138178823
  0
LINE
  5
32A
100
AcDbEntity
  8
0
100
AcDbLine
 62
7
  6
CONTINUOUS
 10
6.906194833
 20
2.4138178823
 11
6.906194833
 21
2.3638178823
  0
LINE
  5
32B
100
AcDbEntity
  8
0
100
AcDbLine
 62
7
  6
CONTINUOUS
 10
6.90812352
 20
2.9688178823
 11
6.90812352
 21
3.0188178823
  0
LINE
  5
32C
100
AcDbEntity
  8
0
100
AcDbLine
 62
7
  6
CONTINUOUS
 10
6.9081723949
 20
2.3638178823
 11
6.9081723949
 21
2.4138178823
  0
LINE
  5
32D
100
AcDbEntity
  8
0
100
AcDbLine
 62
7
  6
CONTINUOUS
 10
6.9091130803
 20
1.7138178823
 11
6.9091130803
 21
1.6738178823
  0
LINE
  5
32E
100
AcDbEntity
  8
0
100
AcDbLine
 62
7
  6
CONTINUOUS
 10
6.9121790634
 20
3.0188178823
 11
6.9121790634
 21
2.9688178823
  0
LINE
  5
32F
100
AcDbEntity
  8
0
100
AcDbLine
 62
7
  6
CONTINUOUS
 10
6.9132496371
 20
2.3638178823
 11
6.9132496371
 21
2.4138178823
  0
LINE
  5
330
100
AcDbEntity
  8
0
100
AcDbLine
 62
7
  6
CONTINUOUS
 10
6.9134499443
 20
1.6738178823
 11
6.9134499443
 21
1.7138178823
  0
LINE
  5
331
100
AcDbEntity
  8
0
100
AcDbLine
 62
7
  6
CONTINUOUS
 10
6.9178086745
 20
3.0188178823
 11
6.9178086745
 21
2.9688178823
  0
LINE
  5
332
100
AcDbEntity
  8
0
100
AcDbLine
 62
7
  6
CONTINUOUS
 10
6.9194872463
 20
1.6738178823
 11
6.9194872463
 21
1.7138178823
  0
LINE
  5
333
100
AcDbEntity
  8
ALL_FEATURES
100
AcDbLine
 62
7
  6
CONTINUOUS
 10
6.9243630803
 20
5.3408178823
 11
6.9243630803
 21
3.1563178823
  0
LINE
  5
334
100
AcDbEntity
  8
0
100
AcDbLine
 62
7
  6
CONTINUOUS
 10
6.9245799047
 20
2.4138178823
 11
6.9245799047
 21
2.3638178823
  0
LINE
  5
335
100
AcDbEntity
  8
0
100
AcDbLine
 62
7
  6
CONTINUOUS
 10
6.9273226038
 20
2.3638178823
 11
6.9273226038
 21
2.4138178823
  0
LINE
  5
336
100
AcDbEntity
  8
0
100
AcDbLine
 62
7
  6
CONTINUOUS
 10
6.9290145828
 20
2.9688178823
 11
6.9290145828
 21
3.0188178823
  0
LINE
  5
337
100
AcDbEntity
  8
0
100
AcDbLine
 62
7
  6
CONTINUOUS
 10
6.9306455264
 20
1.7138178823
 11
6.9306455264
 21
1.6738178823
  0
LINE
  5
338
100
AcDbEntity
  8
0
100
AcDbLine
 62
7
  6
CONTINUOUS
 10
6.9326874429
 20
2.3638178823
 11
6.9326874429
 21
2.4138178823
  0
LINE
  5
339
100
AcDbEntity
  8
0
100
AcDbLine
 62
7
  6
CONTINUOUS
 10
6.9336331445
 20
3.0188178823
 11
6.9336331445
 21
2.9688178823
  0
LINE
  5
33A
100
AcDbEntity
  8
0
100
AcDbLine
 62
7
  6
CONTINUOUS
 10
6.9355253638
 20
1.6738178823
 11
6.9355253638
 21
1.7138178823
  0
LINE
  5
33B
100
AcDbEntity
  8
0
100
AcDbLine
 62
7
  6
CONTINUOUS
 10
6.9394291028
 20
3.0188178823
 11
6.9394291028
 21
2.9688178823
  0
LINE
  5
33C
100
AcDbEntity
  8
0
100
AcDbLine
 62
7
  6
CONTINUOUS
 10
6.9417259485
 20
1.6738178823
 11
6.9417259485
 21
1.7138178823
  0
LINE
  5
33D
100
AcDbEntity
  8
0
100
AcDbLine
 62
7
  6
CONTINUOUS
 10
6.9431130803
 20
2.4913178823
 11
6.9431130803
 21
2.5363178823
  0
LINE
  5
33E
100
AcDbEntity
  8
0
100
AcDbLine
 62
7
  6
CONTINUOUS
 10
6.9440063866
 20
2.4138178823
 11
6.9440063866
 21
2.3638178823
  0
LINE
  5
33F
100
AcDbEntity
  8
0
100
AcDbLine
 62
7
  6
CONTINUOUS
 10
6.9475011525
 20
2.3638178823
 11
6.9475011525
 21
2.4138178823
  0
LINE
  5
340
100
AcDbEntity
  8
0
100
AcDbLine
 62
7
  6
CONTINUOUS
 10
6.9505229471
 20
2.9688178823
 11
6.9505229471
 21
3.0188178823
  0
LINE
  5
341
100
AcDbEntity
  8
0
100
AcDbLine
 62
7
  6
CONTINUOUS
 10
6.9527603313
 20
1.7138178823
 11
6.9527603313
 21
1.6738178823
  0
LINE
  5
342
100
AcDbEntity
  8
0
100
AcDbLine
 62
7
  6
CONTINUOUS
 10
6.9531280228
 20
2.3638178823
 11
6.9531280228
 21
2.4138178823
  0
LINE
  5
343
100
AcDbEntity
  8
0
100
AcDbLine
 62
7
  6
CONTINUOUS
 10
6.9556912106
 20
3.0188178823
 11
6.9556912106
 21
2.9688178823
  0
LINE
  5
344
100
AcDbEntity
  8
0
100
AcDbLine
 62
7
  6
CONTINUOUS
 10
6.9581697667
 20
1.6738178823
 11
6.9581697667
 21
1.7138178823
  0
LINE
  5
345
100
AcDbEntity
  8
0
100
AcDbLine
 62
7
  6
CONTINUOUS
 10
6.9616368046
 20
3.0188178823
 11
6.9616368046
 21
2.9844176667
  0
LINE
  5
346
100
AcDbEntity
  8
0
100
AcDbLine
 62
7
  6
CONTINUOUS
 10
6.9643817025
 20
2.4138178823
 11
6.9643817025
 21
2.3638178823
  0
LINE
  5
347
100
AcDbEntity
  8
0
100
AcDbLine
 62
7
  6
CONTINUOUS
 10
6.9645166388
 20
1.6738178823
 11
6.9645166388
 21
1.7138178823
  0
LINE
  5
348
100
AcDbEntity
  8
0
100
AcDbLine
 62
7
  6
CONTINUOUS
 10
6.9686118812
 20
2.3638178823
 11
6.9686118812
 21
2.4138178823
  0
LINE
  5
349
100
AcDbEntity
  8
0
100
AcDbLine
 62
7
  6
CONTINUOUS
 10
6.9725865986
 20
3.0108568904
 11
6.9725865986
 21
3.0188178823
  0
LINE
  5
34A
100
AcDbEntity
  8
0
100
AcDbLine
 62
7
  6
CONTINUOUS
 10
6.9744739679
 20
2.3638178823
 11
6.9744739679
 21
2.4138178823
  0
LINE
  5
34B
100
AcDbEntity
  8
0
100
AcDbLine
 62
7
  6
CONTINUOUS
 10
6.9753968799
 20
1.7138178823
 11
6.9753968799
 21
1.6738178823
  0
LINE
  5
34C
100
AcDbEntity
  8
0
100
AcDbLine
 62
7
  6
CONTINUOUS
 10
6.9813210864
 20
1.6738178823
 11
6.9813210864
 21
1.7138178823
  0
LINE
  5
34D
100
AcDbEntity
  8
0
100
AcDbLine
 62
7
  6
CONTINUOUS
 10
6.9856087548
 20
2.4138178823
 11
6.9856087548
 21
2.3638178823
  0
LINE
  5
34E
100
AcDbEntity
  8
0
100
AcDbLine
 62
7
  6
CONTINUOUS
 10
6.9877968495
 20
1.6738178823
 11
6.9877968495
 21
1.7138178823
  0
LINE
  5
34F
100
AcDbEntity
  8
0
100
AcDbLine
 62
7
  6
CONTINUOUS
 10
6.9905541875
 20
2.3638178823
 11
6.9905541875
 21
2.4138178823
  0
LINE
  5
350
100
AcDbEntity
  8
ALL_FEATURES
100
AcDbLine
 62
7
  6
CONTINUOUS
 10
6.9943630803
 20
2.6571316127
 11
6.9943630803
 21
2.5513178823
  0
LINE
  5
351
100
AcDbEntity
  8
0
100
AcDbLine
 62
7
  6
CONTINUOUS
 10
6.9966235552
 20
2.3638178823
 11
6.9966235552
 21
2.4138178823
  0
LINE
  5
352
100
AcDbEntity
  8
0
100
AcDbLine
 62
7
  6
CONTINUOUS
 10
6.9984931269
 20
1.7138178823
 11
6.9984931269
 21
1.6738178823
  0
LINE
  5
353
100
AcDbEntity
  8
0
100
AcDbLine
 62
7
  6
CONTINUOUS
 10
7.0049158667
 20
1.6738178823
 11
7.0049158667
 21
1.7138178823
  0
LINE
  5
354
100
AcDbEntity
  8
0
100
AcDbLine
 62
7
  6
CONTINUOUS
 10
7.0075863869
 20
2.4138178823
 11
7.0075863869
 21
2.3638178823
  0
LINE
  5
355
100
AcDbEntity
  8
0
100
AcDbLine
 62
7
  6
CONTINUOUS
 10
7.0115027712
 20
1.6738178823
 11
7.0115027712
 21
1.7138178823
  0
LINE
  5
356
100
AcDbEntity
  8
0
100
AcDbLine
 62
7
  6
CONTINUOUS
 10
7.0132235065
 20
2.3638178823
 11
7.0132235065
 21
2.4138178823
  0
LINE
  5
357
100
AcDbEntity
  8
0
100
AcDbLine
 62
7
  6
CONTINUOUS
 10
7.0194712318
 20
2.3638178823
 11
7.0194712318
 21
2.4138178823
  0
LINE
  5
358
100
AcDbEntity
  8
0
100
AcDbLine
 62
7
  6
CONTINUOUS
 10
7.0219857672
 20
1.7138178823
 11
7.0219857672
 21
1.6738178823
  0
LINE
  5
359
100
AcDbEntity
  8
0
100
AcDbLine
 62
7
  6
CONTINUOUS
 10
7.028889436
 20
1.6738178823
 11
7.028889436
 21
1.7138178823
  0
LINE
  5
35A
100
AcDbEntity
  8
0
100
AcDbLine
 62
7
  6
CONTINUOUS
 10
7.0302098655
 20
2.4138178823
 11
7.0302098655
 21
2.3638178823
  0
LINE
  5
35B
100
AcDbEntity
  8
0
100
AcDbLine
 62
7
  6
CONTINUOUS
 10
7.0355694276
 20
1.6738178823
 11
7.0355694276
 21
1.7138178823
  0
LINE
  5
35C
100
AcDbEntity
  8
0
100
AcDbLine
 62
7
  6
CONTINUOUS
 10
7.0365118084
 20
2.3638178823
 11
7.0365118084
 21
2.4138178823
  0
LINE
  5
35D
100
AcDbEntity
  8
0
100
AcDbLine
 62
7
  6
CONTINUOUS
 10
7.0429081182
 20
2.3638178823
 11
7.0429081182
 21
2.4138178823
  0
LINE
  5
35E
100
AcDbEntity
  8
0
100
AcDbLine
 62
7
  6
CONTINUOUS
 10
7.0456130803
 20
2.7368178823
 11
7.0456130803
 21
2.7598470411
  0
LINE
  5
35F
100
AcDbEntity
  8
0
100
AcDbLine
 62
7
  6
CONTINUOUS
 10
7.045810409
 20
1.7138178823
 11
7.045810409
 21
1.6738178823
  0
LINE
  5
360
100
AcDbEntity
  8
0
100
AcDbLine
 62
7
  6
CONTINUOUS
 10
7.0531760844
 20
1.6738178823
 11
7.0531760844
 21
1.7138178823
  0
LINE
  5
361
100
AcDbEntity
  8
0
100
AcDbLine
 62
7
  6
CONTINUOUS
 10
7.0533713792
 20
2.4138178823
 11
7.0533713792
 21
2.3638178823
  0
LINE
  5
362
100
AcDbEntity
  8
0
100
AcDbLine
 62
7
  6
CONTINUOUS
 10
7.0599308536
 20
1.6738178823
 11
7.0599308536
 21
1.7138178823
  0
LINE
  5
363
100
AcDbEntity
  8
0
100
AcDbLine
 62
7
  6
CONTINUOUS
 10
7.0603081139
 20
2.3638178823
 11
7.0603081139
 21
2.4138178823
  0
LINE
  5
364
100
AcDbEntity
  8
0
100
AcDbLine
 62
7
  6
CONTINUOUS
 10
7.0668225268
 20
2.3638178823
 11
7.0668225268
 21
2.4138178823
  0
LINE
  5
365
100
AcDbEntity
  8
0
100
AcDbLine
 62
7
  6
CONTINUOUS
 10
7.0699017507
 20
1.7138178823
 11
7.0699017507
 21
1.6738178823
  0
LINE
  5
366
100
AcDbEntity
  8
0
100
AcDbLine
 62
7
  6
CONTINUOUS
 10
7.0769605531
 20
2.4138178823
 11
7.0769605531
 21
2.3638178823
  0
LINE
  5
367
100
AcDbEntity
  8
0
100
AcDbLine
 62
7
  6
CONTINUOUS
 10
7.0777092438
 20
1.6738178823
 11
7.0777092438
 21
1.7138178823
  0
LINE
  5
368
100
AcDbEntity
  8
0
100
AcDbLine
 62
7
  6
CONTINUOUS
 10
7.0844990228
 20
2.3638178823
 11
7.0844990228
 21
2.4138178823
  0
LINE
  5
369
100
AcDbEntity
  8
0
100
AcDbLine
 62
7
  6
CONTINUOUS
 10
7.0845202764
 20
1.6738178823
 11
7.0845202764
 21
1.7138178823
  0
LINE
  5
36A
100
AcDbEntity
  8
0
100
AcDbLine
 62
7
  6
CONTINUOUS
 10
7.0911004946
 20
2.3638178823
 11
7.0911004946
 21
2.4138178823
  0
LINE
  5
36B
100
AcDbEntity
  8
0
100
AcDbLine
 62
7
  6
CONTINUOUS
 10
7.0941937595
 20
1.7138178823
 11
7.0941937595
 21
1.6738178823
  0
LINE
  5
36C
100
AcDbEntity
  8
0
100
AcDbLine
 62
7
  6
CONTINUOUS
 10
7.1008649739
 20
2.4138178823
 11
7.1008649739
 21
2.3638178823
  0
LINE
  5
36D
100
AcDbEntity
  8
0
100
AcDbLine
 62
7
  6
CONTINUOUS
 10
7.1024216705
 20
1.6738178823
 11
7.1024216705
 21
1.7138178823
  0
LINE
  5
36E
100
AcDbEntity
  8
0
100
AcDbLine
 62
7
  6
CONTINUOUS
 10
7.1089692543
 20
2.3638178823
 11
7.1089692543
 21
2.4138178823
  0
LINE
  5
36F
100
AcDbEntity
  8
0
100
AcDbLine
 62
7
  6
CONTINUOUS
 10
7.109270298
 20
1.6738178823
 11
7.109270298
 21
1.7138178823
  0
LINE
  5
370
100
AcDbEntity
  8
0
100
AcDbLine
 62
7
  6
CONTINUOUS
 10
7.1156263261
 20
2.3638178823
 11
7.1156263261
 21
2.4138178823
  0
LINE
  5
371
100
AcDbEntity
  8
0
100
AcDbLine
 62
7
  6
CONTINUOUS
 10
7.1186198528
 20
1.7138178823
 11
7.1186198528
 21
1.6738178823
  0
LINE
  5
372
100
AcDbEntity
  8
0
100
AcDbLine
 62
7
  6
CONTINUOUS
 10
7.1249707261
 20
2.4138178823
 11
7.1249707261
 21
2.3638178823
  0
LINE
  5
373
100
AcDbEntity
  8
0
100
AcDbLine
 62
7
  6
CONTINUOUS
 10
7.1272456296
 20
1.6738178823
 11
7.1272456296
 21
1.7138178823
  0
LINE
  5
374
100
AcDbEntity
  8
0
100
AcDbLine
 62
7
  6
CONTINUOUS
 10
7.1336021968
 20
2.3638178823
 11
7.1336021968
 21
2.4138178823
  0
LINE
  5
375
100
AcDbEntity
  8
0
100
AcDbLine
 62
7
  6
CONTINUOUS
 10
7.1341130803
 20
1.6738178823
 11
7.1341130803
 21
1.7138178823
  0
LINE
  5
376
100
AcDbEntity
  8
0
100
AcDbLine
 62
7
  6
CONTINUOUS
 10
7.1402831445
 20
2.3638178823
 11
7.1402831445
 21
2.4138178823
  0
LINE
  5
377
100
AcDbEntity
  8
0
100
AcDbLine
 62
7
  6
CONTINUOUS
 10
7.1431130803
 20
1.7138178823
 11
7.1431130803
 21
1.6738178823
  0
LINE
  5
378
100
AcDbEntity
  8
0
100
AcDbLine
 62
7
  6
CONTINUOUS
 10
7.1491629349
 20
2.4138178823
 11
7.1491629349
 21
2.3638178823
  0
LINE
  5
379
100
AcDbEntity
  8
0
100
AcDbLine
 62
7
  6
CONTINUOUS
 10
7.1521130803
 20
1.6738178823
 11
7.1521130803
 21
1.7138178823
  0
LINE
  5
37A
100
AcDbEntity
  8
0
100
AcDbLine
 62
7
  6
CONTINUOUS
 10
7.1582804629
 20
2.3638178823
 11
7.1582804629
 21
2.4138178823
  0
LINE
  5
37B
100
AcDbEntity
  8
0
100
AcDbLine
 62
7
  6
CONTINUOUS
 10
7.158980531
 20
1.6738178823
 11
7.158980531
 21
1.7138178823
  0
LINE
  5
37C
100
AcDbEntity
  8
0
100
AcDbLine
 62
7
  6
CONTINUOUS
 10
7.1649534488
 20
2.3638178823
 11
7.1649534488
 21
2.4138178823
  0
LINE
  5
37D
100
AcDbEntity
  8
0
100
AcDbLine
 62
7
  6
CONTINUOUS
 10
7.1676063078
 20
1.7138178823
 11
7.1676063078
 21
1.6738178823
  0
LINE
  5
37E
100
AcDbEntity
  8
0
100
AcDbLine
 62
7
  6
CONTINUOUS
 10
7.1733263134
 20
2.4138178823
 11
7.1733263134
 21
2.3638178823
  0
LINE
  5
37F
100
AcDbEntity
  8
0
100
AcDbLine
 62
7
  6
CONTINUOUS
 10
7.1769558626
 20
1.6738178823
 11
7.1769558626
 21
1.7138178823
  0
LINE
  5
380
100
AcDbEntity
  8
0
100
AcDbLine
 62
7
  6
CONTINUOUS
 10
7.1828864496
 20
2.3638178823
 11
7.1828864496
 21
2.4138178823
  0
LINE
  5
381
100
AcDbEntity
  8
0
100
AcDbLine
 62
7
  6
CONTINUOUS
 10
7.1838044901
 20
1.6738178823
 11
7.1838044901
 21
1.7138178823
  0
LINE
  5
382
100
AcDbEntity
  8
0
100
AcDbLine
 62
7
  6
CONTINUOUS
 10
7.1895196738
 20
2.3638178823
 11
7.1895196738
 21
2.4138178823
  0
LINE
  5
383
100
AcDbEntity
  8
0
100
AcDbLine
 62
7
  6
CONTINUOUS
 10
7.1920324011
 20
1.7138178823
 11
7.1920324011
 21
1.6738178823
  0
LINE
  5
384
100
AcDbEntity
  8
0
100
AcDbLine
 62
7
  6
CONTINUOUS
 10
7.1973457121
 20
2.4138178823
 11
7.1973457121
 21
2.3638178823
  0
LINE
  5
385
100
AcDbEntity
  8
0
100
AcDbLine
 62
7
  6
CONTINUOUS
 10
7.2017058842
 20
1.6738178823
 11
7.2017058842
 21
1.7138178823
  0
LINE
  5
386
100
AcDbEntity
  8
0
100
AcDbLine
 62
7
  6
CONTINUOUS
 10
7.207302898
 20
2.3638178823
 11
7.207302898
 21
2.4138178823
  0
LINE
  5
387
100
AcDbEntity
  8
0
100
AcDbLine
 62
7
  6
CONTINUOUS
 10
7.2085169168
 20
1.6738178823
 11
7.2085169168
 21
1.7138178823
  0
LINE
  5
388
100
AcDbEntity
  8
0
100
AcDbLine
 62
7
  6
CONTINUOUS
 10
7.2138647503
 20
2.3638178823
 11
7.2138647503
 21
2.4138178823
  0
LINE
  5
389
100
AcDbEntity
  8
0
100
AcDbLine
 62
7
  6
CONTINUOUS
 10
7.2163244099
 20
1.7138178823
 11
7.2163244099
 21
1.6738178823
  0
LINE
  5
38A
100
AcDbEntity
  8
0
100
AcDbLine
 62
7
  6
CONTINUOUS
 10
7.2211066677
 20
2.4138178823
 11
7.2211066677
 21
2.3638178823
  0
LINE
  5
38B
100
AcDbEntity
  8
0
100
AcDbLine
 62
7
  6
CONTINUOUS
 10
7.226295307
 20
1.6738178823
 11
7.226295307
 21
1.7138178823
  0
LINE
  5
38C
100
AcDbEntity
  8
0
100
AcDbLine
 62
7
  6
CONTINUOUS
 10
7.2314134527
 20
2.3638178823
 11
7.2314134527
 21
2.4138178823
  0
LINE
  5
38D
100
AcDbEntity
  8
0
100
AcDbLine
 62
7
  6
CONTINUOUS
 10
7.2330500762
 20
1.6738178823
 11
7.2330500762
 21
1.7138178823
  0
LINE
  5
38E
100
AcDbEntity
  8
0
100
AcDbLine
 62
7
  6
CONTINUOUS
 10
7.2378726629
 20
2.3638178823
 11
7.2378726629
 21
2.4138178823
  0
LINE
  5
38F
100
AcDbEntity
  8
0
100
AcDbLine
 62
7
  6
CONTINUOUS
 10
7.2404157516
 20
1.7138178823
 11
7.2404157516
 21
1.6738178823
  0
LINE
  5
390
100
AcDbEntity
  8
0
100
AcDbLine
 62
7
  6
CONTINUOUS
 10
7.2406130803
 20
2.7368178823
 11
7.2406130803
 21
2.7598470411
  0
LINE
  5
391
100
AcDbEntity
  8
0
100
AcDbLine
 62
7
  6
CONTINUOUS
 10
7.2444959482
 20
2.4138178823
 11
7.2444959482
 21
2.3638178823
  0
LINE
  5
392
100
AcDbEntity
  8
0
100
AcDbLine
 62
7
  6
CONTINUOUS
 10
7.250656733
 20
1.6738178823
 11
7.250656733
 21
1.7138178823
  0
LINE
  5
393
100
AcDbEntity
  8
0
100
AcDbLine
 62
7
  6
CONTINUOUS
 10
7.255103216
 20
2.3638178823
 11
7.255103216
 21
2.4138178823
  0
LINE
  5
394
100
AcDbEntity
  8
0
100
AcDbLine
 62
7
  6
CONTINUOUS
 10
7.2573367246
 20
1.6738178823
 11
7.2573367246
 21
1.7138178823
  0
LINE
  5
395
100
AcDbEntity
  8
0
100
AcDbLine
 62
7
  6
CONTINUOUS
 10
7.2614290028
 20
2.3638178823
 11
7.2614290028
 21
2.4138178823
  0
LINE
  5
396
100
AcDbEntity
  8
0
100
AcDbLine
 62
7
  6
CONTINUOUS
 10
7.2642403934
 20
1.7138178823
 11
7.2642403934
 21
1.6738178823
  0
LINE
  5
397
100
AcDbEntity
  8
0
100
AcDbLine
 62
7
  6
CONTINUOUS
 10
7.2674020932
 20
2.4138178823
 11
7.2674020932
 21
2.3638178823
  0
LINE
  5
398
100
AcDbEntity
  8
0
100
AcDbLine
 62
7
  6
CONTINUOUS
 10
7.2747233895
 20
1.6738178823
 11
7.2747233895
 21
1.7138178823
  0
LINE
  5
399
100
AcDbEntity
  8
0
100
AcDbLine
 62
7
  6
CONTINUOUS
 10
7.2782592952
 20
2.3638178823
 11
7.2782592952
 21
2.4138178823
  0
LINE
  5
39A
100
AcDbEntity
  8
0
100
AcDbLine
 62
7
  6
CONTINUOUS
 10
7.2813102939
 20
1.6738178823
 11
7.2813102939
 21
1.7138178823
  0
LINE
  5
39B
100
AcDbEntity
  8
0
100
AcDbLine
 62
7
  6
CONTINUOUS
 10
7.2844215136
 20
2.3638178823
 11
7.2844215136
 21
2.4138178823
  0
LINE
  5
39C
100
AcDbEntity
  8
0
100
AcDbLine
 62
7
  6
CONTINUOUS
 10
7.2877330337
 20
1.7138178823
 11
7.2877330337
 21
1.6738178823
  0
LINE
  5
39D
100
AcDbEntity
  8
0
100
AcDbLine
 62
7
  6
CONTINUOUS
 10
7.2897159445
 20
2.4138178823
 11
7.2897159445
 21
2.3638178823
  0
LINE
  5
39E
100
AcDbEntity
  8
ALL_FEATURES
100
AcDbLine
 62
7
  6
CONTINUOUS
 10
7.2918630803
 20
2.6571316127
 11
7.2918630803
 21
2.5513178823
  0
LINE
  5
39F
100
AcDbEntity
  8
0
100
AcDbLine
 62
7
  6
CONTINUOUS
 10
7.2984293111
 20
1.6738178823
 11
7.2984293111
 21
1.7138178823
  0
LINE
  5
3A0
100
AcDbEntity
  8
0
100
AcDbLine
 62
7
  6
CONTINUOUS
 10
7.3007713412
 20
2.3638178823
 11
7.3007713412
 21
2.4138178823
  0
LINE
  5
3A1
100
AcDbEntity
  8
0
100
AcDbLine
 62
7
  6
CONTINUOUS
 10
7.3049050742
 20
1.6738178823
 11
7.3049050742
 21
1.7138178823
  0
LINE
  5
3A2
100
AcDbEntity
  8
0
100
AcDbLine
 62
7
  6
CONTINUOUS
 10
7.3067406253
 20
2.3638178823
 11
7.3067406253
 21
2.4138178823
  0
LINE
  5
3A3
100
AcDbEntity
  8
0
100
AcDbLine
 62
7
  6
CONTINUOUS
 10
7.3108292807
 20
1.7138178823
 11
7.3108292807
 21
1.6738178823
  0
LINE
  5
3A4
100
AcDbEntity
  8
0
100
AcDbLine
 62
7
  6
CONTINUOUS
 10
7.3113311663
 20
2.4138178823
 11
7.3113311663
 21
2.3638178823
  0
LINE
  5
3A5
100
AcDbEntity
  8
0
100
AcDbLine
 62
7
  6
CONTINUOUS
 10
7.3132852259
 20
3.0188178823
 11
7.3132852259
 21
3.0115140479
  0
LINE
  5
3A6
100
AcDbEntity
  8
0
100
AcDbLine
 62
7
  6
CONTINUOUS
 10
7.3192992344
 20
3.0188178823
 11
7.3192992344
 21
2.998614927
  0
LINE
  5
3A7
100
AcDbEntity
  8
0
100
AcDbLine
 62
7
  6
CONTINUOUS
 10
7.3217095218
 20
1.6738178823
 11
7.3217095218
 21
1.7138178823
  0
LINE
  5
3A8
100
AcDbEntity
  8
0
100
AcDbLine
 62
7
  6
CONTINUOUS
 10
7.3225320738
 20
2.3638178823
 11
7.3225320738
 21
2.4138178823
  0
LINE
  5
3A9
100
AcDbEntity
  8
0
100
AcDbLine
 62
7
  6
CONTINUOUS
 10
7.3247368581
 20
2.9839725303
 11
7.3247368581
 21
3.0188178823
  0
LINE
  5
3AA
100
AcDbEntity
  8
0
100
AcDbLine
 62
7
  6
CONTINUOUS
 10
7.3280563939
 20
1.6738178823
 11
7.3280563939
 21
1.7138178823
  0
LINE
  5
3AB
100
AcDbEntity
  8
0
100
AcDbLine
 62
7
  6
CONTINUOUS
 10
7.3282799772
 20
2.3638178823
 11
7.3282799772
 21
2.4138178823
  0
LINE
  5
3AC
100
AcDbEntity
  8
0
100
AcDbLine
 62
7
  6
CONTINUOUS
 10
7.3321447524
 20
2.4138178823
 11
7.3321447524
 21
2.3638178823
  0
LINE
  5
3AD
100
AcDbEntity
  8
0
100
AcDbLine
 62
7
  6
CONTINUOUS
 10
7.3334658293
 20
1.7138178823
 11
7.3334658293
 21
1.6738178823
  0
LINE
  5
3AE
100
AcDbEntity
  8
0
100
AcDbLine
 62
7
  6
CONTINUOUS
 10
7.3357626518
 20
3.0188178823
 11
7.3357626518
 21
2.9688178823
  0
LINE
  5
3AF
100
AcDbEntity
  8
0
100
AcDbLine
 62
7
  6
CONTINUOUS
 10
7.3416355449
 20
3.0188178823
 11
7.3416355449
 21
2.9688178823
  0
LINE
  5
3B0
100
AcDbEntity
  8
0
100
AcDbLine
 62
7
  6
CONTINUOUS
 10
7.3431130803
 20
2.4913178823
 11
7.3431130803
 21
2.5363178823
  0
LINE
  5
3B1
100
AcDbEntity
  8
0
100
AcDbLine
 62
7
  6
CONTINUOUS
 10
7.3434377931
 20
2.3638178823
 11
7.3434377931
 21
2.4138178823
  0
LINE
  5
3B2
100
AcDbEntity
  8
0
100
AcDbLine
 62
7
  6
CONTINUOUS
 10
7.3445002121
 20
1.6738178823
 11
7.3445002121
 21
1.7138178823
  0
LINE
  5
3B3
100
AcDbEntity
  8
0
100
AcDbLine
 62
7
  6
CONTINUOUS
 10
7.3465307221
 20
2.9688178823
 11
7.3465307221
 21
3.0188178823
  0
LINE
  5
3B4
100
AcDbEntity
  8
0
100
AcDbLine
 62
7
  6
CONTINUOUS
 10
7.3489369245
 20
2.3638178823
 11
7.3489369245
 21
2.4138178823
  0
LINE
  5
3B5
100
AcDbEntity
  8
0
100
AcDbLine
 62
7
  6
CONTINUOUS
 10
7.3507007968
 20
1.6738178823
 11
7.3507007968
 21
1.7138178823
  0
LINE
  5
3B6
100
AcDbEntity
  8
0
100
AcDbLine
 62
7
  6
CONTINUOUS
 10
7.3520575165
 20
2.4138178823
 11
7.3520575165
 21
2.3638178823
  0
LINE
  5
3B7
100
AcDbEntity
  8
0
100
AcDbLine
 62
7
  6
CONTINUOUS
 10
7.3555806342
 20
1.7138178823
 11
7.3555806342
 21
1.6738178823
  0
LINE
  5
3B8
100
AcDbEntity
  8
0
100
AcDbLine
 62
7
  6
CONTINUOUS
 10
7.3576846191
 20
3.0188178823
 11
7.3576846191
 21
2.9688178823
  0
LINE
  5
3B9
100
AcDbEntity
  8
ALL_FEATURES
100
AcDbLine
 62
7
  6
CONTINUOUS
 10
7.3618630803
 20
5.3408178823
 11
7.3618630803
 21
3.1563178823
  0
LINE
  5
3BA
100
AcDbEntity
  8
0
100
AcDbLine
 62
7
  6
CONTINUOUS
 10
7.363388874
 20
2.3638178823
 11
7.363388874
 21
2.4138178823
  0
LINE
  5
3BB
100
AcDbEntity
  8
0
100
AcDbLine
 62
7
  6
CONTINUOUS
 10
7.3633994638
 20
3.0188178823
 11
7.3633994638
 21
2.9688178823
  0
LINE
  5
3BC
100
AcDbEntity
  8
0
100
AcDbLine
 62
7
  6
CONTINUOUS
 10
7.3667389143
 20
1.6738178823
 11
7.3667389143
 21
1.7138178823
  0
LINE
  5
3BD
100
AcDbEntity
  8
0
100
AcDbLine
 62
7
  6
CONTINUOUS
 10
7.3677380803
 20
2.9688178823
 11
7.3677380803
 21
3.0188178823
  0
LINE
  5
3BE
100
AcDbEntity
  8
0
100
AcDbLine
 62
7
  6
CONTINUOUS
 10
7.3686130275
 20
2.3638178823
 11
7.3686130275
 21
2.4138178823
  0
LINE
  5
3BF
100
AcDbEntity
  8
0
100
AcDbLine
 62
7
  6
CONTINUOUS
 10
7.3709745651
 20
2.4138178823
 11
7.3709745651
 21
2.3638178823
  0
LINE
  5
3C0
100
AcDbEntity
  8
0
100
AcDbLine
 62
7
  6
CONTINUOUS
 10
7.3727762163
 20
1.6738178823
 11
7.3727762163
 21
1.7138178823
  0
LINE
  5
3C1
100
AcDbEntity
  8
0
100
AcDbLine
 62
7
  6
CONTINUOUS
 10
7.3771130803
 20
1.7138178823
 11
7.3771130803
 21
1.6738178823
  0
LINE
  5
3C2
100
AcDbEntity
  8
0
100
AcDbLine
 62
7
  6
CONTINUOUS
 10
7.3789879211
 20
3.0188178823
 11
7.3789879211
 21
2.9688178823
  0
LINE
  5
3C3
100
AcDbEntity
  8
0
100
AcDbLine
 62
7
  6
CONTINUOUS
 10
7.3822902404
 20
2.3638178823
 11
7.3822902404
 21
2.4138178823
  0
LINE
  5
3C4
100
AcDbEntity
  8
0
100
AcDbLine
 62
7
  6
CONTINUOUS
 10
7.38452824
 20
3.0188178823
 11
7.38452824
 21
2.9688178823
  0
LINE
  5
3C5
100
AcDbEntity
  8
0
100
AcDbLine
 62
7
  6
CONTINUOUS
 10
7.3872145206
 20
2.3638178823
 11
7.3872145206
 21
2.4138178823
  0
LINE
  5
3C6
100
AcDbEntity
  8
0
100
AcDbLine
 62
7
  6
CONTINUOUS
 10
7.3882977865
 20
2.9688178823
 11
7.3882977865
 21
3.0188178823
  0
LINE
  5
3C7
100
AcDbEntity
  8
0
100
AcDbLine
 62
7
  6
CONTINUOUS
 10
7.3883646735
 20
1.6738178823
 11
7.3883646735
 21
1.7138178823
  0
LINE
  5
3C8
100
AcDbEntity
  8
0
100
AcDbLine
 62
7
  6
CONTINUOUS
 10
7.3888057501
 20
2.4138178823
 11
7.3888057501
 21
2.3638178823
  0
LINE
  5
3C9
100
AcDbEntity
  8
0
100
AcDbLine
 62
7
  6
CONTINUOUS
 10
7.394222145
 20
1.6738178823
 11
7.394222145
 21
1.7138178823
  0
LINE
  5
3CA
100
AcDbEntity
  8
0
100
AcDbLine
 62
7
  6
CONTINUOUS
 10
7.3980041487
 20
1.7138178823
 11
7.3980041487
 21
1.6738178823
  0
LINE
  5
3CB
100
AcDbEntity
  8
0
100
AcDbLine
 62
7
  6
CONTINUOUS
 10
7.3996111348
 20
3.0188178823
 11
7.3996111348
 21
2.9688178823
  0
LINE
  5
3CC
100
AcDbEntity
  8
0
100
AcDbLine
 62
7
  6
CONTINUOUS
 10
7.4000518187
 20
2.3638178823
 11
7.4000518187
 21
2.4138178823
  0
LINE
  5
3CD
100
AcDbEntity
  8
0
100
AcDbLine
 62
7
  6
CONTINUOUS
 10
7.4046527591
 20
2.3638178823
 11
7.4046527591
 21
2.4138178823
  0
LINE
  5
3CE
100
AcDbEntity
  8
0
100
AcDbLine
 62
7
  6
CONTINUOUS
 10
7.4049609538
 20
3.0188178823
 11
7.4049609538
 21
2.9688178823
  0
LINE
  5
3CF
100
AcDbEntity
  8
0
100
AcDbLine
 62
7
  6
CONTINUOUS
 10
7.4054660975
 20
2.4138178823
 11
7.4054660975
 21
2.3638178823
  0
LINE
  5
3D0
100
AcDbEntity
  8
0
100
AcDbLine
 62
7
  6
CONTINUOUS
 10
7.4081505617
 20
2.9688178823
 11
7.4081505617
 21
3.0188178823
  0
LINE
  5
3D1
100
AcDbEntity
  8
0
100
AcDbLine
 62
7
  6
CONTINUOUS
 10
7.4093182152
 20
1.6738178823
 11
7.4093182152
 21
1.7138178823
  0
LINE
  5
3D2
100
AcDbEntity
  8
0
100
AcDbLine
 62
7
  6
CONTINUOUS
 10
7.4149798013
 20
1.6738178823
 11
7.4149798013
 21
1.7138178823
  0
LINE
  5
3D3
100
AcDbEntity
  8
0
100
AcDbLine
 62
7
  6
CONTINUOUS
 10
7.4165889669
 20
2.3638178823
 11
7.4165889669
 21
2.4138178823
  0
LINE
  5
3D4
100
AcDbEntity
  8
0
100
AcDbLine
 62
7
  6
CONTINUOUS
 10
7.4181965784
 20
1.7138178823
 11
7.4181965784
 21
1.6738178823
  0
LINE
  5
3D5
100
AcDbEntity
  8
0
100
AcDbLine
 62
7
  6
CONTINUOUS
 10
7.4194947983
 20
3.0188178823
 11
7.4194947983
 21
2.9688178823
  0
LINE
  5
3D6
100
AcDbEntity
  8
0
100
AcDbLine
 62
7
  6
CONTINUOUS
 10
7.4208446419
 20
2.3638178823
 11
7.4208446419
 21
2.4138178823
  0
LINE
  5
3D7
100
AcDbEntity
  8
0
100
AcDbLine
 62
7
  6
CONTINUOUS
 10
7.4243630803
 20
3.0963178823
 11
7.4243630803
 21
3.1413178823
  0
LINE
  5
3D8
100
AcDbEntity
  8
0
100
AcDbLine
 62
7
  6
CONTINUOUS
 10
7.4246386924
 20
3.0188178823
 11
7.4246386924
 21
2.9688178823
  0
LINE
  5
3D9
100
AcDbEntity
  8
0
100
AcDbLine
 62
7
  6
CONTINUOUS
 10
7.4272391653
 20
2.9688178823
 11
7.4272391653
 21
3.0188178823
  0
LINE
  5
3DA
100
AcDbEntity
  8
0
100
AcDbLine
 62
7
  6
CONTINUOUS
 10
7.4295421072
 20
1.6738178823
 11
7.4295421072
 21
1.7138178823
  0
LINE
  5
3DB
100
AcDbEntity
  8
0
100
AcDbLine
 62
7
  6
CONTINUOUS
 10
7.431822878
 20
2.3638178823
 11
7.431822878
 21
2.4138178823
  0
LINE
  5
3DC
100
AcDbEntity
  8
0
100
AcDbLine
 62
7
  6
CONTINUOUS
 10
7.4349922897
 20
1.6738178823
 11
7.4349922897
 21
1.7138178823
  0
LINE
  5
3DD
100
AcDbEntity
  8
0
100
AcDbLine
 62
7
  6
CONTINUOUS
 10
7.4357130074
 20
2.3638178823
 11
7.4357130074
 21
2.4138178823
  0
LINE
  5
3DE
100
AcDbEntity
  8
0
100
AcDbLine
 62
7
  6
CONTINUOUS
 10
7.4376350233
 20
1.7138178823
 11
7.4376350233
 21
1.6738178823
  0
LINE
  5
3DF
100
AcDbEntity
  8
0
100
AcDbLine
 62
7
  6
CONTINUOUS
 10
7.4385815818
 20
3.0188178823
 11
7.4385815818
 21
2.9688178823
  0
LINE
  5
3E0
100
AcDbEntity
  8
0
100
AcDbLine
 62
7
  6
CONTINUOUS
 10
7.4431130803
 20
1.7488178823
 11
7.4431130803
 21
1.7538178823
  0
LINE
  5
3E1
100
AcDbEntity
  8
0
100
AcDbLine
 62
7
  6
CONTINUOUS
 10
7.4435047198
 20
3.0188178823
 11
7.4435047198
 21
2.9688178823
  0
LINE
  5
3E2
100
AcDbEntity
  8
0
100
AcDbLine
 62
7
  6
CONTINUOUS
 10
7.4455085598
 20
2.9688178823
 11
7.4455085598
 21
3.0188178823
  0
LINE
  5
3E3
100
AcDbEntity
  8
0
100
AcDbLine
 62
7
  6
CONTINUOUS
 10
7.4456809554
 20
2.3638178823
 11
7.4456809554
 21
2.4138178823
  0
LINE
  5
3E4
100
AcDbEntity
  8
0
100
AcDbLine
 62
7
  6
CONTINUOUS
 10
7.448980917
 20
1.6738178823
 11
7.448980917
 21
1.7138178823
  0
LINE
  5
3E5
100
AcDbEntity
  8
0
100
AcDbLine
 62
7
  6
CONTINUOUS
 10
7.449187001
 20
2.3638178823
 11
7.449187001
 21
2.4138178823
  0
LINE
  5
3E6
100
AcDbEntity
  8
0
100
AcDbLine
 62
7
  6
CONTINUOUS
 10
7.4498864969
 20
1.7488178823
 11
7.4498864969
 21
1.7538178823
  0
LINE
  5
3E7
100
AcDbEntity
  8
0
100
AcDbLine
 62
7
  6
CONTINUOUS
 10
7.4542047576
 20
1.6738178823
 11
7.4542047576
 21
1.7138178823
  0
LINE
  5
3E8
100
AcDbEntity
  8
0
100
AcDbLine
 62
7
  6
CONTINUOUS
 10
7.4555029307
 20
1.7488178823
 11
7.4555029307
 21
1.7538178823
  0
LINE
  5
3E9
100
AcDbEntity
  8
0
100
AcDbLine
 62
7
  6
CONTINUOUS
 10
7.4556130803
 20
1.7538178823
 11
7.4556130803
 21
2.3638178823
  0
LINE
  5
3EA
100
AcDbEntity
  8
0
100
AcDbLine
 62
7
  6
CONTINUOUS
 10
7.4562662041
 20
1.7138178823
 11
7.4562662041
 21
1.6738178823
  0
LINE
  5
3EB
100
AcDbEntity
  8
0
100
AcDbLine
 62
7
  6
CONTINUOUS
 10
7.456816453
 20
3.0188178823
 11
7.456816453
 21
2.9688178823
  0
LINE
  5
3EC
100
AcDbEntity
  8
0
100
AcDbLine
 62
7
  6
CONTINUOUS
 10
7.4580971591
 20
2.3638178823
 11
7.4580971591
 21
2.4138178823
  0
LINE
  5
3ED
100
AcDbEntity
  8
0
100
AcDbLine
 62
7
  6
CONTINUOUS
 10
7.4592760401
 20
1.7588178823
 11
7.4592760401
 21
1.7488178823
  0
LINE
  5
3EE
100
AcDbEntity
  8
0
100
AcDbLine
 62
7
  6
CONTINUOUS
 10
7.4612024129
 20
2.3638178823
 11
7.4612024129
 21
2.4138178823
  0
LINE
  5
3EF
100
AcDbEntity
  8
0
100
AcDbLine
 62
7
  6
CONTINUOUS
 10
7.4615046404
 20
3.0188178823
 11
7.4615046404
 21
2.9688178823
  0
LINE
  5
3F0
100
AcDbEntity
  8
0
100
AcDbLine
 62
7
  6
CONTINUOUS
 10
7.4629060698
 20
2.9688178823
 11
7.4629060698
 21
3.0188178823
  0
LINE
  5
3F1
100
AcDbEntity
  8
0
100
AcDbLine
 62
7
  6
CONTINUOUS
 10
7.4675813644
 20
1.6738178823
 11
7.4675813644
 21
1.7138178823
  0
LINE
  5
3F2
100
AcDbEntity
  8
0
100
AcDbLine
 62
7
  6
CONTINUOUS
 10
7.4690123202
 20
2.3638178823
 11
7.4690123202
 21
2.4138178823
  0
LINE
  5
3F3
100
AcDbEntity
  8
0
100
AcDbLine
 62
7
  6
CONTINUOUS
 10
7.470599001
 20
1.7488178823
 11
7.470599001
 21
1.7588178823
  0
LINE
  5
3F4
100
AcDbEntity
  8
0
100
AcDbLine
 62
7
  6
CONTINUOUS
 10
7.4717019844
 20
2.3638178823
 11
7.4717019844
 21
2.4138178823
  0
LINE
  5
3F5
100
AcDbEntity
  8
0
100
AcDbLine
 62
7
  6
CONTINUOUS
 10
7.4725645448
 20
1.6738178823
 11
7.4725645448
 21
1.7138178823
  0
LINE
  5
3F6
100
AcDbEntity
  8
0
100
AcDbLine
 62
7
  6
CONTINUOUS
 10
7.4740390539
 20
1.7138178823
 11
7.4740390539
 21
1.6738178823
  0
LINE
  5
3F7
100
AcDbEntity
  8
0
100
AcDbLine
 62
7
  6
CONTINUOUS
 10
7.4741468362
 20
3.0188178823
 11
7.4741468362
 21
2.9688178823
  0
LINE
  5
3F8
100
AcDbEntity
  8
0
100
AcDbLine
 62
7
  6
CONTINUOUS
 10
7.4760646831
 20
1.7488178823
 11
7.4760646831
 21
1.7588178823
  0
LINE
  5
3F9
100
AcDbEntity
  8
0
100
AcDbLine
 62
7
  6
CONTINUOUS
 10
7.4783744231
 20
2.3638178823
 11
7.4783744231
 21
2.4138178823
  0
LINE
  5
3FA
100
AcDbEntity
  8
0
100
AcDbLine
 62
7
  6
CONTINUOUS
 10
7.4785865556
 20
3.0188178823
 11
7.4785865556
 21
2.9688178823
  0
LINE
  5
3FB
100
AcDbEntity
  8
0
100
AcDbLine
 62
7
  6
CONTINUOUS
 10
7.4793815339
 20
2.9688178823
 11
7.4793815339
 21
3.0188178823
  0
LINE
  5
3FC
100
AcDbEntity
  8
0
100
AcDbLine
 62
7
  6
CONTINUOUS
 10
7.4793858008
 20
1.7588178823
 11
7.4793858008
 21
1.7488178823
  0
LINE
  5
3FD
100
AcDbEntity
  8
0
100
AcDbLine
 62
7
  6
CONTINUOUS
 10
7.48063568
 20
2.3638178823
 11
7.48063568
 21
2.4138178823
  0
LINE
  5
3FE
100
AcDbEntity
  8
0
100
AcDbLine
 62
7
  6
CONTINUOUS
 10
7.4852924668
 20
1.6738178823
 11
7.4852924668
 21
1.7138178823
  0
LINE
  5
3FF
100
AcDbEntity
  8
0
100
AcDbLine
 62
7
  6
CONTINUOUS
 10
7.4861388529
 20
2.3638178823
 11
7.4861388529
 21
2.4138178823
  0
LINE
  5
400
100
AcDbEntity
  8
0
100
AcDbLine
 62
7
  6
CONTINUOUS
 10
7.4879609268
 20
2.3638178823
 11
7.4879609268
 21
2.4138178823
  0
LINE
  5
401
100
AcDbEntity
  8
0
100
AcDbLine
 62
7
  6
CONTINUOUS
 10
7.4900213284
 20
1.6738178823
 11
7.4900213284
 21
1.7138178823
  0
LINE
  5
402
100
AcDbEntity
  8
0
100
AcDbLine
 62
7
  6
CONTINUOUS
 10
7.4905227635
 20
3.0188178823
 11
7.4905227635
 21
2.9688178823
  0
LINE
  5
403
100
AcDbEntity
  8
0
100
AcDbLine
 62
7
  6
CONTINUOUS
 10
7.4907369834
 20
1.7488178823
 11
7.4907369834
 21
1.7588178823
  0
LINE
  5
404
100
AcDbEntity
  8
0
100
AcDbLine
 62
7
  6
CONTINUOUS
 10
7.4909048586
 20
1.7138178823
 11
7.4909048586
 21
1.6738178823
  0
LINE
  5
405
100
AcDbEntity
  8
0
100
AcDbLine
 62
7
  6
CONTINUOUS
 10
7.4922686088
 20
2.3638178823
 11
7.4922686088
 21
2.4138178823
  0
LINE
  5
406
100
AcDbEntity
  8
0
100
AcDbLine
 62
7
  6
CONTINUOUS
 10
7.4936428166
 20
2.3638178823
 11
7.4936428166
 21
2.4138178823
  0
LINE
  5
407
100
AcDbEntity
  8
0
100
AcDbLine
 62
7
  6
CONTINUOUS
 10
7.494701214
 20
3.0188178823
 11
7.494701214
 21
2.9688178823
  0
LINE
  5
408
100
AcDbEntity
  8
0
100
AcDbLine
 62
7
  6
CONTINUOUS
 10
7.494887449
 20
2.9688178823
 11
7.494887449
 21
3.0188178823
  0
LINE
  5
409
100
AcDbEntity
  8
0
100
AcDbLine
 62
7
  6
CONTINUOUS
 10
7.4960423253
 20
1.7488178823
 11
7.4960423253
 21
1.7588178823
  0
LINE
  5
40A
100
AcDbEntity
  8
0
100
AcDbLine
 62
7
  6
CONTINUOUS
 10
7.4967344795
 20
2.3638178823
 11
7.4967344795
 21
2.4138178823
  0
LINE
  5
40B
100
AcDbEntity
  8
0
100
AcDbLine
 62
7
  6
CONTINUOUS
 10
7.4976542725
 20
2.3638178823
 11
7.4976542725
 21
2.4138178823
  0
LINE
  5
40C
100
AcDbEntity
  8
0
100
AcDbLine
 62
7
  6
CONTINUOUS
 10
7.4989056249
 20
1.7588178823
 11
7.4989056249
 21
1.7488178823
  0
LINE
  5
40D
100
AcDbEntity
  8
0
100
AcDbLine
 62
7
  6
CONTINUOUS
 10
7.4995151832
 20
2.3638178823
 11
7.4995151832
 21
2.4138178823
  0
LINE
  5
40E
100
AcDbEntity
  8
0
100
AcDbLine
 62
7
  6
CONTINUOUS
 10
7.4999761781
 20
2.3638178823
 11
7.4999761781
 21
2.4138178823
  0
LINE
  5
40F
100
AcDbEntity
  8
0
100
AcDbLine
 62
7
  6
CONTINUOUS
 10
7.5005974686
 20
2.3638178823
 11
7.5005974686
 21
2.4138178823
  0
LINE
  5
410
100
AcDbEntity
  8
0
100
AcDbLine
 62
7
  6
CONTINUOUS
 10
7.5020656793
 20
1.6738178823
 11
7.5020656793
 21
1.7138178823
  0
LINE
  5
411
100
AcDbEntity
  8
0
100
AcDbLine
 62
7
  6
CONTINUOUS
 10
7.5058970186
 20
3.0188178823
 11
7.5058970186
 21
2.9688178823
  0
LINE
  5
412
100
AcDbEntity
  8
0
100
AcDbLine
 62
7
  6
CONTINUOUS
 10
7.5065272606
 20
1.6738178823
 11
7.5065272606
 21
1.7138178823
  0
LINE
  5
413
100
AcDbEntity
  8
0
100
AcDbLine
 62
7
  6
CONTINUOUS
 10
7.5068173903
 20
1.7138178823
 11
7.5068173903
 21
1.6738178823
  0
LINE
  5
414
100
AcDbEntity
  8
0
100
AcDbLine
 62
7
  6
CONTINUOUS
 10
7.5098021528
 20
3.0188178823
 11
7.5098021528
 21
2.9688178823
  0
LINE
  5
415
100
AcDbEntity
  8
0
100
AcDbLine
 62
7
  6
CONTINUOUS
 10
7.5102651155
 20
1.7488178823
 11
7.5102651155
 21
1.7588178823
  0
LINE
  5
416
100
AcDbEntity
  8
0
100
AcDbLine
 62
7
  6
CONTINUOUS
 10
7.5154008096
 20
1.748325045
 11
7.5154008096
 21
1.7588178823
  0
LINE
  5
417
100
AcDbEntity
  8
0
100
AcDbLine
 62
7
  6
CONTINUOUS
 10
7.517801268
 20
1.7588178823
 11
7.517801268
 21
1.7475052707
  0
LINE
  5
418
100
AcDbEntity
  8
0
100
AcDbLine
 62
7
  6
CONTINUOUS
 10
7.5178550276
 20
1.6738178823
 11
7.5178550276
 21
1.7138178823
  0
LINE
  5
419
100
AcDbEntity
  8
0
100
AcDbLine
 62
7
  6
CONTINUOUS
 10
7.5181130803
 20
1.7938178823
 11
7.5181130803
 21
1.7988178823
  0
LINE
  5
41A
100
AcDbEntity
  8
0
100
AcDbLine
 62
7
  6
CONTINUOUS
 10
7.5202252738
 20
3.0188178823
 11
7.5202252738
 21
2.9688178823
  0
LINE
  5
41B
100
AcDbEntity
  8
0
100
AcDbLine
 62
7
  6
CONTINUOUS
 10
7.5220370998
 20
1.6738178823
 11
7.5220370998
 21
1.7138178823
  0
LINE
  5
41C
100
AcDbEntity
  8
0
100
AcDbLine
 62
7
  6
CONTINUOUS
 10
7.523845832
 20
3.0188178823
 11
7.523845832
 21
2.9688178823
  0
LINE
  5
41D
100
AcDbEntity
  8
0
100
AcDbLine
 62
7
  6
CONTINUOUS
 10
7.5291491381
 20
1.7312078511
 11
7.5291491381
 21
1.7588178823
  0
LINE
  5
41E
100
AcDbEntity
  8
0
100
AcDbLine
 62
7
  6
CONTINUOUS
 10
7.5326172344
 20
1.6738178823
 11
7.5326172344
 21
1.7138178823
  0
LINE
  5
41F
100
AcDbEntity
  8
0
100
AcDbLine
 62
7
  6
CONTINUOUS
 10
7.5334662169
 20
3.0188178823
 11
7.5334662169
 21
2.9688178823
  0
LINE
  5
420
100
AcDbEntity
  8
0
100
AcDbLine
 62
7
  6
CONTINUOUS
 10
7.5341061747
 20
1.7246323254
 11
7.5341061747
 21
1.7588178823
  0
LINE
  5
421
100
AcDbEntity
  8
0
100
AcDbLine
 62
7
  6
CONTINUOUS
 10
7.5360395807
 20
1.7588178823
 11
7.5360395807
 21
1.7227597076
  0
LINE
  5
422
100
AcDbEntity
  8
0
100
AcDbLine
 62
7
  6
CONTINUOUS
 10
7.5365083346
 20
1.6738178823
 11
7.5365083346
 21
1.7138178823
  0
LINE
  5
423
100
AcDbEntity
  8
0
100
AcDbLine
 62
7
  6
CONTINUOUS
 10
7.5367917602
 20
3.0188178823
 11
7.5367917602
 21
2.9688178823
  0
LINE
  5
424
100
AcDbEntity
  8
0
100
AcDbLine
 62
7
  6
CONTINUOUS
 10
7.5455816708
 20
3.0188178823
 11
7.5455816708
 21
2.9688178823
  0
LINE
  5
425
100
AcDbEntity
  8
0
100
AcDbLine
 62
7
  6
CONTINUOUS
 10
7.5463118373
 20
1.6738178823
 11
7.5463118373
 21
1.7138178823
  0
LINE
  5
426
100
AcDbEntity
  8
0
100
AcDbLine
 62
7
  6
CONTINUOUS
 10
7.5473559223
 20
1.7188178823
 11
7.5473559223
 21
1.7588178823
  0
LINE
  5
427
100
AcDbEntity
  8
0
100
AcDbLine
 62
7
  6
CONTINUOUS
 10
7.5486026108
 20
3.0188178823
 11
7.5486026108
 21
2.9688178823
  0
LINE
  5
428
100
AcDbEntity
  8
0
100
AcDbLine
 62
7
  6
CONTINUOUS
 10
7.5493630803
 20
1.7988178823
 11
7.5493630803
 21
2.9688178823
  0
LINE
  5
429
100
AcDbEntity
  8
0
100
AcDbLine
 62
7
  6
CONTINUOUS
 10
7.5499013004
 20
1.6738178823
 11
7.5499013004
 21
1.7138178823
  0
LINE
  5
42A
100
AcDbEntity
  8
0
100
AcDbLine
 62
7
  6
CONTINUOUS
 10
7.5521256051
 20
1.7188178823
 11
7.5521256051
 21
1.7588178823
  0
LINE
  5
42B
100
AcDbEntity
  8
0
100
AcDbLine
 62
7
  6
CONTINUOUS
 10
7.5535885668
 20
1.7588178823
 11
7.5535885668
 21
1.7188178823
  0
LINE
  5
42C
100
AcDbEntity
  8
0
100
AcDbLine
 62
7
  6
CONTINUOUS
 10
7.5565367036
 20
3.0188178823
 11
7.5565367036
 21
2.9688178823
  0
LINE
  5
42D
100
AcDbEntity
  8
0
100
AcDbLine
 62
7
  6
CONTINUOUS
 10
7.5589013004
 20
1.6738178823
 11
7.5589013004
 21
1.7138178823
  0
LINE
  5
42E
100
AcDbEntity
  8
0
100
AcDbLine
 62
7
  6
CONTINUOUS
 10
7.5592443301
 20
3.0188178823
 11
7.5592443301
 21
2.9688178823
  0
LINE
  5
42F
100
AcDbEntity
  8
0
100
AcDbLine
 62
7
  6
CONTINUOUS
 10
7.5621792879
 20
1.6738178823
 11
7.5621792879
 21
1.7138178823
  0
LINE
  5
430
100
AcDbEntity
  8
0
100
AcDbLine
 62
7
  6
CONTINUOUS
 10
7.5648535272
 20
1.7188178823
 11
7.5648535272
 21
1.7588178823
  0
LINE
  5
431
100
AcDbEntity
  8
0
100
AcDbLine
 62
7
  6
CONTINUOUS
 10
7.5662997291
 20
3.0188178823
 11
7.5662997291
 21
2.9688178823
  0
LINE
  5
432
100
AcDbEntity
  8
0
100
AcDbLine
 62
7
  6
CONTINUOUS
 10
7.5686862353
 20
3.0188178823
 11
7.5686862353
 21
2.9688178823
  0
LINE
  5
433
100
AcDbEntity
  8
0
100
AcDbLine
 62
7
  6
CONTINUOUS
 10
7.5694274886
 20
1.7188178823
 11
7.5694274886
 21
1.7588178823
  0
LINE
  5
434
100
AcDbEntity
  8
0
100
AcDbLine
 62
7
  6
CONTINUOUS
 10
7.5703511169
 20
1.6738178823
 11
7.5703511169
 21
1.7138178823
  0
LINE
  5
435
100
AcDbEntity
  8
0
100
AcDbLine
 62
7
  6
CONTINUOUS
 10
7.5704174394
 20
1.7588178823
 11
7.5704174394
 21
1.7188178823
  0
LINE
  5
436
100
AcDbEntity
  8
0
100
AcDbLine
 62
7
  6
CONTINUOUS
 10
7.5733086441
 20
1.6738178823
 11
7.5733086441
 21
1.7138178823
  0
LINE
  5
437
100
AcDbEntity
  8
0
100
AcDbLine
 62
7
  6
CONTINUOUS
 10
7.5748425979
 20
3.0188178823
 11
7.5748425979
 21
2.9688178823
  0
LINE
  5
438
100
AcDbEntity
  8
0
100
AcDbLine
 62
7
  6
CONTINUOUS
 10
7.576901103
 20
3.0188178823
 11
7.576901103
 21
2.9688178823
  0
LINE
  5
439
100
AcDbEntity
  8
0
100
AcDbLine
 62
7
  6
CONTINUOUS
 10
7.5806299037
 20
1.6738178823
 11
7.5806299037
 21
1.7138178823
  0
LINE
  5
43A
100
AcDbEntity
  8
0
100
AcDbLine
 62
7
  6
CONTINUOUS
 10
7.581611256
 20
1.7188178823
 11
7.581611256
 21
1.7588178823
  0
LINE
  5
43B
100
AcDbEntity
  8
0
100
AcDbLine
 62
7
  6
CONTINUOUS
 10
7.5821406787
 20
3.0188178823
 11
7.5821406787
 21
2.9688178823
  0
LINE
  5
43C
100
AcDbEntity
  8
0
100
AcDbLine
 62
7
  6
CONTINUOUS
 10
7.5832588642
 20
1.6738178823
 11
7.5832588642
 21
1.7138178823
  0
LINE
  5
43D
100
AcDbEntity
  8
0
100
AcDbLine
 62
7
  6
CONTINUOUS
 10
7.5838652474
 20
3.0188178823
 11
7.5838652474
 21
2.9688178823
  0
LINE
  5
43E
100
AcDbEntity
  8
0
100
AcDbLine
 62
7
  6
CONTINUOUS
 10
7.5859814717
 20
1.7188178823
 11
7.5859814717
 21
1.7588178823
  0
LINE
  5
43F
100
AcDbEntity
  8
0
100
AcDbLine
 62
7
  6
CONTINUOUS
 10
7.5864966749
 20
1.7588178823
 11
7.5864966749
 21
1.7188178823
  0
LINE
  5
440
100
AcDbEntity
  8
0
100
AcDbLine
 62
7
  6
CONTINUOUS
 10
7.5881729294
 20
3.0188178823
 11
7.5881729294
 21
2.9688178823
  0
LINE
  5
441
100
AcDbEntity
  8
0
100
AcDbLine
 62
7
  6
CONTINUOUS
 10
7.5895585893
 20
3.0188178823
 11
7.5895585893
 21
2.9688178823
  0
LINE
  5
442
100
AcDbEntity
  8
0
100
AcDbLine
 62
7
  6
CONTINUOUS
 10
7.5897094873
 20
1.6738178823
 11
7.5897094873
 21
1.7138178823
  0
LINE
  5
443
100
AcDbEntity
  8
0
100
AcDbLine
 62
7
  6
CONTINUOUS
 10
7.5920026752
 20
1.6738178823
 11
7.5920026752
 21
1.7138178823
  0
LINE
  5
444
100
AcDbEntity
  8
0
100
AcDbLine
 62
7
  6
CONTINUOUS
 10
7.5929219573
 20
3.0188178823
 11
7.5929219573
 21
2.9688178823
  0
LINE
  5
445
100
AcDbEntity
  8
ALL_FEATURES
100
AcDbLine
 62
7
  6
CONTINUOUS
 10
7.5931130803
 20
1.6238178823
 11
7.5931130803
 21
1.6738178823
  0
LINE
  5
446
100
AcDbEntity
  8
0
100
AcDbLine
 62
7
  6
CONTINUOUS
 10
7.5939647132
 20
3.0188178823
 11
7.5939647132
 21
2.9688178823
  0
LINE
  5
447
100
AcDbEntity
  8
0
100
AcDbLine
 62
7
  6
CONTINUOUS
 10
7.5963740697
 20
3.0188178823
 11
7.5963740697
 21
2.9688178823
  0
LINE
  5
448
100
AcDbEntity
  8
0
100
AcDbLine
 62
7
  6
CONTINUOUS
 10
7.5970709151
 20
3.0188178823
 11
7.5970709151
 21
2.9688178823
  0
LINE
  5
449
100
AcDbEntity
  8
0
100
AcDbLine
 62
7
  6
CONTINUOUS
 10
7.5975649811
 20
1.6738178823
 11
7.5975649811
 21
1.7138178823
  0
LINE
  5
44A
100
AcDbEntity
  8
0
100
AcDbLine
 62
7
  6
CONTINUOUS
 10
7.5975997101
 20
1.7188178823
 11
7.5975997101
 21
1.7588178823
  0
LINE
  5
44B
100
AcDbEntity
  8
0
100
AcDbLine
 62
7
  6
CONTINUOUS
 10
7.5985193134
 20
3.0188178823
 11
7.5985193134
 21
2.9688178823
  0
LINE
  5
44C
100
AcDbEntity
  8
0
100
AcDbLine
 62
7
  6
CONTINUOUS
 10
7.5988682391
 20
3.0188178823
 11
7.5988682391
 21
2.9688178823
  0
LINE
  5
44D
100
AcDbEntity
  8
0
100
AcDbLine
 62
7
  6
CONTINUOUS
 10
7.599351503
 20
3.0188178823
 11
7.599351503
 21
2.9688178823
  0
LINE
  5
44E
100
AcDbEntity
  8
0
100
AcDbLine
 62
7
  6
CONTINUOUS
 10
7.5995161111
 20
1.6738178823
 11
7.5995161111
 21
1.7138178823
  0
LINE
  5
44F
100
AcDbEntity
  8
0
100
AcDbLine
 62
7
  6
CONTINUOUS
 10
7.6017585131
 20
1.7188178823
 11
7.6017585131
 21
1.7588178823
  0
LINE
  5
450
100
AcDbEntity
  8
0
100
AcDbLine
 62
7
  6
CONTINUOUS
 10
7.6041748539
 20
1.6738178823
 11
7.6041748539
 21
1.7138178823
  0
LINE
  5
451
100
AcDbEntity
  8
0
100
AcDbLine
 62
7
  6
CONTINUOUS
 10
7.605778578
 20
1.6738178823
 11
7.605778578
 21
1.7138178823
  0
LINE
  5
452
100
AcDbEntity
  8
0
100
AcDbLine
 62
7
  6
CONTINUOUS
 10
7.6095209884
 20
1.6738178823
 11
7.6095209884
 21
1.7138178823
  0
LINE
  5
453
100
AcDbEntity
  8
0
100
AcDbLine
 62
7
  6
CONTINUOUS
 10
7.6107729109
 20
1.6738178823
 11
7.6107729109
 21
1.7138178823
  0
LINE
  5
454
100
AcDbEntity
  8
0
100
AcDbLine
 62
7
  6
CONTINUOUS
 10
7.6127908401
 20
1.7188178823
 11
7.6127908401
 21
1.7588178823
  0
LINE
  5
455
100
AcDbEntity
  8
0
100
AcDbLine
 62
7
  6
CONTINUOUS
 10
7.6135887313
 20
1.6738178823
 11
7.6135887313
 21
1.7138178823
  0
LINE
  5
456
100
AcDbEntity
  8
0
100
AcDbLine
 62
7
  6
CONTINUOUS
 10
7.6144854207
 20
1.6738178823
 11
7.6144854207
 21
1.7138178823
  0
LINE
  5
457
100
AcDbEntity
  8
0
100
AcDbLine
 62
7
  6
CONTINUOUS
 10
7.6163669331
 20
1.6738178823
 11
7.6163669331
 21
1.7138178823
  0
LINE
  5
458
100
AcDbEntity
  8
0
100
AcDbLine
 62
7
  6
CONTINUOUS
 10
7.6167309347
 20
1.7188178823
 11
7.6167309347
 21
1.7588178823
  0
LINE
  5
459
100
AcDbEntity
  8
0
100
AcDbLine
 62
7
  6
CONTINUOUS
 10
7.6169059318
 20
1.6738178823
 11
7.6169059318
 21
1.7138178823
  0
LINE
  5
45A
100
AcDbEntity
  8
0
100
AcDbLine
 62
7
  6
CONTINUOUS
 10
7.617847979
 20
1.6738178823
 11
7.617847979
 21
1.7138178823
  0
LINE
  5
45B
100
AcDbEntity
  8
0
100
AcDbLine
 62
7
  6
CONTINUOUS
 10
7.6180278095
 20
1.6738178823
 11
7.6180278095
 21
1.7138178823
  0
LINE
  5
45C
100
AcDbEntity
  8
ALL_FEATURES
100
AcDbLine
 62
7
  6
CONTINUOUS
 10
7.6181130803
 20
1.5588178823
 11
7.6181130803
 21
1.5988178823
  0
LINE
  5
45D
100
AcDbEntity
  8
0
100
AcDbLine
 62
7
  6
CONTINUOUS
 10
7.6271579958
 20
1.7188178823
 11
7.6271579958
 21
1.7588178823
  0
LINE
  5
45E
100
AcDbEntity
  8
0
100
AcDbLine
 62
7
  6
CONTINUOUS
 10
7.6308724695
 20
1.7188178823
 11
7.6308724695
 21
1.7588178823
  0
LINE
  5
45F
100
AcDbEntity
  8
0
100
AcDbLine
 62
7
  6
CONTINUOUS
 10
7.6406759722
 20
1.7188178823
 11
7.6406759722
 21
1.7588178823
  0
LINE
  5
460
100
AcDbEntity
  8
0
100
AcDbLine
 62
7
  6
CONTINUOUS
 10
7.6441583087
 20
1.7188178823
 11
7.6441583087
 21
1.7588178823
  0
LINE
  5
461
100
AcDbEntity
  8
0
100
AcDbLine
 62
7
  6
CONTINUOUS
 10
7.6533210542
 20
1.7188178823
 11
7.6533210542
 21
1.7588178823
  0
LINE
  5
462
100
AcDbEntity
  8
0
100
AcDbLine
 62
7
  6
CONTINUOUS
 10
7.6565651443
 20
1.7188178823
 11
7.6565651443
 21
1.7588178823
  0
LINE
  5
463
100
AcDbEntity
  8
0
100
AcDbLine
 62
7
  6
CONTINUOUS
 10
7.665071058
 20
1.7188178823
 11
7.665071058
 21
1.7588178823
  0
LINE
  5
464
100
AcDbEntity
  8
0
100
AcDbLine
 62
7
  6
CONTINUOUS
 10
7.6680712104
 20
1.7188178823
 11
7.6680712104
 21
1.7588178823
  0
LINE
  5
465
100
AcDbEntity
  8
0
100
AcDbLine
 62
7
  6
CONTINUOUS
 10
7.6759053702
 20
1.7188178823
 11
7.6759053702
 21
1.7588178823
  0
LINE
  5
466
100
AcDbEntity
  8
0
100
AcDbLine
 62
7
  6
CONTINUOUS
 10
7.6786563217
 20
1.7188178823
 11
7.6786563217
 21
1.7588178823
  0
LINE
  5
467
100
AcDbEntity
  8
0
100
AcDbLine
 62
7
  6
CONTINUOUS
 10
7.6858049837
 20
1.7188178823
 11
7.6858049837
 21
1.7588178823
  0
LINE
  5
468
100
AcDbEntity
  8
0
100
AcDbLine
 62
7
  6
CONTINUOUS
 10
7.6883019081
 20
1.7188178823
 11
7.6883019081
 21
1.7588178823
  0
LINE
  5
469
100
AcDbEntity
  8
0
100
AcDbLine
 62
7
  6
CONTINUOUS
 10
7.6947525312
 20
1.7188178823
 11
7.6947525312
 21
1.7588178823
  0
LINE
  5
46A
100
AcDbEntity
  8
0
100
AcDbLine
 62
7
  6
CONTINUOUS
 10
7.696991048
 20
1.7188178823
 11
7.696991048
 21
1.7588178823
  0
LINE
  5
46B
100
AcDbEntity
  8
0
100
AcDbLine
 62
7
  6
CONTINUOUS
 10
7.7027323156
 20
1.7188178823
 11
7.7027323156
 21
1.7588178823
  0
LINE
  5
46C
100
AcDbEntity
  8
0
100
AcDbLine
 62
7
  6
CONTINUOUS
 10
7.7047084978
 20
1.7188178823
 11
7.7047084978
 21
1.7588178823
  0
LINE
  5
46D
100
AcDbEntity
  8
ALL_FEATURES
100
AcDbLine
 62
7
  6
CONTINUOUS
 10
7.7056130803
 20
1.6238178823
 11
7.7056130803
 21
1.7188178823
  0
LINE
  5
46E
100
AcDbEntity
  8
0
100
AcDbLine
 62
7
  6
CONTINUOUS
 10
7.7097303377
 20
1.7188178823
 11
7.7097303377
 21
1.7588178823
  0
LINE
  5
46F
100
AcDbEntity
  8
0
100
AcDbLine
 62
7
  6
CONTINUOUS
 10
7.7114407184
 20
1.7188178823
 11
7.7114407184
 21
1.7588178823
  0
LINE
  5
470
100
AcDbEntity
  8
0
100
AcDbLine
 62
7
  6
CONTINUOUS
 10
7.7157343207
 20
1.7188178823
 11
7.7157343207
 21
1.7588178823
  0
LINE
  5
471
100
AcDbEntity
  8
0
100
AcDbLine
 62
7
  6
CONTINUOUS
 10
7.7171758992
 20
1.7188178823
 11
7.7171758992
 21
1.7588178823
  0
LINE
  5
472
100
AcDbEntity
  8
0
100
AcDbLine
 62
7
  6
CONTINUOUS
 10
7.7207337313
 20
1.7188178823
 11
7.7207337313
 21
1.7588178823
  0
LINE
  5
473
100
AcDbEntity
  8
0
100
AcDbLine
 62
7
  6
CONTINUOUS
 10
7.7219039788
 20
1.7188178823
 11
7.7219039788
 21
1.7588178823
  0
LINE
  5
474
100
AcDbEntity
  8
0
100
AcDbLine
 62
7
  6
CONTINUOUS
 10
7.7247197991
 20
1.7188178823
 11
7.7247197991
 21
1.7588178823
  0
LINE
  5
475
100
AcDbEntity
  8
0
100
AcDbLine
 62
7
  6
CONTINUOUS
 10
7.7256166624
 20
1.7188178823
 11
7.7256166624
 21
1.7588178823
  0
LINE
  5
476
100
AcDbEntity
  8
0
100
AcDbLine
 62
7
  6
CONTINUOUS
 10
7.7276855311
 20
1.7188178823
 11
7.7276855311
 21
1.7588178823
  0
LINE
  5
477
100
AcDbEntity
  8
0
100
AcDbLine
 62
7
  6
CONTINUOUS
 10
7.7283074368
 20
1.7188178823
 11
7.7283074368
 21
1.7588178823
  0
LINE
  5
478
100
AcDbEntity
  8
0
100
AcDbLine
 62
7
  6
CONTINUOUS
 10
7.7296257244
 20
1.7188178823
 11
7.7296257244
 21
1.7588178823
  0
LINE
  5
479
100
AcDbEntity
  8
0
100
AcDbLine
 62
7
  6
CONTINUOUS
 10
7.7299715815
 20
1.7188178823
 11
7.7299715815
 21
1.7588178823
  0
LINE
  5
47A
100
AcDbEntity
  8
0
100
AcDbLine
 62
7
  6
CONTINUOUS
 10
7.7305369752
 20
1.7188178823
 11
7.7305369752
 21
1.7588178823
  0
LINE
  5
47B
100
AcDbEntity
  8
ALL_FEATURES
100
AcDbLine
 62
7
  6
CONTINUOUS
 10
7.7306130803
 20
1.5588178823
 11
7.7306130803
 21
1.5988178823
  0
LINE
  5
47C
100
AcDbEntity
  8
ALL_FEATURES
100
AcDbLine
 62
7
  6
CONTINUOUS
 10
6.5556130803
 20
1.5988178823
 11
6.5806130803
 21
1.6238178823
  0
LINE
  5
47D
100
AcDbEntity
  8
ALL_FEATURES
100
AcDbLine
 62
7
  6
CONTINUOUS
 10
6.6681130803
 20
1.5988178823
 11
6.6931130803
 21
1.6238178823
  0
ARC
  5
47E
100
AcDbEntity
  8
ALL_FEATURES
100
AcDbCircle
 62
7
  6
CONTINUOUS
 10
5.3616130803
 20
5.3408178823
 40
2.00025
100
AcDbArc
 50
0.0
 51
180.0
  0
ARC
  5
47F
100
AcDbEntity
  8
ALL_FEATURES
100
AcDbCircle
 62
7
  6
CONTINUOUS
 10
5.3616130803
 20
5.3408178823
 40
1.56275
100
AcDbArc
 50
0.0
 51
180.0
  0
ARC
  5
480
100
AcDbEntity
  8
ALL_ASSEMBLY_MEMBERS
100
AcDbCircle
 62
7
  6
CONTINUOUS
 10
3.3576130803
 20
4.5913178823
 40
0.03
100
AcDbArc
 50
92.0467130977
 51
270.0
  0
ARC
  5
481
100
AcDbEntity
  8
ALL_ASSEMBLY_MEMBERS
100
AcDbCircle
 62
7
  6
CONTINUOUS
 10
3.3576130803
 20
4.9363178823
 40
0.03
100
AcDbArc
 50
90.0
 51
267.6119845367
  0
ARC
  5
482
100
AcDbEntity
  8
ALL_ASSEMBLY_MEMBERS
100
AcDbCircle
 62
7
  6
CONTINUOUS
 10
3.8026130803
 20
4.5913178823
 40
0.03
100
AcDbArc
 50
270.0
 51
87.9532869023
  0
ARC
  5
483
100
AcDbEntity
  8
ALL_ASSEMBLY_MEMBERS
100
AcDbCircle
 62
7
  6
CONTINUOUS
 10
3.8026130803
 20
4.9363178823
 40
0.03
100
AcDbArc
 50
272.3880154633
 51
90.0
  0
ARC
  5
484
100
AcDbEntity
  8
ALL_ASSEMBLY_MEMBERS
100
AcDbCircle
 62
7
  6
CONTINUOUS
 10
3.8038630803
 20
4.6262955538
 40
0.005
100
AcDbArc
 50
180.0
 51
267.9532869023
  0
ARC
  5
485
100
AcDbEntity
  8
ALL_ASSEMBLY_MEMBERS
100
AcDbCircle
 62
7
  6
CONTINUOUS
 10
3.3563630803
 20
4.6262955538
 40
0.005
100
AcDbArc
 50
272.0467130977
 51
360.0
  0
ARC
  5
486
100
AcDbEntity
  8
ALL_ASSEMBLY_MEMBERS
100
AcDbCircle
 62
7
  6
CONTINUOUS
 10
3.8038630803
 20
4.9013439353
 40
0.005
100
AcDbArc
 50
90.0
 51
180.0
  0
ARC
  5
487
100
AcDbEntity
  8
ALL_ASSEMBLY_MEMBERS
100
AcDbCircle
 62
7
  6
CONTINUOUS
 10
3.3563630803
 20
4.9013439353
 40
0.005
100
AcDbArc
 50
0.0
 51
90.0
  0
ARC
  5
488
100
AcDbEntity
  8
ALL_FEATURES
100
AcDbCircle
 62
7
  6
CONTINUOUS
 10
6.6016661202
 20
1.8088178823
 40
0.05
100
AcDbArc
 50
274.1675715833
 51
332.5135737496
  0
ARC
  5
489
100
AcDbEntity
  8
ALL_FEATURES
100
AcDbCircle
 62
7
  6
CONTINUOUS
 10
6.7268630803
 20
1.7488178823
 40
0.035
100
AcDbArc
 50
274.8361597918
 51
342.5423968763
  0
ARC
  5
48A
100
AcDbEntity
  8
ALL_FEATURES
100
AcDbCircle
 62
7
  6
CONTINUOUS
 10
6.6486130803
 20
1.5755678823
 40
0.02575
100
AcDbArc
 50
220.633514965
 51
270.0
  0
ARC
  5
48B
100
AcDbEntity
  8
ALL_FEATURES
100
AcDbCircle
 62
7
  6
CONTINUOUS
 10
6.7221130803
 20
1.5663178823
 40
0.0175
100
AcDbArc
 50
205.4041106408
 51
270.0
  0
ARC
  5
48C
100
AcDbEntity
  8
0
100
AcDbCircle
 62
7
  6
CONTINUOUS
 10
6.7745600404
 20
1.7338178823
 40
0.015
100
AcDbArc
 50
90.0
 51
162.5423968763
  0
ARC
  5
48D
100
AcDbEntity
  8
0
100
AcDbCircle
 62
7
  6
CONTINUOUS
 10
6.6593289332
 20
1.7788178823
 40
0.015
100
AcDbArc
 50
90.0
 51
152.5135737496
  0
ARC
  5
48E
100
AcDbEntity
  8
0
100
AcDbCircle
 62
7
  6
CONTINUOUS
 10
6.7037519357
 20
3.1788178823
 40
0.16
100
AcDbArc
 50
272.2225497986
 51
319.9947991151
  0
ARC
  5
48F
100
AcDbEntity
  8
0
100
AcDbCircle
 62
7
  6
CONTINUOUS
 10
6.7973599048
 20
2.5388178823
 40
0.125
100
AcDbArc
 50
272.9362112088
 51
326.3876254015
  0
ARC
  5
490
100
AcDbEntity
  8
ALL_FEATURES
100
AcDbCircle
 62
7
  6
CONTINUOUS
 10
6.9893630803
 20
2.6968178823
 40
0.03
100
AcDbArc
 50
90.0
 51
262.8192442185
  0
ARC
  5
491
100
AcDbEntity
  8
0
100
AcDbCircle
 62
7
  6
CONTINUOUS
 10
6.913952143
 20
2.4613178823
 40
0.015
100
AcDbArc
 50
90.0
 51
146.3876254015
  0
ARC
  5
492
100
AcDbEntity
  8
0
100
AcDbCircle
 62
7
  6
CONTINUOUS
 10
6.9581130803
 20
2.5363178823
 40
0.015
100
AcDbArc
 50
90.0
 51
180.0
  0
ARC
  5
493
100
AcDbEntity
  8
0
100
AcDbCircle
 62
7
  6
CONTINUOUS
 10
6.9281130803
 20
2.4913178823
 40
0.015
100
AcDbArc
 50
270.0
 51
360.0
  0
ARC
  5
494
100
AcDbEntity
  8
0
100
AcDbCircle
 62
7
  6
CONTINUOUS
 10
6.8377995019
 20
3.0663178823
 40
0.015
100
AcDbArc
 50
90.0
 51
139.9947991116
  0
ARC
  5
495
100
AcDbEntity
  8
0
100
AcDbCircle
 62
7
  6
CONTINUOUS
 10
6.8468630803
 20
3.0963178823
 40
0.015
100
AcDbArc
 50
270.0000000001
 51
360.0
  0
ARC
  5
496
100
AcDbEntity
  8
0
100
AcDbCircle
 62
7
  6
CONTINUOUS
 10
6.8768630803
 20
3.1413178823
 40
0.015
100
AcDbArc
 50
90.0
 51
180.0
  0
ARC
  5
497
100
AcDbEntity
  8
0
100
AcDbCircle
 62
7
  6
CONTINUOUS
 10
7.0356130803
 20
2.7368178823
 40
0.01
100
AcDbArc
 50
270.0
 51
360.0
  0
ARC
  5
498
100
AcDbEntity
  8
0
100
AcDbCircle
 62
7
  6
CONTINUOUS
 10
6.9843630803
 20
2.6571316127
 40
0.01
100
AcDbArc
 50
0.0
 51
82.8192442185
  0
ARC
  5
499
100
AcDbEntity
  8
ALL_FEATURES
100
AcDbCircle
 62
7
  6
CONTINUOUS
 10
7.6845600404
 20
1.8088178823
 40
0.05
100
AcDbArc
 50
207.4864262504
 51
261.6648568334
  0
ARC
  5
49A
100
AcDbEntity
  8
ALL_FEATURES
100
AcDbCircle
 62
7
  6
CONTINUOUS
 10
7.5593630803
 20
1.7488178823
 40
0.035
100
AcDbArc
 50
197.4576031237
 51
265.1638402082
  0
ARC
  5
49B
100
AcDbEntity
  8
ALL_FEATURES
100
AcDbCircle
 62
7
  6
CONTINUOUS
 10
7.6376130803
 20
1.5755678823
 40
0.02575
100
AcDbArc
 50
270.0
 51
319.366485035
  0
ARC
  5
49C
100
AcDbEntity
  8
ALL_FEATURES
100
AcDbCircle
 62
7
  6
CONTINUOUS
 10
7.5641130803
 20
1.5663178823
 40
0.0175
100
AcDbArc
 50
270.0
 51
334.5958893592
  0
ARC
  5
49D
100
AcDbEntity
  8
0
100
AcDbCircle
 62
7
  6
CONTINUOUS
 10
7.5116661202
 20
1.7338178823
 40
0.015
100
AcDbArc
 50
17.4576031237
 51
90.0
  0
ARC
  5
49E
100
AcDbEntity
  8
0
100
AcDbCircle
 62
7
  6
CONTINUOUS
 10
7.6268972274
 20
1.7788178823
 40
0.015
100
AcDbArc
 50
27.4864262504
 51
90.0
  0
CIRCLE
  5
49F
100
AcDbEntity
  8
ALL_FEATURES
100
AcDbCircle
 62
7
  6
CONTINUOUS
 10
7.1431130803
 20
2.9243178823
 40
0.19125
  0
CIRCLE
  5
4A0
100
AcDbEntity
  8
ALL_FEATURES
100
AcDbCircle
 62
7
  6
CONTINUOUS
 10
7.1431130803
 20
2.9243178823
 40
0.16125
  0
ARC
  5
4A1
100
AcDbEntity
  8
0
100
AcDbCircle
 62
7
  6
CONTINUOUS
 10
7.5824742249
 20
3.1788178823
 40
0.16
100
AcDbArc
 50
220.0052008849
 51
267.2683291556
  0
ARC
  5
4A2
100
AcDbEntity
  8
0
100
AcDbCircle
 62
7
  6
CONTINUOUS
 10
7.4888662558
 20
2.5388178823
 40
0.125
100
AcDbArc
 50
213.6123745985
 51
267.5079940022
  0
ARC
  5
4A3
100
AcDbEntity
  8
ALL_FEATURES
100
AcDbCircle
 62
7
  6
CONTINUOUS
 10
7.2968630803
 20
2.6968178823
 40
0.03
100
AcDbArc
 50
277.1807557815
 51
90.0
  0
ARC
  5
4A4
100
AcDbEntity
  8
0
100
AcDbCircle
 62
7
  6
CONTINUOUS
 10
7.3722740176
 20
2.4613178823
 40
0.015
100
AcDbArc
 50
33.6123745985
 51
90.0
  0
ARC
  5
4A5
100
AcDbEntity
  8
0
100
AcDbCircle
 62
7
  6
CONTINUOUS
 10
7.3281130803
 20
2.5363178823
 40
0.015
100
AcDbArc
 50
0.0
 51
90.0
  0
ARC
  5
4A6
100
AcDbEntity
  8
0
100
AcDbCircle
 62
7
  6
CONTINUOUS
 10
7.3581130803
 20
2.4913178823
 40
0.015
100
AcDbArc
 50
180.0
 51
270.0
  0
ARC
  5
4A7
100
AcDbEntity
  8
0
100
AcDbCircle
 62
7
  6
CONTINUOUS
 10
7.4484266587
 20
3.0663178823
 40
0.015
100
AcDbArc
 50
40.0052008884
 51
90.0
  0
ARC
  5
4A8
100
AcDbEntity
  8
0
100
AcDbCircle
 62
7
  6
CONTINUOUS
 10
7.4393630803
 20
3.0963178823
 40
0.015
100
AcDbArc
 50
180.0
 51
269.9999999999
  0
ARC
  5
4A9
100
AcDbEntity
  8
0
100
AcDbCircle
 62
7
  6
CONTINUOUS
 10
7.4093630803
 20
3.1413178823
 40
0.015
100
AcDbArc
 50
0.0
 51
90.0
  0
ARC
  5
4AA
100
AcDbEntity
  8
0
100
AcDbCircle
 62
7
  6
CONTINUOUS
 10
7.2506130803
 20
2.7368178823
 40
0.01
100
AcDbArc
 50
180.0
 51
270.0
  0
ARC
  5
4AB
100
AcDbEntity
  8
0
100
AcDbCircle
 62
7
  6
CONTINUOUS
 10
7.3018630803
 20
2.6571316127
 40
0.01
100
AcDbArc
 50
97.1807557815
 51
180.0
  0
ENDSEC
  0
SECTION
  2
OBJECTS
  0
DICTIONARY
  5
C
100
AcDbDictionary
280
0
281
1
  3
ACAD_GROUP
350
D
  3
ACAD_MLINESTYLE
350
17
  3
ACAD_LAYOUT
350
1A
  3
ACAD_PLOTSETTINGS
350
19
  3
ACAD_PLOTSTYLENAME
350
E
  0
DICTIONARY
  5
D
102
{ACAD_REACTORS
330
C
102
}
100
AcDbDictionary
280
0
281
1
  0
ACDBDICTIONARYWDFLT
  5
E
102
{ACAD_REACTORS
330
C
102
}
100
AcDbDictionary
281
1
  3
Normal
350
F
100
AcDbDictionaryWithDefault
340
F
  0
DICTIONARY
  5
17
102
{ACAD_REACTORS
330
C
102
}
100
AcDbDictionary
280
0
281
1
  3
Standard
350
18
  0
DICTIONARY
  5
19
102
{ACAD_REACTORS
330
C
102
}
100
AcDbDictionary
281
1
  0
DICTIONARY
  5
1A
102
{ACAD_REACTORS
330
C
102
}
100
AcDbDictionary
281
1
  3
Model
350
4AC
  3
Layout1
350
4AD
  0
ACDBPLACEHOLDER
  5
F
102
{ACAD_REACTORS
330
E
102
}
  0
MLINESTYLE
  5
18
102
{ACAD_REACTORS
330
17
102
}
100
AcDbMlineStyle
  2
STANDARD
 70
0
  3

 62
256
 51
90.0
 52
90.0
 71
2
 49
0.5
 62
256
  6
BYLAYER
 49
-0.5
 62
256
  6
BYLAYER
  0
LAYOUT
  5
4AC
102
{ACAD_REACTORS
330
1A
102
}
100
AcDbPlotSettings
  1

  2
none_device
  4
ANSI_A_(11.00_x_8.50_Inches)
  6

 40
0.0
 41
0.0
 42
0.0
 43
0.0
 44
279.4
 45
215.9
 46
0.0
 47
0.0
 48
0.0
 49
0.0
140
0.0
141
0.0
142
1.0
143
1.0
 70
1024
 72
0
 73
0
 74
0
  7

 75
0
147
1.0
148
0.0
149
0.0
100
AcDbLayout
  1
Model
 70
0
 71
0
 10
0.0
 20
0.0
 11
11.0
 21
8.5
 12
0.0
 22
0.0
 32
0.0
 14
0.0
 24
0.0
 34
0.0
 15
0.0
 25
0.0
 35
0.0
146
0.0
 13
0.0
 23
0.0
 33
0.0
 16
1.0
 26
0.0
 36
0.0
 17
0.0
 27
1.0
 37
0.0
 76
0
330
21C
345
0
346
0
  0
LAYOUT
  5
4AD
102
{ACAD_REACTORS
330
1A
102
}
100
AcDbPlotSettings
  1

  2
none_device
  4
ANSI_A_(11.00_x_8.50_Inches)
  6

 40
0.0
 41
0.0
 42
0.0
 43
0.0
 44
279.4
 45
215.9
 46
0.0
 47
0.0
 48
0.0
 49
0.0
140
0.0
141
0.0
142
1.0
143
1.0
 70
0
 72
0
 73
0
 74
0
  7

 75
0
147
1.0
148
0.0
149
0.0
100
AcDbLayout
  1
Layout1
 70
0
 71
1
 10
0.0
 20
0.0
 11
11.0
 21
8.5
 12
0.0
 22
0.0
 32
0.0
 14
0.0
 24
0.0
 34
0.0
 15
0.0
 25
0.0
 35
0.0
146
0.0
 13
0.0
 23
0.0
 33
0.0
 16
1.0
 26
0.0
 36
0.0
 17
0.0
 27
1.0
 37
0.0
 76
0
330
21D
345
0
346
0
  0
ENDSEC
  0
EOF
