999
DXF file: 2940_top.dxf
999
Pro/ENGINEER 2019352 by Parametric Technology Corporation
  0
SECTION
  2
HEADER
  9
$ACADVER
  1
AC1032
  9
$DWGCODEPAGE
  3
ANSI_1252
  9
$EXTMAX
 10
11.0
 20
8.5
 30
0.0
  9
$EXTMIN
 10
0.0
 20
0.0
 30
0.0
  9
$LIMMIN
 10
0.0
 20
0.0
  9
$LIMMAX
 10
11.0
 20
8.5
  9
$VIEWCTR
 10
5.5
 20
4.25
  9
$VIEWSIZE
 40
8.5
  9
$CLAYER
  8
0
  9
$LTSCALE
 40
0.605
  9
$CELTYPE
  6
BYLAYER
  9
$DIMSCALE
 40
1.0
  9
$DIMASZ
 40
0.1
  9
$DIMEXO
 40
0.0625
  9
$DIMDLI
 40
0.418
  9
$DIMEXE
 40
0.125
  9
$DIMCEN
 40
0.099
  9
$DIMLFAC
 40
1.0
  9
$DIMBLK
  1
_FILLED
  9
$DIMALT
 70
1
  9
$DIMALTD
 70
2
  9
$DIMALTTD
 70
2
  9
$DIMALTF
 40
25.4
  9
$DIMTXT
 40
0.08
  9
$DIMTOL
 70
1
  9
$DIMLIM
 70
0
  9
$DIMTFAC
 40
1.0
  9
$DIMTP
 40
0.001
  9
$DIMTM
 40
0.001
  9
$DIMGAP
 40
0.09
  9
$DIMDSEP
 70
46
  9
$AUNITS
 70
0
  9
$PDMODE
 70
3
  9
$PDSIZE
 40
0.3125
  9
$HANDSEED
  5
9F0
  9
$TILEMODE
 70
1
  9
$MEASUREMENT
 70
0
  9
$INSUNITS
 70
1
  0
ENDSEC
  0
SECTION
  2
CLASSES
  0
CLASS
  1
ACDBDICTIONARYWDFLT
  2
AcDbDictionaryWithDefault
  3
AutoCAD 2000
 90
0
 91
1
280
0
281
0
  0
CLASS
  1
ACDBPLACEHOLDER
  2
AcDbPlaceHolder
  3
AutoCAD 2000
 90
0
 91
1
280
0
281
0
  0
CLASS
  1
LAYOUT
  2
AcDbLayout
  3
AutoCAD 2000
 90
0
 91
0
280
0
281
0
  0
ENDSEC
  0
SECTION
  2
TABLES
  0
TABLE
  2
VPORT
  5
8
100
AcDbSymbolTable
 70
2
  0
VPORT
  5
1F4
100
AcDbSymbolTableRecord
100
AcDbViewportTableRecord
  2
*ACTIVE
 70
0
 10
0.0
 20
0.0
 11
1.0
 21
1.0
 12
5.5
 22
4.25
 13
0.0
 23
0.0
 14
1.0
 24
1.0
 15
0.0
 25
0.0
 16
0.0
 26
0.0
 36
1.0
 17
0.0
 27
0.0
 37
0.0
 40
8.5
 41
1.2941176471
 42
50.0
 43
0.0
 44
0.0
 50
0.0
 51
0.0
 71
0
 72
100
 73
1
 74
1
 75
0
 76
0
 77
0
 78
0
  0
ENDTAB
  0
TABLE
  2
LTYPE
  5
5
100
AcDbSymbolTable
 70
6
  0
LTYPE
  5
14
100
AcDbSymbolTableRecord
100
AcDbLinetypeTableRecord
  2
BYBLOCK
 70
0
  3

 72
65
 73
0
 40
0.0
  0
LTYPE
  5
15
100
AcDbSymbolTableRecord
100
AcDbLinetypeTableRecord
  2
BYLAYER
 70
0
  3

 72
65
 73
0
 40
0.0
  0
LTYPE
  5
16
100
AcDbSymbolTableRecord
100
AcDbLinetypeTableRecord
  2
CONTINUOUS
 70
64
  3
Solid line
 72
65
 73
0
 40
0.0
  0
LTYPE
  5
1F5
100
AcDbSymbolTableRecord
100
AcDbLinetypeTableRecord
  2
CENTER
 70
64
  3
____ _ ____ _ ____ _ ____ _ ____ _ ____ _ ____
 72
65
 73
4
 40
0.6
 49
0.375
 74
0
 49
-0.075
 74
0
 49
0.075
 74
0
 49
-0.075
 74
0
  0
LTYPE
  5
1F6
100
AcDbSymbolTableRecord
100
AcDbLinetypeTableRecord
  2
HIDDEN
 70
64
  3
- - - - - - - - - - - - - - - - - - - -
 72
65
 73
2
 40
0.2
 49
0.1
 74
0
 49
-0.1
 74
0
  0
LTYPE
  5
1F7
100
AcDbSymbolTableRecord
100
AcDbLinetypeTableRecord
  2
PHANTOM
 70
64
  3
_____ _ _ _____ _ _ _____ _ _ _____
 72
65
 73
6
 40
0.8
 49
0.45
 74
0
 49
-0.05
 74
0
 49
0.1
 74
0
 49
-0.05
 74
0
 49
0.1
 74
0
 49
-0.05
 74
0
  0
LTYPE
  5
1F8
100
AcDbSymbolTableRecord
100
AcDbLinetypeTableRecord
  2
DOT
 70
64
  3
. . . . . . . . . . . . . . . . . . . .
 72
65
 73
2
 40
0.2
 49
0.1
 74
0
 49
-0.1
 74
0
  0
LTYPE
  5
1F9
100
AcDbSymbolTableRecord
100
AcDbLinetypeTableRecord
  2
DASHED
 70
64
  3
- - - - - - - - - - - - - - - - - - - -
 72
65
 73
2
 40
0.2
 49
0.1
 74
0
 49
-0.1
 74
0
  0
ENDTAB
  0
TABLE
  2
LAYER
  5
2
100
AcDbSymbolTable
 70
36
  0
LAYER
  5
10
100
AcDbSymbolTableRecord
100
AcDbLayerTableRecord
  2
0
 70
0
 62
7
  6
CONTINUOUS
370
-3
390
F
  0
LAYER
  5
1FA
100
AcDbSymbolTableRecord
100
AcDbLayerTableRecord
  2
DEFAULT_1
 70
0
 62
7
  6
CENTER
370
-3
390
F
  0
LAYER
  5
1FB
100
AcDbSymbolTableRecord
100
AcDbLayerTableRecord
  2
DEFAULT_2
 70
0
 62
8
  6
HIDDEN
370
-3
390
F
  0
LAYER
  5
1FC
100
AcDbSymbolTableRecord
100
AcDbLayerTableRecord
  2
DEFAULT_3
 70
0
 62
7
  6
PHANTOM
370
-3
390
F
  0
LAYER
  5
1FD
100
AcDbSymbolTableRecord
100
AcDbLayerTableRecord
  2
DEFAULT_COORDINATE_SYSTEM
 70
0
 62
7
  6
CONTINUOUS
370
-3
390
F
  0
LAYER
  5
1FE
100
AcDbSymbolTableRecord
100
AcDbLayerTableRecord
  2
DEFAULT_DATUM_AXES
 70
0
 62
7
  6
CONTINUOUS
370
-3
390
F
  0
LAYER
  5
1FF
100
AcDbSymbolTableRecord
100
AcDbLayerTableRecord
  2
DEFAULT_DATUM_PLANES
 70
0
 62
7
  6
CONTINUOUS
370
-3
390
F
  0
ENDTAB
  0
TABLE
  2
STYLE
  5
3
100
AcDbSymbolTable
 70
1
  0
STYLE
  5
11
100
AcDbSymbolTableRecord
100
AcDbTextStyleTableRecord
  2
STANDARD
 70
0
 40
0.0
 41
0.8
 50
0.0
 71
0
 42
0.2
  3
txt
  4

  0
STYLE
  5
200
100
AcDbSymbolTableRecord
100
AcDbTextStyleTableRecord
  2
TEXTSTYLE_1
 70
0
 40
0.0
 41
0.8
 50
0.0
 71
0
 42
0.2
  3
gdt
  4

  0
ENDTAB
  0
TABLE
  2
VIEW
  5
6
100
AcDbSymbolTable
 70
0
  0
ENDTAB
  0
TABLE
  2
UCS
  5
7
100
AcDbSymbolTable
 70
0
  0
ENDTAB
  0
TABLE
  2
APPID
  5
9
100
AcDbSymbolTable
 70
1
  0
APPID
  5
201
100
AcDbSymbolTableRecord
100
AcDbRegAppTableRecord
  2
ACAD
 70
0
  0
ENDTAB
  0
TABLE
  2
BLOCK_RECORD
  5
1
100
AcDbSymbolTable
 70
0
  0
BLOCK_RECORD
  5
202
100
AcDbSymbolTableRecord
100
AcDbBlockTableRecord
  2
*Model_Space
  0
BLOCK_RECORD
  5
203
100
AcDbSymbolTableRecord
100
AcDbBlockTableRecord
  2
*Paper_Space
  0
BLOCK_RECORD
  5
204
100
AcDbSymbolTableRecord
100
AcDbBlockTableRecord
  2
_FILLED
  0
ENDTAB
  0
TABLE
  2
DIMSTYLE
  5
A
100
AcDbSymbolTable
 70
1
100
AcDbDimStyleTable
 71
0
  0
DIMSTYLE
105
205
100
AcDbSymbolTableRecord
100
AcDbDimStyleTableRecord
  2
STANDARD
 70
0
  3

  4

 40
1.0
 41
0.1
 42
0.0625
 43
0.38
 44
0.125
 45
0.0
 46
0.0
 47
0.001
 48
0.001
140
0.08
141
0.09
142
0.0
143
25.4
144
1.0
145
0.0
146
1.0
147
0.09
 71
1.0
 72
0.0
 73
1
 74
1
 75
0
 76
0
 77
0
 78
4
 79
1
170
1
171
2
172
0
173
0
174
0
175
0
176
0
177
0
178
0
270
2
179
3
271
3
272
3
273
2
274
2
275
0
280
0
281
0
282
0
283
1
284
4
285
0
286
0
287
3
288
0
340
11
278
46
341
204
342
204
343
204
344
204
  0
ENDTAB
  0
ENDSEC
  0
SECTION
  2
BLOCKS
  0
BLOCK
  5
20
100
AcDbEntity
  8
0
100
AcDbBlockBegin
  2
*Model_Space
 70
0
 10
0.0
 20
0.0
 30
0.0
  3
*Model_Space
  1

  0
ENDBLK
  5
21
100
AcDbEntity
  8
0
100
AcDbBlockEnd
  0
BLOCK
  5
1C
100
AcDbEntity
  8
0
100
AcDbBlockBegin
  2
*Paper_Space
 70
0
 10
0.0
 20
0.0
 30
0.0
  3
*Paper_Space
  1

  0
ENDBLK
  5
1D
100
AcDbEntity
  8
0
100
AcDbBlockEnd
  0
BLOCK
  5
206
100
AcDbEntity
  8
0
100
AcDbBlockBegin
  2
_FILLED
 70
64
 10
0.0
 20
0.0
  3
_FILLED
  1

  0
SOLID
  5
207
100
AcDbEntity
  8
0
  6
BYBLOCK
 62
0
100
AcDbTrace
 10
0.0
 20
0.0
 11
-1.0
 21
0.2
 12
-1.0
 22
-0.2
 13
-1.0
 23
-0.2
  0
ENDBLK
  5
208
100
AcDbEntity
  8
0
  6
BYBLOCK
 62
0
100
AcDbBlockEnd
  0
ENDSEC
  0
SECTION
  2
ENTITIES
  0
MTEXT
  5
209
100
AcDbEntity
  8
0
100
AcDbMText
 62
2
  6
CONTINUOUS
  7
STANDARD
 71
3
 72
1
 10
5.69214633
 20
0.5991299404
 30
0.0
 11
1.0
 21
0.0
 31
0.0
 73
2
 44
0.9
  1
SCALE 0.500
 40
0.08
 41
0.704
  0
LINE
  5
20A
100
AcDbEntity
  8
0
100
AcDbLine
 62
7
  6
CONTINUOUS
 10
0.0
 20
0.0
 11
0.0
 21
8.5
  0
LINE
  5
20B
100
AcDbEntity
  8
0
100
AcDbLine
 62
7
  6
CONTINUOUS
 10
0.0
 20
0.0
 11
11.0
 21
0.0
  0
LINE
  5
20C
100
AcDbEntity
  8
0
100
AcDbLine
 62
7
  6
CONTINUOUS
 10
0.0
 20
8.5
 11
11.0
 21
8.5
  0
LINE
  5
20D
100
AcDbEntity
  8
0
100
AcDbLine
 62
7
  6
CONTINUOUS
 10
11.0
 20
0.0
 11
11.0
 21
8.5
  0
LINE
  5
20E
100
AcDbEntity
  8
0
100
AcDbLine
 62
7
  6
CONTINUOUS
 10
1.4704179737
 20
5.1869804737
 11
1.4704179737
 21
5.5094804737
  0
LINE
  5
20F
100
AcDbEntity
  8
0
100
AcDbLine
 62
7
  6
CONTINUOUS
 10
1.5304179737
 20
5.1869804737
 11
1.5304179737
 21
5.5094804737
  0
LINE
  5
210
100
AcDbEntity
  8
0
100
AcDbLine
 62
7
  6
CONTINUOUS
 10
2.9419920001
 20
5.6791564472
 11
2.9434665092
 21
5.6904098602
  0
LINE
  5
211
100
AcDbEntity
  8
0
100
AcDbLine
 62
7
  6
CONTINUOUS
 10
2.8661297535
 20
5.1029788804
 11
2.8676180847
 21
5.1142304737
  0
LINE
  5
212
100
AcDbEntity
  8
0
100
AcDbLine
 62
7
  6
CONTINUOUS
 10
2.9597648499
 20
5.696022252
 11
2.9618262964
 21
5.7071830726
  0
LINE
  5
213
100
AcDbEntity
  8
0
100
AcDbLine
 62
7
  6
CONTINUOUS
 10
2.853851766
 20
5.1246046397
 11
2.8559269203
 21
5.1357629198
  0
LINE
  5
214
100
AcDbEntity
  8
0
100
AcDbLine
 62
7
  6
CONTINUOUS
 10
2.9520595582
 20
5.1905722128
 11
2.954550497
 21
5.2016276095
  0
LINE
  5
215
100
AcDbEntity
  8
0
100
AcDbLine
 62
7
  6
CONTINUOUS
 10
3.0496873875
 20
5.6184495614
 11
3.0522398861
 21
5.6294909075
  0
LINE
  5
216
100
AcDbEntity
  8
0
100
AcDbLine
 62
7
  6
CONTINUOUS
 10
2.9783960306
 20
5.7119347836
 11
2.9810387642
 21
5.722972421
  0
LINE
  5
217
100
AcDbEntity
  8
0
100
AcDbLine
 62
7
  6
CONTINUOUS
 10
2.8427224098
 20
5.1468433418
 11
2.8453786995
 21
5.1578777247
  0
LINE
  5
218
100
AcDbEntity
  8
0
100
AcDbLine
 62
7
  6
CONTINUOUS
 10
2.9978344756
 20
5.726850427
 11
3.0010512527
 21
5.7377346277
  0
LINE
  5
219
100
AcDbEntity
  8
DEFAULT_2
100
AcDbLine
 62
8
  6
HIDDEN
 10
2.8336765193
 20
5.1726801261
 11
2.8360023341
 21
5.1805142733
  0
LINE
  5
21A
100
AcDbEntity
  8
0
100
AcDbLine
 62
7
  6
CONTINUOUS
 10
2.8327721898
 20
5.1696340321
 11
2.8336765193
 21
5.1726801261
  0
LINE
  5
21B
100
AcDbEntity
  8
0
100
AcDbLine
 62
7
  6
CONTINUOUS
 10
2.9419470526
 20
5.2130842587
 11
2.9451947806
 21
5.2239414607
  0
LINE
  5
21C
100
AcDbEntity
  8
0
100
AcDbLine
 62
7
  6
CONTINUOUS
 10
3.0688620093
 20
5.6332066365
 11
3.0721701811
 21
5.6440455743
  0
LINE
  5
21D
100
AcDbEntity
  8
0
100
AcDbLine
 62
7
  6
CONTINUOUS
 10
3.0180269053
 20
5.7407282994
 11
3.0218089089
 21
5.7514292306
  0
LINE
  5
21E
100
AcDbEntity
  8
DEFAULT_2
100
AcDbLine
 62
8
  6
HIDDEN
 10
2.8240283787
 20
5.1929142428
 11
2.827823524
 21
5.2036105203
  0
LINE
  5
21F
100
AcDbEntity
  8
0
100
AcDbLine
 62
7
  6
CONTINUOUS
 10
2.9334117741
 20
5.236240338
 11
2.9374008145
 21
5.2468476058
  0
LINE
  5
220
100
AcDbEntity
  8
0
100
AcDbLine
 62
7
  6
CONTINUOUS
 10
3.0890090507
 20
5.6466056704
 11
3.0930571307
 21
5.6571905474
  0
LINE
  5
221
100
AcDbEntity
  8
0
100
AcDbLine
 62
7
  6
CONTINUOUS
 10
3.0389179737
 20
5.7535303626
 11
3.0432548377
 21
5.7640186938
  0
LINE
  5
222
100
AcDbEntity
  8
DEFAULT_2
100
AcDbLine
 62
8
  6
HIDDEN
 10
2.8165149428
 20
5.2166201645
 11
2.8208646869
 21
5.2271031605
  0
LINE
  5
223
100
AcDbEntity
  8
DEFAULT_2
100
AcDbLine
 62
8
  6
HIDDEN
 10
2.9264943973
 20
5.2599301012
 11
2.9312057404
 21
5.2702368863
  0
LINE
  5
224
100
AcDbEntity
  8
0
100
AcDbLine
 62
7
  6
CONTINUOUS
 10
3.1100325018
 20
5.6585828106
 11
3.1148011992
 21
5.6688631851
  0
LINE
  5
225
100
AcDbEntity
  8
0
100
AcDbLine
 62
7
  6
CONTINUOUS
 10
3.0604504198
 20
5.765221527
 11
3.0653302571
 21
5.7754685103
  0
LINE
  5
226
100
AcDbEntity
  8
DEFAULT_2
100
AcDbLine
 62
8
  6
HIDDEN
 10
2.810252476
 20
5.2406868209
 11
2.8151448965
 21
5.2509278023
  0
LINE
  5
227
100
AcDbEntity
  8
0
100
AcDbLine
 62
7
  6
CONTINUOUS
 10
3.0825652247
 20
5.7757697478
 11
3.0879746601
 21
5.7857472971
  0
LINE
  5
228
100
AcDbEntity
  8
DEFAULT_2
100
AcDbLine
 62
8
  6
HIDDEN
 10
2.9212278866
 20
5.2840406559
 11
2.9266390808
 21
5.2939978418
  0
LINE
  5
229
100
AcDbEntity
  8
DEFAULT_2
100
AcDbLine
 62
8
  6
HIDDEN
 10
2.805258143
 20
5.265048247
 11
2.8106798303
 21
5.275019144
  0
LINE
  5
22A
100
AcDbEntity
  8
0
100
AcDbLine
 62
7
  6
CONTINUOUS
 10
3.1318321765
 20
5.6690809806
 11
3.1372987661
 21
5.6790078618
  0
LINE
  5
22B
100
AcDbEntity
  8
0
100
AcDbLine
 62
7
  6
CONTINUOUS
 10
3.1052017733
 20
5.7851461133
 11
3.1111259798
 21
5.7948268806
  0
LINE
  5
22C
100
AcDbEntity
  8
DEFAULT_2
100
AcDbLine
 62
8
  6
HIDDEN
 10
2.8015456332
 20
5.2896376698
 11
2.8074817266
 21
5.2993111528
  0
LINE
  5
22D
100
AcDbEntity
  8
DEFAULT_2
100
AcDbLine
 62
8
  6
HIDDEN
 10
2.9176373394
 20
5.3084571044
 11
2.9237225978
 21
5.3180172405
  0
LINE
  5
22E
100
AcDbEntity
  8
0
100
AcDbLine
 62
7
  6
CONTINUOUS
 10
3.1543041892
 20
5.6780501519
 11
3.1604426203
 21
5.6875762337
  0
LINE
  5
22F
100
AcDbEntity
  8
0
100
AcDbLine
 62
7
  6
CONTINUOUS
 10
3.1282980203
 20
5.7933249233
 11
3.1347207601
 21
5.8026823745
  0
LINE
  5
230
100
AcDbEntity
  8
DEFAULT_2
100
AcDbLine
 62
8
  6
HIDDEN
 10
2.7991251222
 20
5.3143876914
 11
2.8055593514
 21
5.3237372461
  0
LINE
  5
231
100
AcDbEntity
  8
DEFAULT_2
100
AcDbLine
 62
8
  6
HIDDEN
 10
2.9157398661
 20
5.333063091
 11
2.9224701897
 21
5.342180619
  0
LINE
  5
232
100
AcDbEntity
  8
0
100
AcDbLine
 62
7
  6
CONTINUOUS
 10
3.1773414506
 20
5.6854475821
 11
3.1841224708
 21
5.6945274685
  0
LINE
  5
233
100
AcDbEntity
  8
0
100
AcDbLine
 62
7
  6
CONTINUOUS
 10
3.1517906605
 20
5.8002837604
 11
3.1586943294
 21
5.8092922473
  0
LINE
  5
234
100
AcDbEntity
  8
DEFAULT_2
100
AcDbLine
 62
8
  6
HIDDEN
 10
2.7980032445
 20
5.3392304737
 11
2.8049179737
 21
5.3482304737
  0
LINE
  5
235
100
AcDbEntity
  8
DEFAULT_2
100
AcDbLine
 62
8
  6
HIDDEN
 10
2.9155445092
 20
5.3577413572
 11
2.922887825
 21
5.3663728278
  0
LINE
  5
236
100
AcDbEntity
  8
0
100
AcDbLine
 62
7
  6
CONTINUOUS
 10
3.1756153023
 20
5.8060035508
 11
3.1829809777
 21
5.8146383818
  0
LINE
  5
237
100
AcDbEntity
  8
DEFAULT_2
100
AcDbLine
 62
8
  6
HIDDEN
 10
2.798183075
 20
5.3640979243
 11
2.8055593514
 21
5.3727237012
  0
LINE
  5
238
100
AcDbEntity
  8
0
100
AcDbLine
 62
7
  6
CONTINUOUS
 10
3.2008341776
 20
5.6912380193
 11
3.2082254723
 21
5.6998284405
  0
LINE
  5
239
100
AcDbEntity
  8
0
100
AcDbLine
 62
7
  6
CONTINUOUS
 10
3.199706644
 20
5.810468617
 11
3.2075141371
 21
5.8187061246
  0
LINE
  5
23A
100
AcDbEntity
  8
DEFAULT_2
100
AcDbLine
 62
8
  6
HIDDEN
 10
2.7996641209
 20
5.3889218834
 11
2.8074817266
 21
5.3971497945
  0
LINE
  5
23B
100
AcDbEntity
  8
DEFAULT_2
100
AcDbLine
 62
8
  6
HIDDEN
 10
2.9170521996
 20
5.3823742996
 11
2.9249735133
 21
5.3904785801
  0
LINE
  5
23C
100
AcDbEntity
  8
0
100
AcDbLine
 62
7
  6
CONTINUOUS
 10
3.2246704168
 20
5.6953938693
 11
3.232636763
 21
5.7034538879
  0
LINE
  5
23D
100
AcDbEntity
  8
0
100
AcDbLine
 62
7
  6
CONTINUOUS
 10
3.2239986528
 20
5.8136667207
 11
3.2322265639
 21
5.8214843264
  0
LINE
  5
23E
100
AcDbEntity
  8
DEFAULT_2
100
AcDbLine
 62
8
  6
HIDDEN
 10
2.8024423227
 20
5.4136343102
 11
2.8106798303
 21
5.4214418033
  0
LINE
  5
23F
100
AcDbEntity
  8
DEFAULT_2
100
AcDbLine
 62
8
  6
HIDDEN
 10
2.9202557525
 20
5.4068445312
 11
2.9287173154
 21
5.4143830009
  0
LINE
  5
240
100
AcDbEntity
  8
0
100
AcDbLine
 62
7
  6
CONTINUOUS
 10
3.2487365775
 20
5.6978953276
 11
3.257240012
 21
5.7053865341
  0
LINE
  5
241
100
AcDbEntity
  8
0
100
AcDbLine
 62
7
  6
CONTINUOUS
 10
3.2484247461
 20
5.8155890959
 11
3.257050523
 21
5.8229653723
  0
LINE
  5
242
100
AcDbEntity
  8
DEFAULT_2
100
AcDbLine
 62
8
  6
HIDDEN
 10
2.8065100655
 20
5.4381674696
 11
2.8151448965
 21
5.445533145
  0
LINE
  5
243
100
AcDbEntity
  8
DEFAULT_2
100
AcDbLine
 62
8
  6
HIDDEN
 10
2.9251399014
 20
5.4310354401
 11
2.9341013904
 21
5.4379721747
  0
LINE
  5
244
100
AcDbEntity
  8
0
100
AcDbLine
 62
7
  6
CONTINUOUS
 10
3.2729179737
 20
5.8162304737
 11
3.2819179737
 21
5.8231452028
  0
LINE
  5
245
100
AcDbEntity
  8
DEFAULT_2
100
AcDbLine
 62
8
  6
HIDDEN
 10
2.8118562
 20
5.4624541179
 11
2.8208646869
 21
5.4693577868
  0
LINE
  5
246
100
AcDbEntity
  8
0
100
AcDbLine
 62
7
  6
CONTINUOUS
 10
3.2729179737
 20
5.6987304737
 11
3.2819179737
 21
5.705617169
  0
LINE
  5
247
100
AcDbEntity
  8
0
100
AcDbLine
 62
7
  6
CONTINUOUS
 10
3.2974112012
 20
5.8155890959
 11
3.3067607559
 21
5.8220233251
  0
LINE
  5
248
100
AcDbEntity
  8
DEFAULT_2
100
AcDbLine
 62
8
  6
HIDDEN
 10
2.8184660728
 20
5.4864276872
 11
2.827823524
 21
5.492850427
  0
LINE
  5
249
100
AcDbEntity
  8
0
100
AcDbLine
 62
7
  6
CONTINUOUS
 10
3.3218372945
 20
5.8136667207
 11
3.3315107775
 21
5.8196028141
  0
LINE
  5
24A
100
AcDbEntity
  8
DEFAULT_2
100
AcDbLine
 62
8
  6
HIDDEN
 10
2.8263215667
 20
5.5100224675
 11
2.8360023341
 21
5.515946674
  0
LINE
  5
24B
100
AcDbEntity
  8
0
100
AcDbLine
 62
7
  6
CONTINUOUS
 10
2.8804201479
 20
5.603121542
 11
2.8795227193
 21
5.6144356086
  0
LINE
  5
24C
100
AcDbEntity
  8
0
100
AcDbLine
 62
7
  6
CONTINUOUS
 10
2.9260097256
 20
5.0237621895
 11
2.9251261953
 21
5.0350773499
  0
LINE
  5
24D
100
AcDbEntity
  8
0
100
AcDbLine
 62
7
  6
CONTINUOUS
 10
2.8942980203
 20
5.6233139717
 11
2.8939939541
 21
5.6346595005
  0
LINE
  5
24E
100
AcDbEntity
  8
0
100
AcDbLine
 62
7
  6
CONTINUOUS
 10
2.9095037933
 20
5.0423626369
 11
2.9092136637
 21
5.0537085306
  0
LINE
  5
24F
100
AcDbEntity
  8
0
100
AcDbLine
 62
7
  6
CONTINUOUS
 10
2.8204179737
 20
5.1982304737
 11
2.8204179737
 21
5.4982304737
  0
LINE
  5
250
100
AcDbEntity
  8
0
100
AcDbLine
 62
7
  6
CONTINUOUS
 10
2.8829179737
 20
5.1982304737
 11
2.8829179737
 21
5.4982304737
  0
LINE
  5
251
100
AcDbEntity
  8
DEFAULT_2
100
AcDbLine
 62
8
  6
HIDDEN
 10
2.9029179737
 20
5.2457311026
 11
2.9029179737
 21
5.4507298447
  0
LINE
  5
252
100
AcDbEntity
  8
0
100
AcDbLine
 62
7
  6
CONTINUOUS
 10
2.9204179737
 20
5.2312311916
 11
2.9204179737
 21
5.4652297557
  0
LINE
  5
253
100
AcDbEntity
  8
0
100
AcDbLine
 62
7
  6
CONTINUOUS
 10
2.9913423626
 20
5.12795468
 11
2.9915064021
 21
5.1392860375
  0
LINE
  5
254
100
AcDbEntity
  8
0
100
AcDbLine
 62
7
  6
CONTINUOUS
 10
2.998886039
 20
5.5667636492
 11
2.999113212
 21
5.5780939169
  0
LINE
  5
255
100
AcDbEntity
  8
0
100
AcDbLine
 62
7
  6
CONTINUOUS
 10
2.9092136637
 20
5.6427524167
 11
2.9095037933
 21
5.6540983104
  0
LINE
  5
256
100
AcDbEntity
  8
0
100
AcDbLine
 62
7
  6
CONTINUOUS
 10
2.8939939541
 20
5.0618014468
 11
2.8942980203
 21
5.0731469756
  0
LINE
  5
257
100
AcDbEntity
  8
0
100
AcDbLine
 62
7
  6
CONTINUOUS
 10
2.9251261953
 20
5.6613835974
 11
2.9260097256
 21
5.6726987578
  0
LINE
  5
258
100
AcDbEntity
  8
0
100
AcDbLine
 62
7
  6
CONTINUOUS
 10
2.8795227193
 20
5.0820253387
 11
2.8804201479
 21
5.0933394053
  0
LINE
  5
259
100
AcDbEntity
  8
0
100
AcDbLine
 62
7
  6
CONTINUOUS
 10
2.9768162016
 20
5.1479057608
 11
2.9777616135
 21
5.1591988016
  0
LINE
  5
25A
100
AcDbEntity
  8
0
100
AcDbLine
 62
7
  6
CONTINUOUS
 10
3.0146158364
 20
5.5851487209
 11
3.0156241562
 21
5.5964363187
  0
LINE
  5
25B
100
AcDbEntity
  8
0
100
AcDbLine
 62
7
  6
CONTINUOUS
 10
2.9637011003
 20
5.1688114802
 11
2.9654233793
 21
5.1800123876
  0
LINE
  5
25C
100
AcDbEntity
  8
0
100
AcDbLine
 62
7
  6
CONTINUOUS
 10
3.0315765611
 20
5.6024047693
 11
3.0333612226
 21
5.6135959067
  0
LINE
  5
25D
100
AcDbEntity
  8
0
100
AcDbLine
 62
7
  6
CONTINUOUS
 10
2.9316813712
 20
5.4548317456
 11
2.9411000807
 21
5.4611336885
  0
LINE
  5
25E
100
AcDbEntity
  8
0
100
AcDbLine
 62
7
  6
CONTINUOUS
 10
3.2970993698
 20
5.6978953276
 11
3.3065530462
 21
5.7041446935
  0
LINE
  5
25F
100
AcDbEntity
  8
0
100
AcDbLine
 62
7
  6
CONTINUOUS
 10
2.9398489889
 20
5.4781200475
 11
2.9496800344
 21
5.4837571671
  0
LINE
  5
260
100
AcDbEntity
  8
0
100
AcDbLine
 62
7
  6
CONTINUOUS
 10
3.3211655305
 20
5.6953938693
 11
3.3310278323
 21
5.7009761247
  0
LINE
  5
261
100
AcDbEntity
  8
0
100
AcDbLine
 62
7
  6
CONTINUOUS
 10
3.3461293033
 20
5.810468617
 11
3.3561002003
 21
5.8158903043
  0
LINE
  5
262
100
AcDbEntity
  8
0
100
AcDbLine
 62
7
  6
CONTINUOUS
 10
2.8354011502
 20
5.5331737872
 11
2.8453786995
 21
5.5385832226
  0
LINE
  5
263
100
AcDbEntity
  8
0
100
AcDbLine
 62
7
  6
CONTINUOUS
 10
2.9496038319
 20
5.5007893664
 11
2.9598003641
 21
5.5057347992
  0
LINE
  5
264
100
AcDbEntity
  8
0
100
AcDbLine
 62
7
  6
CONTINUOUS
 10
3.3450017697
 20
5.6912380193
 11
3.3552256985
 21
5.6961265622
  0
LINE
  5
265
100
AcDbEntity
  8
0
100
AcDbLine
 62
7
  6
CONTINUOUS
 10
3.370220645
 20
5.8060035508
 11
3.3804616264
 21
5.8108959713
  0
LINE
  5
266
100
AcDbEntity
  8
0
100
AcDbLine
 62
7
  6
CONTINUOUS
 10
2.845679937
 20
5.5558181902
 11
2.8559269203
 21
5.5606980275
  0
LINE
  5
267
100
AcDbEntity
  8
0
100
AcDbLine
 62
7
  6
CONTINUOUS
 10
3.3940452868
 20
5.8002837604
 11
3.4045282828
 21
5.8046335045
  0
LINE
  5
268
100
AcDbEntity
  8
0
100
AcDbLine
 62
7
  6
CONTINUOUS
 10
2.8571297535
 20
5.5778936096
 11
2.8676180847
 21
5.5822304737
  0
LINE
  5
269
100
AcDbEntity
  8
0
100
AcDbLine
 62
7
  6
CONTINUOUS
 10
2.9608994141
 20
5.5227316728
 11
2.9714128417
 21
5.5269618515
  0
LINE
  5
26A
100
AcDbEntity
  8
0
100
AcDbLine
 62
7
  6
CONTINUOUS
 10
3.3684944967
 20
5.6854475821
 11
3.3790313309
 21
5.6896191164
  0
LINE
  5
26B
100
AcDbEntity
  8
0
100
AcDbLine
 62
7
  6
CONTINUOUS
 10
3.417537927
 20
5.7933249233
 11
3.4282342045
 21
5.7971200686
  0
LINE
  5
26C
100
AcDbEntity
  8
0
100
AcDbLine
 62
7
  6
CONTINUOUS
 10
2.8697192167
 20
5.5993395384
 11
2.8804201479
 21
5.603121542
  0
LINE
  5
26D
100
AcDbEntity
  8
0
100
AcDbLine
 62
7
  6
CONTINUOUS
 10
3.0072103597
 20
5.1090533136
 11
3.006592245
 21
5.1203689888
  0
LINE
  5
26E
100
AcDbEntity
  8
0
100
AcDbLine
 62
7
  6
CONTINUOUS
 10
2.9844621287
 20
5.5473371674
 11
2.9839070722
 21
5.558656111
  0
LINE
  5
26F
100
AcDbEntity
  8
0
100
AcDbLine
 62
7
  6
CONTINUOUS
 10
3.0979179737
 20
5.2507304737
 11
3.0979179737
 21
5.4457304737
  0
LINE
  5
270
100
AcDbEntity
  8
0
100
AcDbLine
 62
7
  6
CONTINUOUS
 10
3.599026957
 20
5.4947199987
 11
3.5961559129
 21
5.4837571671
  0
LINE
  5
271
100
AcDbEntity
  8
0
100
AcDbLine
 62
7
  6
CONTINUOUS
 10
3.4866886262
 20
5.0704673405
 11
3.4837565439
 21
5.0595206759
  0
LINE
  5
272
100
AcDbEntity
  8
0
100
AcDbLine
 62
7
  6
CONTINUOUS
 10
3.6083564081
 20
5.4718723221
 11
3.6047358666
 21
5.4611336885
  0
LINE
  5
273
100
AcDbEntity
  8
0
100
AcDbLine
 62
7
  6
CONTINUOUS
 10
3.4670160725
 20
5.0563808925
 11
3.4633357537
 21
5.0456625985
  0
LINE
  5
274
100
AcDbEntity
  8
0
100
AcDbLine
 62
7
  6
CONTINUOUS
 10
3.527809042
 20
4.9557326479
 11
3.5240270384
 21
4.9450317167
  0
LINE
  5
275
100
AcDbEntity
  8
0
100
AcDbLine
 62
7
  6
CONTINUOUS
 10
3.7218075686
 20
5.5035467045
 11
3.7180124233
 21
5.492850427
  0
LINE
  5
276
100
AcDbEntity
  8
0
100
AcDbLine
 62
7
  6
CONTINUOUS
 10
3.5069179737
 20
4.9429305847
 11
3.5025811096
 21
4.9324422535
  0
LINE
  5
277
100
AcDbEntity
  8
0
100
AcDbLine
 62
7
  6
CONTINUOUS
 10
3.7293210045
 20
5.4798407828
 11
3.7249712604
 21
5.4693577868
  0
LINE
  5
278
100
AcDbEntity
  8
0
100
AcDbLine
 62
7
  6
CONTINUOUS
 10
3.6160873423
 20
5.4484354358
 11
3.6117345569
 21
5.4379721747
  0
LINE
  5
279
100
AcDbEntity
  8
0
100
AcDbLine
 62
7
  6
CONTINUOUS
 10
3.446418553
 20
5.0436852406
 11
3.442007536
 21
5.0332463948
  0
LINE
  5
27A
100
AcDbEntity
  8
0
100
AcDbLine
 62
7
  6
CONTINUOUS
 10
3.4853855275
 20
4.9312394203
 11
3.4805056902
 21
4.920992437
  0
LINE
  5
27B
100
AcDbEntity
  8
0
100
AcDbLine
 62
7
  6
CONTINUOUS
 10
3.7355834713
 20
5.4557741264
 11
3.7306910508
 21
5.445533145
  0
LINE
  5
27C
100
AcDbEntity
  8
0
100
AcDbLine
 62
7
  6
CONTINUOUS
 10
3.6221829181
 20
5.4245210272
 11
3.6171186319
 21
5.4143830009
  0
LINE
  5
27D
100
AcDbEntity
  8
0
100
AcDbLine
 62
7
  6
CONTINUOUS
 10
3.4249942242
 20
5.0324408855
 11
3.4198735295
 21
5.0223312337
  0
LINE
  5
27E
100
AcDbEntity
  8
0
100
AcDbLine
 62
7
  6
CONTINUOUS
 10
3.4632707226
 20
4.9206911995
 11
3.4578612872
 21
4.9107136502
  0
LINE
  5
27F
100
AcDbEntity
  8
0
100
AcDbLine
 62
7
  6
CONTINUOUS
 10
3.7405778043
 20
5.4314127003
 11
3.735156117
 21
5.4214418033
  0
LINE
  5
280
100
AcDbEntity
  8
0
100
AcDbLine
 62
7
  6
CONTINUOUS
 10
3.6266140875
 20
5.4002430593
 11
3.620862434
 21
5.3904785801
  0
LINE
  5
281
100
AcDbEntity
  8
0
100
AcDbLine
 62
7
  6
CONTINUOUS
 10
3.4028451828
 20
5.0227014115
 11
3.3970392129
 21
5.0129691309
  0
LINE
  5
282
100
AcDbEntity
  8
0
100
AcDbLine
 62
7
  6
CONTINUOUS
 10
3.440634174
 20
4.9113148341
 11
3.4347099675
 21
4.9016340667
  0
LINE
  5
283
100
AcDbEntity
  8
0
100
AcDbLine
 62
7
  6
CONTINUOUS
 10
3.7442903141
 20
5.4068232775
 11
3.7383542207
 21
5.3971497945
  0
LINE
  5
284
100
AcDbEntity
  8
0
100
AcDbLine
 62
7
  6
CONTINUOUS
 10
3.6293597338
 20
5.3757172278
 11
3.6229481223
 21
5.3663728278
  0
LINE
  5
285
100
AcDbEntity
  8
0
100
AcDbLine
 62
7
  6
CONTINUOUS
 10
3.417537927
 20
4.903136024
 11
3.4111151872
 21
4.8937785728
  0
LINE
  5
286
100
AcDbEntity
  8
0
100
AcDbLine
 62
7
  6
CONTINUOUS
 10
3.7467108251
 20
5.3820732559
 11
3.7402765959
 21
5.3727237012
  0
LINE
  5
287
100
AcDbEntity
  8
0
100
AcDbLine
 62
7
  6
CONTINUOUS
 10
3.3800769791
 20
5.0145132317
 11
3.3736134021
 21
5.005204701
  0
LINE
  5
288
100
AcDbEntity
  8
0
100
AcDbLine
 62
7
  6
CONTINUOUS
 10
3.3940452868
 20
4.8961771869
 11
3.3871416179
 21
4.8871687
  0
LINE
  5
289
100
AcDbEntity
  8
0
100
AcDbLine
 62
7
  6
CONTINUOUS
 10
3.7478327028
 20
5.3572304737
 11
3.7409179737
 21
5.3482304737
  0
LINE
  5
28A
100
AcDbEntity
  8
0
100
AcDbLine
 62
7
  6
CONTINUOUS
 10
3.6304067727
 20
5.3510604095
 11
3.6233657576
 21
5.342180619
  0
LINE
  5
28B
100
AcDbEntity
  8
0
100
AcDbLine
 62
7
  6
CONTINUOUS
 10
3.356798114
 20
5.0079153666
 11
3.3497077317
 21
4.9990749452
  0
LINE
  5
28C
100
AcDbEntity
  8
0
100
AcDbLine
 62
7
  6
CONTINUOUS
 10
3.370220645
 20
4.8904573965
 11
3.3628549696
 21
4.8818225655
  0
LINE
  5
28D
100
AcDbEntity
  8
0
100
AcDbLine
 62
7
  6
CONTINUOUS
 10
3.7476528723
 20
5.332363023
 11
3.7402765959
 21
5.3237372461
  0
LINE
  5
28E
100
AcDbEntity
  8
0
100
AcDbLine
 62
7
  6
CONTINUOUS
 10
3.6297502148
 20
5.3263901051
 11
3.6221133495
 21
5.3180172405
  0
LINE
  5
28F
100
AcDbEntity
  8
0
100
AcDbLine
 62
7
  6
CONTINUOUS
 10
3.3331195218
 20
5.002939258
 11
3.3254361231
 21
4.9946090744
  0
LINE
  5
290
100
AcDbEntity
  8
0
100
AcDbLine
 62
7
  6
CONTINUOUS
 10
3.3461293033
 20
4.8859923303
 11
3.3383218102
 21
4.8777548227
  0
LINE
  5
291
100
AcDbEntity
  8
0
100
AcDbLine
 62
7
  6
CONTINUOUS
 10
3.7461718264
 20
5.3075390639
 11
3.7383542207
 21
5.2993111528
  0
LINE
  5
292
100
AcDbEntity
  8
0
100
AcDbLine
 62
7
  6
CONTINUOUS
 10
3.6273931887
 20
5.3018238801
 11
3.6191968665
 21
5.2939978418
  0
LINE
  5
293
100
AcDbEntity
  8
0
100
AcDbLine
 62
7
  6
CONTINUOUS
 10
3.3218372945
 20
4.8827942266
 11
3.3136093834
 21
4.8749766209
  0
LINE
  5
294
100
AcDbEntity
  8
0
100
AcDbLine
 62
7
  6
CONTINUOUS
 10
3.7433936246
 20
5.2828266371
 11
3.735156117
 21
5.275019144
  0
LINE
  5
295
100
AcDbEntity
  8
0
100
AcDbLine
 62
7
  6
CONTINUOUS
 10
3.3091540417
 20
4.9996086192
 11
3.3009142417
 21
4.9918283707
  0
LINE
  5
296
100
AcDbEntity
  8
0
100
AcDbLine
 62
7
  6
CONTINUOUS
 10
3.6233469268
 20
5.2774788036
 11
3.6146302069
 21
5.2702368863
  0
LINE
  5
297
100
AcDbEntity
  8
0
100
AcDbLine
 62
7
  6
CONTINUOUS
 10
3.2850158804
 20
4.9979393224
 11
3.2762589452
 21
4.9907460853
  0
LINE
  5
298
100
AcDbEntity
  8
0
100
AcDbLine
 62
7
  6
CONTINUOUS
 10
3.6176307113
 20
5.2534708911
 11
3.6084351328
 21
5.2468476058
  0
LINE
  5
299
100
AcDbEntity
  8
0
100
AcDbLine
 62
7
  6
CONTINUOUS
 10
3.2608200669
 20
4.9979393224
 11
3.2515877275
 21
4.9913673758
  0
LINE
  5
29A
100
AcDbEntity
  8
0
100
AcDbLine
 62
7
  6
CONTINUOUS
 10
2.9736819068
 20
5.5438424014
 11
2.9844621287
 21
5.5473371674
  0
LINE
  5
29B
100
AcDbEntity
  8
0
100
AcDbLine
 62
7
  6
CONTINUOUS
 10
3.3915317581
 20
5.6780501519
 11
3.4023312848
 21
5.6814847983
  0
LINE
  5
29C
100
AcDbEntity
  8
0
100
AcDbLine
 62
7
  6
CONTINUOUS
 10
3.440634174
 20
5.7851461133
 11
3.4515144152
 21
5.7883762575
  0
LINE
  5
29D
100
AcDbEntity
  8
0
100
AcDbLine
 62
7
  6
CONTINUOUS
 10
2.8834138196
 20
5.6200971946
 11
2.8942980203
 21
5.6233139717
  0
LINE
  5
29E
100
AcDbEntity
  8
0
100
AcDbLine
 62
7
  6
CONTINUOUS
 10
2.8453786995
 20
5.5385832226
 11
2.8427224098
 21
5.5496176055
  0
LINE
  5
29F
100
AcDbEntity
  8
0
100
AcDbLine
 62
7
  6
CONTINUOUS
 10
2.9810387642
 20
4.9734885263
 11
2.9783960306
 21
4.9845261637
  0
LINE
  5
2A0
100
AcDbEntity
  8
0
100
AcDbLine
 62
7
  6
CONTINUOUS
 10
3.042663355
 20
5.074754587
 11
3.0404934819
 21
5.0858774564
  0
LINE
  5
2A1
100
AcDbEntity
  8
0
100
AcDbLine
 62
7
  6
CONTINUOUS
 10
2.9598003641
 20
5.5057347992
 11
2.9576924992
 21
5.516869586
  0
LINE
  5
2A2
100
AcDbEntity
  8
0
100
AcDbLine
 62
7
  6
CONTINUOUS
 10
2.8559269203
 20
5.5606980275
 11
2.853851766
 21
5.5718563076
  0
LINE
  5
2A3
100
AcDbEntity
  8
0
100
AcDbLine
 62
7
  6
CONTINUOUS
 10
2.9618262964
 20
4.9892778747
 11
2.9597648499
 21
5.0004386953
  0
LINE
  5
2A4
100
AcDbEntity
  8
0
100
AcDbLine
 62
7
  6
CONTINUOUS
 10
2.8676180847
 20
5.5822304737
 11
2.8661297535
 21
5.5934820669
  0
LINE
  5
2A5
100
AcDbEntity
  8
0
100
AcDbLine
 62
7
  6
CONTINUOUS
 10
2.9434665092
 20
5.0060510871
 11
2.9419920001
 21
5.0173045001
  0
LINE
  5
2A6
100
AcDbEntity
  8
0
100
AcDbLine
 62
7
  6
CONTINUOUS
 10
3.0243445746
 20
5.0912917352
 11
3.0229472513
 21
5.1025378039
  0
LINE
  5
2A7
100
AcDbEntity
  8
0
100
AcDbLine
 62
7
  6
CONTINUOUS
 10
2.9714128417
 20
5.5269618515
 11
2.970078201
 21
5.5382155312
  0
LINE
  5
2A8
100
AcDbEntity
  8
0
100
AcDbLine
 62
7
  6
CONTINUOUS
 10
3.5467227353
 20
5.5780939169
 11
3.5469499083
 21
5.5667636492
  0
LINE
  5
2A9
100
AcDbEntity
  8
0
100
AcDbLine
 62
7
  6
CONTINUOUS
 10
3.5543295452
 20
5.1392860375
 11
3.5544935847
 21
5.12795468
  0
LINE
  5
2AA
100
AcDbEntity
  8
0
100
AcDbLine
 62
7
  6
CONTINUOUS
 10
3.5619288751
 20
5.558656111
 11
3.5613738186
 21
5.5473371674
  0
LINE
  5
2AB
100
AcDbEntity
  8
0
100
AcDbLine
 62
7
  6
CONTINUOUS
 10
3.5392437023
 20
5.1203689888
 11
3.5386255876
 21
5.1090533136
  0
LINE
  5
2AC
100
AcDbEntity
  8
0
100
AcDbLine
 62
7
  6
CONTINUOUS
 10
3.620709752
 20
5.0350773499
 11
3.6198262217
 21
5.0237621895
  0
LINE
  5
2AD
100
AcDbEntity
  8
0
100
AcDbLine
 62
7
  6
CONTINUOUS
 10
3.666313228
 20
5.6144356086
 11
3.6654157994
 21
5.603121542
  0
LINE
  5
2AE
100
AcDbEntity
  8
0
100
AcDbLine
 62
7
  6
CONTINUOUS
 10
3.5757577463
 20
5.5382155312
 11
3.5744231056
 21
5.5269618515
  0
LINE
  5
2AF
100
AcDbEntity
  8
0
100
AcDbLine
 62
7
  6
CONTINUOUS
 10
3.522888696
 20
5.1025378039
 11
3.5214913727
 21
5.0912917352
  0
LINE
  5
2B0
100
AcDbEntity
  8
0
100
AcDbLine
 62
7
  6
CONTINUOUS
 10
3.6038439472
 20
5.0173045001
 11
3.6023694381
 21
5.0060510871
  0
LINE
  5
2B1
100
AcDbEntity
  8
0
100
AcDbLine
 62
7
  6
CONTINUOUS
 10
3.6797061938
 20
5.5934820669
 11
3.6782178626
 21
5.5822304737
  0
LINE
  5
2B2
100
AcDbEntity
  8
0
100
AcDbLine
 62
7
  6
CONTINUOUS
 10
3.5860710974
 20
5.0004386953
 11
3.5840096509
 21
4.9892778747
  0
LINE
  5
2B3
100
AcDbEntity
  8
0
100
AcDbLine
 62
7
  6
CONTINUOUS
 10
3.6919841813
 20
5.5718563076
 11
3.689909027
 21
5.5606980275
  0
LINE
  5
2B4
100
AcDbEntity
  8
0
100
AcDbLine
 62
7
  6
CONTINUOUS
 10
3.5881434482
 20
5.516869586
 11
3.5860355832
 21
5.5057347992
  0
LINE
  5
2B5
100
AcDbEntity
  8
0
100
AcDbLine
 62
7
  6
CONTINUOUS
 10
3.5053424654
 20
5.0858774564
 11
3.5031725923
 21
5.074754587
  0
LINE
  5
2B6
100
AcDbEntity
  8
0
100
AcDbLine
 62
7
  6
CONTINUOUS
 10
3.5674399167
 20
4.9845261637
 11
3.5647971831
 21
4.9734885263
  0
LINE
  5
2B7
100
AcDbEntity
  8
0
100
AcDbLine
 62
7
  6
CONTINUOUS
 10
3.7031135375
 20
5.5496176055
 11
3.7004572478
 21
5.5385832226
  0
LINE
  5
2B8
100
AcDbEntity
  8
0
100
AcDbLine
 62
7
  6
CONTINUOUS
 10
3.5480014717
 20
4.9696105203
 11
3.5447846946
 21
4.9587263196
  0
LINE
  5
2B9
100
AcDbEntity
  8
0
100
AcDbLine
 62
7
  6
CONTINUOUS
 10
3.7130637575
 20
5.5268269152
 11
3.7098336133
 21
5.515946674
  0
LINE
  5
2BA
100
AcDbEntity
  8
0
100
AcDbLine
 62
7
  6
CONTINUOUS
 10
3.2974112012
 20
4.8808718514
 11
3.2887854243
 21
4.873495575
  0
LINE
  5
2BB
100
AcDbEntity
  8
0
100
AcDbLine
 62
7
  6
CONTINUOUS
 10
3.7393258818
 20
5.2582934777
 11
3.7306910508
 21
5.2509278023
  0
LINE
  5
2BC
100
AcDbEntity
  8
0
100
AcDbLine
 62
7
  6
CONTINUOUS
 10
3.2729179737
 20
4.8802304737
 11
3.2639179737
 21
4.8733157445
  0
LINE
  5
2BD
100
AcDbEntity
  8
0
100
AcDbLine
 62
7
  6
CONTINUOUS
 10
3.7339797473
 20
5.2340068294
 11
3.7249712604
 21
5.2271031605
  0
LINE
  5
2BE
100
AcDbEntity
  8
0
100
AcDbLine
 62
7
  6
CONTINUOUS
 10
3.2484247461
 20
4.8808718514
 11
3.2390751914
 21
4.8744376222
  0
LINE
  5
2BF
100
AcDbEntity
  8
0
100
AcDbLine
 62
7
  6
CONTINUOUS
 10
3.7273698745
 20
5.2100332601
 11
3.7180124233
 21
5.2036105203
  0
LINE
  5
2C0
100
AcDbEntity
  8
0
100
AcDbLine
 62
7
  6
CONTINUOUS
 10
3.6102717827
 20
5.2299145511
 11
3.6006411667
 21
5.2239414607
  0
LINE
  5
2C1
100
AcDbEntity
  8
0
100
AcDbLine
 62
7
  6
CONTINUOUS
 10
3.2239986528
 20
4.8827942266
 11
3.2143251698
 21
4.8768581332
  0
LINE
  5
2C2
100
AcDbEntity
  8
0
100
AcDbLine
 62
7
  6
CONTINUOUS
 10
3.2366819056
 20
4.9996086192
 11
3.2270181582
 21
4.9936892815
  0
LINE
  5
2C3
100
AcDbEntity
  8
0
100
AcDbLine
 62
7
  6
CONTINUOUS
 10
3.7195143806
 20
5.1864384798
 11
3.7098336133
 21
5.1805142733
  0
LINE
  5
2C4
100
AcDbEntity
  8
0
100
AcDbLine
 62
7
  6
CONTINUOUS
 10
3.199706644
 20
4.8859923303
 11
3.189735747
 21
4.880570643
  0
LINE
  5
2C5
100
AcDbEntity
  8
0
100
AcDbLine
 62
7
  6
CONTINUOUS
 10
3.7104347971
 20
5.1632871601
 11
3.7004572478
 21
5.1578777247
  0
LINE
  5
2C6
100
AcDbEntity
  8
0
100
AcDbLine
 62
7
  6
CONTINUOUS
 10
3.6013052095
 20
5.2069220404
 11
3.5912854503
 21
5.2016276095
  0
LINE
  5
2C7
100
AcDbEntity
  8
0
100
AcDbLine
 62
7
  6
CONTINUOUS
 10
3.2127164255
 20
5.002939258
 11
3.2026673224
 21
4.9977007374
  0
LINE
  5
2C8
100
AcDbEntity
  8
0
100
AcDbLine
 62
7
  6
CONTINUOUS
 10
3.1756153023
 20
4.8904573965
 11
3.1653743209
 21
4.885564976
  0
LINE
  5
2C9
100
AcDbEntity
  8
0
100
AcDbLine
 62
7
  6
CONTINUOUS
 10
3.7001560103
 20
5.1406427571
 11
3.689909027
 21
5.1357629198
  0
LINE
  5
2CA
100
AcDbEntity
  8
0
100
AcDbLine
 62
7
  6
CONTINUOUS
 10
3.5907737216
 20
5.1846029287
 11
3.580412568
 21
5.1800123876
  0
LINE
  5
2CB
100
AcDbEntity
  8
0
100
AcDbLine
 62
7
  6
CONTINUOUS
 10
5.4113866458
 20
5.9119739231
 11
5.4217801439
 21
5.9165581118
  0
LINE
  5
2CC
100
AcDbEntity
  8
0
100
AcDbLine
 62
7
  6
CONTINUOUS
 10
3.1890378333
 20
5.0079153666
 11
3.1786512629
 21
5.0033826271
  0
LINE
  5
2CD
100
AcDbEntity
  8
0
100
AcDbLine
 62
7
  6
CONTINUOUS
 10
4.7567217875
 20
5.6287616616
 11
4.7671783563
 21
5.6332001026
  0
LINE
  5
2CE
100
AcDbEntity
  8
0
100
AcDbLine
 62
7
  6
CONTINUOUS
 10
5.4348723107
 20
5.9056809582
 11
5.4454486579
 21
5.9098258912
  0
LINE
  5
2CF
100
AcDbEntity
  8
0
100
AcDbLine
 62
7
  6
CONTINUOUS
 10
4.7689220061
 20
5.6501316408
 11
4.7795552654
 21
5.6541283129
  0
LINE
  5
2D0
100
AcDbEntity
  8
0
100
AcDbLine
 62
7
  6
CONTINUOUS
 10
5.4580738527
 20
5.8984100357
 11
5.4688144944
 21
5.9021084414
  0
LINE
  5
2D1
100
AcDbEntity
  8
0
100
AcDbLine
 62
7
  6
CONTINUOUS
 10
4.782006405
 20
5.6709719828
 11
4.7927977003
 21
5.6745198745
  0
LINE
  5
2D2
100
AcDbEntity
  8
0
100
AcDbLine
 62
7
  6
CONTINUOUS
 10
5.4809505684
 20
5.8901739112
 11
5.4918366619
 21
5.8934193014
  0
LINE
  5
2D3
100
AcDbEntity
  8
DEFAULT_2
100
AcDbLine
 62
8
  6
HIDDEN
 10
2.8208646869
 20
5.4693577868
 11
2.8165149428
 21
5.4798407828
  0
LINE
  5
2D4
100
AcDbEntity
  8
0
100
AcDbLine
 62
7
  6
CONTINUOUS
 10
3.0432548377
 20
4.9324422535
 11
3.0389179737
 21
4.9429305847
  0
LINE
  5
2D5
100
AcDbEntity
  8
DEFAULT_2
100
AcDbLine
 62
8
  6
HIDDEN
 10
2.827823524
 20
5.492850427
 11
2.8240283787
 21
5.5035467045
  0
LINE
  5
2D6
100
AcDbEntity
  8
0
100
AcDbLine
 62
7
  6
CONTINUOUS
 10
3.0218089089
 20
4.9450317167
 11
3.0180269053
 21
4.9557326479
  0
LINE
  5
2D7
100
AcDbEntity
  8
0
100
AcDbLine
 62
7
  6
CONTINUOUS
 10
3.0825001936
 20
5.0456625985
 11
3.0788198748
 21
5.0563808925
  0
LINE
  5
2D8
100
AcDbEntity
  8
0
100
AcDbLine
 62
7
  6
CONTINUOUS
 10
2.9411000807
 20
5.4611336885
 11
2.9374795392
 21
5.4718723221
  0
LINE
  5
2D9
100
AcDbEntity
  8
DEFAULT_2
100
AcDbLine
 62
8
  6
HIDDEN
 10
2.8360023341
 20
5.515946674
 11
2.8336765193
 21
5.5237808212
  0
LINE
  5
2DA
100
AcDbEntity
  8
0
100
AcDbLine
 62
7
  6
CONTINUOUS
 10
2.8336765193
 20
5.5237808212
 11
2.8327721898
 21
5.5268269152
  0
LINE
  5
2DB
100
AcDbEntity
  8
0
100
AcDbLine
 62
7
  6
CONTINUOUS
 10
3.0010512527
 20
4.9587263196
 11
2.9978344756
 21
4.9696105203
  0
LINE
  5
2DC
100
AcDbEntity
  8
0
100
AcDbLine
 62
7
  6
CONTINUOUS
 10
3.0620794034
 20
5.0595206759
 11
3.0591473211
 21
5.0704673405
  0
LINE
  5
2DD
100
AcDbEntity
  8
0
100
AcDbLine
 62
7
  6
CONTINUOUS
 10
2.9496800344
 20
5.4837571671
 11
2.9468089903
 21
5.4947199987
  0
LINE
  5
2DE
100
AcDbEntity
  8
0
100
AcDbLine
 62
7
  6
CONTINUOUS
 10
3.5302117911
 20
5.5964363187
 11
3.5312201109
 21
5.5851487209
  0
LINE
  5
2DF
100
AcDbEntity
  8
0
100
AcDbLine
 62
7
  6
CONTINUOUS
 10
3.5680743338
 20
5.1591988016
 11
3.5690197457
 21
5.1479057608
  0
LINE
  5
2E0
100
AcDbEntity
  8
0
100
AcDbLine
 62
7
  6
CONTINUOUS
 10
3.6654157994
 20
5.0933394053
 11
3.666313228
 21
5.0820253387
  0
LINE
  5
2E1
100
AcDbEntity
  8
0
100
AcDbLine
 62
7
  6
CONTINUOUS
 10
3.6198262217
 20
5.6726987578
 11
3.620709752
 21
5.6613835974
  0
LINE
  5
2E2
100
AcDbEntity
  8
0
100
AcDbLine
 62
7
  6
CONTINUOUS
 10
3.651537927
 20
5.0731469756
 11
3.6518419932
 21
5.0618014468
  0
LINE
  5
2E3
100
AcDbEntity
  8
0
100
AcDbLine
 62
7
  6
CONTINUOUS
 10
3.636332154
 20
5.6540983104
 11
3.6366222836
 21
5.6427524167
  0
LINE
  5
2E4
100
AcDbEntity
  8
0
100
AcDbLine
 62
7
  6
CONTINUOUS
 10
3.6366222836
 20
5.0537085306
 11
3.636332154
 21
5.0423626369
  0
LINE
  5
2E5
100
AcDbEntity
  8
0
100
AcDbLine
 62
7
  6
CONTINUOUS
 10
3.6518419932
 20
5.6346595005
 11
3.651537927
 21
5.6233139717
  0
LINE
  5
2E6
100
AcDbEntity
  8
0
100
AcDbLine
 62
7
  6
CONTINUOUS
 10
5.1941350839
 20
5.923359595
 11
5.2021111617
 21
5.9314479677
  0
LINE
  5
2E7
100
AcDbEntity
  8
0
100
AcDbLine
 62
7
  6
CONTINUOUS
 10
4.6897004796
 20
5.4190372856
 11
4.6977888523
 21
5.4270133634
  0
LINE
  5
2E8
100
AcDbEntity
  8
0
100
AcDbLine
 62
7
  6
CONTINUOUS
 10
5.2182880978
 20
5.9261541941
 11
5.2265958851
 21
5.9339014684
  0
LINE
  5
2E9
100
AcDbEntity
  8
0
100
AcDbLine
 62
7
  6
CONTINUOUS
 10
4.693177142
 20
5.4433977899
 11
4.7015924232
 21
5.4510281654
  0
LINE
  5
2EA
100
AcDbEntity
  8
0
100
AcDbLine
 62
7
  6
CONTINUOUS
 10
5.2425369511
 20
5.9279349186
 11
5.2511618732
 21
5.9353275032
  0
LINE
  5
2EB
100
AcDbEntity
  8
0
100
AcDbLine
 62
7
  6
CONTINUOUS
 10
4.6976708668
 20
5.4675913383
 11
4.7063982933
 21
5.4748626253
  0
LINE
  5
2EC
100
AcDbEntity
  8
0
100
AcDbLine
 62
7
  6
CONTINUOUS
 10
5.2696677161
 20
5.8044688963
 11
5.2608565129
 21
5.7973185315
  0
LINE
  5
2ED
100
AcDbEntity
  8
0
100
AcDbLine
 62
7
  6
CONTINUOUS
 10
5.266839103
 20
5.9286986445
 11
5.2757660289
 21
5.9357235703
  0
LINE
  5
2EE
100
AcDbEntity
  8
0
100
AcDbLine
 62
7
  6
CONTINUOUS
 10
4.8382050514
 20
5.4615893626
 11
4.8292465016
 21
5.4546244932
  0
LINE
  5
2EF
100
AcDbEntity
  8
0
100
AcDbLine
 62
7
  6
CONTINUOUS
 10
4.7031737704
 20
5.4915754872
 11
4.7121980315
 21
5.4984749293
  0
LINE
  5
2F0
100
AcDbEntity
  8
0
100
AcDbLine
 62
7
  6
CONTINUOUS
 10
5.2941617427
 20
5.8039856325
 11
5.2849794344
 21
5.7973185315
  0
LINE
  5
2F1
100
AcDbEntity
  8
0
100
AcDbLine
 62
7
  6
CONTINUOUS
 10
5.2911519193
 20
5.9284440319
 11
5.3003651882
 21
5.9350889748
  0
LINE
  5
2F2
100
AcDbEntity
  8
0
100
AcDbLine
 62
7
  6
CONTINUOUS
 10
4.7096761991
 20
5.5153081602
 11
4.7189814629
 21
5.5218236536
  0
LINE
  5
2F3
100
AcDbEntity
  8
0
100
AcDbLine
 62
7
  6
CONTINUOUS
 10
4.8449164694
 20
5.4847598657
 11
4.8355969839
 21
5.4782859018
  0
LINE
  5
2F4
100
AcDbEntity
  8
0
100
AcDbLine
 62
7
  6
CONTINUOUS
 10
5.3154327471
 20
5.9271715277
 11
5.3249161957
 21
5.9334248302
  0
LINE
  5
2F5
100
AcDbEntity
  8
0
100
AcDbLine
 62
7
  6
CONTINUOUS
 10
5.3185945179
 20
5.8021883085
 11
5.3090675796
 21
5.7960236943
  0
LINE
  5
2F6
100
AcDbEntity
  8
0
100
AcDbLine
 62
7
  6
CONTINUOUS
 10
4.7171667451
 20
5.5387477222
 11
4.7267366873
 21
5.5448678364
  0
LINE
  5
2F7
100
AcDbEntity
  8
0
100
AcDbLine
 62
7
  6
CONTINUOUS
 10
4.8528619266
 20
5.5075367192
 11
4.8432083757
 21
5.5015723269
  0
LINE
  5
2F8
100
AcDbEntity
  8
0
100
AcDbLine
 62
7
  6
CONTINUOUS
 10
5.3396389895
 20
5.9248833641
 11
5.3493759807
 21
5.9307340558
  0
LINE
  5
2F9
100
AcDbEntity
  8
0
100
AcDbLine
 62
7
  6
CONTINUOUS
 10
4.7256322677
 20
5.5618530522
 11
4.7354500992
 21
5.5675670504
  0
LINE
  5
2FA
100
AcDbEntity
  8
0
100
AcDbLine
 62
7
  6
CONTINUOUS
 10
5.3428955959
 20
5.7990821066
 11
5.3330514962
 21
5.7934377534
  0
LINE
  5
2FB
100
AcDbEntity
  8
0
100
AcDbLine
 62
7
  6
CONTINUOUS
 10
4.8620185141
 20
5.5298542515
 11
4.8520587316
 21
5.5244166277
  0
LINE
  5
2FC
100
AcDbEntity
  8
0
100
AcDbLine
 62
7
  6
CONTINUOUS
 10
5.3637281806
 20
5.9215835554
 11
5.3737016323
 21
5.9270213721
  0
LINE
  5
2FD
100
AcDbEntity
  8
0
100
AcDbLine
 62
7
  6
CONTINUOUS
 10
4.7350579154
 20
5.5845836156
 11
4.7451064123
 21
5.5898814736
  0
LINE
  5
2FE
100
AcDbEntity
  8
0
100
AcDbLine
 62
7
  6
CONTINUOUS
 10
5.3669949102
 20
5.7946759827
 11
5.3568620322
 21
5.7895681647
  0
LINE
  5
2FF
100
AcDbEntity
  8
0
100
AcDbLine
 62
7
  6
CONTINUOUS
 10
5.3876580597
 20
5.9172778905
 11
5.3978504752
 21
5.9222932926
  0
LINE
  5
300
100
AcDbEntity
  8
0
100
AcDbLine
 62
7
  6
CONTINUOUS
 10
4.8723598312
 20
5.5516481154
 11
4.8621225336
 21
5.5467529382
  0
LINE
  5
301
100
AcDbEntity
  8
0
100
AcDbLine
 62
7
  6
CONTINUOUS
 10
4.7454271524
 20
5.6068995353
 11
4.7556886864
 21
5.6117719588
  0
LINE
  5
302
100
AcDbEntity
  8
0
100
AcDbLine
 62
7
  6
CONTINUOUS
 10
5.3908229764
 20
5.7889826408
 11
5.3804305358
 21
5.7844260851
  0
LINE
  5
303
100
AcDbEntity
  8
0
100
AcDbLine
 62
7
  6
CONTINUOUS
 10
3.1517906605
 20
4.8961771869
 11
3.1413076645
 21
4.8918274428
  0
LINE
  5
304
100
AcDbEntity
  8
0
100
AcDbLine
 62
7
  6
CONTINUOUS
 10
4.883856061
 20
5.5728554737
 11
4.8733707652
 21
5.5685168571
  0
LINE
  5
305
100
AcDbEntity
  8
0
100
AcDbLine
 62
7
  6
CONTINUOUS
 10
3.6887061938
 20
5.1185673377
 11
3.6782178626
 21
5.1142304737
  0
LINE
  5
306
100
AcDbEntity
  8
0
100
AcDbLine
 62
7
  6
CONTINUOUS
 10
5.414311092
 20
5.7820184963
 11
5.4036890529
 21
5.7780263407
  0
LINE
  5
307
100
AcDbEntity
  8
0
100
AcDbLine
 62
7
  6
CONTINUOUS
 10
3.5787275064
 20
5.1630635768
 11
3.5680743338
 21
5.1591988016
  0
LINE
  5
308
100
AcDbEntity
  8
0
100
AcDbLine
 62
7
  6
CONTINUOUS
 10
3.1657589682
 20
5.0145132317
 11
3.1550844272
 21
5.0107078739
  0
LINE
  5
309
100
AcDbEntity
  8
0
100
AcDbLine
 62
7
  6
CONTINUOUS
 10
3.1282980203
 20
4.903136024
 11
3.1176017428
 21
4.8993408787
  0
LINE
  5
30A
100
AcDbEntity
  8
0
100
AcDbLine
 62
7
  6
CONTINUOUS
 10
3.6761167306
 20
5.0971214089
 11
3.6654157994
 21
5.0933394053
  0
LINE
  5
30B
100
AcDbEntity
  8
0
100
AcDbLine
 62
7
  6
CONTINUOUS
 10
4.8964740571
 20
5.5934151799
 11
4.8857709949
 21
5.5896456334
  0
LINE
  5
30C
100
AcDbEntity
  8
0
100
AcDbLine
 62
7
  6
CONTINUOUS
 10
5.4373915345
 20
5.7738036287
 11
5.426570523
 21
5.7703873835
  0
LINE
  5
30D
100
AcDbEntity
  8
0
100
AcDbLine
 62
7
  6
CONTINUOUS
 10
3.1052017733
 20
4.9113148341
 11
3.0943215321
 21
4.9080846898
  0
LINE
  5
30E
100
AcDbEntity
  8
0
100
AcDbLine
 62
7
  6
CONTINUOUS
 10
3.6624221277
 20
5.0763637527
 11
3.651537927
 21
5.0731469756
  0
LINE
  5
30F
100
AcDbEntity
  8
0
100
AcDbLine
 62
7
  6
CONTINUOUS
 10
4.9101774384
 20
5.6132679551
 11
4.8992874695
 21
5.6100783472
  0
LINE
  5
310
100
AcDbEntity
  8
0
100
AcDbLine
 62
7
  6
CONTINUOUS
 10
3.5652239694
 20
5.1424066294
 11
3.5543295452
 21
5.1392860375
  0
LINE
  5
311
100
AcDbEntity
  8
0
100
AcDbLine
 62
7
  6
CONTINUOUS
 10
5.5075429737
 20
2.5944804737
 11
5.0382929737
 21
2.5944804737
  0
LINE
  5
312
100
AcDbEntity
  8
DEFAULT_2
100
AcDbLine
 62
8
  6
HIDDEN
 10
2.8074817266
 20
5.3971497945
 11
2.8015456332
 21
5.4068232775
  0
LINE
  5
313
100
AcDbEntity
  8
0
100
AcDbLine
 62
7
  6
CONTINUOUS
 10
3.1111259798
 20
4.9016340667
 11
3.1052017733
 21
4.9113148341
  0
LINE
  5
314
100
AcDbEntity
  8
DEFAULT_2
100
AcDbLine
 62
8
  6
HIDDEN
 10
2.8106798303
 20
5.4214418033
 11
2.805258143
 21
5.4314127003
  0
LINE
  5
315
100
AcDbEntity
  8
0
100
AcDbLine
 62
7
  6
CONTINUOUS
 10
3.0879746601
 20
4.9107136502
 11
3.0825652247
 21
4.9206911995
  0
LINE
  5
316
100
AcDbEntity
  8
0
100
AcDbLine
 62
7
  6
CONTINUOUS
 10
3.1259624178
 20
5.0223312337
 11
3.1208417231
 21
5.0324408855
  0
LINE
  5
317
100
AcDbEntity
  8
DEFAULT_2
100
AcDbLine
 62
8
  6
HIDDEN
 10
2.9287173154
 20
5.4143830009
 11
2.9236530292
 21
5.4245210272
  0
LINE
  5
318
100
AcDbEntity
  8
DEFAULT_2
100
AcDbLine
 62
8
  6
HIDDEN
 10
2.8151448965
 20
5.445533145
 11
2.810252476
 21
5.4557741264
  0
LINE
  5
319
100
AcDbEntity
  8
0
100
AcDbLine
 62
7
  6
CONTINUOUS
 10
3.0653302571
 20
4.920992437
 11
3.0604504198
 21
4.9312394203
  0
LINE
  5
31A
100
AcDbEntity
  8
0
100
AcDbLine
 62
7
  6
CONTINUOUS
 10
3.1038284113
 20
5.0332463948
 11
3.0994173943
 21
5.0436852406
  0
LINE
  5
31B
100
AcDbEntity
  8
DEFAULT_2
100
AcDbLine
 62
8
  6
HIDDEN
 10
2.9341013904
 20
5.4379721747
 11
2.930873887
 21
5.4457304737
  0
LINE
  5
31C
100
AcDbEntity
  8
0
100
AcDbLine
 62
7
  6
CONTINUOUS
 10
2.930873887
 20
5.4457304737
 11
2.929748605
 21
5.4484354358
  0
LINE
  5
31D
100
AcDbEntity
  8
0
100
AcDbLine
 62
7
  6
CONTINUOUS
 10
3.5912854503
 20
5.2016276095
 11
3.5937763891
 21
5.1905722128
  0
LINE
  5
31E
100
AcDbEntity
  8
0
100
AcDbLine
 62
7
  6
CONTINUOUS
 10
3.5124747247
 20
5.6135959067
 11
3.5142593862
 21
5.6024047693
  0
LINE
  5
31F
100
AcDbEntity
  8
0
100
AcDbLine
 62
7
  6
CONTINUOUS
 10
3.580412568
 20
5.1800123876
 11
3.582134847
 21
5.1688114802
  0
LINE
  5
320
100
AcDbEntity
  8
0
100
AcDbLine
 62
7
  6
CONTINUOUS
 10
3.6782178626
 20
5.1142304737
 11
3.6797061938
 21
5.1029788804
  0
LINE
  5
321
100
AcDbEntity
  8
0
100
AcDbLine
 62
7
  6
CONTINUOUS
 10
3.6023694381
 20
5.6904098602
 11
3.6038439472
 21
5.6791564472
  0
LINE
  5
322
100
AcDbEntity
  8
0
100
AcDbLine
 62
7
  6
CONTINUOUS
 10
5.0535813969
 20
5.8856983481
 11
5.0592953951
 21
5.8955161796
  0
LINE
  5
323
100
AcDbEntity
  8
0
100
AcDbLine
 62
7
  6
CONTINUOUS
 10
4.6904143915
 20
5.2717724666
 11
4.6962650832
 21
5.2815094578
  0
LINE
  5
324
100
AcDbEntity
  8
0
100
AcDbLine
 62
7
  6
CONTINUOUS
 10
5.0762806109
 20
5.89441176
 11
5.0824007251
 21
5.9039817022
  0
LINE
  5
325
100
AcDbEntity
  8
0
100
AcDbLine
 62
7
  6
CONTINUOUS
 10
4.6877236171
 20
5.2962322516
 11
4.6939769196
 21
5.3057157002
  0
LINE
  5
326
100
AcDbEntity
  8
0
100
AcDbLine
 62
7
  6
CONTINUOUS
 10
5.0993247937
 20
5.9021669844
 11
5.1058402871
 21
5.9114722483
  0
LINE
  5
327
100
AcDbEntity
  8
0
100
AcDbLine
 62
7
  6
CONTINUOUS
 10
5.1487453909
 20
5.7872580721
 11
5.1421468944
 21
5.7780263407
  0
LINE
  5
328
100
AcDbEntity
  8
0
100
AcDbLine
 62
7
  6
CONTINUOUS
 10
4.6860594725
 20
5.3207832591
 11
4.6927044154
 21
5.329996528
  0
LINE
  5
329
100
AcDbEntity
  8
0
100
AcDbLine
 62
7
  6
CONTINUOUS
 10
4.823708461
 20
5.3421991997
 11
4.8169186865
 21
5.3331072262
  0
LINE
  5
32A
100
AcDbEntity
  8
0
100
AcDbLine
 62
7
  6
CONTINUOUS
 10
5.122673518
 20
5.9089504158
 11
5.1295729601
 21
5.9179746769
  0
LINE
  5
32B
100
AcDbEntity
  8
0
100
AcDbLine
 62
7
  6
CONTINUOUS
 10
4.685424877
 20
5.3453824184
 11
4.6924498028
 21
5.3543093443
  0
LINE
  5
32C
100
AcDbEntity
  8
0
100
AcDbLine
 62
7
  6
CONTINUOUS
 10
5.1724899236
 20
5.7932903227
 11
5.1654054115
 21
5.7844260851
  0
LINE
  5
32D
100
AcDbEntity
  8
0
100
AcDbLine
 62
7
  6
CONTINUOUS
 10
5.146285822
 20
5.914750154
 11
5.153557109
 21
5.9234775806
  0
LINE
  5
32E
100
AcDbEntity
  8
0
100
AcDbLine
 62
7
  6
CONTINUOUS
 10
4.8240323162
 20
5.3663199472
 11
4.8167643035
 21
5.3576055332
  0
LINE
  5
32F
100
AcDbEntity
  8
0
100
AcDbLine
 62
7
  6
CONTINUOUS
 10
4.6858209441
 20
5.3699865741
 11
4.6932135287
 21
5.3786114963
  0
LINE
  5
330
100
AcDbEntity
  8
0
100
AcDbLine
 62
7
  6
CONTINUOUS
 10
5.1965240164
 20
5.7980393506
 11
5.1889739151
 21
5.7895681647
  0
LINE
  5
331
100
AcDbEntity
  8
0
100
AcDbLine
 62
7
  6
CONTINUOUS
 10
5.1701202819
 20
5.9195560241
 11
5.1777506574
 21
5.9279713053
  0
LINE
  5
332
100
AcDbEntity
  8
0
100
AcDbLine
 62
7
  6
CONTINUOUS
 10
4.825650425
 20
5.3903885381
 11
4.8179251297
 21
5.3820768095
  0
LINE
  5
333
100
AcDbEntity
  8
0
100
AcDbLine
 62
7
  6
CONTINUOUS
 10
4.6872469789
 20
5.3945525622
 11
4.6949942532
 21
5.4028603495
  0
LINE
  5
334
100
AcDbEntity
  8
0
100
AcDbLine
 62
7
  6
CONTINUOUS
 10
5.2207783727
 20
5.801491463
 11
5.2127844511
 21
5.7934377534
  0
LINE
  5
335
100
AcDbEntity
  8
0
100
AcDbLine
 62
7
  6
CONTINUOUS
 10
4.8285581219
 20
5.4143355764
 11
4.820397818
 21
5.406450498
  0
LINE
  5
336
100
AcDbEntity
  8
0
100
AcDbLine
 62
7
  6
CONTINUOUS
 10
5.2451830609
 20
5.8036367067
 11
5.2367683677
 21
5.7960236943
  0
LINE
  5
337
100
AcDbEntity
  8
0
100
AcDbLine
 62
7
  6
CONTINUOUS
 10
4.8327470232
 20
5.4380920166
 11
4.8241752391
 21
5.4306563231
  0
LINE
  5
338
100
AcDbEntity
  8
DEFAULT_2
100
AcDbLine
 62
8
  6
HIDDEN
 10
2.8049179737
 20
5.3482304737
 11
2.7980032445
 21
5.3572304737
  0
LINE
  5
339
100
AcDbEntity
  8
0
100
AcDbLine
 62
7
  6
CONTINUOUS
 10
3.1586943294
 20
4.8871687
 11
3.1517906605
 21
4.8961771869
  0
LINE
  5
33A
100
AcDbEntity
  8
0
100
AcDbLine
 62
7
  6
CONTINUOUS
 10
3.1722225452
 20
5.005204701
 11
3.1657589682
 21
5.0145132317
  0
LINE
  5
33B
100
AcDbEntity
  8
DEFAULT_2
100
AcDbLine
 62
8
  6
HIDDEN
 10
2.8055593514
 20
5.3727237012
 11
2.7991251222
 21
5.3820732559
  0
LINE
  5
33C
100
AcDbEntity
  8
0
100
AcDbLine
 62
7
  6
CONTINUOUS
 10
3.1347207601
 20
4.8937785728
 11
3.1282980203
 21
4.903136024
  0
LINE
  5
33D
100
AcDbEntity
  8
DEFAULT_2
100
AcDbLine
 62
8
  6
HIDDEN
 10
2.922887825
 20
5.3663728278
 11
2.9164762136
 21
5.3757172278
  0
LINE
  5
33E
100
AcDbEntity
  8
0
100
AcDbLine
 62
7
  6
CONTINUOUS
 10
3.1487967344
 20
5.0129691309
 11
3.1429907645
 21
5.0227014115
  0
LINE
  5
33F
100
AcDbEntity
  8
DEFAULT_2
100
AcDbLine
 62
8
  6
HIDDEN
 10
2.9249735133
 20
5.3904785801
 11
2.9192218598
 21
5.4002430593
  0
LINE
  5
340
100
AcDbEntity
  8
0
100
AcDbLine
 62
7
  6
CONTINUOUS
 10
3.4527788166
 20
5.6571905474
 11
3.4568268966
 21
5.6466056704
  0
LINE
  5
341
100
AcDbEntity
  8
0
100
AcDbLine
 62
7
  6
CONTINUOUS
 10
3.6084351328
 20
5.2468476058
 11
3.6124241732
 21
5.236240338
  0
LINE
  5
342
100
AcDbEntity
  8
0
100
AcDbLine
 62
7
  6
CONTINUOUS
 10
3.4736657662
 20
5.6440455743
 11
3.476973938
 21
5.6332066365
  0
LINE
  5
343
100
AcDbEntity
  8
0
100
AcDbLine
 62
7
  6
CONTINUOUS
 10
3.6006411667
 20
5.2239414607
 11
3.6038888947
 21
5.2130842587
  0
LINE
  5
344
100
AcDbEntity
  8
0
100
AcDbLine
 62
7
  6
CONTINUOUS
 10
3.7098336133
 20
5.1805142733
 11
3.7130637575
 21
5.1696340321
  0
LINE
  5
345
100
AcDbEntity
  8
0
100
AcDbLine
 62
7
  6
CONTINUOUS
 10
3.5447846946
 20
5.7377346277
 11
3.5480014717
 21
5.726850427
  0
LINE
  5
346
100
AcDbEntity
  8
0
100
AcDbLine
 62
7
  6
CONTINUOUS
 10
3.7004572478
 20
5.1578777247
 11
3.7031135375
 21
5.1468433418
  0
LINE
  5
347
100
AcDbEntity
  8
0
100
AcDbLine
 62
7
  6
CONTINUOUS
 10
3.5647971831
 20
5.722972421
 11
3.5674399167
 21
5.7119347836
  0
LINE
  5
348
100
AcDbEntity
  8
0
100
AcDbLine
 62
7
  6
CONTINUOUS
 10
3.4935960612
 20
5.6294909075
 11
3.4961485598
 21
5.6184495614
  0
LINE
  5
349
100
AcDbEntity
  8
0
100
AcDbLine
 62
7
  6
CONTINUOUS
 10
3.689909027
 20
5.1357629198
 11
3.6919841813
 21
5.1246046397
  0
LINE
  5
34A
100
AcDbEntity
  8
0
100
AcDbLine
 62
7
  6
CONTINUOUS
 10
3.5840096509
 20
5.7071830726
 11
3.5860710974
 21
5.696022252
  0
LINE
  5
34B
100
AcDbEntity
  8
0
100
AcDbLine
 62
7
  6
CONTINUOUS
 10
4.9268094337
 20
5.814266018
 11
4.9299023208
 21
5.8251964178
  0
LINE
  5
34C
100
AcDbEntity
  8
0
100
AcDbLine
 62
7
  6
CONTINUOUS
 10
4.7277291459
 20
5.1293117854
 11
4.7309745361
 21
5.1401978789
  0
LINE
  5
34D
100
AcDbEntity
  8
0
100
AcDbLine
 62
7
  6
CONTINUOUS
 10
4.9466285728
 20
5.828350747
 11
4.9501764645
 21
5.8391420423
  0
LINE
  5
34E
100
AcDbEntity
  8
0
100
AcDbLine
 62
7
  6
CONTINUOUS
 10
4.7190400059
 20
5.1523339529
 11
4.7227384116
 21
5.1630745946
  0
LINE
  5
34F
100
AcDbEntity
  8
0
100
AcDbLine
 62
7
  6
CONTINUOUS
 10
5.0367220989
 20
5.7385836102
 11
5.0328092013
 21
5.7279321196
  0
LINE
  5
350
100
AcDbEntity
  8
0
100
AcDbLine
 62
7
  6
CONTINUOUS
 10
4.9670201344
 20
5.8415931819
 11
4.9710168065
 21
5.8522264412
  0
LINE
  5
351
100
AcDbEntity
  8
0
100
AcDbLine
 62
7
  6
CONTINUOUS
 10
4.841405212
 20
5.223241278
 11
4.8372708131
 21
5.2126737917
  0
LINE
  5
352
100
AcDbEntity
  8
0
100
AcDbLine
 62
7
  6
CONTINUOUS
 10
4.7113225561
 20
5.1756997894
 11
4.7154674891
 21
5.1862761366
  0
LINE
  5
353
100
AcDbEntity
  8
0
100
AcDbLine
 62
7
  6
CONTINUOUS
 10
4.9879483447
 20
5.853970091
 11
4.9923867857
 21
5.8644266598
  0
LINE
  5
354
100
AcDbEntity
  8
0
100
AcDbLine
 62
7
  6
CONTINUOUS
 10
5.0580154466
 20
5.7506990642
 11
5.0535364538
 21
5.7402729602
  0
LINE
  5
355
100
AcDbEntity
  8
0
100
AcDbLine
 62
7
  6
CONTINUOUS
 10
4.7045903355
 20
5.1993683034
 11
4.7091745242
 21
5.2097618015
  0
LINE
  5
356
100
AcDbEntity
  8
0
100
AcDbLine
 62
7
  6
CONTINUOUS
 10
4.8353182947
 20
5.2465836168
 11
4.8306226291
 21
5.2362532855
  0
LINE
  5
357
100
AcDbEntity
  8
0
100
AcDbLine
 62
7
  6
CONTINUOUS
 10
5.0093764886
 20
5.8654597609
 11
5.014248912
 21
5.8757212949
  0
LINE
  5
358
100
AcDbEntity
  8
0
100
AcDbLine
 62
7
  6
CONTINUOUS
 10
4.6988551547
 20
5.2232979721
 11
4.7038705568
 21
5.2334903876
  0
LINE
  5
359
100
AcDbEntity
  8
0
100
AcDbLine
 62
7
  6
CONTINUOUS
 10
5.0799284139
 20
5.761654097
 11
5.07489624
 21
5.7514834408
  0
LINE
  5
35A
100
AcDbEntity
  8
0
100
AcDbLine
 62
7
  6
CONTINUOUS
 10
4.8304930906
 20
5.2702190298
 11
4.825249697
 21
5.2601556386
  0
LINE
  5
35B
100
AcDbEntity
  8
0
100
AcDbLine
 62
7
  6
CONTINUOUS
 10
5.0312669737
 20
5.876042035
 11
5.0365648317
 21
5.8860905319
  0
LINE
  5
35C
100
AcDbEntity
  8
0
100
AcDbLine
 62
7
  6
CONTINUOUS
 10
4.6941270752
 20
5.247446815
 11
4.6995648919
 21
5.2574202667
  0
LINE
  5
35D
100
AcDbEntity
  8
0
100
AcDbLine
 62
7
  6
CONTINUOUS
 10
5.10239782
 20
5.7714171224
 11
5.0968269742
 21
5.7615312387
  0
LINE
  5
35E
100
AcDbEntity
  8
0
100
AcDbLine
 62
7
  6
CONTINUOUS
 10
4.826943512
 20
5.29407937
 11
4.8211675085
 21
5.2843119342
  0
LINE
  5
35F
100
AcDbEntity
  8
0
100
AcDbLine
 62
7
  6
CONTINUOUS
 10
5.1253588799
 20
5.7799599912
 11
5.1192654243
 21
5.7703873835
  0
LINE
  5
360
100
AcDbEntity
  8
0
100
AcDbLine
 62
7
  6
CONTINUOUS
 10
4.8246797931
 20
5.3180958419
 11
4.8183878334
 21
5.3086525234
  0
LINE
  5
361
100
AcDbEntity
  8
0
100
AcDbLine
 62
7
  6
CONTINUOUS
 10
5.6787930814
 20
5.1556403404
 11
5.688895263
 21
5.1608086039
  0
LINE
  5
362
100
AcDbEntity
  8
DEFAULT_2
100
AcDbLine
 62
8
  6
HIDDEN
 10
5.1668887834
 20
4.9044716728
 11
5.1771551434
 21
4.9093056021
  0
LINE
  5
363
100
AcDbEntity
  8
0
100
AcDbLine
 62
7
  6
CONTINUOUS
 10
5.6678703706
 20
5.1341319762
 11
5.6782354036
 21
5.1387505379
  0
LINE
  5
364
100
AcDbEntity
  8
0
100
AcDbLine
 62
7
  6
CONTINUOUS
 10
7.3940452868
 20
5.8002837604
 11
7.4045282828
 21
5.8046335045
  0
LINE
  5
365
100
AcDbEntity
  8
0
100
AcDbLine
 62
7
  6
CONTINUOUS
 10
6.8571297535
 20
5.5778936096
 11
6.8676180847
 21
5.5822304737
  0
LINE
  5
366
100
AcDbEntity
  8
DEFAULT_2
100
AcDbLine
 62
8
  6
HIDDEN
 10
5.1432221614
 20
4.9108026982
 11
5.1537331901
 21
4.9150785951
  0
LINE
  5
367
100
AcDbEntity
  8
0
100
AcDbLine
 62
7
  6
CONTINUOUS
 10
5.6558089099
 20
5.1132409133
 11
5.6664069091
 21
5.1172964567
  0
LINE
  5
368
100
AcDbEntity
  8
0
100
AcDbLine
 62
7
  6
CONTINUOUS
 10
6.9671084409
 20
5.5333973705
 11
6.9777616135
 21
5.5372621457
  0
LINE
  5
369
100
AcDbEntity
  8
0
100
AcDbLine
 62
7
  6
CONTINUOUS
 10
7.3800769791
 20
5.6819477156
 11
7.3907515201
 21
5.6857530734
  0
LINE
  5
36A
100
AcDbEntity
  8
0
100
AcDbLine
 62
7
  6
CONTINUOUS
 10
7.417537927
 20
5.7933249233
 11
7.4282342045
 21
5.7971200686
  0
LINE
  5
36B
100
AcDbEntity
  8
0
100
AcDbLine
 62
7
  6
CONTINUOUS
 10
6.8697192167
 20
5.5993395384
 11
6.8804201479
 21
5.603121542
  0
LINE
  5
36C
100
AcDbEntity
  8
DEFAULT_2
100
AcDbLine
 62
8
  6
HIDDEN
 10
5.1199294859
 20
4.918394941
 11
5.1306548774
 21
4.9221004771
  0
LINE
  5
36D
100
AcDbEntity
  8
0
100
AcDbLine
 62
7
  6
CONTINUOUS
 10
5.6426434754
 20
5.0930273862
 11
5.6534438842
 21
5.0965082181
  0
LINE
  5
36E
100
AcDbEntity
  8
0
100
AcDbLine
 62
7
  6
CONTINUOUS
 10
7.440634174
 20
5.7851461133
 11
7.4515144152
 21
5.7883762575
  0
LINE
  5
36F
100
AcDbEntity
  8
0
100
AcDbLine
 62
7
  6
CONTINUOUS
 10
6.8834138196
 20
5.6200971946
 11
6.8942980203
 21
5.6233139717
  0
LINE
  5
370
100
AcDbEntity
  8
0
100
AcDbLine
 62
7
  6
CONTINUOUS
 10
6.9806119779
 20
5.5540543179
 11
6.9915064021
 21
5.5571749098
  0
LINE
  5
371
100
AcDbEntity
  8
DEFAULT_2
100
AcDbLine
 62
8
  6
HIDDEN
 10
5.0970779159
 20
4.927226511
 11
5.1079867461
 21
4.9303510022
  0
LINE
  5
372
100
AcDbEntity
  8
DEFAULT_2
100
AcDbLine
 62
8
  6
HIDDEN
 10
2.8074817266
 20
5.2993111528
 11
2.7996641209
 21
5.3075390639
  0
LINE
  5
373
100
AcDbEntity
  8
0
100
AcDbLine
 62
7
  6
CONTINUOUS
 10
3.2075141371
 20
4.8777548227
 11
3.199706644
 21
4.8859923303
  0
LINE
  5
374
100
AcDbEntity
  8
0
100
AcDbLine
 62
7
  6
CONTINUOUS
 10
3.2203998242
 20
4.9946090744
 11
3.2127164255
 21
5.002939258
  0
LINE
  5
375
100
AcDbEntity
  8
DEFAULT_2
100
AcDbLine
 62
8
  6
HIDDEN
 10
2.9237225978
 20
5.3180172405
 11
2.9160857325
 21
5.3263901051
  0
LINE
  5
376
100
AcDbEntity
  8
DEFAULT_2
100
AcDbLine
 62
8
  6
HIDDEN
 10
2.8055593514
 20
5.3237372461
 11
2.798183075
 21
5.332363023
  0
LINE
  5
377
100
AcDbEntity
  8
0
100
AcDbLine
 62
7
  6
CONTINUOUS
 10
3.1829809777
 20
4.8818225655
 11
3.1756153023
 21
4.8904573965
  0
LINE
  5
378
100
AcDbEntity
  8
0
100
AcDbLine
 62
7
  6
CONTINUOUS
 10
3.1961282156
 20
4.9990749452
 11
3.1890378333
 21
5.0079153666
  0
LINE
  5
379
100
AcDbEntity
  8
DEFAULT_2
100
AcDbLine
 62
8
  6
HIDDEN
 10
2.9224701897
 20
5.342180619
 11
2.9154291746
 21
5.3510604095
  0
LINE
  5
37A
100
AcDbEntity
  8
0
100
AcDbLine
 62
7
  6
CONTINUOUS
 10
3.4085371812
 20
5.6790078618
 11
3.4140037708
 21
5.6690809806
  0
LINE
  5
37B
100
AcDbEntity
  8
0
100
AcDbLine
 62
7
  6
CONTINUOUS
 10
3.6191968665
 20
5.2939978418
 11
3.6246080607
 21
5.2840406559
  0
LINE
  5
37C
100
AcDbEntity
  8
0
100
AcDbLine
 62
7
  6
CONTINUOUS
 10
3.7306910508
 20
5.2509278023
 11
3.7355834713
 21
5.2406868209
  0
LINE
  5
37D
100
AcDbEntity
  8
0
100
AcDbLine
 62
7
  6
CONTINUOUS
 10
3.4805056902
 20
5.7754685103
 11
3.4853855275
 21
5.765221527
  0
LINE
  5
37E
100
AcDbEntity
  8
0
100
AcDbLine
 62
7
  6
CONTINUOUS
 10
3.4310347481
 20
5.6688631851
 11
3.4358034455
 21
5.6585828106
  0
LINE
  5
37F
100
AcDbEntity
  8
0
100
AcDbLine
 62
7
  6
CONTINUOUS
 10
3.6146302069
 20
5.2702368863
 11
3.61934155
 21
5.2599301012
  0
LINE
  5
380
100
AcDbEntity
  8
0
100
AcDbLine
 62
7
  6
CONTINUOUS
 10
3.7249712604
 20
5.2271031605
 11
3.7293210045
 21
5.2166201645
  0
LINE
  5
381
100
AcDbEntity
  8
0
100
AcDbLine
 62
7
  6
CONTINUOUS
 10
3.5025811096
 20
5.7640186938
 11
3.5069179737
 21
5.7535303626
  0
LINE
  5
382
100
AcDbEntity
  8
0
100
AcDbLine
 62
7
  6
CONTINUOUS
 10
3.7180124233
 20
5.2036105203
 11
3.7218075686
 21
5.1929142428
  0
LINE
  5
383
100
AcDbEntity
  8
0
100
AcDbLine
 62
7
  6
CONTINUOUS
 10
3.5240270384
 20
5.7514292306
 11
3.527809042
 21
5.7407282994
  0
LINE
  5
384
100
AcDbEntity
  8
0
100
AcDbLine
 62
7
  6
CONTINUOUS
 10
4.8374784977
 20
5.7321220115
 11
4.8382312398
 21
5.7434566032
  0
LINE
  5
385
100
AcDbEntity
  8
0
100
AcDbLine
 62
7
  6
CONTINUOUS
 10
4.7851585844
 20
5.020744553
 11
4.786069709
 21
5.0320675138
  0
LINE
  5
386
100
AcDbEntity
  8
0
100
AcDbLine
 62
7
  6
CONTINUOUS
 10
4.8539361612
 20
5.7500195861
 11
4.8551628865
 21
5.7613127139
  0
LINE
  5
387
100
AcDbEntity
  8
0
100
AcDbLine
 62
7
  6
CONTINUOUS
 10
4.7718727453
 20
5.0414570571
 11
4.773257227
 21
5.0527319318
  0
LINE
  5
388
100
AcDbEntity
  8
0
100
AcDbLine
 62
7
  6
CONTINUOUS
 10
4.9589423139
 20
5.6792642296
 11
4.9573898349
 21
5.6680234632
  0
LINE
  5
389
100
AcDbEntity
  8
0
100
AcDbLine
 62
7
  6
CONTINUOUS
 10
4.8711288612
 20
5.7672122861
 11
4.8728274176
 21
5.7784441379
  0
LINE
  5
38A
100
AcDbEntity
  8
0
100
AcDbLine
 62
7
  6
CONTINUOUS
 10
4.8779655767
 20
5.1341319762
 11
4.8761787807
 21
5.1229260679
  0
LINE
  5
38B
100
AcDbEntity
  8
0
100
AcDbLine
 62
7
  6
CONTINUOUS
 10
4.7594659097
 20
5.062707746
 11
4.7613213197
 21
5.0739147546
  0
LINE
  5
38C
100
AcDbEntity
  8
0
100
AcDbLine
 62
7
  6
CONTINUOUS
 10
4.9771637268
 20
5.6956401568
 11
4.9750101194
 21
5.6844989273
  0
LINE
  5
38D
100
AcDbEntity
  8
0
100
AcDbLine
 62
7
  6
CONTINUOUS
 10
4.8890264358
 20
5.7836699496
 11
4.8911938434
 21
5.794820821
  0
LINE
  5
38E
100
AcDbEntity
  8
0
100
AcDbLine
 62
7
  6
CONTINUOUS
 10
4.7479598435
 20
5.0844593388
 11
4.7502829269
 21
5.0955788205
  0
LINE
  5
38F
100
AcDbEntity
  8
0
100
AcDbLine
 62
7
  6
CONTINUOUS
 10
4.8670428659
 20
5.1556403404
 11
4.8646571504
 21
5.1445464961
  0
LINE
  5
390
100
AcDbEntity
  8
0
100
AcDbLine
 62
7
  6
CONTINUOUS
 10
4.9075974866
 20
5.7993637043
 11
4.910229943
 21
5.8104140329
  0
LINE
  5
391
100
AcDbEntity
  8
0
100
AcDbLine
 62
7
  6
CONTINUOUS
 10
4.9962378757
 20
5.711014412
 11
4.9934893494
 21
5.7000048423
  0
LINE
  5
392
100
AcDbEntity
  8
0
100
AcDbLine
 62
7
  6
CONTINUOUS
 10
4.7373747323
 20
5.1066736757
 11
4.7401614134
 21
5.1176861231
  0
LINE
  5
393
100
AcDbEntity
  8
0
100
AcDbLine
 62
7
  6
CONTINUOUS
 10
4.8572903981
 20
5.1777039919
 11
4.8543126418
 21
5.166754198
  0
LINE
  5
394
100
AcDbEntity
  8
0
100
AcDbLine
 62
7
  6
CONTINUOUS
 10
5.016109765
 20
5.7253426671
 11
5.0127742445
 21
5.7144965008
  0
LINE
  5
395
100
AcDbEntity
  8
0
100
AcDbLine
 62
7
  6
CONTINUOUS
 10
4.8487362923
 20
5.2002593154
 11
4.8451750807
 21
5.1894851429
  0
LINE
  5
396
100
AcDbEntity
  8
DEFAULT_2
100
AcDbLine
 62
8
  6
HIDDEN
 10
5.3372079275
 20
4.8965327159
 11
5.3449827416
 21
4.9047981432
  0
LINE
  5
397
100
AcDbEntity
  8
0
100
AcDbLine
 62
7
  6
CONTINUOUS
 10
5.7188924353
 20
5.29407937
 11
5.7268380991
 21
5.3021806939
  0
LINE
  5
398
100
AcDbEntity
  8
DEFAULT_2
100
AcDbLine
 62
8
  6
HIDDEN
 10
5.312869632
 20
4.8937330287
 11
5.3210768979
 21
4.9015692144
  0
LINE
  5
399
100
AcDbEntity
  8
0
100
AcDbLine
 62
7
  6
CONTINUOUS
 10
5.7153428567
 20
5.2702190298
 11
5.7237119175
 21
5.2778821781
  0
LINE
  5
39A
100
AcDbEntity
  8
DEFAULT_2
100
AcDbLine
 62
8
  6
HIDDEN
 10
5.2884161454
 20
4.8922437752
 11
5.2970321995
 21
4.8996281257
  0
LINE
  5
39B
100
AcDbEntity
  8
DEFAULT_2
100
AcDbLine
 62
8
  6
HIDDEN
 10
5.3032989963
 20
4.7685260287
 11
5.2946740741
 21
4.7611334441
  0
LINE
  5
39C
100
AcDbEntity
  8
0
100
AcDbLine
 62
7
  6
CONTINUOUS
 10
5.8481650806
 20
5.228869609
 11
5.839437654
 21
5.221598322
  0
LINE
  5
39D
100
AcDbEntity
  8
0
100
AcDbLine
 62
7
  6
CONTINUOUS
 10
5.7105176526
 20
5.2465836168
 11
5.7192859803
 21
5.2537864947
  0
LINE
  5
39E
100
AcDbEntity
  8
DEFAULT_2
100
AcDbLine
 62
8
  6
HIDDEN
 10
5.2789968443
 20
4.7677623028
 11
5.2700699184
 21
4.760737377
  0
LINE
  5
39F
100
AcDbEntity
  8
DEFAULT_2
100
AcDbLine
 62
8
  6
HIDDEN
 10
5.2639179737
 20
4.8920692494
 11
5.2729179737
 21
4.8989804737
  0
LINE
  5
3A0
100
AcDbEntity
  8
0
100
AcDbLine
 62
7
  6
CONTINUOUS
 10
5.8426621769
 20
5.2048854601
 11
5.8336379158
 21
5.197986018
  0
LINE
  5
3A1
100
AcDbEntity
  8
0
100
AcDbLine
 62
7
  6
CONTINUOUS
 10
5.7044307353
 20
5.223241278
 11
5.7135730485
 21
5.2299631177
  0
LINE
  5
3A2
100
AcDbEntity
  8
DEFAULT_2
100
AcDbLine
 62
8
  6
HIDDEN
 10
5.254684028
 20
4.7680169154
 11
5.2454707591
 21
4.7613719725
  0
LINE
  5
3A3
100
AcDbEntity
  8
0
100
AcDbLine
 62
7
  6
CONTINUOUS
 10
5.8361597483
 20
5.1811527871
 11
5.8268544844
 21
5.1746372937
  0
LINE
  5
3A4
100
AcDbEntity
  8
DEFAULT_2
100
AcDbLine
 62
8
  6
HIDDEN
 10
5.2394457512
 20
4.8932099545
 11
5.2488037478
 21
4.8996281257
  0
LINE
  5
3A5
100
AcDbEntity
  8
DEFAULT_2
100
AcDbLine
 62
8
  6
HIDDEN
 10
5.2304032002
 20
4.7692894196
 11
5.2209197516
 21
4.7630361171
  0
LINE
  5
3A6
100
AcDbEntity
  8
0
100
AcDbLine
 62
7
  6
CONTINUOUS
 10
5.697099655
 20
5.2002593154
 11
5.7065895941
 21
5.2064807361
  0
LINE
  5
3A7
100
AcDbEntity
  8
0
100
AcDbLine
 62
7
  6
CONTINUOUS
 10
5.8286692022
 20
5.1577132251
 11
5.81909926
 21
5.1515931109
  0
LINE
  5
3A8
100
AcDbEntity
  8
DEFAULT_2
100
AcDbLine
 62
8
  6
HIDDEN
 10
5.2150700378
 20
4.8956626016
 11
5.2247590494
 21
4.9015692144
  0
LINE
  5
3A9
100
AcDbEntity
  8
DEFAULT_2
100
AcDbLine
 62
8
  6
HIDDEN
 10
5.2061969578
 20
4.7715775832
 11
5.1964599666
 21
4.7657268915
  0
LINE
  5
3AA
100
AcDbEntity
  8
0
100
AcDbLine
 62
7
  6
CONTINUOUS
 10
5.8202036796
 20
5.1346078951
 11
5.8103858481
 21
5.1288938969
  0
LINE
  5
3AB
100
AcDbEntity
  8
0
100
AcDbLine
 62
7
  6
CONTINUOUS
 10
5.6885455492
 20
5.1777039919
 11
5.6983557522
 21
5.1834070557
  0
LINE
  5
3AC
100
AcDbEntity
  8
DEFAULT_2
100
AcDbLine
 62
8
  6
HIDDEN
 10
5.1821077667
 20
4.7748773919
 11
5.172134315
 21
4.7694395752
  0
LINE
  5
3AD
100
AcDbEntity
  8
0
100
AcDbLine
 62
7
  6
CONTINUOUS
 10
7.3461293033
 20
5.810468617
 11
7.3561002003
 21
5.8158903043
  0
LINE
  5
3AE
100
AcDbEntity
  8
0
100
AcDbLine
 62
7
  6
CONTINUOUS
 10
6.8354011502
 20
5.5331737872
 11
6.8453786995
 21
5.5385832226
  0
LINE
  5
3AF
100
AcDbEntity
  8
DEFAULT_2
100
AcDbLine
 62
8
  6
HIDDEN
 10
5.190861115
 20
4.899420119
 11
5.2008532057
 21
4.9047981432
  0
LINE
  5
3B0
100
AcDbEntity
  8
0
100
AcDbLine
 62
7
  6
CONTINUOUS
 10
5.8107780319
 20
5.1118773317
 11
5.800729535
 21
5.1065794737
  0
LINE
  5
3B1
100
AcDbEntity
  8
DEFAULT_2
100
AcDbLine
 62
8
  6
HIDDEN
 10
5.1581778876
 20
4.7791830568
 11
5.1479854721
 21
4.7741676547
  0
LINE
  5
3B2
100
AcDbEntity
  8
0
100
AcDbLine
 62
7
  6
CONTINUOUS
 10
7.370220645
 20
5.8060035508
 11
7.3804616264
 21
5.8108959713
  0
LINE
  5
3B3
100
AcDbEntity
  8
0
100
AcDbLine
 62
7
  6
CONTINUOUS
 10
6.845679937
 20
5.5558181902
 11
6.8559269203
 21
5.5606980275
  0
LINE
  5
3B4
100
AcDbEntity
  8
0
100
AcDbLine
 62
7
  6
CONTINUOUS
 10
5.8004087949
 20
5.089561412
 11
5.7901472609
 21
5.0846889886
  0
LINE
  5
3B5
100
AcDbEntity
  8
0
100
AcDbLine
 62
7
  6
CONTINUOUS
 10
6.9550622257
 20
5.5118580186
 11
6.9654233793
 21
5.5164485597
  0
LINE
  5
3B6
100
AcDbEntity
  8
DEFAULT_2
100
AcDbLine
 62
8
  6
HIDDEN
 10
5.1344493015
 20
4.7844870242
 11
5.1240558034
 21
4.7799028355
  0
LINE
  5
3B7
100
AcDbEntity
  8
0
100
AcDbLine
 62
7
  6
CONTINUOUS
 10
7.356798114
 20
5.6885455807
 11
7.3671846844
 21
5.6930783202
  0
LINE
  5
3B8
100
AcDbEntity
  8
0
100
AcDbLine
 62
7
  6
CONTINUOUS
 10
5.7891141598
 20
5.0676992857
 11
5.778657591
 21
5.0632608447
  0
LINE
  5
3B9
100
AcDbEntity
  8
DEFAULT_2
100
AcDbLine
 62
8
  6
HIDDEN
 10
5.1109636366
 20
4.7907799891
 11
5.1003872894
 21
4.7866350561
  0
LINE
  5
3BA
100
AcDbEntity
  8
0
100
AcDbLine
 62
7
  6
CONTINUOUS
 10
5.7769139412
 20
5.0463293065
 11
5.7662806819
 21
5.0423326344
  0
LINE
  5
3BB
100
AcDbEntity
  8
DEFAULT_2
100
AcDbLine
 62
8
  6
HIDDEN
 10
5.0877620946
 20
4.7980509116
 11
5.0770214529
 21
4.7943525059
  0
LINE
  5
3BC
100
AcDbEntity
  8
0
100
AcDbLine
 62
7
  6
CONTINUOUS
 10
5.7638295423
 20
5.0254889645
 11
5.753038247
 21
5.0219410728
  0
LINE
  5
3BD
100
AcDbEntity
  8
DEFAULT_2
100
AcDbLine
 62
8
  6
HIDDEN
 10
5.0648853789
 20
4.8062870361
 11
5.0539992854
 21
4.8030416459
  0
LINE
  5
3BE
100
AcDbEntity
  8
DEFAULT_2
100
AcDbLine
 62
8
  6
HIDDEN
 10
2.8208646869
 20
5.2271031605
 11
2.8118562
 21
5.2340068294
  0
LINE
  5
3BF
100
AcDbEntity
  8
0
100
AcDbLine
 62
7
  6
CONTINUOUS
 10
3.2819179737
 20
4.8733157445
 11
3.2729179737
 21
4.8802304737
  0
LINE
  5
3C0
100
AcDbEntity
  8
DEFAULT_2
100
AcDbLine
 62
8
  6
HIDDEN
 10
2.9312057404
 20
5.2702368863
 11
2.9224890205
 21
5.2774788036
  0
LINE
  5
3C1
100
AcDbEntity
  8
DEFAULT_2
100
AcDbLine
 62
8
  6
HIDDEN
 10
2.8151448965
 20
5.2509278023
 11
2.8065100655
 21
5.2582934777
  0
LINE
  5
3C2
100
AcDbEntity
  8
0
100
AcDbLine
 62
7
  6
CONTINUOUS
 10
3.257050523
 20
4.873495575
 11
3.2484247461
 21
4.8808718514
  0
LINE
  5
3C3
100
AcDbEntity
  8
0
100
AcDbLine
 62
7
  6
CONTINUOUS
 10
3.2449217056
 20
4.9918283707
 11
3.2366819056
 21
4.9996086192
  0
LINE
  5
3C4
100
AcDbEntity
  8
DEFAULT_2
100
AcDbLine
 62
8
  6
HIDDEN
 10
2.8106798303
 20
5.275019144
 11
2.8024423227
 21
5.2828266371
  0
LINE
  5
3C5
100
AcDbEntity
  8
0
100
AcDbLine
 62
7
  6
CONTINUOUS
 10
3.2322265639
 20
4.8749766209
 11
3.2239986528
 21
4.8827942266
  0
LINE
  5
3C6
100
AcDbEntity
  8
DEFAULT_2
100
AcDbLine
 62
8
  6
HIDDEN
 10
2.9266390808
 20
5.2939978418
 11
2.9184427586
 21
5.3018238801
  0
LINE
  5
3C7
100
AcDbEntity
  8
0
100
AcDbLine
 62
7
  6
CONTINUOUS
 10
3.3617134765
 20
5.6945274685
 11
3.3684944967
 21
5.6854475821
  0
LINE
  5
3C8
100
AcDbEntity
  8
0
100
AcDbLine
 62
7
  6
CONTINUOUS
 10
3.6233657576
 20
5.342180619
 11
3.6300960812
 21
5.333063091
  0
LINE
  5
3C9
100
AcDbEntity
  8
0
100
AcDbLine
 62
7
  6
CONTINUOUS
 10
3.385393327
 20
5.6875762337
 11
3.3915317581
 21
5.6780501519
  0
LINE
  5
3CA
100
AcDbEntity
  8
0
100
AcDbLine
 62
7
  6
CONTINUOUS
 10
3.6221133495
 20
5.3180172405
 11
3.6281986079
 21
5.3084571044
  0
LINE
  5
3CB
100
AcDbEntity
  8
0
100
AcDbLine
 62
7
  6
CONTINUOUS
 10
3.7383542207
 20
5.2993111528
 11
3.7442903141
 21
5.2896376698
  0
LINE
  5
3CC
100
AcDbEntity
  8
0
100
AcDbLine
 62
7
  6
CONTINUOUS
 10
3.4347099675
 20
5.7948268806
 11
3.440634174
 21
5.7851461133
  0
LINE
  5
3CD
100
AcDbEntity
  8
0
100
AcDbLine
 62
7
  6
CONTINUOUS
 10
3.735156117
 20
5.275019144
 11
3.7405778043
 21
5.265048247
  0
LINE
  5
3CE
100
AcDbEntity
  8
0
100
AcDbLine
 62
7
  6
CONTINUOUS
 10
3.4578612872
 20
5.7857472971
 11
3.4632707226
 21
5.7757697478
  0
LINE
  5
3CF
100
AcDbEntity
  8
0
100
AcDbLine
 62
7
  6
CONTINUOUS
 10
4.7795552654
 20
5.6541283129
 11
4.7784072105
 21
5.6654297093
  0
LINE
  5
3D0
100
AcDbEntity
  8
0
100
AcDbLine
 62
7
  6
CONTINUOUS
 10
4.8466035654
 20
4.9439876317
 11
4.8456136146
 21
4.9553039733
  0
LINE
  5
3D1
100
AcDbEntity
  8
0
100
AcDbLine
 62
7
  6
CONTINUOUS
 10
4.8955947561
 20
5.6047285282
 11
4.8964740571
 21
5.5934151799
  0
LINE
  5
3D2
100
AcDbEntity
  8
0
100
AcDbLine
 62
7
  6
CONTINUOUS
 10
4.7927977003
 20
5.6745198745
 11
4.7921239058
 21
5.6858594332
  0
LINE
  5
3D3
100
AcDbEntity
  8
0
100
AcDbLine
 62
7
  6
CONTINUOUS
 10
4.9326803509
 20
5.0548639409
 11
4.9333232897
 21
5.0435347022
  0
LINE
  5
3D4
100
AcDbEntity
  8
0
100
AcDbLine
 62
7
  6
CONTINUOUS
 10
4.8300495823
 20
4.9621944158
 11
4.829534379
 21
4.9735422859
  0
LINE
  5
3D5
100
AcDbEntity
  8
0
100
AcDbLine
 62
7
  6
CONTINUOUS
 10
4.9099066674
 20
5.6246121917
 11
4.9101774384
 21
5.6132679551
  0
LINE
  5
3D6
100
AcDbEntity
  8
0
100
AcDbLine
 62
7
  6
CONTINUOUS
 10
4.8068824293
 20
5.6943390136
 11
4.8066840773
 21
5.7056968411
  0
LINE
  5
3D7
100
AcDbEntity
  8
0
100
AcDbLine
 62
7
  6
CONTINUOUS
 10
4.8142725408
 20
4.9810784385
 11
4.814232989
 21
4.992437929
  0
LINE
  5
3D8
100
AcDbEntity
  8
0
100
AcDbLine
 62
7
  6
CONTINUOUS
 10
4.9174239207
 20
5.0735496756
 11
4.9174578173
 21
5.0622022587
  0
LINE
  5
3D9
100
AcDbEntity
  8
0
100
AcDbLine
 62
7
  6
CONTINUOUS
 10
4.821784743
 20
5.7135509607
 11
4.8220621814
 21
5.7249071316
  0
LINE
  5
3DA
100
AcDbEntity
  8
0
100
AcDbLine
 62
7
  6
CONTINUOUS
 10
4.9252652343
 20
5.6436989751
 11
4.9249266946
 21
5.6323565586
  0
LINE
  5
3DB
100
AcDbEntity
  8
0
100
AcDbLine
 62
7
  6
CONTINUOUS
 10
4.7993001193
 20
5.0006065705
 11
4.7997362882
 21
5.0119577531
  0
LINE
  5
3DC
100
AcDbEntity
  8
0
100
AcDbLine
 62
7
  6
CONTINUOUS
 10
4.9031924719
 20
5.0930273862
 11
4.9026172286
 21
5.0816945085
  0
LINE
  5
3DD
100
AcDbEntity
  8
0
100
AcDbLine
 62
7
  6
CONTINUOUS
 10
4.9416261741
 20
5.6619338464
 11
4.9406792997
 21
5.6506259531
  0
LINE
  5
3DE
100
AcDbEntity
  8
0
100
AcDbLine
 62
7
  6
CONTINUOUS
 10
4.8900270374
 20
5.1132409133
 11
4.8888443127
 21
5.1019552506
  0
LINE
  5
3DF
100
AcDbEntity
  8
DEFAULT_2
100
AcDbLine
 62
8
  6
HIDDEN
 10
5.4547383716
 20
4.9297744958
 11
5.4600417932
 21
4.939806382
  0
LINE
  5
3E0
100
AcDbEntity
  8
0
100
AcDbLine
 62
7
  6
CONTINUOUS
 10
5.7172778254
 20
5.4143355764
 11
5.7227895108
 21
5.4242545655
  0
LINE
  5
3E1
100
AcDbEntity
  8
DEFAULT_2
100
AcDbLine
 62
8
  6
HIDDEN
 10
5.4320149474
 20
4.9206182481
 11
5.4378492012
 21
4.9303510022
  0
LINE
  5
3E2
100
AcDbEntity
  8
0
100
AcDbLine
 62
7
  6
CONTINUOUS
 10
5.7201855223
 20
5.3903885381
 11
5.7262216798
 21
5.399997379
  0
LINE
  5
3E3
100
AcDbEntity
  8
DEFAULT_2
100
AcDbLine
 62
8
  6
HIDDEN
 10
5.4695553364
 20
4.8020491873
 11
5.4634352222
 21
4.7924792451
  0
LINE
  5
3E4
100
AcDbEntity
  8
0
100
AcDbLine
 62
7
  6
CONTINUOUS
 10
5.8581123302
 20
5.4002286957
 11
5.8518590277
 21
5.3907452471
  0
LINE
  5
3E5
100
AcDbEntity
  8
DEFAULT_2
100
AcDbLine
 62
8
  6
HIDDEN
 10
5.4088328054
 20
4.9126949171
 11
5.4151810699
 21
4.9221004771
  0
LINE
  5
3E6
100
AcDbEntity
  8
DEFAULT_2
100
AcDbLine
 62
8
  6
HIDDEN
 10
5.4465111536
 20
4.7942939629
 11
5.4399956602
 21
4.7849886991
  0
LINE
  5
3E7
100
AcDbEntity
  8
0
100
AcDbLine
 62
7
  6
CONTINUOUS
 10
5.7218036311
 20
5.3663199472
 11
5.7283468568
 21
5.3755909352
  0
LINE
  5
3E8
100
AcDbEntity
  8
0
100
AcDbLine
 62
7
  6
CONTINUOUS
 10
5.8597764748
 20
5.3756776882
 11
5.8531315319
 21
5.3664644193
  0
LINE
  5
3E9
100
AcDbEntity
  8
DEFAULT_2
100
AcDbLine
 62
8
  6
HIDDEN
 10
5.3852587858
 20
4.9060273479
 11
5.3921027572
 21
4.9150785951
  0
LINE
  5
3EA
100
AcDbEntity
  8
DEFAULT_2
100
AcDbLine
 62
8
  6
HIDDEN
 10
5.4231624293
 20
4.7875105315
 11
5.4162629872
 21
4.7784862704
  0
LINE
  5
3EB
100
AcDbEntity
  8
0
100
AcDbLine
 62
7
  6
CONTINUOUS
 10
5.8604110703
 20
5.3510785289
 11
5.8533861445
 21
5.342151603
  0
LINE
  5
3EC
100
AcDbEntity
  8
0
100
AcDbLine
 62
7
  6
CONTINUOUS
 10
5.7221274863
 20
5.3421991997
 11
5.7291589145
 21
5.351105604
  0
LINE
  5
3ED
100
AcDbEntity
  8
DEFAULT_2
100
AcDbLine
 62
8
  6
HIDDEN
 10
5.3995501253
 20
4.7817107933
 11
5.3922788383
 21
4.7729833668
  0
LINE
  5
3EE
100
AcDbEntity
  8
DEFAULT_2
100
AcDbLine
 62
8
  6
HIDDEN
 10
5.3613608585
 20
4.9006347648
 11
5.3686808039
 21
4.9093056021
  0
LINE
  5
3EF
100
AcDbEntity
  8
0
100
AcDbLine
 62
7
  6
CONTINUOUS
 10
5.8600150032
 20
5.3264743732
 11
5.8526224186
 21
5.3178494511
  0
LINE
  5
3F0
100
AcDbEntity
  8
0
100
AcDbLine
 62
7
  6
CONTINUOUS
 10
5.7211561542
 20
5.3180958419
 11
5.7286555115
 21
5.3266119831
  0
LINE
  5
3F1
100
AcDbEntity
  8
DEFAULT_2
100
AcDbLine
 62
8
  6
HIDDEN
 10
5.3757156654
 20
4.7769049232
 11
5.3680852899
 21
4.768489642
  0
LINE
  5
3F2
100
AcDbEntity
  8
0
100
AcDbLine
 62
7
  6
CONTINUOUS
 10
5.8585889684
 20
5.3019083851
 11
5.8508416941
 21
5.2936005978
  0
LINE
  5
3F3
100
AcDbEntity
  8
DEFAULT_2
100
AcDbLine
 62
8
  6
HIDDEN
 10
5.3517008634
 20
4.7731013523
 11
5.3437247856
 21
4.7650129796
  0
LINE
  5
3F4
100
AcDbEntity
  8
0
100
AcDbLine
 62
7
  6
CONTINUOUS
 10
5.8561354677
 20
5.2774236617
 11
5.848047095
 21
5.2694475839
  0
LINE
  5
3F5
100
AcDbEntity
  8
DEFAULT_2
100
AcDbLine
 62
8
  6
HIDDEN
 10
5.3275478495
 20
4.7703067532
 11
5.3192400622
 21
4.7625594789
  0
LINE
  5
3F6
100
AcDbEntity
  8
0
100
AcDbLine
 62
7
  6
CONTINUOUS
 10
5.8526588053
 20
5.2530631574
 11
5.8442435241
 21
5.2454327819
  0
LINE
  5
3F7
100
AcDbEntity
  8
0
100
AcDbLine
 62
7
  6
CONTINUOUS
 10
7.2974112012
 20
5.8155890959
 11
7.3067607559
 21
5.8220233251
  0
LINE
  5
3F8
100
AcDbEntity
  8
0
100
AcDbLine
 62
7
  6
CONTINUOUS
 10
6.8184660728
 20
5.4864276872
 11
6.827823524
 21
5.492850427
  0
LINE
  5
3F9
100
AcDbEntity
  8
0
100
AcDbLine
 62
7
  6
CONTINUOUS
 10
6.9355641646
 20
5.4665463962
 11
6.9451947806
 21
5.4725194866
  0
LINE
  5
3FA
100
AcDbEntity
  8
0
100
AcDbLine
 62
7
  6
CONTINUOUS
 10
7.3218372945
 20
5.8136667207
 11
7.3315107775
 21
5.8196028141
  0
LINE
  5
3FB
100
AcDbEntity
  8
0
100
AcDbLine
 62
7
  6
CONTINUOUS
 10
7.3091540417
 20
5.6968523281
 11
7.3188177891
 21
5.7027716658
  0
LINE
  5
3FC
100
AcDbEntity
  8
0
100
AcDbLine
 62
7
  6
CONTINUOUS
 10
6.8263215667
 20
5.5100224675
 11
6.8360023341
 21
5.515946674
  0
LINE
  5
3FD
100
AcDbEntity
  8
0
100
AcDbLine
 62
7
  6
CONTINUOUS
 10
6.9445307378
 20
5.4895389069
 11
6.954550497
 21
5.4948333378
  0
LINE
  5
3FE
100
AcDbEntity
  8
0
100
AcDbLine
 62
7
  6
CONTINUOUS
 10
7.3331195218
 20
5.6935216893
 11
7.3431686249
 21
5.6987602099
  0
LINE
  5
3FF
100
AcDbEntity
  8
0
100
AcDbLine
 62
7
  6
CONTINUOUS
 10
7.5721540405
 20
5.1526185459
 11
7.5613738186
 21
5.1491237799
  0
LINE
  5
400
100
AcDbEntity
  8
0
100
AcDbLine
 62
7
  6
CONTINUOUS
 10
7.1543041892
 20
5.0184107954
 11
7.1435046625
 21
5.014976149
  0
LINE
  5
401
100
AcDbEntity
  8
0
100
AcDbLine
 62
7
  6
CONTINUOUS
 10
7.1052017733
 20
4.9113148341
 11
7.0943215321
 21
4.9080846898
  0
LINE
  5
402
100
AcDbEntity
  8
0
100
AcDbLine
 62
7
  6
CONTINUOUS
 10
7.6624221277
 20
5.0763637527
 11
7.651537927
 21
5.0731469756
  0
LINE
  5
403
100
AcDbEntity
  8
DEFAULT_2
100
AcDbLine
 62
8
  6
HIDDEN
 10
2.8360023341
 20
5.1805142733
 11
2.8263215667
 21
5.1864384798
  0
LINE
  5
404
100
AcDbEntity
  8
0
100
AcDbLine
 62
7
  6
CONTINUOUS
 10
3.3315107775
 20
4.8768581332
 11
3.3218372945
 21
4.8827942266
  0
LINE
  5
405
100
AcDbEntity
  8
DEFAULT_2
100
AcDbLine
 62
8
  6
HIDDEN
 10
2.827823524
 20
5.2036105203
 11
2.8184660728
 21
5.2100332601
  0
LINE
  5
406
100
AcDbEntity
  8
0
100
AcDbLine
 62
7
  6
CONTINUOUS
 10
3.3067607559
 20
4.8744376222
 11
3.2974112012
 21
4.8808718514
  0
LINE
  5
407
100
AcDbEntity
  8
0
100
AcDbLine
 62
7
  6
CONTINUOUS
 10
3.2942482198
 20
4.9913673758
 11
3.2850158804
 21
4.9979393224
  0
LINE
  5
408
100
AcDbEntity
  8
DEFAULT_2
100
AcDbLine
 62
8
  6
HIDDEN
 10
2.9320099526
 20
5.2507304737
 11
2.928205236
 21
5.2534708911
  0
LINE
  5
409
100
AcDbEntity
  8
0
100
AcDbLine
 62
7
  6
CONTINUOUS
 10
2.9374008145
 20
5.2468476058
 11
2.9320099526
 21
5.2507304737
  0
LINE
  5
40A
100
AcDbEntity
  8
0
100
AcDbLine
 62
7
  6
CONTINUOUS
 10
3.2695770021
 20
4.9907460853
 11
3.2608200669
 21
4.9979393224
  0
LINE
  5
40B
100
AcDbEntity
  8
0
100
AcDbLine
 62
7
  6
CONTINUOUS
 10
3.337610475
 20
5.6998284405
 11
3.3450017697
 21
5.6912380193
  0
LINE
  5
40C
100
AcDbEntity
  8
0
100
AcDbLine
 62
7
  6
CONTINUOUS
 10
3.7402765959
 20
5.3727237012
 11
3.7476528723
 21
5.3640979243
  0
LINE
  5
40D
100
AcDbEntity
  8
0
100
AcDbLine
 62
7
  6
CONTINUOUS
 10
3.3628549696
 20
5.8146383818
 11
3.370220645
 21
5.8060035508
  0
LINE
  5
40E
100
AcDbEntity
  8
0
100
AcDbLine
 62
7
  6
CONTINUOUS
 10
3.6229481223
 20
5.3663728278
 11
3.6302914381
 21
5.3577413572
  0
LINE
  5
40F
100
AcDbEntity
  8
0
100
AcDbLine
 62
7
  6
CONTINUOUS
 10
3.7409179737
 20
5.3482304737
 11
3.7478327028
 21
5.3392304737
  0
LINE
  5
410
100
AcDbEntity
  8
0
100
AcDbLine
 62
7
  6
CONTINUOUS
 10
3.3871416179
 20
5.8092922473
 11
3.3940452868
 21
5.8002837604
  0
LINE
  5
411
100
AcDbEntity
  8
0
100
AcDbLine
 62
7
  6
CONTINUOUS
 10
3.7402765959
 20
5.3237372461
 11
3.7467108251
 21
5.3143876914
  0
LINE
  5
412
100
AcDbEntity
  8
0
100
AcDbLine
 62
7
  6
CONTINUOUS
 10
3.4111151872
 20
5.8026823745
 11
3.417537927
 21
5.7933249233
  0
LINE
  5
413
100
AcDbEntity
  8
0
100
AcDbLine
 62
7
  6
CONTINUOUS
 10
4.7671783563
 20
5.6332001026
 11
4.7655580551
 21
5.6444435102
  0
LINE
  5
414
100
AcDbEntity
  8
0
100
AcDbLine
 62
7
  6
CONTINUOUS
 10
4.8639054488
 20
4.9264900268
 11
4.8624424872
 21
4.9377549872
  0
LINE
  5
415
100
AcDbEntity
  8
0
100
AcDbLine
 62
7
  6
CONTINUOUS
 10
5.0382929737
 20
5.3482304737
 11
5.0382929737
 21
2.3447304737
  0
LINE
  5
416
100
AcDbEntity
  8
0
100
AcDbLine
 62
7
  6
CONTINUOUS
 10
5.5397583155
 20
4.9781490036
 11
5.5428014359
 21
4.9890808122
  0
LINE
  5
417
100
AcDbEntity
  8
0
100
AcDbLine
 62
7
  6
CONTINUOUS
 10
5.6929740207
 20
5.5075367192
 11
5.6962446836
 21
5.5184026192
  0
LINE
  5
418
100
AcDbEntity
  8
0
100
AcDbLine
 62
7
  6
CONTINUOUS
 10
5.5195089046
 20
4.9643594337
 11
5.5231344205
 21
4.9751121383
  0
LINE
  5
419
100
AcDbEntity
  8
0
100
AcDbLine
 62
7
  6
CONTINUOUS
 10
5.8267959414
 20
5.5441269944
 11
5.8230975357
 21
5.5333863527
  0
LINE
  5
41A
100
AcDbEntity
  8
0
100
AcDbLine
 62
7
  6
CONTINUOUS
 10
5.7009194779
 20
5.4847598657
 11
5.7047686706
 21
5.495434543
  0
LINE
  5
41B
100
AcDbEntity
  8
0
100
AcDbLine
 62
7
  6
CONTINUOUS
 10
5.5788158129
 20
4.8548677654
 11
5.5748191408
 21
4.8442345061
  0
LINE
  5
41C
100
AcDbEntity
  8
0
100
AcDbLine
 62
7
  6
CONTINUOUS
 10
5.8345133912
 20
5.5207611579
 11
5.8303684582
 21
5.5101848107
  0
LINE
  5
41D
100
AcDbEntity
  8
DEFAULT_2
100
AcDbLine
 62
8
  6
HIDDEN
 10
5.4985485082
 20
4.9516766634
 11
5.5027459664
 21
4.9622192611
  0
LINE
  5
41E
100
AcDbEntity
  8
0
100
AcDbLine
 62
7
  6
CONTINUOUS
 10
5.7076308959
 20
5.4615893626
 11
5.7120475203
 21
5.4720420393
  0
LINE
  5
41F
100
AcDbEntity
  8
0
100
AcDbLine
 62
7
  6
CONTINUOUS
 10
5.5578876026
 20
4.8424908563
 11
5.5534491616
 21
4.8320342875
  0
LINE
  5
420
100
AcDbEntity
  8
0
100
AcDbLine
 62
7
  6
CONTINUOUS
 10
5.8412456118
 20
5.4970926439
 11
5.8366614231
 21
5.4866991458
  0
LINE
  5
421
100
AcDbEntity
  8
DEFAULT_2
100
AcDbLine
 62
8
  6
HIDDEN
 10
5.4769375605
 20
4.9401372604
 11
5.4816948587
 21
4.9504393541
  0
LINE
  5
422
100
AcDbEntity
  8
0
100
AcDbLine
 62
7
  6
CONTINUOUS
 10
5.5364594588
 20
4.8310011864
 11
5.5315870353
 21
4.8207396524
  0
LINE
  5
423
100
AcDbEntity
  8
0
100
AcDbLine
 62
7
  6
CONTINUOUS
 10
5.7130889241
 20
5.4380920166
 11
5.7180602457
 21
5.4482925549
  0
LINE
  5
424
100
AcDbEntity
  8
0
100
AcDbLine
 62
7
  6
CONTINUOUS
 10
5.8469807926
 20
5.4731629752
 11
5.8419653905
 21
5.4629705597
  0
LINE
  5
425
100
AcDbEntity
  8
0
100
AcDbLine
 62
7
  6
CONTINUOUS
 10
5.5145689736
 20
4.8204189123
 11
5.5092711156
 21
4.8103704154
  0
LINE
  5
426
100
AcDbEntity
  8
0
100
AcDbLine
 62
7
  6
CONTINUOUS
 10
5.8517088721
 20
5.4490141323
 11
5.8462710554
 21
5.4390406806
  0
LINE
  5
427
100
AcDbEntity
  8
DEFAULT_2
100
AcDbLine
 62
8
  6
HIDDEN
 10
5.4922545504
 20
4.8107625992
 11
5.4865405522
 21
4.8009447677
  0
LINE
  5
428
100
AcDbEntity
  8
0
100
AcDbLine
 62
7
  6
CONTINUOUS
 10
5.8554215558
 20
5.4246884807
 11
5.8495708641
 21
5.4149514895
  0
LINE
  5
429
100
AcDbEntity
  8
0
100
AcDbLine
 62
7
  6
CONTINUOUS
 10
7.2484247461
 20
5.8155890959
 11
7.257050523
 21
5.8229653723
  0
LINE
  5
42A
100
AcDbEntity
  8
0
100
AcDbLine
 62
7
  6
CONTINUOUS
 10
6.8065100655
 20
5.4381674696
 11
6.8151448965
 21
5.445533145
  0
LINE
  5
42B
100
AcDbEntity
  8
0
100
AcDbLine
 62
7
  6
CONTINUOUS
 10
6.9224890205
 20
5.4189821437
 11
6.9312057404
 21
5.426224061
  0
LINE
  5
42C
100
AcDbEntity
  8
0
100
AcDbLine
 62
7
  6
CONTINUOUS
 10
7.2608200669
 20
5.6985216249
 11
7.2695770021
 21
5.705714862
  0
LINE
  5
42D
100
AcDbEntity
  8
0
100
AcDbLine
 62
7
  6
CONTINUOUS
 10
7.2729179737
 20
5.8162304737
 11
7.2819179737
 21
5.8231452028
  0
LINE
  5
42E
100
AcDbEntity
  8
0
100
AcDbLine
 62
7
  6
CONTINUOUS
 10
6.8118562
 20
5.4624541179
 11
6.8208646869
 21
5.4693577868
  0
LINE
  5
42F
100
AcDbEntity
  8
0
100
AcDbLine
 62
7
  6
CONTINUOUS
 10
6.928205236
 20
5.4429900562
 11
6.9374008145
 21
5.4496133415
  0
LINE
  5
430
100
AcDbEntity
  8
0
100
AcDbLine
 62
7
  6
CONTINUOUS
 10
7.2850158804
 20
5.6985216249
 11
7.2942482198
 21
5.7050935715
  0
LINE
  5
431
100
AcDbEntity
  8
0
100
AcDbLine
 62
7
  6
CONTINUOUS
 10
7.5962321154
 20
5.1956715809
 11
7.5860355832
 21
5.1907261481
  0
LINE
  5
432
100
AcDbEntity
  8
0
100
AcDbLine
 62
7
  6
CONTINUOUS
 10
7.2008341776
 20
5.005222928
 11
7.1906102488
 21
5.0003343851
  0
LINE
  5
433
100
AcDbEntity
  8
0
100
AcDbLine
 62
7
  6
CONTINUOUS
 10
7.1756153023
 20
4.8904573965
 11
7.1653743209
 21
4.885564976
  0
LINE
  5
434
100
AcDbEntity
  8
0
100
AcDbLine
 62
7
  6
CONTINUOUS
 10
7.7001560103
 20
5.1406427571
 11
7.689909027
 21
5.1357629198
  0
LINE
  5
435
100
AcDbEntity
  8
0
100
AcDbLine
 62
7
  6
CONTINUOUS
 10
7.1517906605
 20
4.8961771869
 11
7.1413076645
 21
4.8918274428
  0
LINE
  5
436
100
AcDbEntity
  8
0
100
AcDbLine
 62
7
  6
CONTINUOUS
 10
7.6887061938
 20
5.1185673377
 11
7.6782178626
 21
5.1142304737
  0
LINE
  5
437
100
AcDbEntity
  8
0
100
AcDbLine
 62
7
  6
CONTINUOUS
 10
7.5849365332
 20
5.1737292745
 11
7.5744231056
 21
5.1694990958
  0
LINE
  5
438
100
AcDbEntity
  8
0
100
AcDbLine
 62
7
  6
CONTINUOUS
 10
7.1773414506
 20
5.0110133652
 11
7.1668046164
 21
5.0068418309
  0
LINE
  5
439
100
AcDbEntity
  8
0
100
AcDbLine
 62
7
  6
CONTINUOUS
 10
7.1282980203
 20
4.903136024
 11
7.1176017428
 21
4.8993408787
  0
LINE
  5
43A
100
AcDbEntity
  8
0
100
AcDbLine
 62
7
  6
CONTINUOUS
 10
7.6761167306
 20
5.0971214089
 11
7.6654157994
 21
5.0933394053
  0
LINE
  5
43B
100
AcDbEntity
  8
0
100
AcDbLine
 62
7
  6
CONTINUOUS
 10
2.8559269203
 20
5.1357629198
 11
2.845679937
 21
5.1406427571
  0
LINE
  5
43C
100
AcDbEntity
  8
0
100
AcDbLine
 62
7
  6
CONTINUOUS
 10
3.3804616264
 20
4.885564976
 11
3.370220645
 21
4.8904573965
  0
LINE
  5
43D
100
AcDbEntity
  8
0
100
AcDbLine
 62
7
  6
CONTINUOUS
 10
3.3431686249
 20
4.9977007374
 11
3.3331195218
 21
5.002939258
  0
LINE
  5
43E
100
AcDbEntity
  8
0
100
AcDbLine
 62
7
  6
CONTINUOUS
 10
2.954550497
 20
5.2016276095
 11
2.9445307378
 21
5.2069220404
  0
LINE
  5
43F
100
AcDbEntity
  8
0
100
AcDbLine
 62
7
  6
CONTINUOUS
 10
2.8453786995
 20
5.1578777247
 11
2.8354011502
 21
5.1632871601
  0
LINE
  5
440
100
AcDbEntity
  8
0
100
AcDbLine
 62
7
  6
CONTINUOUS
 10
3.3561002003
 20
4.880570643
 11
3.3461293033
 21
4.8859923303
  0
LINE
  5
441
100
AcDbEntity
  8
0
100
AcDbLine
 62
7
  6
CONTINUOUS
 10
3.3188177891
 20
4.9936892815
 11
3.3091540417
 21
4.9996086192
  0
LINE
  5
442
100
AcDbEntity
  8
0
100
AcDbLine
 62
7
  6
CONTINUOUS
 10
2.9451947806
 20
5.2239414607
 11
2.9355641646
 21
5.2299145511
  0
LINE
  5
443
100
AcDbEntity
  8
0
100
AcDbLine
 62
7
  6
CONTINUOUS
 10
3.2885959353
 20
5.7053865341
 11
3.2970993698
 21
5.6978953276
  0
LINE
  5
444
100
AcDbEntity
  8
0
100
AcDbLine
 62
7
  6
CONTINUOUS
 10
3.6171186319
 20
5.4143830009
 11
3.6255801948
 21
5.4068445312
  0
LINE
  5
445
100
AcDbEntity
  8
0
100
AcDbLine
 62
7
  6
CONTINUOUS
 10
3.735156117
 20
5.4214418033
 11
3.7433936246
 21
5.4136343102
  0
LINE
  5
446
100
AcDbEntity
  8
0
100
AcDbLine
 62
7
  6
CONTINUOUS
 10
3.3136093834
 20
5.8214843264
 11
3.3218372945
 21
5.8136667207
  0
LINE
  5
447
100
AcDbEntity
  8
0
100
AcDbLine
 62
7
  6
CONTINUOUS
 10
3.3131991843
 20
5.7034538879
 11
3.3211655305
 21
5.6953938693
  0
LINE
  5
448
100
AcDbEntity
  8
0
100
AcDbLine
 62
7
  6
CONTINUOUS
 10
3.620862434
 20
5.3904785801
 11
3.6287837477
 21
5.3823742996
  0
LINE
  5
449
100
AcDbEntity
  8
0
100
AcDbLine
 62
7
  6
CONTINUOUS
 10
3.7383542207
 20
5.3971497945
 11
3.7461718264
 21
5.3889218834
  0
LINE
  5
44A
100
AcDbEntity
  8
0
100
AcDbLine
 62
7
  6
CONTINUOUS
 10
3.3383218102
 20
5.8187061246
 11
3.3461293033
 21
5.810468617
  0
LINE
  5
44B
100
AcDbEntity
  8
0
100
AcDbLine
 62
7
  6
CONTINUOUS
 10
4.9816379136
 20
4.8380224998
 11
4.9774194318
 21
4.848569727
  0
LINE
  5
44C
100
AcDbEntity
  8
0
100
AcDbLine
 62
7
  6
CONTINUOUS
 10
4.7189814629
 20
5.5218236536
 11
4.7150589333
 21
5.5324844861
  0
LINE
  5
44D
100
AcDbEntity
  8
0
100
AcDbLine
 62
7
  6
CONTINUOUS
 10
4.9605281232
 20
4.8506675818
 11
4.9567550138
 21
4.861382209
  0
LINE
  5
44E
100
AcDbEntity
  8
0
100
AcDbLine
 62
7
  6
CONTINUOUS
 10
4.7267366873
 20
5.5448678364
 11
4.7232640277
 21
5.5556835761
  0
LINE
  5
44F
100
AcDbEntity
  8
0
100
AcDbLine
 62
7
  6
CONTINUOUS
 10
4.9399663708
 20
4.8641855582
 11
4.9366452531
 21
4.8750487882
  0
LINE
  5
450
100
AcDbEntity
  8
0
100
AcDbLine
 62
7
  6
CONTINUOUS
 10
4.8495912637
 20
5.5184026192
 11
4.8528619266
 21
5.5075367192
  0
LINE
  5
451
100
AcDbEntity
  8
0
100
AcDbLine
 62
7
  6
CONTINUOUS
 10
5.0030345114
 20
4.9890808122
 11
5.0060776318
 21
4.9781490036
  0
LINE
  5
452
100
AcDbEntity
  8
0
100
AcDbLine
 62
7
  6
CONTINUOUS
 10
4.7354500992
 20
5.5675670504
 11
4.7324334019
 21
5.5785187227
  0
LINE
  5
453
100
AcDbEntity
  8
0
100
AcDbLine
 62
7
  6
CONTINUOUS
 10
4.9199887287
 20
4.8785527139
 11
4.917125429
 21
4.889545489
  0
LINE
  5
454
100
AcDbEntity
  8
0
100
AcDbLine
 62
7
  6
CONTINUOUS
 10
4.8593358112
 20
5.5408800451
 11
4.8620185141
 21
5.5298542515
  0
LINE
  5
455
100
AcDbEntity
  8
0
100
AcDbLine
 62
7
  6
CONTINUOUS
 10
4.7451064123
 20
5.5898814736
 11
4.7425509696
 21
5.6009498656
  0
LINE
  5
456
100
AcDbEntity
  8
0
100
AcDbLine
 62
7
  6
CONTINUOUS
 10
4.98414564
 20
5.0040850076
 11
4.9865975907
 21
4.9930056142
  0
LINE
  5
457
100
AcDbEntity
  8
0
100
AcDbLine
 62
7
  6
CONTINUOUS
 10
4.9006302444
 20
4.8937438439
 11
4.8982297859
 21
4.904846879
  0
LINE
  5
458
100
AcDbEntity
  8
0
100
AcDbLine
 62
7
  6
CONTINUOUS
 10
4.7556886864
 20
5.6117719588
 11
4.7535989814
 21
5.6229376528
  0
LINE
  5
459
100
AcDbEntity
  8
0
100
AcDbLine
 62
7
  6
CONTINUOUS
 10
4.8702728231
 20
5.5628020124
 11
4.8723598312
 21
5.5516481154
  0
LINE
  5
45A
100
AcDbEntity
  8
0
100
AcDbLine
 62
7
  6
CONTINUOUS
 10
4.8819248792
 20
4.9097322979
 11
4.8799914733
 21
4.9209261146
  0
LINE
  5
45B
100
AcDbEntity
  8
0
100
AcDbLine
 62
7
  6
CONTINUOUS
 10
4.9660893739
 20
5.0200814634
 11
4.9679430853
 21
5.00888643
  0
LINE
  5
45C
100
AcDbEntity
  8
0
100
AcDbLine
 62
7
  6
CONTINUOUS
 10
4.8823707652
 20
5.5841053144
 11
4.883856061
 21
5.5728554737
  0
LINE
  5
45D
100
AcDbEntity
  8
0
100
AcDbLine
 62
7
  6
CONTINUOUS
 10
4.9489177742
 20
5.0370240578
 11
4.9501679015
 21
5.0257456625
  0
LINE
  5
45E
100
AcDbEntity
  8
0
100
AcDbLine
 62
7
  6
CONTINUOUS
 10
5.5075429737
 20
5.3482304737
 11
5.5075429737
 21
2.3447304737
  0
LINE
  5
45F
100
AcDbEntity
  8
0
100
AcDbLine
 62
7
  6
CONTINUOUS
 10
5.6125126576
 20
5.0435347022
 11
5.6131555964
 21
5.0548639409
  0
LINE
  5
460
100
AcDbEntity
  8
0
100
AcDbLine
 62
7
  6
CONTINUOUS
 10
5.6493618902
 20
5.5934151799
 11
5.6502411912
 21
5.6047285282
  0
LINE
  5
461
100
AcDbEntity
  8
0
100
AcDbLine
 62
7
  6
CONTINUOUS
 10
5.6918997861
 20
4.9464413612
 11
5.6906730608
 21
4.9351482334
  0
LINE
  5
462
100
AcDbEntity
  8
0
100
AcDbLine
 62
7
  6
CONTINUOUS
 10
5.5956680458
 20
5.0257456625
 11
5.5969181731
 21
5.0370240578
  0
LINE
  5
463
100
AcDbEntity
  8
0
100
AcDbLine
 62
7
  6
CONTINUOUS
 10
5.773963202
 20
5.6550038902
 11
5.7725787203
 21
5.6437290155
  0
LINE
  5
464
100
AcDbEntity
  8
0
100
AcDbLine
 62
7
  6
CONTINUOUS
 10
5.6619798863
 20
5.5728554737
 11
5.6634651821
 21
5.5841053144
  0
LINE
  5
465
100
AcDbEntity
  8
0
100
AcDbLine
 62
7
  6
CONTINUOUS
 10
5.6747070861
 20
4.9292486612
 11
5.6730085297
 21
4.9180168094
  0
LINE
  5
466
100
AcDbEntity
  8
0
100
AcDbLine
 62
7
  6
CONTINUOUS
 10
5.577892862
 20
5.00888643
 11
5.5797465734
 21
5.0200814634
  0
LINE
  5
467
100
AcDbEntity
  8
0
100
AcDbLine
 62
7
  6
CONTINUOUS
 10
5.7863700376
 20
5.6337532013
 11
5.7845146276
 21
5.6225461927
  0
LINE
  5
468
100
AcDbEntity
  8
0
100
AcDbLine
 62
7
  6
CONTINUOUS
 10
5.6734761161
 20
5.5516481154
 11
5.6755631242
 21
5.5628020124
  0
LINE
  5
469
100
AcDbEntity
  8
0
100
AcDbLine
 62
7
  6
CONTINUOUS
 10
5.6568095115
 20
4.9127909977
 11
5.6546421039
 21
4.9016401263
  0
LINE
  5
46A
100
AcDbEntity
  8
0
100
AcDbLine
 62
7
  6
CONTINUOUS
 10
5.7978761038
 20
5.6120016085
 11
5.7955530205
 21
5.6008821268
  0
LINE
  5
46B
100
AcDbEntity
  8
0
100
AcDbLine
 62
7
  6
CONTINUOUS
 10
5.5592383566
 20
4.9930056142
 11
5.5616903073
 21
5.0040850076
  0
LINE
  5
46C
100
AcDbEntity
  8
0
100
AcDbLine
 62
7
  6
CONTINUOUS
 10
5.6382384607
 20
4.897097243
 11
5.6356060043
 21
4.8860469144
  0
LINE
  5
46D
100
AcDbEntity
  8
0
100
AcDbLine
 62
7
  6
CONTINUOUS
 10
5.6838174332
 20
5.5298542515
 11
5.6865001361
 21
5.5408800451
  0
LINE
  5
46E
100
AcDbEntity
  8
0
100
AcDbLine
 62
7
  6
CONTINUOUS
 10
5.808461215
 20
5.5897872716
 11
5.8056745339
 21
5.5787748242
  0
LINE
  5
46F
100
AcDbEntity
  8
0
100
AcDbLine
 62
7
  6
CONTINUOUS
 10
5.6190265136
 20
4.8821949293
 11
5.6159336265
 21
4.8712645295
  0
LINE
  5
470
100
AcDbEntity
  8
0
100
AcDbLine
 62
7
  6
CONTINUOUS
 10
5.8181068014
 20
5.5671491619
 11
5.8148614112
 21
5.5562630684
  0
LINE
  5
471
100
AcDbEntity
  8
0
100
AcDbLine
 62
7
  6
CONTINUOUS
 10
5.5992073745
 20
4.8681102003
 11
5.5956594828
 21
4.857318905
  0
LINE
  5
472
100
AcDbEntity
  8
0
100
AcDbLine
 62
7
  6
CONTINUOUS
 10
7.1756153023
 20
5.8060035508
 11
7.1829809777
 21
5.8146383818
  0
LINE
  5
473
100
AcDbEntity
  8
0
100
AcDbLine
 62
7
  6
CONTINUOUS
 10
6.798183075
 20
5.3640979243
 11
6.8055593514
 21
5.3727237012
  0
LINE
  5
474
100
AcDbEntity
  8
0
100
AcDbLine
 62
7
  6
CONTINUOUS
 10
6.9160857325
 20
5.3700708422
 11
6.9237225978
 21
5.3784437068
  0
LINE
  5
475
100
AcDbEntity
  8
0
100
AcDbLine
 62
7
  6
CONTINUOUS
 10
7.2127164255
 20
5.6935216893
 11
7.2203998242
 21
5.7018518729
  0
LINE
  5
476
100
AcDbEntity
  8
0
100
AcDbLine
 62
7
  6
CONTINUOUS
 10
7.199706644
 20
5.810468617
 11
7.2075141371
 21
5.8187061246
  0
LINE
  5
477
100
AcDbEntity
  8
0
100
AcDbLine
 62
7
  6
CONTINUOUS
 10
6.7996641209
 20
5.3889218834
 11
6.8074817266
 21
5.3971497945
  0
LINE
  5
478
100
AcDbEntity
  8
0
100
AcDbLine
 62
7
  6
CONTINUOUS
 10
6.9184427586
 20
5.3946370672
 11
6.9266390808
 21
5.4024631055
  0
LINE
  5
479
100
AcDbEntity
  8
0
100
AcDbLine
 62
7
  6
CONTINUOUS
 10
7.2239986528
 20
5.8136667207
 11
7.2322265639
 21
5.8214843264
  0
LINE
  5
47A
100
AcDbEntity
  8
0
100
AcDbLine
 62
7
  6
CONTINUOUS
 10
6.8024423227
 20
5.4136343102
 11
6.8106798303
 21
5.4214418033
  0
LINE
  5
47B
100
AcDbEntity
  8
0
100
AcDbLine
 62
7
  6
CONTINUOUS
 10
7.2366819056
 20
5.6968523281
 11
7.2449217056
 21
5.7046325766
  0
LINE
  5
47C
100
AcDbEntity
  8
0
100
AcDbLine
 62
7
  6
CONTINUOUS
 10
7.6141545761
 20
5.2416292017
 11
7.6047358666
 21
5.2353272588
  0
LINE
  5
47D
100
AcDbEntity
  8
0
100
AcDbLine
 62
7
  6
CONTINUOUS
 10
7.2487365775
 20
4.9985656197
 11
7.2392829011
 21
4.9923162538
  0
LINE
  5
47E
100
AcDbEntity
  8
0
100
AcDbLine
 62
7
  6
CONTINUOUS
 10
7.2239986528
 20
4.8827942266
 11
7.2143251698
 21
4.8768581332
  0
LINE
  5
47F
100
AcDbEntity
  8
DEFAULT_2
100
AcDbLine
 62
8
  6
HIDDEN
 10
7.7195143806
 20
5.1864384798
 11
7.7098336133
 21
5.1805142733
  0
LINE
  5
480
100
AcDbEntity
  8
0
100
AcDbLine
 62
7
  6
CONTINUOUS
 10
7.6059869584
 20
5.2183408998
 11
7.5961559129
 21
5.2127037803
  0
LINE
  5
481
100
AcDbEntity
  8
0
100
AcDbLine
 62
7
  6
CONTINUOUS
 10
7.2246704168
 20
5.001067078
 11
7.214808115
 21
4.9954848226
  0
LINE
  5
482
100
AcDbEntity
  8
0
100
AcDbLine
 62
7
  6
CONTINUOUS
 10
7.199706644
 20
4.8859923303
 11
7.189735747
 21
4.880570643
  0
LINE
  5
483
100
AcDbEntity
  8
0
100
AcDbLine
 62
7
  6
CONTINUOUS
 10
7.7104347971
 20
5.1632871601
 11
7.7004572478
 21
5.1578777247
  0
LINE
  5
484
100
AcDbEntity
  8
0
100
AcDbLine
 62
7
  6
CONTINUOUS
 10
2.8804201479
 20
5.0933394053
 11
2.8697192167
 21
5.0971214089
  0
LINE
  5
485
100
AcDbEntity
  8
0
100
AcDbLine
 62
7
  6
CONTINUOUS
 10
3.4282342045
 20
4.8993408787
 11
3.417537927
 21
4.903136024
  0
LINE
  5
486
100
AcDbEntity
  8
0
100
AcDbLine
 62
7
  6
CONTINUOUS
 10
3.3907515201
 20
5.0107078739
 11
3.3800769791
 21
5.0145132317
  0
LINE
  5
487
100
AcDbEntity
  8
0
100
AcDbLine
 62
7
  6
CONTINUOUS
 10
2.9777616135
 20
5.1591988016
 11
2.9671084409
 21
5.1630635768
  0
LINE
  5
488
100
AcDbEntity
  8
0
100
AcDbLine
 62
7
  6
CONTINUOUS
 10
2.8676180847
 20
5.1142304737
 11
2.8571297535
 21
5.1185673377
  0
LINE
  5
489
100
AcDbEntity
  8
0
100
AcDbLine
 62
7
  6
CONTINUOUS
 10
3.4045282828
 20
4.8918274428
 11
3.3940452868
 21
4.8961771869
  0
LINE
  5
48A
100
AcDbEntity
  8
0
100
AcDbLine
 62
7
  6
CONTINUOUS
 10
3.3671846844
 20
5.0033826271
 11
3.356798114
 21
5.0079153666
  0
LINE
  5
48B
100
AcDbEntity
  8
0
100
AcDbLine
 62
7
  6
CONTINUOUS
 10
2.9654233793
 20
5.1800123876
 11
2.9550622257
 21
5.1846029287
  0
LINE
  5
48C
100
AcDbEntity
  8
0
100
AcDbLine
 62
7
  6
CONTINUOUS
 10
3.2392829011
 20
5.7041446935
 11
3.2487365775
 21
5.6978953276
  0
LINE
  5
48D
100
AcDbEntity
  8
0
100
AcDbLine
 62
7
  6
CONTINUOUS
 10
3.6047358666
 20
5.4611336885
 11
3.6141545761
 21
5.4548317456
  0
LINE
  5
48E
100
AcDbEntity
  8
0
100
AcDbLine
 62
7
  6
CONTINUOUS
 10
3.2639179737
 20
5.705617169
 11
3.2729179737
 21
5.6987304737
  0
LINE
  5
48F
100
AcDbEntity
  8
0
100
AcDbLine
 62
7
  6
CONTINUOUS
 10
3.7249712604
 20
5.4693577868
 11
3.7339797473
 21
5.4624541179
  0
LINE
  5
490
100
AcDbEntity
  8
0
100
AcDbLine
 62
7
  6
CONTINUOUS
 10
3.2639179737
 20
5.8231452028
 11
3.2729179737
 21
5.8162304737
  0
LINE
  5
491
100
AcDbEntity
  8
0
100
AcDbLine
 62
7
  6
CONTINUOUS
 10
3.6117345569
 20
5.4379721747
 11
3.6206960459
 21
5.4310354401
  0
LINE
  5
492
100
AcDbEntity
  8
0
100
AcDbLine
 62
7
  6
CONTINUOUS
 10
3.7306910508
 20
5.445533145
 11
3.7393258818
 21
5.4381674696
  0
LINE
  5
493
100
AcDbEntity
  8
0
100
AcDbLine
 62
7
  6
CONTINUOUS
 10
3.2887854243
 20
5.8229653723
 11
3.2974112012
 21
5.8155890959
  0
LINE
  5
494
100
AcDbEntity
  8
0
100
AcDbLine
 62
7
  6
CONTINUOUS
 10
4.6932135287
 20
5.3786114963
 11
4.6867629913
 21
5.3879619057
  0
LINE
  5
495
100
AcDbEntity
  8
DEFAULT_2
100
AcDbLine
 62
8
  6
HIDDEN
 10
5.0940812843
 20
4.7886112383
 11
5.0877620946
 21
4.7980509116
  0
LINE
  5
496
100
AcDbEntity
  8
0
100
AcDbLine
 62
7
  6
CONTINUOUS
 10
4.6949942532
 20
5.4028603495
 11
4.6889409285
 21
5.4124726776
  0
LINE
  5
497
100
AcDbEntity
  8
DEFAULT_2
100
AcDbLine
 62
8
  6
HIDDEN
 10
5.0708037331
 20
4.7965910228
 11
5.0648853789
 21
4.8062870361
  0
LINE
  5
498
100
AcDbEntity
  8
0
100
AcDbLine
 62
7
  6
CONTINUOUS
 10
4.6977888523
 20
5.4270133634
 11
4.6921433599
 21
5.4368707468
  0
LINE
  5
499
100
AcDbEntity
  8
0
100
AcDbLine
 62
7
  6
CONTINUOUS
 10
4.8230464365
 20
5.4242545655
 11
4.8285581219
 21
5.4143355764
  0
LINE
  5
49A
100
AcDbEntity
  8
DEFAULT_2
100
AcDbLine
 62
8
  6
HIDDEN
 10
5.047880759
 20
4.8055385702
 11
5.0423736231
 21
4.8154739134
  0
LINE
  5
49B
100
AcDbEntity
  8
DEFAULT_2
100
AcDbLine
 62
8
  6
HIDDEN
 10
5.0857941541
 20
4.939806382
 11
5.0910975757
 21
4.9297744958
  0
LINE
  5
49C
100
AcDbEntity
  8
0
100
AcDbLine
 62
7
  6
CONTINUOUS
 10
4.7015924232
 20
5.4510281654
 11
4.6963646673
 21
5.4611133108
  0
LINE
  5
49D
100
AcDbEntity
  8
0
100
AcDbLine
 62
7
  6
CONTINUOUS
 10
5.0253525766
 20
4.8154381837
 11
5.0202663205
 21
4.8255954269
  0
LINE
  5
49E
100
AcDbEntity
  8
0
100
AcDbLine
 62
7
  6
CONTINUOUS
 10
4.8277757016
 20
5.4482925549
 11
4.8327470232
 21
5.4380920166
  0
LINE
  5
49F
100
AcDbEntity
  8
0
100
AcDbLine
 62
7
  6
CONTINUOUS
 10
4.7063982933
 20
5.4748626253
 11
4.7015974451
 21
5.48515784
  0
LINE
  5
4A0
100
AcDbEntity
  8
DEFAULT_2
100
AcDbLine
 62
8
  6
HIDDEN
 10
5.0641410886
 20
4.9504393541
 11
5.0688983868
 21
4.9401372604
  0
LINE
  5
4A1
100
AcDbEntity
  8
0
100
AcDbLine
 62
7
  6
CONTINUOUS
 10
5.0032587081
 20
4.8262724959
 11
4.9986022546
 21
4.8366338197
  0
LINE
  5
4A2
100
AcDbEntity
  8
0
100
AcDbLine
 62
7
  6
CONTINUOUS
 10
4.833788427
 20
5.4720420393
 11
4.8382050514
 21
5.4615893626
  0
LINE
  5
4A3
100
AcDbEntity
  8
0
100
AcDbLine
 62
7
  6
CONTINUOUS
 10
4.7121980315
 20
5.4984749293
 11
4.7078325132
 21
5.508962152
  0
LINE
  5
4A4
100
AcDbEntity
  8
DEFAULT_2
100
AcDbLine
 62
8
  6
HIDDEN
 10
5.0430899809
 20
4.9622192611
 11
5.0472874391
 21
4.9516766634
  0
LINE
  5
4A5
100
AcDbEntity
  8
0
100
AcDbLine
 62
7
  6
CONTINUOUS
 10
4.8410672767
 20
5.495434543
 11
4.8449164694
 21
5.4847598657
  0
LINE
  5
4A6
100
AcDbEntity
  8
0
100
AcDbLine
 62
7
  6
CONTINUOUS
 10
5.0227015268
 20
4.9751121383
 11
5.0263270427
 21
4.9643594337
  0
LINE
  5
4A7
100
AcDbEntity
  8
0
100
AcDbLine
 62
7
  6
CONTINUOUS
 10
5.6569916346
 20
5.1019552506
 11
5.6558089099
 21
5.1132409133
  0
LINE
  5
4A8
100
AcDbEntity
  8
0
100
AcDbLine
 62
7
  6
CONTINUOUS
 10
5.7662806819
 20
5.0423326344
 11
5.7674287368
 21
5.031031238
  0
LINE
  5
4A9
100
AcDbEntity
  8
0
100
AcDbLine
 62
7
  6
CONTINUOUS
 10
5.6992323819
 20
5.7524733156
 11
5.7002223327
 21
5.7411569741
  0
LINE
  5
4AA
100
AcDbEntity
  8
0
100
AcDbLine
 62
7
  6
CONTINUOUS
 10
5.6051566476
 20
5.6506259531
 11
5.6042097732
 21
5.6619338464
  0
LINE
  5
4AB
100
AcDbEntity
  8
0
100
AcDbLine
 62
7
  6
CONTINUOUS
 10
5.753038247
 20
5.0219410728
 11
5.7537120415
 21
5.0106015141
  0
LINE
  5
4AC
100
AcDbEntity
  8
0
100
AcDbLine
 62
7
  6
CONTINUOUS
 10
5.6432187187
 20
5.0816945085
 11
5.6426434754
 21
5.0930273862
  0
LINE
  5
4AD
100
AcDbEntity
  8
0
100
AcDbLine
 62
7
  6
CONTINUOUS
 10
5.715786365
 20
5.7342665315
 11
5.7163015683
 21
5.7229186614
  0
LINE
  5
4AE
100
AcDbEntity
  8
0
100
AcDbLine
 62
7
  6
CONTINUOUS
 10
5.6209092528
 20
5.6323565586
 11
5.620570713
 21
5.6436989751
  0
LINE
  5
4AF
100
AcDbEntity
  8
0
100
AcDbLine
 62
7
  6
CONTINUOUS
 10
5.738953518
 20
5.0021219337
 11
5.73915187
 21
4.9907641062
  0
LINE
  5
4B0
100
AcDbEntity
  8
0
100
AcDbLine
 62
7
  6
CONTINUOUS
 10
5.7315634065
 20
5.7153825088
 11
5.7316029583
 21
5.7040230183
  0
LINE
  5
4B1
100
AcDbEntity
  8
0
100
AcDbLine
 62
7
  6
CONTINUOUS
 10
5.62837813
 20
5.0622022587
 11
5.6284120266
 21
5.0735496756
  0
LINE
  5
4B2
100
AcDbEntity
  8
0
100
AcDbLine
 62
7
  6
CONTINUOUS
 10
5.6356585089
 20
5.6132679551
 11
5.6359292799
 21
5.6246121917
  0
LINE
  5
4B3
100
AcDbEntity
  8
0
100
AcDbLine
 62
7
  6
CONTINUOUS
 10
5.7240512043
 20
4.9829099866
 11
5.7237737659
 21
4.9715538157
  0
LINE
  5
4B4
100
AcDbEntity
  8
0
100
AcDbLine
 62
7
  6
CONTINUOUS
 10
5.746535828
 20
5.6958543768
 11
5.7460996591
 21
5.6845031942
  0
LINE
  5
4B5
100
AcDbEntity
  8
0
100
AcDbLine
 62
7
  6
CONTINUOUS
 10
5.7083574496
 20
4.9643389358
 11
5.7076047075
 21
4.9530043441
  0
LINE
  5
4B6
100
AcDbEntity
  8
0
100
AcDbLine
 62
7
  6
CONTINUOUS
 10
5.7606773629
 20
5.6757163943
 11
5.7597662383
 21
5.6643934335
  0
LINE
  5
4B7
100
AcDbEntity
  8
0
100
AcDbLine
 62
7
  6
CONTINUOUS
 10
7.1282980203
 20
5.7933249233
 11
7.1347207601
 21
5.8026823745
  0
LINE
  5
4B8
100
AcDbEntity
  8
0
100
AcDbLine
 62
7
  6
CONTINUOUS
 10
6.7991251222
 20
5.3143876914
 11
6.8055593514
 21
5.3237372461
  0
LINE
  5
4B9
100
AcDbEntity
  8
0
100
AcDbLine
 62
7
  6
CONTINUOUS
 10
7.1517906605
 20
5.8002837604
 11
7.1586943294
 21
5.8092922473
  0
LINE
  5
4BA
100
AcDbEntity
  8
0
100
AcDbLine
 62
7
  6
CONTINUOUS
 10
6.7980032445
 20
5.3392304737
 11
6.8049179737
 21
5.3482304737
  0
LINE
  5
4BB
100
AcDbEntity
  8
0
100
AcDbLine
 62
7
  6
CONTINUOUS
 10
6.9154291746
 20
5.3454005378
 11
6.9224701897
 21
5.3542803283
  0
LINE
  5
4BC
100
AcDbEntity
  8
0
100
AcDbLine
 62
7
  6
CONTINUOUS
 10
7.1890378333
 20
5.6885455807
 11
7.1961282156
 21
5.6973860021
  0
LINE
  5
4BD
100
AcDbEntity
  8
DEFAULT_2
100
AcDbLine
 62
8
  6
HIDDEN
 10
7.6206960459
 20
5.2654255072
 11
7.6117345569
 21
5.2584887726
  0
LINE
  5
4BE
100
AcDbEntity
  8
0
100
AcDbLine
 62
7
  6
CONTINUOUS
 10
7.2729179737
 20
4.8802304737
 11
7.2639179737
 21
4.8733157445
  0
LINE
  5
4BF
100
AcDbEntity
  8
DEFAULT_2
100
AcDbLine
 62
8
  6
HIDDEN
 10
7.7339797473
 20
5.2340068294
 11
7.7249712604
 21
5.2271031605
  0
LINE
  5
4C0
100
AcDbEntity
  8
0
100
AcDbLine
 62
7
  6
CONTINUOUS
 10
7.2729179737
 20
4.9977304737
 11
7.2639179737
 21
4.9908437783
  0
LINE
  5
4C1
100
AcDbEntity
  8
0
100
AcDbLine
 62
7
  6
CONTINUOUS
 10
7.2484247461
 20
4.8808718514
 11
7.2390751914
 21
4.8744376222
  0
LINE
  5
4C2
100
AcDbEntity
  8
DEFAULT_2
100
AcDbLine
 62
8
  6
HIDDEN
 10
7.7273698745
 20
5.2100332601
 11
7.7180124233
 21
5.2036105203
  0
LINE
  5
4C3
100
AcDbEntity
  8
0
100
AcDbLine
 62
7
  6
CONTINUOUS
 10
7.5579455517
 20
5.1324399971
 11
7.5469499083
 21
5.1296972981
  0
LINE
  5
4C4
100
AcDbEntity
  8
0
100
AcDbLine
 62
7
  6
CONTINUOUS
 10
7.1318321765
 20
5.0273799667
 11
7.1208214219
 21
5.0246985758
  0
LINE
  5
4C5
100
AcDbEntity
  8
0
100
AcDbLine
 62
7
  6
CONTINUOUS
 10
7.0825652247
 20
4.9206911995
 11
7.0715308418
 21
4.9180349098
  0
LINE
  5
4C6
100
AcDbEntity
  8
0
100
AcDbLine
 62
7
  6
CONTINUOUS
 10
7.647659921
 20
5.0563512642
 11
7.6366222836
 21
5.0537085306
  0
LINE
  5
4C7
100
AcDbEntity
  8
0
100
AcDbLine
 62
7
  6
CONTINUOUS
 10
7.0604504198
 20
4.9312394203
 11
7.0492921397
 21
4.929164266
  0
LINE
  5
4C8
100
AcDbEntity
  8
0
100
AcDbLine
 62
7
  6
CONTINUOUS
 10
7.6318705726
 20
5.0371387964
 11
7.620709752
 21
5.0350773499
  0
LINE
  5
4C9
100
AcDbEntity
  8
0
100
AcDbLine
 62
7
  6
CONTINUOUS
 10
2.9251261953
 20
5.0350773499
 11
2.9139653747
 21
5.0371387964
  0
LINE
  5
4CA
100
AcDbEntity
  8
0
100
AcDbLine
 62
7
  6
CONTINUOUS
 10
3.4965438076
 20
4.929164266
 11
3.4853855275
 21
4.9312394203
  0
LINE
  5
4CB
100
AcDbEntity
  8
0
100
AcDbLine
 62
7
  6
CONTINUOUS
 10
3.006592245
 20
5.1203689888
 11
2.9955084861
 21
5.1227305264
  0
LINE
  5
4CC
100
AcDbEntity
  8
0
100
AcDbLine
 62
7
  6
CONTINUOUS
 10
2.9092136637
 20
5.0537085306
 11
2.8981760263
 21
5.0563512642
  0
LINE
  5
4CD
100
AcDbEntity
  8
0
100
AcDbLine
 62
7
  6
CONTINUOUS
 10
3.4743051055
 20
4.9180349098
 11
3.4632707226
 21
4.9206911995
  0
LINE
  5
4CE
100
AcDbEntity
  8
0
100
AcDbLine
 62
7
  6
CONTINUOUS
 10
3.4137568252
 20
5.0196415696
 11
3.4028451828
 21
5.0227014115
  0
LINE
  5
4CF
100
AcDbEntity
  8
0
100
AcDbLine
 62
7
  6
CONTINUOUS
 10
2.9915064021
 20
5.1392860375
 11
2.9806119779
 21
5.1424066294
  0
LINE
  5
4D0
100
AcDbEntity
  8
0
100
AcDbLine
 62
7
  6
CONTINUOUS
 10
2.8942980203
 20
5.0731469756
 11
2.8834138196
 21
5.0763637527
  0
LINE
  5
4D1
100
AcDbEntity
  8
0
100
AcDbLine
 62
7
  6
CONTINUOUS
 10
3.4515144152
 20
4.9080846898
 11
3.440634174
 21
4.9113148341
  0
LINE
  5
4D2
100
AcDbEntity
  8
0
100
AcDbLine
 62
7
  6
CONTINUOUS
 10
3.5860355832
 20
5.5057347992
 11
3.5962321154
 21
5.5007893664
  0
LINE
  5
4D3
100
AcDbEntity
  8
0
100
AcDbLine
 62
7
  6
CONTINUOUS
 10
3.7004572478
 20
5.5385832226
 11
3.7104347971
 21
5.5331737872
  0
LINE
  5
4D4
100
AcDbEntity
  8
0
100
AcDbLine
 62
7
  6
CONTINUOUS
 10
3.189735747
 20
5.8158903043
 11
3.199706644
 21
5.810468617
  0
LINE
  5
4D5
100
AcDbEntity
  8
0
100
AcDbLine
 62
7
  6
CONTINUOUS
 10
3.214808115
 20
5.7009761247
 11
3.2246704168
 21
5.6953938693
  0
LINE
  5
4D6
100
AcDbEntity
  8
0
100
AcDbLine
 62
7
  6
CONTINUOUS
 10
3.5961559129
 20
5.4837571671
 11
3.6059869584
 21
5.4781200475
  0
LINE
  5
4D7
100
AcDbEntity
  8
0
100
AcDbLine
 62
7
  6
CONTINUOUS
 10
3.7098336133
 20
5.515946674
 11
3.7195143806
 21
5.5100224675
  0
LINE
  5
4D8
100
AcDbEntity
  8
0
100
AcDbLine
 62
7
  6
CONTINUOUS
 10
3.2143251698
 20
5.8196028141
 11
3.2239986528
 21
5.8136667207
  0
LINE
  5
4D9
100
AcDbEntity
  8
0
100
AcDbLine
 62
7
  6
CONTINUOUS
 10
3.7180124233
 20
5.492850427
 11
3.7273698745
 21
5.4864276872
  0
LINE
  5
4DA
100
AcDbEntity
  8
0
100
AcDbLine
 62
7
  6
CONTINUOUS
 10
3.2390751914
 20
5.8220233251
 11
3.2484247461
 21
5.8155890959
  0
LINE
  5
4DB
100
AcDbEntity
  8
DEFAULT_2
100
AcDbLine
 62
8
  6
HIDDEN
 10
5.2880689314
 20
4.7609258691
 11
5.2789968443
 21
4.7677623028
  0
LINE
  5
4DC
100
AcDbEntity
  8
0
100
AcDbLine
 62
7
  6
CONTINUOUS
 10
4.7091745242
 20
5.2097618015
 11
4.7002967333
 21
5.2168487204
  0
LINE
  5
4DD
100
AcDbEntity
  8
DEFAULT_2
100
AcDbLine
 62
8
  6
HIDDEN
 10
5.2634618772
 20
4.7608065788
 11
5.254684028
 21
4.7680169154
  0
LINE
  5
4DE
100
AcDbEntity
  8
0
100
AcDbLine
 62
7
  6
CONTINUOUS
 10
4.7038705568
 20
5.2334903876
 11
4.6952973226
 21
5.2409428533
  0
LINE
  5
4DF
100
AcDbEntity
  8
DEFAULT_2
100
AcDbLine
 62
8
  6
HIDDEN
 10
5.2388714122
 20
4.7617178296
 11
5.2304032002
 21
4.7692894196
  0
LINE
  5
4E0
100
AcDbEntity
  8
0
100
AcDbLine
 62
7
  6
CONTINUOUS
 10
4.6995648919
 20
5.2574202667
 11
4.6913112548
 21
5.2652252051
  0
LINE
  5
4E1
100
AcDbEntity
  8
DEFAULT_2
100
AcDbLine
 62
8
  6
HIDDEN
 10
5.2247590494
 20
4.9015692144
 11
5.2329663153
 21
4.8937330287
  0
LINE
  5
4E2
100
AcDbEntity
  8
DEFAULT_2
100
AcDbLine
 62
8
  6
HIDDEN
 10
5.2143406764
 20
4.7636580228
 11
5.2061969578
 21
4.7715775832
  0
LINE
  5
4E3
100
AcDbEntity
  8
0
100
AcDbLine
 62
7
  6
CONTINUOUS
 10
4.8189978482
 20
5.3021806939
 11
4.826943512
 21
5.29407937
  0
LINE
  5
4E4
100
AcDbEntity
  8
0
100
AcDbLine
 62
7
  6
CONTINUOUS
 10
4.6962650832
 20
5.2815094578
 11
4.6883455228
 21
5.2896531764
  0
LINE
  5
4E5
100
AcDbEntity
  8
DEFAULT_2
100
AcDbLine
 62
8
  6
HIDDEN
 10
5.1899127051
 20
4.7666237548
 11
5.1821077667
 21
4.7748773919
  0
LINE
  5
4E6
100
AcDbEntity
  8
DEFAULT_2
100
AcDbLine
 62
8
  6
HIDDEN
 10
5.2008532057
 20
4.9047981432
 11
5.2086280198
 21
4.8965327159
  0
LINE
  5
4E7
100
AcDbEntity
  8
0
100
AcDbLine
 62
7
  6
CONTINUOUS
 10
4.6939769196
 20
5.3057157002
 11
4.6864053296
 21
5.3141839122
  0
LINE
  5
4E8
100
AcDbEntity
  8
0
100
AcDbLine
 62
7
  6
CONTINUOUS
 10
4.8171804358
 20
5.3266119831
 11
4.8246797931
 21
5.3180958419
  0
LINE
  5
4E9
100
AcDbEntity
  8
DEFAULT_2
100
AcDbLine
 62
8
  6
HIDDEN
 10
5.1656303533
 20
4.7706098226
 11
5.1581778876
 21
4.7791830568
  0
LINE
  5
4EA
100
AcDbEntity
  8
DEFAULT_2
100
AcDbLine
 62
8
  6
HIDDEN
 10
5.1771551434
 20
4.9093056021
 11
5.1844750888
 21
4.9006347648
  0
LINE
  5
4EB
100
AcDbEntity
  8
0
100
AcDbLine
 62
7
  6
CONTINUOUS
 10
4.6927044154
 20
5.329996528
 11
4.6854940788
 21
5.3387743772
  0
LINE
  5
4EC
100
AcDbEntity
  8
DEFAULT_2
100
AcDbLine
 62
8
  6
HIDDEN
 10
5.1415362204
 20
4.7756092333
 11
5.1344493015
 21
4.7844870242
  0
LINE
  5
4ED
100
AcDbEntity
  8
0
100
AcDbLine
 62
7
  6
CONTINUOUS
 10
4.8166770328
 20
5.351105604
 11
4.823708461
 21
5.3421991997
  0
LINE
  5
4EE
100
AcDbEntity
  8
DEFAULT_2
100
AcDbLine
 62
8
  6
HIDDEN
 10
5.1537331901
 20
4.9150785951
 11
5.1605771615
 21
4.9060273479
  0
LINE
  5
4EF
100
AcDbEntity
  8
0
100
AcDbLine
 62
7
  6
CONTINUOUS
 10
4.6924498028
 20
5.3543093443
 11
4.6856133691
 21
5.3633814314
  0
LINE
  5
4F0
100
AcDbEntity
  8
DEFAULT_2
100
AcDbLine
 62
8
  6
HIDDEN
 10
5.1176725757
 20
4.7816132162
 11
5.1109636366
 21
4.7907799891
  0
LINE
  5
4F1
100
AcDbEntity
  8
0
100
AcDbLine
 62
7
  6
CONTINUOUS
 10
4.8174890905
 20
5.3755909352
 11
4.8240323162
 21
5.3663199472
  0
LINE
  5
4F2
100
AcDbEntity
  8
DEFAULT_2
100
AcDbLine
 62
8
  6
HIDDEN
 10
5.1306548774
 20
4.9221004771
 11
5.1370031419
 21
4.9126949171
  0
LINE
  5
4F3
100
AcDbEntity
  8
0
100
AcDbLine
 62
7
  6
CONTINUOUS
 10
4.8196142675
 20
5.399997379
 11
4.825650425
 21
5.3903885381
  0
LINE
  5
4F4
100
AcDbEntity
  8
DEFAULT_2
100
AcDbLine
 62
8
  6
HIDDEN
 10
5.1079867461
 20
4.9303510022
 11
5.1138209999
 21
4.9206182481
  0
LINE
  5
4F5
100
AcDbEntity
  8
0
100
AcDbLine
 62
7
  6
CONTINUOUS
 10
5.6696571666
 20
5.1229260679
 11
5.6678703706
 21
5.1341319762
  0
LINE
  5
4F6
100
AcDbEntity
  8
0
100
AcDbLine
 62
7
  6
CONTINUOUS
 10
5.5884461124
 20
5.6680234632
 11
5.5868936334
 21
5.6792642296
  0
LINE
  5
4F7
100
AcDbEntity
  8
0
100
AcDbLine
 62
7
  6
CONTINUOUS
 10
7.0604504198
 20
5.765221527
 11
7.0653302571
 21
5.7754685103
  0
LINE
  5
4F8
100
AcDbEntity
  8
0
100
AcDbLine
 62
7
  6
CONTINUOUS
 10
6.810252476
 20
5.2406868209
 11
6.8151448965
 21
5.2509278023
  0
LINE
  5
4F9
100
AcDbEntity
  8
0
100
AcDbLine
 62
7
  6
CONTINUOUS
 10
7.0825652247
 20
5.7757697478
 11
7.0879746601
 21
5.7857472971
  0
LINE
  5
4FA
100
AcDbEntity
  8
0
100
AcDbLine
 62
7
  6
CONTINUOUS
 10
6.805258143
 20
5.265048247
 11
6.8106798303
 21
5.275019144
  0
LINE
  5
4FB
100
AcDbEntity
  8
0
100
AcDbLine
 62
7
  6
CONTINUOUS
 10
6.9192218598
 20
5.296217888
 11
6.9249735133
 21
5.3059823672
  0
LINE
  5
4FC
100
AcDbEntity
  8
0
100
AcDbLine
 62
7
  6
CONTINUOUS
 10
7.1429907645
 20
5.6737595358
 11
7.1487967344
 21
5.6834918164
  0
LINE
  5
4FD
100
AcDbEntity
  8
0
100
AcDbLine
 62
7
  6
CONTINUOUS
 10
7.1052017733
 20
5.7851461133
 11
7.1111259798
 21
5.7948268806
  0
LINE
  5
4FE
100
AcDbEntity
  8
0
100
AcDbLine
 62
7
  6
CONTINUOUS
 10
6.8015456332
 20
5.2896376698
 11
6.8074817266
 21
5.2993111528
  0
LINE
  5
4FF
100
AcDbEntity
  8
0
100
AcDbLine
 62
7
  6
CONTINUOUS
 10
6.9164762136
 20
5.3207437195
 11
6.922887825
 21
5.3300881195
  0
LINE
  5
500
100
AcDbEntity
  8
0
100
AcDbLine
 62
7
  6
CONTINUOUS
 10
7.1657589682
 20
5.6819477156
 11
7.1722225452
 21
5.6912562463
  0
LINE
  5
501
100
AcDbEntity
  8
DEFAULT_2
100
AcDbLine
 62
8
  6
HIDDEN
 10
7.6287837477
 20
5.3140866477
 11
7.620862434
 21
5.3059823672
  0
LINE
  5
502
100
AcDbEntity
  8
0
100
AcDbLine
 62
7
  6
CONTINUOUS
 10
7.3211655305
 20
5.001067078
 11
7.3131991843
 21
4.9930070594
  0
LINE
  5
503
100
AcDbEntity
  8
0
100
AcDbLine
 62
7
  6
CONTINUOUS
 10
7.3218372945
 20
4.8827942266
 11
7.3136093834
 21
4.8749766209
  0
LINE
  5
504
100
AcDbEntity
  8
DEFAULT_2
100
AcDbLine
 62
8
  6
HIDDEN
 10
7.7433936246
 20
5.2828266371
 11
7.735156117
 21
5.275019144
  0
LINE
  5
505
100
AcDbEntity
  8
DEFAULT_2
100
AcDbLine
 62
8
  6
HIDDEN
 10
7.6255801948
 20
5.2896164161
 11
7.6171186319
 21
5.2820779464
  0
LINE
  5
506
100
AcDbEntity
  8
0
100
AcDbLine
 62
7
  6
CONTINUOUS
 10
7.2970993698
 20
4.9985656197
 11
7.2885959353
 21
4.9910744132
  0
LINE
  5
507
100
AcDbEntity
  8
0
100
AcDbLine
 62
7
  6
CONTINUOUS
 10
7.2974112012
 20
4.8808718514
 11
7.2887854243
 21
4.873495575
  0
LINE
  5
508
100
AcDbEntity
  8
DEFAULT_2
100
AcDbLine
 62
8
  6
HIDDEN
 10
7.7393258818
 20
5.2582934777
 11
7.7306910508
 21
5.2509278023
  0
LINE
  5
509
100
AcDbEntity
  8
0
100
AcDbLine
 62
7
  6
CONTINUOUS
 10
5.7498839178
 20
5.0052148208
 11
5.738953518
 21
5.0021219337
  0
LINE
  5
50A
100
AcDbEntity
  8
DEFAULT_2
100
AcDbLine
 62
8
  6
HIDDEN
 10
5.0423736231
 20
4.8154739134
 11
5.0382929737
 21
4.814441312
  0
LINE
  5
50B
100
AcDbEntity
  8
0
100
AcDbLine
 62
7
  6
CONTINUOUS
 10
5.0382929737
 20
4.814441312
 11
5.0313611757
 21
4.8126872323
  0
LINE
  5
50C
100
AcDbEntity
  8
0
100
AcDbLine
 62
7
  6
CONTINUOUS
 10
5.7351015329
 20
4.985542443
 11
5.7240512043
 21
4.9829099866
  0
LINE
  5
50D
100
AcDbEntity
  8
0
100
AcDbLine
 62
7
  6
CONTINUOUS
 10
5.0202663205
 20
4.8255954269
 11
5.0091468388
 21
4.8232723435
  0
LINE
  5
50E
100
AcDbEntity
  8
0
100
AcDbLine
 62
7
  6
CONTINUOUS
 10
5.719508321
 20
4.9665063434
 11
5.7083574496
 21
4.9643389358
  0
LINE
  5
50F
100
AcDbEntity
  8
0
100
AcDbLine
 62
7
  6
CONTINUOUS
 10
7.5423787767
 20
5.1132897883
 11
7.5312201109
 21
5.1113122264
  0
LINE
  5
510
100
AcDbEntity
  8
0
100
AcDbLine
 62
7
  6
CONTINUOUS
 10
7.1100325018
 20
5.0378781367
 11
7.0988629907
 21
5.0359627793
  0
LINE
  5
511
100
AcDbEntity
  8
0
100
AcDbLine
 62
7
  6
CONTINUOUS
 10
4.9986022546
 20
4.8366338197
 11
4.987395246
 21
4.8347784097
  0
LINE
  5
512
100
AcDbEntity
  8
0
100
AcDbLine
 62
7
  6
CONTINUOUS
 10
5.7031316379
 20
4.9481399176
 11
5.6918997861
 21
4.9464413612
  0
LINE
  5
513
100
AcDbEntity
  8
0
100
AcDbLine
 62
7
  6
CONTINUOUS
 10
7.0389179737
 20
4.9429305847
 11
7.0276663804
 21
4.9414422535
  0
LINE
  5
514
100
AcDbEntity
  8
0
100
AcDbLine
 62
7
  6
CONTINUOUS
 10
7.6150973602
 20
5.0187790092
 11
7.6038439472
 21
5.0173045001
  0
LINE
  5
515
100
AcDbEntity
  8
0
100
AcDbLine
 62
7
  6
CONTINUOUS
 10
4.9774194318
 20
4.848569727
 11
4.9661445571
 21
4.8471852453
  0
LINE
  5
516
100
AcDbEntity
  8
0
100
AcDbLine
 62
7
  6
CONTINUOUS
 10
5.6860002139
 20
4.9304753865
 11
5.6747070861
 21
4.9292486612
  0
LINE
  5
517
100
AcDbEntity
  8
0
100
AcDbLine
 62
7
  6
CONTINUOUS
 10
7.5255278982
 20
5.0952591788
 11
7.5142593862
 21
5.094056178
  0
LINE
  5
518
100
AcDbEntity
  8
0
100
AcDbLine
 62
7
  6
CONTINUOUS
 10
7.0890090507
 20
5.0498552769
 11
7.0777340108
 21
5.0487150807
  0
LINE
  5
519
100
AcDbEntity
  8
0
100
AcDbLine
 62
7
  6
CONTINUOUS
 10
4.9567550138
 20
4.861382209
 11
4.945432053
 21
4.8604710844
  0
LINE
  5
51A
100
AcDbEntity
  8
0
100
AcDbLine
 62
7
  6
CONTINUOUS
 10
7.0180269053
 20
4.9557326479
 11
7.0067128387
 21
4.9548352193
  0
LINE
  5
51B
100
AcDbEntity
  8
0
100
AcDbLine
 62
7
  6
CONTINUOUS
 10
7.5973862578
 20
5.0013222256
 11
7.5860710974
 21
5.0004386953
  0
LINE
  5
51C
100
AcDbEntity
  8
0
100
AcDbLine
 62
7
  6
CONTINUOUS
 10
5.6681441032
 20
4.9135437398
 11
5.6568095115
 21
4.9127909977
  0
LINE
  5
51D
100
AcDbEntity
  8
0
100
AcDbLine
 62
7
  6
CONTINUOUS
 10
4.9366452531
 20
4.8750487882
 11
4.9252940705
 21
4.8746126193
  0
LINE
  5
51E
100
AcDbEntity
  8
0
100
AcDbLine
 62
7
  6
CONTINUOUS
 10
5.6495946316
 20
4.8973746814
 11
5.6382384607
 21
4.897097243
  0
LINE
  5
51F
100
AcDbEntity
  8
0
100
AcDbLine
 62
7
  6
CONTINUOUS
 10
4.917125429
 20
4.889545489
 11
4.9057659385
 21
4.8895850408
  0
LINE
  5
520
100
AcDbEntity
  8
0
100
AcDbLine
 62
7
  6
CONTINUOUS
 10
5.6303843411
 20
4.8819965773
 11
5.6190265136
 21
4.8821949293
  0
LINE
  5
521
100
AcDbEntity
  8
0
100
AcDbLine
 62
7
  6
CONTINUOUS
 10
4.8982297859
 20
4.904846879
 11
4.8868819158
 21
4.9053620823
  0
LINE
  5
522
100
AcDbEntity
  8
0
100
AcDbLine
 62
7
  6
CONTINUOUS
 10
5.6105469332
 20
4.8674364058
 11
5.5992073745
 21
4.8681102003
  0
LINE
  5
523
100
AcDbEntity
  8
0
100
AcDbLine
 62
7
  6
CONTINUOUS
 10
2.9597648499
 20
5.0004386953
 11
2.9484496895
 21
5.0013222256
  0
LINE
  5
524
100
AcDbEntity
  8
0
100
AcDbLine
 62
7
  6
CONTINUOUS
 10
3.5391231086
 20
4.9548352193
 11
3.527809042
 21
4.9557326479
  0
LINE
  5
525
100
AcDbEntity
  8
0
100
AcDbLine
 62
7
  6
CONTINUOUS
 10
4.8799914733
 20
4.9209261146
 11
4.8686751317
 21
4.9219160654
  0
LINE
  5
526
100
AcDbEntity
  8
0
100
AcDbLine
 62
7
  6
CONTINUOUS
 10
5.5901172093
 20
4.8537197105
 11
5.5788158129
 21
4.8548677654
  0
LINE
  5
527
100
AcDbEntity
  8
0
100
AcDbLine
 62
7
  6
CONTINUOUS
 10
4.8624424872
 20
4.9377549872
 11
4.8511775268
 21
4.9392179488
  0
LINE
  5
528
100
AcDbEntity
  8
0
100
AcDbLine
 62
7
  6
CONTINUOUS
 10
2.9419920001
 20
5.0173045001
 11
2.9307385871
 21
5.0187790092
  0
LINE
  5
529
100
AcDbEntity
  8
0
100
AcDbLine
 62
7
  6
CONTINUOUS
 10
3.5181695669
 20
4.9414422535
 11
3.5069179737
 21
4.9429305847
  0
LINE
  5
52A
100
AcDbEntity
  8
0
100
AcDbLine
 62
7
  6
CONTINUOUS
 10
3.4576475194
 20
5.042156553
 11
3.446418553
 21
5.0436852406
  0
LINE
  5
52B
100
AcDbEntity
  8
0
100
AcDbLine
 62
7
  6
CONTINUOUS
 10
3.0229472513
 20
5.1025378039
 11
3.0117269768
 21
5.1041290334
  0
LINE
  5
52C
100
AcDbEntity
  8
0
100
AcDbLine
 62
7
  6
CONTINUOUS
 10
5.5691310102
 20
4.8408705551
 11
5.5578876026
 21
4.8424908563
  0
LINE
  5
52D
100
AcDbEntity
  8
0
100
AcDbLine
 62
7
  6
CONTINUOUS
 10
4.8456136146
 20
4.9553039733
 11
4.8344197979
 21
4.9572373792
  0
LINE
  5
52E
100
AcDbEntity
  8
0
100
AcDbLine
 62
7
  6
CONTINUOUS
 10
5.5476251528
 20
4.8289114814
 11
5.5364594588
 21
4.8310011864
  0
LINE
  5
52F
100
AcDbEntity
  8
0
100
AcDbLine
 62
7
  6
CONTINUOUS
 10
3.4360909691
 20
5.030141141
 11
3.4249942242
 21
5.0324408855
  0
LINE
  5
530
100
AcDbEntity
  8
0
100
AcDbLine
 62
7
  6
CONTINUOUS
 10
4.829534379
 20
4.9735422859
 11
4.8184313439
 21
4.9759427444
  0
LINE
  5
531
100
AcDbEntity
  8
0
100
AcDbLine
 62
7
  6
CONTINUOUS
 10
5.5256373656
 20
4.8178634696
 11
5.5145689736
 21
4.8204189123
  0
LINE
  5
532
100
AcDbEntity
  8
0
100
AcDbLine
 62
7
  6
CONTINUOUS
 10
4.814232989
 20
4.992437929
 11
4.8032402139
 21
4.9953012287
  0
LINE
  5
533
100
AcDbEntity
  8
DEFAULT_2
100
AcDbLine
 62
8
  6
HIDDEN
 10
5.5032062227
 20
4.8077459019
 11
5.4922545504
 21
4.8107625992
  0
LINE
  5
534
100
AcDbEntity
  8
0
100
AcDbLine
 62
7
  6
CONTINUOUS
 10
4.7997362882
 20
5.0119577531
 11
4.7888730582
 21
5.0152788708
  0
LINE
  5
535
100
AcDbEntity
  8
DEFAULT_2
100
AcDbLine
 62
8
  6
HIDDEN
 10
5.4803710761
 20
4.7985765277
 11
5.4695553364
 21
4.8020491873
  0
LINE
  5
536
100
AcDbEntity
  8
0
100
AcDbLine
 62
7
  6
CONTINUOUS
 10
4.786069709
 20
5.0320675138
 11
4.7753550818
 21
5.0358406232
  0
LINE
  5
537
100
AcDbEntity
  8
DEFAULT_2
100
AcDbLine
 62
8
  6
HIDDEN
 10
5.4571719861
 20
4.7903714333
 11
5.4465111536
 21
4.7942939629
  0
LINE
  5
538
100
AcDbEntity
  8
0
100
AcDbLine
 62
7
  6
CONTINUOUS
 10
4.8794290382
 20
5.1172964567
 11
4.8900270374
 21
5.1132409133
  0
LINE
  5
539
100
AcDbEntity
  8
0
100
AcDbLine
 62
7
  6
CONTINUOUS
 10
3.1668046164
 20
5.6896191164
 11
3.1773414506
 21
5.6854475821
  0
LINE
  5
53A
100
AcDbEntity
  8
0
100
AcDbLine
 62
7
  6
CONTINUOUS
 10
4.773257227
 20
5.0527319318
 11
4.7627099998
 21
5.0569504136
  0
LINE
  5
53B
100
AcDbEntity
  8
0
100
AcDbLine
 62
7
  6
CONTINUOUS
 10
3.5744231056
 20
5.5269618515
 11
3.5849365332
 21
5.5227316728
  0
LINE
  5
53C
100
AcDbEntity
  8
DEFAULT_2
100
AcDbLine
 62
8
  6
HIDDEN
 10
5.3921027572
 20
4.9150785951
 11
5.4026137859
 21
4.9108026982
  0
LINE
  5
53D
100
AcDbEntity
  8
0
100
AcDbLine
 62
7
  6
CONTINUOUS
 10
3.6782178626
 20
5.5822304737
 11
3.6887061938
 21
5.5778936096
  0
LINE
  5
53E
100
AcDbEntity
  8
0
100
AcDbLine
 62
7
  6
CONTINUOUS
 10
3.1413076645
 20
5.8046335045
 11
3.1517906605
 21
5.8002837604
  0
LINE
  5
53F
100
AcDbEntity
  8
DEFAULT_2
100
AcDbLine
 62
8
  6
HIDDEN
 10
5.433649652
 20
4.7831450132
 11
5.4231624293
 21
4.7875105315
  0
LINE
  5
540
100
AcDbEntity
  8
0
100
AcDbLine
 62
7
  6
CONTINUOUS
 10
4.8676005437
 20
5.1387505379
 11
4.8779655767
 21
5.1341319762
  0
LINE
  5
541
100
AcDbEntity
  8
0
100
AcDbLine
 62
7
  6
CONTINUOUS
 10
4.7613213197
 20
5.0739147546
 11
4.7509599959
 21
5.0785712081
  0
LINE
  5
542
100
AcDbEntity
  8
DEFAULT_2
100
AcDbLine
 62
8
  6
HIDDEN
 10
5.40984534
 20
4.7769099451
 11
5.3995501253
 21
4.7817107933
  0
LINE
  5
543
100
AcDbEntity
  8
DEFAULT_2
100
AcDbLine
 62
8
  6
HIDDEN
 10
5.3686808039
 20
4.9093056021
 11
5.3789471639
 21
4.9044716728
  0
LINE
  5
544
100
AcDbEntity
  8
0
100
AcDbLine
 62
7
  6
CONTINUOUS
 10
3.689909027
 20
5.5606980275
 11
3.7001560103
 21
5.5558181902
  0
LINE
  5
545
100
AcDbEntity
  8
0
100
AcDbLine
 62
7
  6
CONTINUOUS
 10
3.1653743209
 20
5.8108959713
 11
3.1756153023
 21
5.8060035508
  0
LINE
  5
546
100
AcDbEntity
  8
0
100
AcDbLine
 62
7
  6
CONTINUOUS
 10
3.1906102488
 20
5.6961265622
 11
3.2008341776
 21
5.6912380193
  0
LINE
  5
547
100
AcDbEntity
  8
0
100
AcDbLine
 62
7
  6
CONTINUOUS
 10
4.7502829269
 20
5.0955788205
 11
4.7401256837
 21
5.1006650766
  0
LINE
  5
548
100
AcDbEntity
  8
0
100
AcDbLine
 62
7
  6
CONTINUOUS
 10
4.8569406843
 20
5.1608086039
 11
4.8670428659
 21
5.1556403404
  0
LINE
  5
549
100
AcDbEntity
  8
DEFAULT_2
100
AcDbLine
 62
8
  6
HIDDEN
 10
5.3858008108
 20
4.7716771673
 11
5.3757156654
 21
4.7769049232
  0
LINE
  5
54A
100
AcDbEntity
  8
DEFAULT_2
100
AcDbLine
 62
8
  6
HIDDEN
 10
5.3449827416
 20
4.9047981432
 11
5.3549748323
 21
4.899420119
  0
LINE
  5
54B
100
AcDbEntity
  8
0
100
AcDbLine
 62
7
  6
CONTINUOUS
 10
4.7401614134
 20
5.1176861231
 11
4.7302260702
 21
5.123193259
  0
LINE
  5
54C
100
AcDbEntity
  8
DEFAULT_2
100
AcDbLine
 62
8
  6
HIDDEN
 10
5.3615582468
 20
4.7674558599
 11
5.3517008634
 21
4.7731013523
  0
LINE
  5
54D
100
AcDbEntity
  8
0
100
AcDbLine
 62
7
  6
CONTINUOUS
 10
4.8474801951
 20
5.1834070557
 11
4.8572903981
 21
5.1777039919
  0
LINE
  5
54E
100
AcDbEntity
  8
DEFAULT_2
100
AcDbLine
 62
8
  6
HIDDEN
 10
5.3210768979
 20
4.9015692144
 11
5.3307659095
 21
4.8956626016
  0
LINE
  5
54F
100
AcDbEntity
  8
0
100
AcDbLine
 62
7
  6
CONTINUOUS
 10
4.7309745361
 20
5.1401978789
 11
4.7212785228
 21
5.1461162331
  0
LINE
  5
550
100
AcDbEntity
  8
DEFAULT_2
100
AcDbLine
 62
8
  6
HIDDEN
 10
5.3371601776
 20
4.7642534285
 11
5.3275478495
 21
4.7703067532
  0
LINE
  5
551
100
AcDbEntity
  8
0
100
AcDbLine
 62
7
  6
CONTINUOUS
 10
4.8392463532
 20
5.2064807361
 11
4.8487362923
 21
5.2002593154
  0
LINE
  5
552
100
AcDbEntity
  8
0
100
AcDbLine
 62
7
  6
CONTINUOUS
 10
4.7227384116
 20
5.1630745946
 11
4.7132987383
 21
5.1693937843
  0
LINE
  5
553
100
AcDbEntity
  8
DEFAULT_2
100
AcDbLine
 62
8
  6
HIDDEN
 10
5.2970321995
 20
4.8996281257
 11
5.3063901961
 21
4.8932099545
  0
LINE
  5
554
100
AcDbEntity
  8
DEFAULT_2
100
AcDbLine
 62
8
  6
HIDDEN
 10
5.3126494057
 20
4.7620754913
 11
5.3032989963
 21
4.7685260287
  0
LINE
  5
555
100
AcDbEntity
  8
0
100
AcDbLine
 62
7
  6
CONTINUOUS
 10
4.7154674891
 20
5.1862761366
 11
4.7063007162
 21
5.1929850757
  0
LINE
  5
556
100
AcDbEntity
  8
0
100
AcDbLine
 62
7
  6
CONTINUOUS
 10
4.8322628988
 20
5.2299631177
 11
4.841405212
 21
5.223241278
  0
LINE
  5
557
100
AcDbEntity
  8
DEFAULT_2
100
AcDbLine
 62
8
  6
HIDDEN
 10
5.2729179737
 20
4.8989804737
 11
5.2819179737
 21
4.8920692494
  0
LINE
  5
558
100
AcDbEntity
  8
0
100
AcDbLine
 62
7
  6
CONTINUOUS
 10
4.826549967
 20
5.2537864947
 11
4.8353182947
 21
5.2465836168
  0
LINE
  5
559
100
AcDbEntity
  8
DEFAULT_2
100
AcDbLine
 62
8
  6
HIDDEN
 10
5.2488037478
 20
4.8996281257
 11
5.2574198019
 21
4.8922437752
  0
LINE
  5
55A
100
AcDbEntity
  8
0
100
AcDbLine
 62
7
  6
CONTINUOUS
 10
4.8221240298
 20
5.2778821781
 11
4.8304930906
 21
5.2702190298
  0
LINE
  5
55B
100
AcDbEntity
  8
0
100
AcDbLine
 62
7
  6
CONTINUOUS
 10
5.4922994935
 20
5.7402729602
 11
5.4878205008
 21
5.7506990642
  0
LINE
  5
55C
100
AcDbEntity
  8
0
100
AcDbLine
 62
7
  6
CONTINUOUS
 10
5.7085651342
 20
5.2126737917
 11
5.7044307353
 21
5.223241278
  0
LINE
  5
55D
100
AcDbEntity
  8
0
100
AcDbLine
 62
7
  6
CONTINUOUS
 10
5.513026746
 20
5.7279321196
 11
5.5091138484
 21
5.7385836102
  0
LINE
  5
55E
100
AcDbEntity
  8
0
100
AcDbLine
 62
7
  6
CONTINUOUS
 10
5.7006608666
 20
5.1894851429
 11
5.697099655
 21
5.2002593154
  0
LINE
  5
55F
100
AcDbEntity
  8
0
100
AcDbLine
 62
7
  6
CONTINUOUS
 10
5.81909926
 20
5.1515931109
 11
5.8225719196
 21
5.1407773713
  0
LINE
  5
560
100
AcDbEntity
  8
0
100
AcDbLine
 62
7
  6
CONTINUOUS
 10
5.5330617028
 20
5.7144965008
 11
5.5297261823
 21
5.7253426671
  0
LINE
  5
561
100
AcDbEntity
  8
0
100
AcDbLine
 62
7
  6
CONTINUOUS
 10
5.6058695765
 20
5.8322753891
 11
5.6091906942
 21
5.8214121591
  0
LINE
  5
562
100
AcDbEntity
  8
0
100
AcDbLine
 62
7
  6
CONTINUOUS
 10
5.8103858481
 20
5.1288938969
 11
5.8134025454
 21
5.1179422246
  0
LINE
  5
563
100
AcDbEntity
  8
0
100
AcDbLine
 62
7
  6
CONTINUOUS
 10
5.6915233055
 20
5.166754198
 11
5.6885455492
 21
5.1777039919
  0
LINE
  5
564
100
AcDbEntity
  8
0
100
AcDbLine
 62
7
  6
CONTINUOUS
 10
5.6258472186
 20
5.8179082334
 11
5.6287105183
 21
5.8069154583
  0
LINE
  5
565
100
AcDbEntity
  8
0
100
AcDbLine
 62
7
  6
CONTINUOUS
 10
5.5523465979
 20
5.7000048423
 11
5.5495980716
 21
5.711014412
  0
LINE
  5
566
100
AcDbEntity
  8
0
100
AcDbLine
 62
7
  6
CONTINUOUS
 10
5.800729535
 20
5.1065794737
 11
5.8032849777
 21
5.0955110817
  0
LINE
  5
567
100
AcDbEntity
  8
0
100
AcDbLine
 62
7
  6
CONTINUOUS
 10
5.6452057029
 20
5.8027171034
 11
5.6476061614
 21
5.7916140683
  0
LINE
  5
568
100
AcDbEntity
  8
0
100
AcDbLine
 62
7
  6
CONTINUOUS
 10
5.6811787969
 20
5.1445464961
 11
5.6787930814
 21
5.1556403404
  0
LINE
  5
569
100
AcDbEntity
  8
0
100
AcDbLine
 62
7
  6
CONTINUOUS
 10
5.5708258279
 20
5.6844989273
 11
5.5686722205
 21
5.6956401568
  0
LINE
  5
56A
100
AcDbEntity
  8
0
100
AcDbLine
 62
7
  6
CONTINUOUS
 10
5.7901472609
 20
5.0846889886
 11
5.7922369659
 21
5.0735232945
  0
LINE
  5
56B
100
AcDbEntity
  8
0
100
AcDbLine
 62
7
  6
CONTINUOUS
 10
5.6639110681
 20
5.7867286494
 11
5.6658444741
 21
5.7755348327
  0
LINE
  5
56C
100
AcDbEntity
  8
0
100
AcDbLine
 62
7
  6
CONTINUOUS
 10
5.778657591
 20
5.0632608447
 11
5.7802778922
 21
5.0520174371
  0
LINE
  5
56D
100
AcDbEntity
  8
0
100
AcDbLine
 62
7
  6
CONTINUOUS
 10
5.6819304985
 20
5.7699709205
 11
5.6833934601
 21
5.7587059601
  0
LINE
  5
56E
100
AcDbEntity
  8
0
100
AcDbLine
 62
7
  6
CONTINUOUS
 10
6.9978344756
 20
5.726850427
 11
7.0010512527
 21
5.7377346277
  0
LINE
  5
56F
100
AcDbEntity
  8
0
100
AcDbLine
 62
7
  6
CONTINUOUS
 10
6.8327721898
 20
5.1696340321
 11
6.8360023341
 21
5.1805142733
  0
LINE
  5
570
100
AcDbEntity
  8
0
100
AcDbLine
 62
7
  6
CONTINUOUS
 10
7.0180269053
 20
5.7407282994
 11
7.0218089089
 21
5.7514292306
  0
LINE
  5
571
100
AcDbEntity
  8
0
100
AcDbLine
 62
7
  6
CONTINUOUS
 10
6.8240283787
 20
5.1929142428
 11
6.827823524
 21
5.2036105203
  0
LINE
  5
572
100
AcDbEntity
  8
0
100
AcDbLine
 62
7
  6
CONTINUOUS
 10
7.0389179737
 20
5.7535303626
 11
7.0432548377
 21
5.7640186938
  0
LINE
  5
573
100
AcDbEntity
  8
0
100
AcDbLine
 62
7
  6
CONTINUOUS
 10
6.8165149428
 20
5.2166201645
 11
6.8208646869
 21
5.2271031605
  0
LINE
  5
574
100
AcDbEntity
  8
0
100
AcDbLine
 62
7
  6
CONTINUOUS
 10
6.929748605
 20
5.2480255115
 11
6.9341013904
 21
5.2584887726
  0
LINE
  5
575
100
AcDbEntity
  8
0
100
AcDbLine
 62
7
  6
CONTINUOUS
 10
7.0994173943
 20
5.6527757067
 11
7.1038284113
 21
5.6632145525
  0
LINE
  5
576
100
AcDbEntity
  8
0
100
AcDbLine
 62
7
  6
CONTINUOUS
 10
6.9236530292
 20
5.2719399201
 11
6.9287173154
 21
5.2820779464
  0
LINE
  5
577
100
AcDbEntity
  8
0
100
AcDbLine
 62
7
  6
CONTINUOUS
 10
7.1208417231
 20
5.6640200619
 11
7.1259624178
 21
5.6741297136
  0
LINE
  5
578
100
AcDbEntity
  8
DEFAULT_2
100
AcDbLine
 62
8
  6
HIDDEN
 10
7.6300960812
 20
5.3633978563
 11
7.6233657576
 21
5.3542803283
  0
LINE
  5
579
100
AcDbEntity
  8
0
100
AcDbLine
 62
7
  6
CONTINUOUS
 10
7.3684944967
 20
5.0110133652
 11
7.3617134765
 21
5.0019334788
  0
LINE
  5
57A
100
AcDbEntity
  8
0
100
AcDbLine
 62
7
  6
CONTINUOUS
 10
7.3940452868
 20
4.8961771869
 11
7.3871416179
 21
4.8871687
  0
LINE
  5
57B
100
AcDbEntity
  8
DEFAULT_2
100
AcDbLine
 62
8
  6
HIDDEN
 10
7.7478327028
 20
5.3572304737
 11
7.7409179737
 21
5.3482304737
  0
LINE
  5
57C
100
AcDbEntity
  8
DEFAULT_2
100
AcDbLine
 62
8
  6
HIDDEN
 10
7.6302914381
 20
5.3387195901
 11
7.6229481223
 21
5.3300881195
  0
LINE
  5
57D
100
AcDbEntity
  8
0
100
AcDbLine
 62
7
  6
CONTINUOUS
 10
7.370220645
 20
4.8904573965
 11
7.3628549696
 21
4.8818225655
  0
LINE
  5
57E
100
AcDbEntity
  8
DEFAULT_2
100
AcDbLine
 62
8
  6
HIDDEN
 10
7.7476528723
 20
5.332363023
 11
7.7402765959
 21
5.3237372461
  0
LINE
  5
57F
100
AcDbEntity
  8
0
100
AcDbLine
 62
7
  6
CONTINUOUS
 10
7.3450017697
 20
5.005222928
 11
7.337610475
 21
4.9966325068
  0
LINE
  5
580
100
AcDbEntity
  8
0
100
AcDbLine
 62
7
  6
CONTINUOUS
 10
7.3461293033
 20
4.8859923303
 11
7.3383218102
 21
4.8777548227
  0
LINE
  5
581
100
AcDbEntity
  8
DEFAULT_2
100
AcDbLine
 62
8
  6
HIDDEN
 10
7.7461718264
 20
5.3075390639
 11
7.7383542207
 21
5.2993111528
  0
LINE
  5
582
100
AcDbEntity
  8
0
100
AcDbLine
 62
7
  6
CONTINUOUS
 10
7.4028451828
 20
5.6737595358
 11
7.4137568252
 21
5.6768193777
  0
LINE
  5
583
100
AcDbEntity
  8
0
100
AcDbLine
 62
7
  6
CONTINUOUS
 10
5.6284120266
 20
5.0735496756
 11
5.6393837045
 21
5.0764457599
  0
LINE
  5
584
100
AcDbEntity
  8
DEFAULT_2
100
AcDbLine
 62
8
  6
HIDDEN
 10
5.0747333383
 20
4.9372719443
 11
5.0857941541
 21
4.939806382
  0
LINE
  5
585
100
AcDbEntity
  8
0
100
AcDbLine
 62
7
  6
CONTINUOUS
 10
6.9955084861
 20
5.5737304209
 11
7.006592245
 21
5.5760919585
  0
LINE
  5
586
100
AcDbEntity
  8
0
100
AcDbLine
 62
7
  6
CONTINUOUS
 10
5.6131555964
 20
5.0548639409
 11
5.6242669093
 21
5.0571669275
  0
LINE
  5
587
100
AcDbEntity
  8
0
100
AcDbLine
 62
7
  6
CONTINUOUS
 10
7.4249942242
 20
5.6640200619
 11
7.4360909691
 21
5.6663198063
  0
LINE
  5
588
100
AcDbEntity
  8
DEFAULT_2
100
AcDbLine
 62
8
  6
HIDDEN
 10
5.0529601783
 20
4.9485022775
 11
5.0641410886
 21
4.9504393541
  0
LINE
  5
589
100
AcDbEntity
  8
0
100
AcDbLine
 62
7
  6
CONTINUOUS
 10
5.5969181731
 20
5.0370240578
 11
5.6081370841
 21
5.0387273065
  0
LINE
  5
58A
100
AcDbEntity
  8
0
100
AcDbLine
 62
7
  6
CONTINUOUS
 10
5.0318212136
 20
4.9608851306
 11
5.0382929737
 21
4.9616513344
  0
LINE
  5
58B
100
AcDbEntity
  8
DEFAULT_2
100
AcDbLine
 62
8
  6
HIDDEN
 10
5.0382929737
 20
4.9616513344
 11
5.0430899809
 21
4.9622192611
  0
LINE
  5
58C
100
AcDbEntity
  8
0
100
AcDbLine
 62
7
  6
CONTINUOUS
 10
5.5797465734
 20
5.0200814634
 11
5.5910407355
 21
5.0211800633
  0
LINE
  5
58D
100
AcDbEntity
  8
0
100
AcDbLine
 62
7
  6
CONTINUOUS
 10
3.0180269053
 20
4.9557326479
 11
3.0067128387
 21
4.9548352193
  0
LINE
  5
58E
100
AcDbEntity
  8
0
100
AcDbLine
 62
7
  6
CONTINUOUS
 10
3.5973862578
 20
5.0013222256
 11
3.5860710974
 21
5.0004386953
  0
LINE
  5
58F
100
AcDbEntity
  8
0
100
AcDbLine
 62
7
  6
CONTINUOUS
 10
5.0113773932
 20
4.9743848006
 11
5.0227015268
 21
4.9751121383
  0
LINE
  5
590
100
AcDbEntity
  8
0
100
AcDbLine
 62
7
  6
CONTINUOUS
 10
5.5616903073
 20
5.0040850076
 11
5.5730271566
 21
5.0045757911
  0
LINE
  5
591
100
AcDbEntity
  8
0
100
AcDbLine
 62
7
  6
CONTINUOUS
 10
7.5074732184
 20
5.0784340927
 11
7.4961485598
 21
5.0780113859
  0
LINE
  5
592
100
AcDbEntity
  8
0
100
AcDbLine
 62
7
  6
CONTINUOUS
 10
7.0688620093
 20
5.0632543108
 11
7.0575351713
 21
5.0628947093
  0
LINE
  5
593
100
AcDbEntity
  8
0
100
AcDbLine
 62
7
  6
CONTINUOUS
 10
6.9978344756
 20
4.9696105203
 11
6.9864889468
 21
4.9693064541
  0
LINE
  5
594
100
AcDbEntity
  8
0
100
AcDbLine
 62
7
  6
CONTINUOUS
 10
2.9978344756
 20
4.9696105203
 11
2.9864889468
 21
4.9693064541
  0
LINE
  5
595
100
AcDbEntity
  8
0
100
AcDbLine
 62
7
  6
CONTINUOUS
 10
7.5787858104
 20
4.9848162933
 11
7.5674399167
 21
4.9845261637
  0
LINE
  5
596
100
AcDbEntity
  8
0
100
AcDbLine
 62
7
  6
CONTINUOUS
 10
3.5787858104
 20
4.9848162933
 11
3.5674399167
 21
4.9845261637
  0
LINE
  5
597
100
AcDbEntity
  8
0
100
AcDbLine
 62
7
  6
CONTINUOUS
 10
4.9916876621
 20
4.9889623644
 11
5.0030345114
 21
4.9890808122
  0
LINE
  5
598
100
AcDbEntity
  8
0
100
AcDbLine
 62
7
  6
CONTINUOUS
 10
3.4980211271
 20
5.070498912
 11
3.4866886262
 21
5.0704673405
  0
LINE
  5
599
100
AcDbEntity
  8
0
100
AcDbLine
 62
7
  6
CONTINUOUS
 10
5.5075429737
 20
5.0984804737
 11
5.0382929737
 21
5.0984804737
  0
LINE
  5
59A
100
AcDbEntity
  8
0
100
AcDbLine
 62
7
  6
CONTINUOUS
 10
3.0591473211
 20
5.0704673405
 11
3.0478148202
 21
5.070498912
  0
LINE
  5
59B
100
AcDbEntity
  8
0
100
AcDbLine
 62
7
  6
CONTINUOUS
 10
5.5428014359
 20
4.9890808122
 11
5.5541482852
 21
4.9889623644
  0
LINE
  5
59C
100
AcDbEntity
  8
0
100
AcDbLine
 62
7
  6
CONTINUOUS
 10
2.9783960306
 20
4.9845261637
 11
2.9670501369
 21
4.9848162933
  0
LINE
  5
59D
100
AcDbEntity
  8
0
100
AcDbLine
 62
7
  6
CONTINUOUS
 10
6.9783960306
 20
4.9845261637
 11
6.9670501369
 21
4.9848162933
  0
LINE
  5
59E
100
AcDbEntity
  8
0
100
AcDbLine
 62
7
  6
CONTINUOUS
 10
3.5593470005
 20
4.9693064541
 11
3.5480014717
 21
4.9696105203
  0
LINE
  5
59F
100
AcDbEntity
  8
0
100
AcDbLine
 62
7
  6
CONTINUOUS
 10
7.5593470005
 20
4.9693064541
 11
7.5480014717
 21
4.9696105203
  0
LINE
  5
5A0
100
AcDbEntity
  8
0
100
AcDbLine
 62
7
  6
CONTINUOUS
 10
7.488300776
 20
5.0628947093
 11
7.476973938
 21
5.0632543108
  0
LINE
  5
5A1
100
AcDbEntity
  8
0
100
AcDbLine
 62
7
  6
CONTINUOUS
 10
7.0496873875
 20
5.0780113859
 11
7.0383627289
 21
5.0784340927
  0
LINE
  5
5A2
100
AcDbEntity
  8
0
100
AcDbLine
 62
7
  6
CONTINUOUS
 10
4.9728087907
 20
5.0045757911
 11
4.98414564
 21
5.0040850076
  0
LINE
  5
5A3
100
AcDbEntity
  8
0
100
AcDbLine
 62
7
  6
CONTINUOUS
 10
5.5231344205
 20
4.9751121383
 11
5.5344585541
 21
4.9743848006
  0
LINE
  5
5A4
100
AcDbEntity
  8
0
100
AcDbLine
 62
7
  6
CONTINUOUS
 10
3.4783237493
 20
5.0556305465
 11
3.4670160725
 21
5.0563808925
  0
LINE
  5
5A5
100
AcDbEntity
  8
0
100
AcDbLine
 62
7
  6
CONTINUOUS
 10
3.0404934819
 20
5.0858774564
 11
3.0291901615
 21
5.0866907949
  0
LINE
  5
5A6
100
AcDbEntity
  8
0
100
AcDbLine
 62
7
  6
CONTINUOUS
 10
6.9597648499
 20
5.0004386953
 11
6.9484496895
 21
5.0013222256
  0
LINE
  5
5A7
100
AcDbEntity
  8
0
100
AcDbLine
 62
7
  6
CONTINUOUS
 10
7.5391231086
 20
4.9548352193
 11
7.527809042
 21
4.9557326479
  0
LINE
  5
5A8
100
AcDbEntity
  8
0
100
AcDbLine
 62
7
  6
CONTINUOUS
 10
4.9547952118
 20
5.0211800633
 11
4.9660893739
 21
5.0200814634
  0
LINE
  5
5A9
100
AcDbEntity
  8
DEFAULT_2
100
AcDbLine
 62
8
  6
HIDDEN
 10
5.5027459664
 20
4.9622192611
 11
5.5075429737
 21
4.9616513344
  0
LINE
  5
5AA
100
AcDbEntity
  8
0
100
AcDbLine
 62
7
  6
CONTINUOUS
 10
5.5075429737
 20
4.9616513344
 11
5.5140147337
 21
4.9608851306
  0
LINE
  5
5AB
100
AcDbEntity
  8
0
100
AcDbLine
 62
7
  6
CONTINUOUS
 10
4.9376988632
 20
5.0387273065
 11
4.9489177742
 21
5.0370240578
  0
LINE
  5
5AC
100
AcDbEntity
  8
DEFAULT_2
100
AcDbLine
 62
8
  6
HIDDEN
 10
5.4816948587
 20
4.9504393541
 11
5.492875769
 21
4.9485022775
  0
LINE
  5
5AD
100
AcDbEntity
  8
0
100
AcDbLine
 62
7
  6
CONTINUOUS
 10
4.921569038
 20
5.0571669275
 11
4.9326803509
 21
5.0548639409
  0
LINE
  5
5AE
100
AcDbEntity
  8
DEFAULT_2
100
AcDbLine
 62
8
  6
HIDDEN
 10
5.4600417932
 20
4.939806382
 11
5.471102609
 21
4.9372719443
  0
LINE
  5
5AF
100
AcDbEntity
  8
0
100
AcDbLine
 62
7
  6
CONTINUOUS
 10
3.1208214219
 20
5.6717623715
 11
3.1318321765
 21
5.6690809806
  0
LINE
  5
5B0
100
AcDbEntity
  8
0
100
AcDbLine
 62
7
  6
CONTINUOUS
 10
3.5469499083
 20
5.5667636492
 11
3.5579455517
 21
5.5640209502
  0
LINE
  5
5B1
100
AcDbEntity
  8
0
100
AcDbLine
 62
7
  6
CONTINUOUS
 10
4.9064522428
 20
5.0764457599
 11
4.9174239207
 21
5.0735496756
  0
LINE
  5
5B2
100
AcDbEntity
  8
DEFAULT_2
100
AcDbLine
 62
8
  6
HIDDEN
 10
5.4378492012
 20
4.9303510022
 11
5.4487580314
 21
4.927226511
  0
LINE
  5
5B3
100
AcDbEntity
  8
0
100
AcDbLine
 62
7
  6
CONTINUOUS
 10
3.651537927
 20
5.6233139717
 11
3.6624221277
 21
5.6200971946
  0
LINE
  5
5B4
100
AcDbEntity
  8
0
100
AcDbLine
 62
7
  6
CONTINUOUS
 10
3.0943215321
 20
5.7883762575
 11
3.1052017733
 21
5.7851461133
  0
LINE
  5
5B5
100
AcDbEntity
  8
0
100
AcDbLine
 62
7
  6
CONTINUOUS
 10
3.1435046625
 20
5.6814847983
 11
3.1543041892
 21
5.6780501519
  0
LINE
  5
5B6
100
AcDbEntity
  8
0
100
AcDbLine
 62
7
  6
CONTINUOUS
 10
4.8923920631
 20
5.0965082181
 11
4.9031924719
 21
5.0930273862
  0
LINE
  5
5B7
100
AcDbEntity
  8
0
100
AcDbLine
 62
7
  6
CONTINUOUS
 10
3.5613738186
 20
5.5473371674
 11
3.5721540405
 21
5.5438424014
  0
LINE
  5
5B8
100
AcDbEntity
  8
DEFAULT_2
100
AcDbLine
 62
8
  6
HIDDEN
 10
5.4151810699
 20
4.9221004771
 11
5.4259064614
 21
4.918394941
  0
LINE
  5
5B9
100
AcDbEntity
  8
0
100
AcDbLine
 62
7
  6
CONTINUOUS
 10
3.6654157994
 20
5.603121542
 11
3.6761167306
 21
5.5993395384
  0
LINE
  5
5BA
100
AcDbEntity
  8
0
100
AcDbLine
 62
7
  6
CONTINUOUS
 10
3.1176017428
 20
5.7971200686
 11
3.1282980203
 21
5.7933249233
  0
LINE
  5
5BB
100
AcDbEntity
  8
0
100
AcDbLine
 62
7
  6
CONTINUOUS
 10
5.7289172608
 20
5.3331072262
 11
5.7221274863
 21
5.3421991997
  0
LINE
  5
5BC
100
AcDbEntity
  8
0
100
AcDbLine
 62
7
  6
CONTINUOUS
 10
5.4036890529
 20
5.7780263407
 11
5.3970905564
 21
5.7872580721
  0
LINE
  5
5BD
100
AcDbEntity
  8
0
100
AcDbLine
 62
7
  6
CONTINUOUS
 10
5.7274481139
 20
5.3086525234
 11
5.7211561542
 21
5.3180958419
  0
LINE
  5
5BE
100
AcDbEntity
  8
0
100
AcDbLine
 62
7
  6
CONTINUOUS
 10
5.426570523
 20
5.7703873835
 11
5.4204770674
 21
5.7799599912
  0
LINE
  5
5BF
100
AcDbEntity
  8
0
100
AcDbLine
 62
7
  6
CONTINUOUS
 10
5.8508416941
 20
5.2936005978
 11
5.8568950188
 21
5.2839882697
  0
LINE
  5
5C0
100
AcDbEntity
  8
0
100
AcDbLine
 62
7
  6
CONTINUOUS
 10
5.4750322142
 20
5.8998699245
 11
5.4809505684
 21
5.8901739112
  0
LINE
  5
5C1
100
AcDbEntity
  8
0
100
AcDbLine
 62
7
  6
CONTINUOUS
 10
5.7246684389
 20
5.2843119342
 11
5.7188924353
 21
5.29407937
  0
LINE
  5
5C2
100
AcDbEntity
  8
0
100
AcDbLine
 62
7
  6
CONTINUOUS
 10
5.848047095
 20
5.2694475839
 11
5.8536925874
 21
5.2595902005
  0
LINE
  5
5C3
100
AcDbEntity
  8
0
100
AcDbLine
 62
7
  6
CONTINUOUS
 10
5.4490089731
 20
5.7615312387
 11
5.4434381273
 21
5.7714171224
  0
LINE
  5
5C4
100
AcDbEntity
  8
0
100
AcDbLine
 62
7
  6
CONTINUOUS
 10
5.4979551883
 20
5.8909223771
 11
5.5034623242
 21
5.8809870339
  0
LINE
  5
5C5
100
AcDbEntity
  8
0
100
AcDbLine
 62
7
  6
CONTINUOUS
 10
5.7205862503
 20
5.2601556386
 11
5.7153428567
 21
5.2702190298
  0
LINE
  5
5C6
100
AcDbEntity
  8
0
100
AcDbLine
 62
7
  6
CONTINUOUS
 10
5.8442435241
 20
5.2454327819
 11
5.84947128
 21
5.2353476365
  0
LINE
  5
5C7
100
AcDbEntity
  8
0
100
AcDbLine
 62
7
  6
CONTINUOUS
 10
5.5204833707
 20
5.8810227636
 11
5.5255696268
 21
5.8708655205
  0
LINE
  5
5C8
100
AcDbEntity
  8
0
100
AcDbLine
 62
7
  6
CONTINUOUS
 10
5.4709397073
 20
5.7514834408
 11
5.4659075334
 21
5.761654097
  0
LINE
  5
5C9
100
AcDbEntity
  8
0
100
AcDbLine
 62
7
  6
CONTINUOUS
 10
5.839437654
 20
5.221598322
 11
5.8442385022
 21
5.2113031073
  0
LINE
  5
5CA
100
AcDbEntity
  8
0
100
AcDbLine
 62
7
  6
CONTINUOUS
 10
5.7152133182
 20
5.2362532855
 11
5.7105176526
 21
5.2465836168
  0
LINE
  5
5CB
100
AcDbEntity
  8
0
100
AcDbLine
 62
7
  6
CONTINUOUS
 10
5.5425772392
 20
5.8701884514
 11
5.5472336927
 21
5.8598271276
  0
LINE
  5
5CC
100
AcDbEntity
  8
0
100
AcDbLine
 62
7
  6
CONTINUOUS
 10
5.8336379158
 20
5.197986018
 11
5.8380034341
 21
5.1874987953
  0
LINE
  5
5CD
100
AcDbEntity
  8
0
100
AcDbLine
 62
7
  6
CONTINUOUS
 10
5.5641980337
 20
5.8584384475
 11
5.5684165155
 21
5.8478912203
  0
LINE
  5
5CE
100
AcDbEntity
  8
0
100
AcDbLine
 62
7
  6
CONTINUOUS
 10
5.8268544844
 20
5.1746372937
 11
5.830777014
 21
5.1639764612
  0
LINE
  5
5CF
100
AcDbEntity
  8
0
100
AcDbLine
 62
7
  6
CONTINUOUS
 10
5.5853078241
 20
5.8457933655
 11
5.5890809335
 21
5.8350787383
  0
LINE
  5
5D0
100
AcDbEntity
  8
0
100
AcDbLine
 62
7
  6
CONTINUOUS
 10
6.9419920001
 20
5.6791564472
 11
6.9434665092
 21
5.6904098602
  0
LINE
  5
5D1
100
AcDbEntity
  8
0
100
AcDbLine
 62
7
  6
CONTINUOUS
 10
6.8661297535
 20
5.1029788804
 11
6.8676180847
 21
5.1142304737
  0
LINE
  5
5D2
100
AcDbEntity
  8
0
100
AcDbLine
 62
7
  6
CONTINUOUS
 10
6.9597648499
 20
5.696022252
 11
6.9618262964
 21
5.7071830726
  0
LINE
  5
5D3
100
AcDbEntity
  8
0
100
AcDbLine
 62
7
  6
CONTINUOUS
 10
6.853851766
 20
5.1246046397
 11
6.8559269203
 21
5.1357629198
  0
LINE
  5
5D4
100
AcDbEntity
  8
0
100
AcDbLine
 62
7
  6
CONTINUOUS
 10
6.9576924992
 20
5.1795913613
 11
6.9598003641
 21
5.1907261481
  0
LINE
  5
5D5
100
AcDbEntity
  8
0
100
AcDbLine
 62
7
  6
CONTINUOUS
 10
7.0404934819
 20
5.6105834909
 11
7.042663355
 21
5.6217063603
  0
LINE
  5
5D6
100
AcDbEntity
  8
0
100
AcDbLine
 62
7
  6
CONTINUOUS
 10
6.9783960306
 20
5.7119347836
 11
6.9810387642
 21
5.722972421
  0
LINE
  5
5D7
100
AcDbEntity
  8
0
100
AcDbLine
 62
7
  6
CONTINUOUS
 10
6.8427224098
 20
5.1468433418
 11
6.8453786995
 21
5.1578777247
  0
LINE
  5
5D8
100
AcDbEntity
  8
0
100
AcDbLine
 62
7
  6
CONTINUOUS
 10
6.9468089903
 20
5.2017409486
 11
6.9496800344
 21
5.2127037803
  0
LINE
  5
5D9
100
AcDbEntity
  8
0
100
AcDbLine
 62
7
  6
CONTINUOUS
 10
7.0591473211
 20
5.6259936068
 11
7.0620794034
 21
5.6369402714
  0
LINE
  5
5DA
100
AcDbEntity
  8
0
100
AcDbLine
 62
7
  6
CONTINUOUS
 10
6.9374795392
 20
5.2245886252
 11
6.9411000807
 21
5.2353272588
  0
LINE
  5
5DB
100
AcDbEntity
  8
0
100
AcDbLine
 62
7
  6
CONTINUOUS
 10
7.0788198748
 20
5.6400800548
 11
7.0825001936
 21
5.6507983488
  0
LINE
  5
5DC
100
AcDbEntity
  8
DEFAULT_2
100
AcDbLine
 62
8
  6
HIDDEN
 10
7.6246080607
 20
5.4124202914
 11
7.6191968665
 21
5.4024631055
  0
LINE
  5
5DD
100
AcDbEntity
  8
0
100
AcDbLine
 62
7
  6
CONTINUOUS
 10
7.4140037708
 20
5.0273799667
 11
7.4085371812
 21
5.0174530855
  0
LINE
  5
5DE
100
AcDbEntity
  8
0
100
AcDbLine
 62
7
  6
CONTINUOUS
 10
7.440634174
 20
4.9113148341
 11
7.4347099675
 21
4.9016340667
  0
LINE
  5
5DF
100
AcDbEntity
  8
DEFAULT_2
100
AcDbLine
 62
8
  6
HIDDEN
 10
7.7442903141
 20
5.4068232775
 11
7.7383542207
 21
5.3971497945
  0
LINE
  5
5E0
100
AcDbEntity
  8
DEFAULT_2
100
AcDbLine
 62
8
  6
HIDDEN
 10
7.6281986079
 20
5.3880038429
 11
7.6221133495
 21
5.3784437068
  0
LINE
  5
5E1
100
AcDbEntity
  8
0
100
AcDbLine
 62
7
  6
CONTINUOUS
 10
7.3915317581
 20
5.0184107954
 11
7.385393327
 21
5.0088847136
  0
LINE
  5
5E2
100
AcDbEntity
  8
0
100
AcDbLine
 62
7
  6
CONTINUOUS
 10
7.417537927
 20
4.903136024
 11
7.4111151872
 21
4.8937785728
  0
LINE
  5
5E3
100
AcDbEntity
  8
DEFAULT_2
100
AcDbLine
 62
8
  6
HIDDEN
 10
7.7467108251
 20
5.3820732559
 11
7.7402765959
 21
5.3727237012
  0
LINE
  5
5E4
100
AcDbEntity
  8
0
100
AcDbLine
 62
7
  6
CONTINUOUS
 10
7.4632707226
 20
5.7757697478
 11
7.4743051055
 21
5.7784260375
  0
LINE
  5
5E5
100
AcDbEntity
  8
0
100
AcDbLine
 62
7
  6
CONTINUOUS
 10
3.0825652247
 20
4.9206911995
 11
3.0715308418
 21
4.9180349098
  0
LINE
  5
5E6
100
AcDbEntity
  8
0
100
AcDbLine
 62
7
  6
CONTINUOUS
 10
6.8981760263
 20
5.6401096831
 11
6.9092136637
 21
5.6427524167
  0
LINE
  5
5E7
100
AcDbEntity
  8
0
100
AcDbLine
 62
7
  6
CONTINUOUS
 10
3.647659921
 20
5.0563512642
 11
3.6366222836
 21
5.0537085306
  0
LINE
  5
5E8
100
AcDbEntity
  8
0
100
AcDbLine
 62
7
  6
CONTINUOUS
 10
3.5503274612
 20
5.1227305264
 11
3.5392437023
 21
5.1203689888
  0
LINE
  5
5E9
100
AcDbEntity
  8
0
100
AcDbLine
 62
7
  6
CONTINUOUS
 10
3.1208417231
 20
5.0324408855
 11
3.1097449782
 21
5.030141141
  0
LINE
  5
5EA
100
AcDbEntity
  8
0
100
AcDbLine
 62
7
  6
CONTINUOUS
 10
3.0604504198
 20
4.9312394203
 11
3.0492921397
 21
4.929164266
  0
LINE
  5
5EB
100
AcDbEntity
  8
0
100
AcDbLine
 62
7
  6
CONTINUOUS
 10
7.4853855275
 20
5.765221527
 11
7.4965438076
 21
5.7672966813
  0
LINE
  5
5EC
100
AcDbEntity
  8
0
100
AcDbLine
 62
7
  6
CONTINUOUS
 10
3.6318705726
 20
5.0371387964
 11
3.620709752
 21
5.0350773499
  0
LINE
  5
5ED
100
AcDbEntity
  8
0
100
AcDbLine
 62
7
  6
CONTINUOUS
 10
6.9139653747
 20
5.6593221509
 11
6.9251261953
 21
5.6613835974
  0
LINE
  5
5EE
100
AcDbEntity
  8
0
100
AcDbLine
 62
7
  6
CONTINUOUS
 10
7.0117269768
 20
5.5923319139
 11
7.0229472513
 21
5.5939231434
  0
LINE
  5
5EF
100
AcDbEntity
  8
0
100
AcDbLine
 62
7
  6
CONTINUOUS
 10
3.5341089706
 20
5.1041290334
 11
3.522888696
 21
5.1025378039
  0
LINE
  5
5F0
100
AcDbEntity
  8
0
100
AcDbLine
 62
7
  6
CONTINUOUS
 10
3.0994173943
 20
5.0436852406
 11
3.0881884279
 21
5.042156553
  0
LINE
  5
5F1
100
AcDbEntity
  8
0
100
AcDbLine
 62
7
  6
CONTINUOUS
 10
7.446418553
 20
5.6527757067
 11
7.4576475194
 21
5.6543043943
  0
LINE
  5
5F2
100
AcDbEntity
  8
0
100
AcDbLine
 62
7
  6
CONTINUOUS
 10
3.0389179737
 20
4.9429305847
 11
3.0276663804
 21
4.9414422535
  0
LINE
  5
5F3
100
AcDbEntity
  8
0
100
AcDbLine
 62
7
  6
CONTINUOUS
 10
7.5069179737
 20
5.7535303626
 11
7.5181695669
 21
5.7550186938
  0
LINE
  5
5F4
100
AcDbEntity
  8
0
100
AcDbLine
 62
7
  6
CONTINUOUS
 10
3.6150973602
 20
5.0187790092
 11
3.6038439472
 21
5.0173045001
  0
LINE
  5
5F5
100
AcDbEntity
  8
0
100
AcDbLine
 62
7
  6
CONTINUOUS
 10
6.9307385871
 20
5.6776819381
 11
6.9419920001
 21
5.6791564472
  0
LINE
  5
5F6
100
AcDbEntity
  8
0
100
AcDbLine
 62
7
  6
CONTINUOUS
 10
3.5166457858
 20
5.0866907949
 11
3.5053424654
 21
5.0858774564
  0
LINE
  5
5F7
100
AcDbEntity
  8
0
100
AcDbLine
 62
7
  6
CONTINUOUS
 10
7.0291901615
 20
5.6097701524
 11
7.0404934819
 21
5.6105834909
  0
LINE
  5
5F8
100
AcDbEntity
  8
0
100
AcDbLine
 62
7
  6
CONTINUOUS
 10
3.0788198748
 20
5.0563808925
 11
3.067512198
 21
5.0556305465
  0
LINE
  5
5F9
100
AcDbEntity
  8
0
100
AcDbLine
 62
7
  6
CONTINUOUS
 10
2.8204179737
 20
5.1982304737
 11
1.5304179737
 21
5.1982304737
  0
LINE
  5
5FA
100
AcDbEntity
  8
0
100
AcDbLine
 62
7
  6
CONTINUOUS
 10
7.7254179737
 20
5.1982304737
 11
9.0154179737
 21
5.1982304737
  0
LINE
  5
5FB
100
AcDbEntity
  8
DEFAULT_2
100
AcDbLine
 62
8
  6
HIDDEN
 10
2.9204179737
 20
5.2457304737
 11
2.9029179737
 21
5.2457304737
  0
LINE
  5
5FC
100
AcDbEntity
  8
DEFAULT_2
100
AcDbLine
 62
8
  6
HIDDEN
 10
7.6254179737
 20
5.2457304737
 11
7.6429179737
 21
5.2457304737
  0
LINE
  5
5FD
100
AcDbEntity
  8
0
100
AcDbLine
 62
7
  6
CONTINUOUS
 10
3.2729179737
 20
5.2507304737
 11
2.9204179737
 21
5.2507304737
  0
LINE
  5
5FE
100
AcDbEntity
  8
DEFAULT_2
100
AcDbLine
 62
8
  6
HIDDEN
 10
2.9204179737
 20
5.2507304737
 11
2.9029179737
 21
5.2507304737
  0
LINE
  5
5FF
100
AcDbEntity
  8
0
100
AcDbLine
 62
7
  6
CONTINUOUS
 10
7.2729179737
 20
5.2507304737
 11
7.6254179737
 21
5.2507304737
  0
LINE
  5
600
100
AcDbEntity
  8
DEFAULT_2
100
AcDbLine
 62
8
  6
HIDDEN
 10
7.6254179737
 20
5.2507304737
 11
7.6429179737
 21
5.2507304737
  0
LINE
  5
601
100
AcDbEntity
  8
0
100
AcDbLine
 62
7
  6
CONTINUOUS
 10
3.2729179737
 20
5.4457304737
 11
2.9204179737
 21
5.4457304737
  0
LINE
  5
602
100
AcDbEntity
  8
DEFAULT_2
100
AcDbLine
 62
8
  6
HIDDEN
 10
2.9204179737
 20
5.4457304737
 11
2.9029179737
 21
5.4457304737
  0
LINE
  5
603
100
AcDbEntity
  8
0
100
AcDbLine
 62
7
  6
CONTINUOUS
 10
7.2729179737
 20
5.4457304737
 11
7.6254179737
 21
5.4457304737
  0
LINE
  5
604
100
AcDbEntity
  8
DEFAULT_2
100
AcDbLine
 62
8
  6
HIDDEN
 10
7.6254179737
 20
5.4457304737
 11
7.6429179737
 21
5.4457304737
  0
LINE
  5
605
100
AcDbEntity
  8
DEFAULT_2
100
AcDbLine
 62
8
  6
HIDDEN
 10
2.9204179737
 20
5.4507304737
 11
2.9029179737
 21
5.4507304737
  0
LINE
  5
606
100
AcDbEntity
  8
DEFAULT_2
100
AcDbLine
 62
8
  6
HIDDEN
 10
7.6254179737
 20
5.4507304737
 11
7.6429179737
 21
5.4507304737
  0
LINE
  5
607
100
AcDbEntity
  8
0
100
AcDbLine
 62
7
  6
CONTINUOUS
 10
7.4681019365
 20
5.0487150807
 11
7.4568268966
 21
5.0498552769
  0
LINE
  5
608
100
AcDbEntity
  8
0
100
AcDbLine
 62
7
  6
CONTINUOUS
 10
3.0777340108
 20
5.6477458666
 11
3.0890090507
 21
5.6466056704
  0
LINE
  5
609
100
AcDbEntity
  8
0
100
AcDbLine
 62
7
  6
CONTINUOUS
 10
7.0315765611
 20
5.094056178
 11
7.0203080491
 21
5.0952591788
  0
LINE
  5
60A
100
AcDbEntity
  8
0
100
AcDbLine
 62
7
  6
CONTINUOUS
 10
3.5142593862
 20
5.6024047693
 11
3.5255278982
 21
5.6012017685
  0
LINE
  5
60B
100
AcDbEntity
  8
0
100
AcDbLine
 62
7
  6
CONTINUOUS
 10
6.9419920001
 20
5.0173045001
 11
6.9307385871
 21
5.0187790092
  0
LINE
  5
60C
100
AcDbEntity
  8
0
100
AcDbLine
 62
7
  6
CONTINUOUS
 10
3.6038439472
 20
5.6791564472
 11
3.6150973602
 21
5.6776819381
  0
LINE
  5
60D
100
AcDbEntity
  8
0
100
AcDbLine
 62
7
  6
CONTINUOUS
 10
7.5181695669
 20
4.9414422535
 11
7.5069179737
 21
4.9429305847
  0
LINE
  5
60E
100
AcDbEntity
  8
0
100
AcDbLine
 62
7
  6
CONTINUOUS
 10
3.0276663804
 20
5.7550186938
 11
3.0389179737
 21
5.7535303626
  0
LINE
  5
60F
100
AcDbEntity
  8
0
100
AcDbLine
 62
7
  6
CONTINUOUS
 10
3.0988629907
 20
5.660498168
 11
3.1100325018
 21
5.6585828106
  0
LINE
  5
610
100
AcDbEntity
  8
0
100
AcDbLine
 62
7
  6
CONTINUOUS
 10
7.4469729566
 20
5.0359627793
 11
7.4358034455
 21
5.0378781367
  0
LINE
  5
611
100
AcDbEntity
  8
0
100
AcDbLine
 62
7
  6
CONTINUOUS
 10
3.5312201109
 20
5.5851487209
 11
3.5423787767
 21
5.583171159
  0
LINE
  5
612
100
AcDbEntity
  8
0
100
AcDbLine
 62
7
  6
CONTINUOUS
 10
7.0146158364
 20
5.1113122264
 11
7.0034571706
 21
5.1132897883
  0
LINE
  5
613
100
AcDbEntity
  8
0
100
AcDbLine
 62
7
  6
CONTINUOUS
 10
6.9251261953
 20
5.0350773499
 11
6.9139653747
 21
5.0371387964
  0
LINE
  5
614
100
AcDbEntity
  8
0
100
AcDbLine
 62
7
  6
CONTINUOUS
 10
3.620709752
 20
5.6613835974
 11
3.6318705726
 21
5.6593221509
  0
LINE
  5
615
100
AcDbEntity
  8
0
100
AcDbLine
 62
7
  6
CONTINUOUS
 10
7.4965438076
 20
4.929164266
 11
7.4853855275
 21
4.9312394203
  0
LINE
  5
616
100
AcDbEntity
  8
0
100
AcDbLine
 62
7
  6
CONTINUOUS
 10
3.0492921397
 20
5.7672966813
 11
3.0604504198
 21
5.765221527
  0
LINE
  5
617
100
AcDbEntity
  8
0
100
AcDbLine
 62
7
  6
CONTINUOUS
 10
3.6366222836
 20
5.6427524167
 11
3.647659921
 21
5.6401096831
  0
LINE
  5
618
100
AcDbEntity
  8
0
100
AcDbLine
 62
7
  6
CONTINUOUS
 10
6.9092136637
 20
5.0537085306
 11
6.8981760263
 21
5.0563512642
  0
LINE
  5
619
100
AcDbEntity
  8
0
100
AcDbLine
 62
7
  6
CONTINUOUS
 10
3.0715308418
 20
5.7784260375
 11
3.0825652247
 21
5.7757697478
  0
LINE
  5
61A
100
AcDbEntity
  8
0
100
AcDbLine
 62
7
  6
CONTINUOUS
 10
7.4743051055
 20
4.9180349098
 11
7.4632707226
 21
4.9206911995
  0
LINE
  5
61B
100
AcDbEntity
  8
0
100
AcDbLine
 62
7
  6
CONTINUOUS
 10
5.7102389634
 20
5.4782859018
 11
5.7009194779
 21
5.4847598657
  0
LINE
  5
61C
100
AcDbEntity
  8
0
100
AcDbLine
 62
7
  6
CONTINUOUS
 10
5.2608565129
 20
5.7973185315
 11
5.2516742046
 21
5.8039856325
  0
LINE
  5
61D
100
AcDbEntity
  8
0
100
AcDbLine
 62
7
  6
CONTINUOUS
 10
5.7165894457
 20
5.4546244932
 11
5.7076308959
 21
5.4615893626
  0
LINE
  5
61E
100
AcDbEntity
  8
0
100
AcDbLine
 62
7
  6
CONTINUOUS
 10
5.2849794344
 20
5.7973185315
 11
5.2761682312
 21
5.8044688963
  0
LINE
  5
61F
100
AcDbEntity
  8
0
100
AcDbLine
 62
7
  6
CONTINUOUS
 10
5.7216607082
 20
5.4306563231
 11
5.7130889241
 21
5.4380920166
  0
LINE
  5
620
100
AcDbEntity
  8
0
100
AcDbLine
 62
7
  6
CONTINUOUS
 10
5.3069645351
 20
5.9347431177
 11
5.3154327471
 21
5.9271715277
  0
LINE
  5
621
100
AcDbEntity
  8
0
100
AcDbLine
 62
7
  6
CONTINUOUS
 10
5.3090675796
 20
5.7960236943
 11
5.3006528864
 21
5.8036367067
  0
LINE
  5
622
100
AcDbEntity
  8
0
100
AcDbLine
 62
7
  6
CONTINUOUS
 10
5.8462710554
 20
5.4390406806
 11
5.8545246925
 21
5.4312357422
  0
LINE
  5
623
100
AcDbEntity
  8
0
100
AcDbLine
 62
7
  6
CONTINUOUS
 10
5.7254381293
 20
5.406450498
 11
5.7172778254
 21
5.4143355764
  0
LINE
  5
624
100
AcDbEntity
  8
0
100
AcDbLine
 62
7
  6
CONTINUOUS
 10
5.3314952709
 20
5.9328029245
 11
5.3396389895
 21
5.9248833641
  0
LINE
  5
625
100
AcDbEntity
  8
0
100
AcDbLine
 62
7
  6
CONTINUOUS
 10
5.3330514962
 20
5.7934377534
 11
5.3250575746
 21
5.801491463
  0
LINE
  5
626
100
AcDbEntity
  8
0
100
AcDbLine
 62
7
  6
CONTINUOUS
 10
5.8495708641
 20
5.4149514895
 11
5.8574904245
 21
5.4068077709
  0
LINE
  5
627
100
AcDbEntity
  8
0
100
AcDbLine
 62
7
  6
CONTINUOUS
 10
5.3559232422
 20
5.9298371925
 11
5.3637281806
 21
5.9215835554
  0
LINE
  5
628
100
AcDbEntity
  8
0
100
AcDbLine
 62
7
  6
CONTINUOUS
 10
5.7279108176
 20
5.3820768095
 11
5.7201855223
 21
5.3903885381
  0
LINE
  5
629
100
AcDbEntity
  8
0
100
AcDbLine
 62
7
  6
CONTINUOUS
 10
5.8518590277
 20
5.3907452471
 11
5.8594306177
 21
5.3822770351
  0
LINE
  5
62A
100
AcDbEntity
  8
0
100
AcDbLine
 62
7
  6
CONTINUOUS
 10
5.3568620322
 20
5.7895681647
 11
5.3493119309
 21
5.7980393506
  0
LINE
  5
62B
100
AcDbEntity
  8
0
100
AcDbLine
 62
7
  6
CONTINUOUS
 10
5.380205594
 20
5.9258511247
 11
5.3876580597
 21
5.9172778905
  0
LINE
  5
62C
100
AcDbEntity
  8
0
100
AcDbLine
 62
7
  6
CONTINUOUS
 10
5.7290716438
 20
5.3576055332
 11
5.7218036311
 21
5.3663199472
  0
LINE
  5
62D
100
AcDbEntity
  8
0
100
AcDbLine
 62
7
  6
CONTINUOUS
 10
5.8531315319
 20
5.3664644193
 11
5.8603418685
 21
5.3576865701
  0
LINE
  5
62E
100
AcDbEntity
  8
0
100
AcDbLine
 62
7
  6
CONTINUOUS
 10
5.3804305358
 20
5.7844260851
 11
5.3733460237
 21
5.7932903227
  0
LINE
  5
62F
100
AcDbEntity
  8
0
100
AcDbLine
 62
7
  6
CONTINUOUS
 10
5.4042997269
 20
5.920851714
 11
5.4113866458
 21
5.9119739231
  0
LINE
  5
630
100
AcDbEntity
  8
0
100
AcDbLine
 62
7
  6
CONTINUOUS
 10
5.8533861445
 20
5.342151603
 11
5.8602225782
 21
5.3330795159
  0
LINE
  5
631
100
AcDbEntity
  8
0
100
AcDbLine
 62
7
  6
CONTINUOUS
 10
5.4281633716
 20
5.9148477311
 11
5.4348723107
 21
5.9056809582
  0
LINE
  5
632
100
AcDbEntity
  8
0
100
AcDbLine
 62
7
  6
CONTINUOUS
 10
5.8526224186
 20
5.3178494511
 11
5.859072956
 21
5.3084990416
  0
LINE
  5
633
100
AcDbEntity
  8
0
100
AcDbLine
 62
7
  6
CONTINUOUS
 10
5.4517546631
 20
5.907849709
 11
5.4580738527
 21
5.8984100357
  0
LINE
  5
634
100
AcDbEntity
  8
0
100
AcDbLine
 62
7
  6
CONTINUOUS
 10
6.8804201479
 20
5.603121542
 11
6.8795227193
 21
5.6144356086
  0
LINE
  5
635
100
AcDbEntity
  8
0
100
AcDbLine
 62
7
  6
CONTINUOUS
 10
6.9260097256
 20
5.0237621895
 11
6.9251261953
 21
5.0350773499
  0
LINE
  5
636
100
AcDbEntity
  8
0
100
AcDbLine
 62
7
  6
CONTINUOUS
 10
6.8942980203
 20
5.6233139717
 11
6.8939939541
 21
5.6346595005
  0
LINE
  5
637
100
AcDbEntity
  8
0
100
AcDbLine
 62
7
  6
CONTINUOUS
 10
6.9095037933
 20
5.0423626369
 11
6.9092136637
 21
5.0537085306
  0
LINE
  5
638
100
AcDbEntity
  8
0
100
AcDbLine
 62
7
  6
CONTINUOUS
 10
6.9915064021
 20
5.5571749098
 11
6.9913423626
 21
5.5685062673
  0
LINE
  5
639
100
AcDbEntity
  8
0
100
AcDbLine
 62
7
  6
CONTINUOUS
 10
6.9092136637
 20
5.6427524167
 11
6.9095037933
 21
5.6540983104
  0
LINE
  5
63A
100
AcDbEntity
  8
0
100
AcDbLine
 62
7
  6
CONTINUOUS
 10
6.8939939541
 20
5.0618014468
 11
6.8942980203
 21
5.0731469756
  0
LINE
  5
63B
100
AcDbEntity
  8
0
100
AcDbLine
 62
7
  6
CONTINUOUS
 10
6.9839070722
 20
5.1378048363
 11
6.9844621287
 21
5.1491237799
  0
LINE
  5
63C
100
AcDbEntity
  8
0
100
AcDbLine
 62
7
  6
CONTINUOUS
 10
7.006592245
 20
5.5760919585
 11
7.0072103597
 21
5.5874076338
  0
LINE
  5
63D
100
AcDbEntity
  8
0
100
AcDbLine
 62
7
  6
CONTINUOUS
 10
6.9251261953
 20
5.6613835974
 11
6.9260097256
 21
5.6726987578
  0
LINE
  5
63E
100
AcDbEntity
  8
0
100
AcDbLine
 62
7
  6
CONTINUOUS
 10
6.8795227193
 20
5.0820253387
 11
6.8804201479
 21
5.0933394053
  0
LINE
  5
63F
100
AcDbEntity
  8
0
100
AcDbLine
 62
7
  6
CONTINUOUS
 10
6.970078201
 20
5.1582454161
 11
6.9714128417
 21
5.1694990958
  0
LINE
  5
640
100
AcDbEntity
  8
0
100
AcDbLine
 62
7
  6
CONTINUOUS
 10
7.0229472513
 20
5.5939231434
 11
7.0243445746
 21
5.6051692121
  0
LINE
  5
641
100
AcDbEntity
  8
0
100
AcDbLine
 62
7
  6
CONTINUOUS
 10
7.6124241732
 20
5.4602206093
 11
7.6084351328
 21
5.4496133415
  0
LINE
  5
642
100
AcDbEntity
  8
0
100
AcDbLine
 62
7
  6
CONTINUOUS
 10
7.4568268966
 20
5.0498552769
 11
7.4527788166
 21
5.0392703999
  0
LINE
  5
643
100
AcDbEntity
  8
0
100
AcDbLine
 62
7
  6
CONTINUOUS
 10
7.5069179737
 20
4.9429305847
 11
7.5025811096
 21
4.9324422535
  0
LINE
  5
644
100
AcDbEntity
  8
DEFAULT_2
100
AcDbLine
 62
8
  6
HIDDEN
 10
7.7293210045
 20
5.4798407828
 11
7.7249712604
 21
5.4693577868
  0
LINE
  5
645
100
AcDbEntity
  8
DEFAULT_2
100
AcDbLine
 62
8
  6
HIDDEN
 10
7.61934155
 20
5.4365308461
 11
7.6146302069
 21
5.426224061
  0
LINE
  5
646
100
AcDbEntity
  8
0
100
AcDbLine
 62
7
  6
CONTINUOUS
 10
7.4358034455
 20
5.0378781367
 11
7.4310347481
 21
5.0275977622
  0
LINE
  5
647
100
AcDbEntity
  8
0
100
AcDbLine
 62
7
  6
CONTINUOUS
 10
7.4853855275
 20
4.9312394203
 11
7.4805056902
 21
4.920992437
  0
LINE
  5
648
100
AcDbEntity
  8
DEFAULT_2
100
AcDbLine
 62
8
  6
HIDDEN
 10
7.7355834713
 20
5.4557741264
 11
7.7306910508
 21
5.445533145
  0
LINE
  5
649
100
AcDbEntity
  8
0
100
AcDbLine
 62
7
  6
CONTINUOUS
 10
7.4632707226
 20
4.9206911995
 11
7.4578612872
 21
4.9107136502
  0
LINE
  5
64A
100
AcDbEntity
  8
DEFAULT_2
100
AcDbLine
 62
8
  6
HIDDEN
 10
7.7405778043
 20
5.4314127003
 11
7.735156117
 21
5.4214418033
  0
LINE
  5
64B
100
AcDbEntity
  8
0
100
AcDbLine
 62
7
  6
CONTINUOUS
 10
4.7959520295
 20
5.6912461265
 11
4.8068824293
 21
5.6943390136
  0
LINE
  5
64C
100
AcDbEntity
  8
0
100
AcDbLine
 62
7
  6
CONTINUOUS
 10
3.1429907645
 20
5.0227014115
 11
3.1320791221
 21
5.0196415696
  0
LINE
  5
64D
100
AcDbEntity
  8
0
100
AcDbLine
 62
7
  6
CONTINUOUS
 10
5.4599977573
 20
5.7643617235
 11
5.4490089731
 21
5.7615312387
  0
LINE
  5
64E
100
AcDbEntity
  8
0
100
AcDbLine
 62
7
  6
CONTINUOUS
 10
4.9249266946
 20
5.6323565586
 11
4.9138812176
 21
5.6297560858
  0
LINE
  5
64F
100
AcDbEntity
  8
0
100
AcDbLine
 62
7
  6
CONTINUOUS
 10
5.4820645805
 20
5.7537200041
 11
5.4709397073
 21
5.7514834408
  0
LINE
  5
650
100
AcDbEntity
  8
0
100
AcDbLine
 62
7
  6
CONTINUOUS
 10
4.9406792997
 20
5.6506259531
 11
4.9295101616
 21
5.6486221132
  0
LINE
  5
651
100
AcDbEntity
  8
0
100
AcDbLine
 62
7
  6
CONTINUOUS
 10
5.50352838
 20
5.7419091535
 11
5.4922994935
 21
5.7402729602
  0
LINE
  5
652
100
AcDbEntity
  8
0
100
AcDbLine
 62
7
  6
CONTINUOUS
 10
4.9573898349
 20
5.6680234632
 11
4.9461292392
 21
5.6666220337
  0
LINE
  5
653
100
AcDbEntity
  8
0
100
AcDbLine
 62
7
  6
CONTINUOUS
 10
5.52432727
 20
5.7289632254
 11
5.513026746
 21
5.7279321196
  0
LINE
  5
654
100
AcDbEntity
  8
0
100
AcDbLine
 62
7
  6
CONTINUOUS
 10
7.527809042
 20
5.7407282994
 11
7.5391231086
 21
5.741625728
  0
LINE
  5
655
100
AcDbEntity
  8
0
100
AcDbLine
 62
7
  6
CONTINUOUS
 10
6.9484496895
 20
5.6951387217
 11
6.9597648499
 21
5.696022252
  0
LINE
  5
656
100
AcDbEntity
  8
0
100
AcDbLine
 62
7
  6
CONTINUOUS
 10
4.9750101194
 20
5.6844989273
 11
4.9636905333
 21
5.683703949
  0
LINE
  5
657
100
AcDbEntity
  8
0
100
AcDbLine
 62
7
  6
CONTINUOUS
 10
7.4670160725
 20
5.6400800548
 11
7.4783237493
 21
5.6408304008
  0
LINE
  5
658
100
AcDbEntity
  8
0
100
AcDbLine
 62
7
  6
CONTINUOUS
 10
3.0383627289
 20
5.6180268546
 11
3.0496873875
 21
5.6184495614
  0
LINE
  5
659
100
AcDbEntity
  8
0
100
AcDbLine
 62
7
  6
CONTINUOUS
 10
5.5444012819
 20
5.7149195461
 11
5.5330617028
 21
5.7144965008
  0
LINE
  5
65A
100
AcDbEntity
  8
0
100
AcDbLine
 62
7
  6
CONTINUOUS
 10
3.476973938
 20
5.6332066365
 11
3.488300776
 21
5.633566238
  0
LINE
  5
65B
100
AcDbEntity
  8
0
100
AcDbLine
 62
7
  6
CONTINUOUS
 10
7.5480014717
 20
5.726850427
 11
7.5593470005
 21
5.7271544932
  0
LINE
  5
65C
100
AcDbEntity
  8
0
100
AcDbLine
 62
7
  6
CONTINUOUS
 10
6.9670501369
 20
5.711644654
 11
6.9783960306
 21
5.7119347836
  0
LINE
  5
65D
100
AcDbEntity
  8
0
100
AcDbLine
 62
7
  6
CONTINUOUS
 10
4.9934893494
 20
5.7000048423
 11
4.9821434102
 21
5.6998186073
  0
LINE
  5
65E
100
AcDbEntity
  8
0
100
AcDbLine
 62
7
  6
CONTINUOUS
 10
7.0478148202
 20
5.6259620353
 11
7.0591473211
 21
5.6259936068
  0
LINE
  5
65F
100
AcDbEntity
  8
0
100
AcDbLine
 62
7
  6
CONTINUOUS
 10
2.8204179737
 20
5.4982304737
 11
1.5304179737
 21
5.4982304737
  0
LINE
  5
660
100
AcDbEntity
  8
0
100
AcDbLine
 62
7
  6
CONTINUOUS
 10
7.7254179737
 20
5.4982304737
 11
9.0154179737
 21
5.4982304737
  0
LINE
  5
661
100
AcDbEntity
  8
0
100
AcDbLine
 62
7
  6
CONTINUOUS
 10
7.4866886262
 20
5.6259936068
 11
7.4980211271
 21
5.6259620353
  0
LINE
  5
662
100
AcDbEntity
  8
0
100
AcDbLine
 62
7
  6
CONTINUOUS
 10
5.5636925371
 20
5.6998186073
 11
5.5523465979
 21
5.7000048423
  0
LINE
  5
663
100
AcDbEntity
  8
0
100
AcDbLine
 62
7
  6
CONTINUOUS
 10
3.5674399167
 20
5.7119347836
 11
3.5787858104
 21
5.711644654
  0
LINE
  5
664
100
AcDbEntity
  8
0
100
AcDbLine
 62
7
  6
CONTINUOUS
 10
2.9864889468
 20
5.7271544932
 11
2.9978344756
 21
5.726850427
  0
LINE
  5
665
100
AcDbEntity
  8
0
100
AcDbLine
 62
7
  6
CONTINUOUS
 10
3.0575351713
 20
5.633566238
 11
3.0688620093
 21
5.6332066365
  0
LINE
  5
666
100
AcDbEntity
  8
0
100
AcDbLine
 62
7
  6
CONTINUOUS
 10
3.4961485598
 20
5.6184495614
 11
3.5074732184
 21
5.6180268546
  0
LINE
  5
667
100
AcDbEntity
  8
0
100
AcDbLine
 62
7
  6
CONTINUOUS
 10
5.0127742445
 20
5.7144965008
 11
5.0014346654
 21
5.7149195461
  0
LINE
  5
668
100
AcDbEntity
  8
0
100
AcDbLine
 62
7
  6
CONTINUOUS
 10
7.067512198
 20
5.6408304008
 11
7.0788198748
 21
5.6400800548
  0
LINE
  5
669
100
AcDbEntity
  8
0
100
AcDbLine
 62
7
  6
CONTINUOUS
 10
5.582145414
 20
5.683703949
 11
5.5708258279
 21
5.6844989273
  0
LINE
  5
66A
100
AcDbEntity
  8
0
100
AcDbLine
 62
7
  6
CONTINUOUS
 10
3.5860710974
 20
5.696022252
 11
3.5973862578
 21
5.6951387217
  0
LINE
  5
66B
100
AcDbEntity
  8
0
100
AcDbLine
 62
7
  6
CONTINUOUS
 10
3.0067128387
 20
5.741625728
 11
3.0180269053
 21
5.7407282994
  0
LINE
  5
66C
100
AcDbEntity
  8
0
100
AcDbLine
 62
7
  6
CONTINUOUS
 10
5.0328092013
 20
5.7279321196
 11
5.0215086773
 21
5.7289632254
  0
LINE
  5
66D
100
AcDbEntity
  8
0
100
AcDbLine
 62
7
  6
CONTINUOUS
 10
5.5997067081
 20
5.6666220337
 11
5.5884461124
 21
5.6680234632
  0
LINE
  5
66E
100
AcDbEntity
  8
0
100
AcDbLine
 62
7
  6
CONTINUOUS
 10
5.0535364538
 20
5.7402729602
 11
5.0423075673
 21
5.7419091535
  0
LINE
  5
66F
100
AcDbEntity
  8
0
100
AcDbLine
 62
7
  6
CONTINUOUS
 10
5.6163257857
 20
5.6486221132
 11
5.6051566476
 21
5.6506259531
  0
LINE
  5
670
100
AcDbEntity
  8
0
100
AcDbLine
 62
7
  6
CONTINUOUS
 10
5.07489624
 20
5.7514834408
 11
5.0637713668
 21
5.7537200041
  0
LINE
  5
671
100
AcDbEntity
  8
0
100
AcDbLine
 62
7
  6
CONTINUOUS
 10
5.6319547297
 20
5.6297560858
 11
5.6209092528
 21
5.6323565586
  0
LINE
  5
672
100
AcDbEntity
  8
0
100
AcDbLine
 62
7
  6
CONTINUOUS
 10
7.4250145254
 20
5.0246985758
 11
7.4140037708
 21
5.0273799667
  0
LINE
  5
673
100
AcDbEntity
  8
0
100
AcDbLine
 62
7
  6
CONTINUOUS
 10
6.998886039
 20
5.1296972981
 11
6.9878903956
 21
5.1324399971
  0
LINE
  5
674
100
AcDbEntity
  8
0
100
AcDbLine
 62
7
  6
CONTINUOUS
 10
5.0968269742
 20
5.7615312387
 11
5.08583819
 21
5.7643617235
  0
LINE
  5
675
100
AcDbEntity
  8
0
100
AcDbLine
 62
7
  6
CONTINUOUS
 10
5.0426297246
 20
5.8887150454
 11
5.0535813969
 21
5.8856983481
  0
LINE
  5
676
100
AcDbEntity
  8
0
100
AcDbLine
 62
7
  6
CONTINUOUS
 10
5.6465484778
 20
5.6100783472
 11
5.6356585089
 21
5.6132679551
  0
LINE
  5
677
100
AcDbEntity
  8
0
100
AcDbLine
 62
7
  6
CONTINUOUS
 10
6.8942980203
 20
5.0731469756
 11
6.8834138196
 21
5.0763637527
  0
LINE
  5
678
100
AcDbEntity
  8
0
100
AcDbLine
 62
7
  6
CONTINUOUS
 10
7.4515144152
 20
4.9080846898
 11
7.440634174
 21
4.9113148341
  0
LINE
  5
679
100
AcDbEntity
  8
0
100
AcDbLine
 62
7
  6
CONTINUOUS
 10
5.7460996591
 20
5.6845031942
 11
5.7569628891
 21
5.6811820765
  0
LINE
  5
67A
100
AcDbEntity
  8
0
100
AcDbLine
 62
7
  6
CONTINUOUS
 10
5.1192654243
 20
5.7703873835
 11
5.1084444128
 21
5.7738036287
  0
LINE
  5
67B
100
AcDbEntity
  8
0
100
AcDbLine
 62
7
  6
CONTINUOUS
 10
7.4023312848
 20
5.014976149
 11
7.3915317581
 21
5.0184107954
  0
LINE
  5
67C
100
AcDbEntity
  8
0
100
AcDbLine
 62
7
  6
CONTINUOUS
 10
5.0654648713
 20
5.8978844196
 11
5.0762806109
 21
5.89441176
  0
LINE
  5
67D
100
AcDbEntity
  8
0
100
AcDbLine
 62
7
  6
CONTINUOUS
 10
6.9844621287
 20
5.1491237799
 11
6.9736819068
 21
5.1526185459
  0
LINE
  5
67E
100
AcDbEntity
  8
0
100
AcDbLine
 62
7
  6
CONTINUOUS
 10
5.6600649524
 20
5.5896456334
 11
5.6493618902
 21
5.5934151799
  0
LINE
  5
67F
100
AcDbEntity
  8
0
100
AcDbLine
 62
7
  6
CONTINUOUS
 10
5.7597662383
 20
5.6643934335
 11
5.7704808655
 21
5.6606203241
  0
LINE
  5
680
100
AcDbEntity
  8
0
100
AcDbLine
 62
7
  6
CONTINUOUS
 10
6.8804201479
 20
5.0933394053
 11
6.8697192167
 21
5.0971214089
  0
LINE
  5
681
100
AcDbEntity
  8
0
100
AcDbLine
 62
7
  6
CONTINUOUS
 10
7.4282342045
 20
4.8993408787
 11
7.417537927
 21
4.903136024
  0
LINE
  5
682
100
AcDbEntity
  8
0
100
AcDbLine
 62
7
  6
CONTINUOUS
 10
5.0886639612
 20
5.906089514
 11
5.0993247937
 21
5.9021669844
  0
LINE
  5
683
100
AcDbEntity
  8
0
100
AcDbLine
 62
7
  6
CONTINUOUS
 10
5.1421468944
 20
5.7780263407
 11
5.1315248554
 21
5.7820184963
  0
LINE
  5
684
100
AcDbEntity
  8
0
100
AcDbLine
 62
7
  6
CONTINUOUS
 10
7.3790313309
 20
5.0068418309
 11
7.3684944967
 21
5.0110133652
  0
LINE
  5
685
100
AcDbEntity
  8
0
100
AcDbLine
 62
7
  6
CONTINUOUS
 10
5.7725787203
 20
5.6437290155
 11
5.7831259475
 21
5.6395105337
  0
LINE
  5
686
100
AcDbEntity
  8
0
100
AcDbLine
 62
7
  6
CONTINUOUS
 10
6.9714128417
 20
5.1694990958
 11
6.9608994141
 21
5.1737292745
  0
LINE
  5
687
100
AcDbEntity
  8
0
100
AcDbLine
 62
7
  6
CONTINUOUS
 10
6.8676180847
 20
5.1142304737
 11
6.8571297535
 21
5.1185673377
  0
LINE
  5
688
100
AcDbEntity
  8
0
100
AcDbLine
 62
7
  6
CONTINUOUS
 10
5.6724651821
 20
5.5685168571
 11
5.6619798863
 21
5.5728554737
  0
LINE
  5
689
100
AcDbEntity
  8
0
100
AcDbLine
 62
7
  6
CONTINUOUS
 10
7.4045282828
 20
4.8918274428
 11
7.3940452868
 21
4.8961771869
  0
LINE
  5
68A
100
AcDbEntity
  8
0
100
AcDbLine
 62
7
  6
CONTINUOUS
 10
5.1121862953
 20
5.9133159341
 11
5.122673518
 21
5.9089504158
  0
LINE
  5
68B
100
AcDbEntity
  8
0
100
AcDbLine
 62
7
  6
CONTINUOUS
 10
5.1654054115
 20
5.7844260851
 11
5.1550129709
 21
5.7889826408
  0
LINE
  5
68C
100
AcDbEntity
  8
0
100
AcDbLine
 62
7
  6
CONTINUOUS
 10
5.7845146276
 20
5.6225461927
 11
5.7948759514
 21
5.6178897392
  0
LINE
  5
68D
100
AcDbEntity
  8
0
100
AcDbLine
 62
7
  6
CONTINUOUS
 10
5.1359906073
 20
5.9195510022
 11
5.146285822
 21
5.914750154
  0
LINE
  5
68E
100
AcDbEntity
  8
0
100
AcDbLine
 62
7
  6
CONTINUOUS
 10
6.8559269203
 20
5.1357629198
 11
6.845679937
 21
5.1406427571
  0
LINE
  5
68F
100
AcDbEntity
  8
0
100
AcDbLine
 62
7
  6
CONTINUOUS
 10
7.3804616264
 20
4.885564976
 11
7.370220645
 21
4.8904573965
  0
LINE
  5
690
100
AcDbEntity
  8
0
100
AcDbLine
 62
7
  6
CONTINUOUS
 10
5.6837134137
 20
5.5467529382
 11
5.6734761161
 21
5.5516481154
  0
LINE
  5
691
100
AcDbEntity
  8
0
100
AcDbLine
 62
7
  6
CONTINUOUS
 10
5.7955530205
 20
5.6008821268
 11
5.8057102636
 21
5.5957958707
  0
LINE
  5
692
100
AcDbEntity
  8
0
100
AcDbLine
 62
7
  6
CONTINUOUS
 10
5.1889739151
 20
5.7895681647
 11
5.1788410371
 21
5.7946759827
  0
LINE
  5
693
100
AcDbEntity
  8
0
100
AcDbLine
 62
7
  6
CONTINUOUS
 10
5.1600351365
 20
5.92478378
 11
5.1701202819
 21
5.9195560241
  0
LINE
  5
694
100
AcDbEntity
  8
0
100
AcDbLine
 62
7
  6
CONTINUOUS
 10
5.6937772157
 20
5.5244166277
 11
5.6838174332
 21
5.5298542515
  0
LINE
  5
695
100
AcDbEntity
  8
0
100
AcDbLine
 62
7
  6
CONTINUOUS
 10
5.8056745339
 20
5.5787748242
 11
5.8156098771
 21
5.5732676883
  0
LINE
  5
696
100
AcDbEntity
  8
0
100
AcDbLine
 62
7
  6
CONTINUOUS
 10
5.1842777005
 20
5.9290050874
 11
5.1941350839
 21
5.923359595
  0
LINE
  5
697
100
AcDbEntity
  8
0
100
AcDbLine
 62
7
  6
CONTINUOUS
 10
5.2127844511
 20
5.7934377534
 11
5.2029403514
 21
5.7990821066
  0
LINE
  5
698
100
AcDbEntity
  8
0
100
AcDbLine
 62
7
  6
CONTINUOUS
 10
5.8148614112
 20
5.5562630684
 11
5.8245574245
 21
5.5503447142
  0
LINE
  5
699
100
AcDbEntity
  8
0
100
AcDbLine
 62
7
  6
CONTINUOUS
 10
5.7026275716
 20
5.5015723269
 11
5.6929740207
 21
5.5075367192
  0
LINE
  5
69A
100
AcDbEntity
  8
0
100
AcDbLine
 62
7
  6
CONTINUOUS
 10
5.2086757697
 20
5.9322075188
 11
5.2182880978
 21
5.9261541941
  0
LINE
  5
69B
100
AcDbEntity
  8
0
100
AcDbLine
 62
7
  6
CONTINUOUS
 10
5.2367683677
 20
5.7960236943
 11
5.2272414294
 21
5.8021883085
  0
LINE
  5
69C
100
AcDbEntity
  8
0
100
AcDbLine
 62
7
  6
CONTINUOUS
 10
5.8230975357
 20
5.5333863527
 11
5.832537209
 21
5.5270671631
  0
LINE
  5
69D
100
AcDbEntity
  8
0
100
AcDbLine
 62
7
  6
CONTINUOUS
 10
5.2331865416
 20
5.934385456
 11
5.2425369511
 21
5.9279349186
  0
LINE
  5
69E
100
AcDbEntity
  8
0
100
AcDbLine
 62
7
  6
CONTINUOUS
 10
5.8303684582
 20
5.5101848107
 11
5.8395352311
 21
5.5034758716
  0
LINE
  5
69F
100
AcDbEntity
  8
0
100
AcDbLine
 62
7
  6
CONTINUOUS
 10
5.2577670159
 20
5.9355350782
 11
5.266839103
 21
5.9286986445
  0
LINE
  5
6A0
100
AcDbEntity
  8
0
100
AcDbLine
 62
7
  6
CONTINUOUS
 10
5.8366614231
 20
5.4866991458
 11
5.845539214
 21
5.4796122269
  0
LINE
  5
6A1
100
AcDbEntity
  8
0
100
AcDbLine
 62
7
  6
CONTINUOUS
 10
5.2823740701
 20
5.9356543685
 11
5.2911519193
 21
5.9284440319
  0
LINE
  5
6A2
100
AcDbEntity
  8
0
100
AcDbLine
 62
7
  6
CONTINUOUS
 10
5.8419653905
 20
5.4629705597
 11
5.8505386247
 21
5.455518094
  0
LINE
  5
6A3
100
AcDbEntity
  8
0
100
AcDbLine
 62
7
  6
CONTINUOUS
 10
7.0156241562
 20
5.1000246286
 11
7.0146158364
 21
5.1113122264
  0
LINE
  5
6A4
100
AcDbEntity
  8
0
100
AcDbLine
 62
7
  6
CONTINUOUS
 10
6.9777616135
 20
5.5372621457
 11
6.9768162016
 21
5.5485551865
  0
LINE
  5
6A5
100
AcDbEntity
  8
0
100
AcDbLine
 62
7
  6
CONTINUOUS
 10
6.999113212
 20
5.1183670304
 11
6.998886039
 21
5.1296972981
  0
LINE
  5
6A6
100
AcDbEntity
  8
0
100
AcDbLine
 62
7
  6
CONTINUOUS
 10
7.5937763891
 20
5.5058887345
 11
7.5912854503
 21
5.4948333378
  0
LINE
  5
6A7
100
AcDbEntity
  8
0
100
AcDbLine
 62
7
  6
CONTINUOUS
 10
7.4961485598
 20
5.0780113859
 11
7.4935960612
 21
5.0669700398
  0
LINE
  5
6A8
100
AcDbEntity
  8
0
100
AcDbLine
 62
7
  6
CONTINUOUS
 10
7.5674399167
 20
4.9845261637
 11
7.5647971831
 21
4.9734885263
  0
LINE
  5
6A9
100
AcDbEntity
  8
0
100
AcDbLine
 62
7
  6
CONTINUOUS
 10
7.7031135375
 20
5.5496176055
 11
7.7004572478
 21
5.5385832226
  0
LINE
  5
6AA
100
AcDbEntity
  8
0
100
AcDbLine
 62
7
  6
CONTINUOUS
 10
7.5480014717
 20
4.9696105203
 11
7.5447846946
 21
4.9587263196
  0
LINE
  5
6AB
100
AcDbEntity
  8
0
100
AcDbLine
 62
7
  6
CONTINUOUS
 10
7.7130637575
 20
5.5268269152
 11
7.712159428
 21
5.5237808212
  0
LINE
  5
6AC
100
AcDbEntity
  8
DEFAULT_2
100
AcDbLine
 62
8
  6
HIDDEN
 10
7.712159428
 20
5.5237808212
 11
7.7098336133
 21
5.515946674
  0
LINE
  5
6AD
100
AcDbEntity
  8
0
100
AcDbLine
 62
7
  6
CONTINUOUS
 10
7.6038888947
 20
5.4833766886
 11
7.6006411667
 21
5.4725194866
  0
LINE
  5
6AE
100
AcDbEntity
  8
0
100
AcDbLine
 62
7
  6
CONTINUOUS
 10
7.476973938
 20
5.0632543108
 11
7.4736657662
 21
5.052415373
  0
LINE
  5
6AF
100
AcDbEntity
  8
0
100
AcDbLine
 62
7
  6
CONTINUOUS
 10
7.527809042
 20
4.9557326479
 11
7.5240270384
 21
4.9450317167
  0
LINE
  5
6B0
100
AcDbEntity
  8
DEFAULT_2
100
AcDbLine
 62
8
  6
HIDDEN
 10
7.7218075686
 20
5.5035467045
 11
7.7180124233
 21
5.492850427
  0
LINE
  5
6B1
100
AcDbEntity
  8
0
100
AcDbLine
 62
7
  6
CONTINUOUS
 10
5.5034623242
 20
5.8809870339
 11
5.5144747716
 21
5.883773715
  0
LINE
  5
6B2
100
AcDbEntity
  8
0
100
AcDbLine
 62
7
  6
CONTINUOUS
 10
4.8107344144
 20
5.7109185043
 11
4.821784743
 21
5.7135509607
  0
LINE
  5
6B3
100
AcDbEntity
  8
0
100
AcDbLine
 62
7
  6
CONTINUOUS
 10
5.5255696268
 20
5.8708655205
 11
5.5366891085
 21
5.8731886038
  0
LINE
  5
6B4
100
AcDbEntity
  8
0
100
AcDbLine
 62
7
  6
CONTINUOUS
 10
4.8263276263
 20
5.7299546039
 11
4.8374784977
 21
5.7321220115
  0
LINE
  5
6B5
100
AcDbEntity
  8
0
100
AcDbLine
 62
7
  6
CONTINUOUS
 10
3.0034571706
 20
5.583171159
 11
3.0146158364
 21
5.5851487209
  0
LINE
  5
6B6
100
AcDbEntity
  8
0
100
AcDbLine
 62
7
  6
CONTINUOUS
 10
3.4358034455
 20
5.6585828106
 11
3.4469729566
 21
5.660498168
  0
LINE
  5
6B7
100
AcDbEntity
  8
0
100
AcDbLine
 62
7
  6
CONTINUOUS
 10
5.5472336927
 20
5.8598271276
 11
5.5584407013
 21
5.8616825376
  0
LINE
  5
6B8
100
AcDbEntity
  8
0
100
AcDbLine
 62
7
  6
CONTINUOUS
 10
4.8427043094
 20
5.7483210297
 11
4.8539361612
 21
5.7500195861
  0
LINE
  5
6B9
100
AcDbEntity
  8
0
100
AcDbLine
 62
7
  6
CONTINUOUS
 10
3.5069179737
 20
5.7535303626
 11
3.5181695669
 21
5.7550186938
  0
LINE
  5
6BA
100
AcDbEntity
  8
0
100
AcDbLine
 62
7
  6
CONTINUOUS
 10
2.9307385871
 20
5.6776819381
 11
2.9419920001
 21
5.6791564472
  0
LINE
  5
6BB
100
AcDbEntity
  8
0
100
AcDbLine
 62
7
  6
CONTINUOUS
 10
5.5684165155
 20
5.8478912203
 11
5.5796913902
 21
5.849275702
  0
LINE
  5
6BC
100
AcDbEntity
  8
0
100
AcDbLine
 62
7
  6
CONTINUOUS
 10
4.8598357334
 20
5.7659855608
 11
4.8711288612
 21
5.7672122861
  0
LINE
  5
6BD
100
AcDbEntity
  8
0
100
AcDbLine
 62
7
  6
CONTINUOUS
 10
3.0203080491
 20
5.6012017685
 11
3.0315765611
 21
5.6024047693
  0
LINE
  5
6BE
100
AcDbEntity
  8
0
100
AcDbLine
 62
7
  6
CONTINUOUS
 10
3.4568268966
 20
5.6466056704
 11
3.4681019365
 21
5.6477458666
  0
LINE
  5
6BF
100
AcDbEntity
  8
0
100
AcDbLine
 62
7
  6
CONTINUOUS
 10
5.5890809335
 20
5.8350787383
 11
5.6004038943
 21
5.8359898629
  0
LINE
  5
6C0
100
AcDbEntity
  8
0
100
AcDbLine
 62
7
  6
CONTINUOUS
 10
3.527809042
 20
5.7407282994
 11
3.5391231086
 21
5.741625728
  0
LINE
  5
6C1
100
AcDbEntity
  8
0
100
AcDbLine
 62
7
  6
CONTINUOUS
 10
2.9484496895
 20
5.6951387217
 11
2.9597648499
 21
5.696022252
  0
LINE
  5
6C2
100
AcDbEntity
  8
0
100
AcDbLine
 62
7
  6
CONTINUOUS
 10
4.8776918441
 20
5.7829172075
 11
4.8890264358
 21
5.7836699496
  0
LINE
  5
6C3
100
AcDbEntity
  8
0
100
AcDbLine
 62
7
  6
CONTINUOUS
 10
5.6091906942
 20
5.8214121591
 11
5.6205418768
 21
5.821848328
  0
LINE
  5
6C4
100
AcDbEntity
  8
0
100
AcDbLine
 62
7
  6
CONTINUOUS
 10
3.5480014717
 20
5.726850427
 11
3.5593470005
 21
5.7271544932
  0
LINE
  5
6C5
100
AcDbEntity
  8
0
100
AcDbLine
 62
7
  6
CONTINUOUS
 10
2.9670501369
 20
5.711644654
 11
2.9783960306
 21
5.7119347836
  0
LINE
  5
6C6
100
AcDbEntity
  8
0
100
AcDbLine
 62
7
  6
CONTINUOUS
 10
4.8962413157
 20
5.7990862659
 11
4.9075974866
 21
5.7993637043
  0
LINE
  5
6C7
100
AcDbEntity
  8
0
100
AcDbLine
 62
7
  6
CONTINUOUS
 10
5.6287105183
 20
5.8069154583
 11
5.6400700088
 21
5.8068759065
  0
LINE
  5
6C8
100
AcDbEntity
  8
0
100
AcDbLine
 62
7
  6
CONTINUOUS
 10
4.9154516062
 20
5.81446437
 11
4.9268094337
 21
5.814266018
  0
LINE
  5
6C9
100
AcDbEntity
  8
0
100
AcDbLine
 62
7
  6
CONTINUOUS
 10
7.5674399167
 20
5.7119347836
 11
7.5787858104
 21
5.711644654
  0
LINE
  5
6CA
100
AcDbEntity
  8
0
100
AcDbLine
 62
7
  6
CONTINUOUS
 10
6.9864889468
 20
5.7271544932
 11
6.9978344756
 21
5.726850427
  0
LINE
  5
6CB
100
AcDbEntity
  8
0
100
AcDbLine
 62
7
  6
CONTINUOUS
 10
5.6476061614
 20
5.7916140683
 11
5.6589540315
 21
5.791098865
  0
LINE
  5
6CC
100
AcDbEntity
  8
0
100
AcDbLine
 62
7
  6
CONTINUOUS
 10
4.9352890141
 20
5.8290245415
 11
4.9466285728
 21
5.828350747
  0
LINE
  5
6CD
100
AcDbEntity
  8
0
100
AcDbLine
 62
7
  6
CONTINUOUS
 10
7.5053424654
 20
5.6105834909
 11
7.5166457858
 21
5.6097701524
  0
LINE
  5
6CE
100
AcDbEntity
  8
0
100
AcDbLine
 62
7
  6
CONTINUOUS
 10
7.5860710974
 20
5.696022252
 11
7.5973862578
 21
5.6951387217
  0
LINE
  5
6CF
100
AcDbEntity
  8
0
100
AcDbLine
 62
7
  6
CONTINUOUS
 10
7.0067128387
 20
5.741625728
 11
7.0180269053
 21
5.7407282994
  0
LINE
  5
6D0
100
AcDbEntity
  8
0
100
AcDbLine
 62
7
  6
CONTINUOUS
 10
5.6658444741
 20
5.7755348327
 11
5.6771608156
 21
5.7745448819
  0
LINE
  5
6D1
100
AcDbEntity
  8
0
100
AcDbLine
 62
7
  6
CONTINUOUS
 10
4.955718738
 20
5.8427412368
 11
4.9670201344
 21
5.8415931819
  0
LINE
  5
6D2
100
AcDbEntity
  8
0
100
AcDbLine
 62
7
  6
CONTINUOUS
 10
5.6833934601
 20
5.7587059601
 11
5.6946584205
 21
5.7572429985
  0
LINE
  5
6D3
100
AcDbEntity
  8
0
100
AcDbLine
 62
7
  6
CONTINUOUS
 10
7.6038439472
 20
5.6791564472
 11
7.6150973602
 21
5.6776819381
  0
LINE
  5
6D4
100
AcDbEntity
  8
0
100
AcDbLine
 62
7
  6
CONTINUOUS
 10
7.0276663804
 20
5.7550186938
 11
7.0389179737
 21
5.7535303626
  0
LINE
  5
6D5
100
AcDbEntity
  8
0
100
AcDbLine
 62
7
  6
CONTINUOUS
 10
7.0881884279
 20
5.6543043943
 11
7.0994173943
 21
5.6527757067
  0
LINE
  5
6D6
100
AcDbEntity
  8
0
100
AcDbLine
 62
7
  6
CONTINUOUS
 10
7.522888696
 20
5.5939231434
 11
7.5341089706
 21
5.5923319139
  0
LINE
  5
6D7
100
AcDbEntity
  8
0
100
AcDbLine
 62
7
  6
CONTINUOUS
 10
4.9767049371
 20
5.8555903922
 11
4.9879483447
 21
5.853970091
  0
LINE
  5
6D8
100
AcDbEntity
  8
0
100
AcDbLine
 62
7
  6
CONTINUOUS
 10
5.7002223327
 20
5.7411569741
 11
5.7114161494
 21
5.7392235681
  0
LINE
  5
6D9
100
AcDbEntity
  8
0
100
AcDbLine
 62
7
  6
CONTINUOUS
 10
4.9982107945
 20
5.8675494659
 11
5.0093764886
 21
5.8654597609
  0
LINE
  5
6DA
100
AcDbEntity
  8
0
100
AcDbLine
 62
7
  6
CONTINUOUS
 10
7.1097449782
 20
5.6663198063
 11
7.1208417231
 21
5.6640200619
  0
LINE
  5
6DB
100
AcDbEntity
  8
0
100
AcDbLine
 62
7
  6
CONTINUOUS
 10
7.5392437023
 20
5.5760919585
 11
7.5503274612
 21
5.5737304209
  0
LINE
  5
6DC
100
AcDbEntity
  8
0
100
AcDbLine
 62
7
  6
CONTINUOUS
 10
5.7163015683
 20
5.7229186614
 11
5.7274046034
 21
5.7205182029
  0
LINE
  5
6DD
100
AcDbEntity
  8
0
100
AcDbLine
 62
7
  6
CONTINUOUS
 10
5.0201985817
 20
5.8785974777
 11
5.0312669737
 21
5.876042035
  0
LINE
  5
6DE
100
AcDbEntity
  8
0
100
AcDbLine
 62
7
  6
CONTINUOUS
 10
5.7316029583
 20
5.7040230183
 11
5.7425957334
 21
5.7011597186
  0
LINE
  5
6DF
100
AcDbEntity
  8
0
100
AcDbLine
 62
7
  6
CONTINUOUS
 10
7.3552256985
 20
5.0003343851
 11
7.3450017697
 21
5.005222928
  0
LINE
  5
6E0
100
AcDbEntity
  8
0
100
AcDbLine
 62
7
  6
CONTINUOUS
 10
6.9598003641
 20
5.1907261481
 11
6.9496038319
 21
5.1956715809
  0
LINE
  5
6E1
100
AcDbEntity
  8
0
100
AcDbLine
 62
7
  6
CONTINUOUS
 10
6.8453786995
 20
5.1578777247
 11
6.8354011502
 21
5.1632871601
  0
LINE
  5
6E2
100
AcDbEntity
  8
0
100
AcDbLine
 62
7
  6
CONTINUOUS
 10
7.3561002003
 20
4.880570643
 11
7.3461293033
 21
4.8859923303
  0
LINE
  5
6E3
100
AcDbEntity
  8
0
100
AcDbLine
 62
7
  6
CONTINUOUS
 10
7.3310278323
 20
4.9954848226
 11
7.3211655305
 21
5.001067078
  0
LINE
  5
6E4
100
AcDbEntity
  8
0
100
AcDbLine
 62
7
  6
CONTINUOUS
 10
6.9496800344
 20
5.2127037803
 11
6.9398489889
 21
5.2183408998
  0
LINE
  5
6E5
100
AcDbEntity
  8
0
100
AcDbLine
 62
7
  6
CONTINUOUS
 10
6.8360023341
 20
5.1805142733
 11
6.8263215667
 21
5.1864384798
  0
LINE
  5
6E6
100
AcDbEntity
  8
0
100
AcDbLine
 62
7
  6
CONTINUOUS
 10
7.3315107775
 20
4.8768581332
 11
7.3218372945
 21
4.8827942266
  0
LINE
  5
6E7
100
AcDbEntity
  8
0
100
AcDbLine
 62
7
  6
CONTINUOUS
 10
7.3065530462
 20
4.9923162538
 11
7.2970993698
 21
4.9985656197
  0
LINE
  5
6E8
100
AcDbEntity
  8
0
100
AcDbLine
 62
7
  6
CONTINUOUS
 10
6.9411000807
 20
5.2353272588
 11
6.9316813712
 21
5.2416292017
  0
LINE
  5
6E9
100
AcDbEntity
  8
0
100
AcDbLine
 62
7
  6
CONTINUOUS
 10
6.827823524
 20
5.2036105203
 11
6.8184660728
 21
5.2100332601
  0
LINE
  5
6EA
100
AcDbEntity
  8
0
100
AcDbLine
 62
7
  6
CONTINUOUS
 10
7.3067607559
 20
4.8744376222
 11
7.2974112012
 21
4.8808718514
  0
LINE
  5
6EB
100
AcDbEntity
  8
0
100
AcDbLine
 62
7
  6
CONTINUOUS
 10
7.2819179737
 20
4.9908437783
 11
7.2729179737
 21
4.9977304737
  0
LINE
  5
6EC
100
AcDbEntity
  8
0
100
AcDbLine
 62
7
  6
CONTINUOUS
 10
6.8208646869
 20
5.2271031605
 11
6.8118562
 21
5.2340068294
  0
LINE
  5
6ED
100
AcDbEntity
  8
0
100
AcDbLine
 62
7
  6
CONTINUOUS
 10
7.2819179737
 20
4.8733157445
 11
7.2729179737
 21
4.8802304737
  0
LINE
  5
6EE
100
AcDbEntity
  8
0
100
AcDbLine
 62
7
  6
CONTINUOUS
 10
6.9341013904
 20
5.2584887726
 11
6.9251399014
 21
5.2654255072
  0
LINE
  5
6EF
100
AcDbEntity
  8
0
100
AcDbLine
 62
7
  6
CONTINUOUS
 10
6.8151448965
 20
5.2509278023
 11
6.8065100655
 21
5.2582934777
  0
LINE
  5
6F0
100
AcDbEntity
  8
0
100
AcDbLine
 62
7
  6
CONTINUOUS
 10
7.257050523
 20
4.873495575
 11
7.2484247461
 21
4.8808718514
  0
LINE
  5
6F1
100
AcDbEntity
  8
0
100
AcDbLine
 62
7
  6
CONTINUOUS
 10
6.8106798303
 20
5.275019144
 11
6.8024423227
 21
5.2828266371
  0
LINE
  5
6F2
100
AcDbEntity
  8
0
100
AcDbLine
 62
7
  6
CONTINUOUS
 10
7.2322265639
 20
4.8749766209
 11
7.2239986528
 21
4.8827942266
  0
LINE
  5
6F3
100
AcDbEntity
  8
0
100
AcDbLine
 62
7
  6
CONTINUOUS
 10
6.8074817266
 20
5.2993111528
 11
6.7996641209
 21
5.3075390639
  0
LINE
  5
6F4
100
AcDbEntity
  8
0
100
AcDbLine
 62
7
  6
CONTINUOUS
 10
7.2075141371
 20
4.8777548227
 11
7.199706644
 21
4.8859923303
  0
LINE
  5
6F5
100
AcDbEntity
  8
0
100
AcDbLine
 62
7
  6
CONTINUOUS
 10
6.8055593514
 20
5.3237372461
 11
6.798183075
 21
5.332363023
  0
LINE
  5
6F6
100
AcDbEntity
  8
0
100
AcDbLine
 62
7
  6
CONTINUOUS
 10
7.1829809777
 20
4.8818225655
 11
7.1756153023
 21
4.8904573965
  0
LINE
  5
6F7
100
AcDbEntity
  8
0
100
AcDbLine
 62
7
  6
CONTINUOUS
 10
6.8049179737
 20
5.3482304737
 11
6.7980032445
 21
5.3572304737
  0
LINE
  5
6F8
100
AcDbEntity
  8
0
100
AcDbLine
 62
7
  6
CONTINUOUS
 10
7.1586943294
 20
4.8871687
 11
7.1517906605
 21
4.8961771869
  0
LINE
  5
6F9
100
AcDbEntity
  8
0
100
AcDbLine
 62
7
  6
CONTINUOUS
 10
6.8106798303
 20
5.4214418033
 11
6.805258143
 21
5.4314127003
  0
LINE
  5
6FA
100
AcDbEntity
  8
0
100
AcDbLine
 62
7
  6
CONTINUOUS
 10
7.0879746601
 20
4.9107136502
 11
7.0825652247
 21
4.9206911995
  0
LINE
  5
6FB
100
AcDbEntity
  8
0
100
AcDbLine
 62
7
  6
CONTINUOUS
 10
6.8151448965
 20
5.445533145
 11
6.810252476
 21
5.4557741264
  0
LINE
  5
6FC
100
AcDbEntity
  8
0
100
AcDbLine
 62
7
  6
CONTINUOUS
 10
7.0653302571
 20
4.920992437
 11
7.0604504198
 21
4.9312394203
  0
LINE
  5
6FD
100
AcDbEntity
  8
0
100
AcDbLine
 62
7
  6
CONTINUOUS
 10
6.8208646869
 20
5.4693577868
 11
6.8165149428
 21
5.4798407828
  0
LINE
  5
6FE
100
AcDbEntity
  8
0
100
AcDbLine
 62
7
  6
CONTINUOUS
 10
7.0432548377
 20
4.9324422535
 11
7.0389179737
 21
4.9429305847
  0
LINE
  5
6FF
100
AcDbEntity
  8
0
100
AcDbLine
 62
7
  6
CONTINUOUS
 10
6.827823524
 20
5.492850427
 11
6.8240283787
 21
5.5035467045
  0
LINE
  5
700
100
AcDbEntity
  8
0
100
AcDbLine
 62
7
  6
CONTINUOUS
 10
7.0218089089
 20
4.9450317167
 11
7.0180269053
 21
4.9557326479
  0
LINE
  5
701
100
AcDbEntity
  8
0
100
AcDbLine
 62
7
  6
CONTINUOUS
 10
7.0721701811
 20
5.052415373
 11
7.0688620093
 21
5.0632543108
  0
LINE
  5
702
100
AcDbEntity
  8
0
100
AcDbLine
 62
7
  6
CONTINUOUS
 10
6.9451947806
 20
5.4725194866
 11
6.9419470526
 21
5.4833766886
  0
LINE
  5
703
100
AcDbEntity
  8
0
100
AcDbLine
 62
7
  6
CONTINUOUS
 10
6.8360023341
 20
5.515946674
 11
6.8327721898
 21
5.5268269152
  0
LINE
  5
704
100
AcDbEntity
  8
0
100
AcDbLine
 62
7
  6
CONTINUOUS
 10
7.0010512527
 20
4.9587263196
 11
6.9978344756
 21
4.9696105203
  0
LINE
  5
705
100
AcDbEntity
  8
0
100
AcDbLine
 62
7
  6
CONTINUOUS
 10
6.8453786995
 20
5.5385832226
 11
6.8427224098
 21
5.5496176055
  0
LINE
  5
706
100
AcDbEntity
  8
0
100
AcDbLine
 62
7
  6
CONTINUOUS
 10
6.9810387642
 20
4.9734885263
 11
6.9783960306
 21
4.9845261637
  0
LINE
  5
707
100
AcDbEntity
  8
0
100
AcDbLine
 62
7
  6
CONTINUOUS
 10
7.0522398861
 20
5.0669700398
 11
7.0496873875
 21
5.0780113859
  0
LINE
  5
708
100
AcDbEntity
  8
0
100
AcDbLine
 62
7
  6
CONTINUOUS
 10
6.954550497
 20
5.4948333378
 11
6.9520595582
 21
5.5058887345
  0
LINE
  5
709
100
AcDbEntity
  8
0
100
AcDbLine
 62
7
  6
CONTINUOUS
 10
6.8559269203
 20
5.5606980275
 11
6.853851766
 21
5.5718563076
  0
LINE
  5
70A
100
AcDbEntity
  8
0
100
AcDbLine
 62
7
  6
CONTINUOUS
 10
6.9618262964
 20
4.9892778747
 11
6.9597648499
 21
5.0004386953
  0
LINE
  5
70B
100
AcDbEntity
  8
0
100
AcDbLine
 62
7
  6
CONTINUOUS
 10
7.0333612226
 20
5.0828650406
 11
7.0315765611
 21
5.094056178
  0
LINE
  5
70C
100
AcDbEntity
  8
0
100
AcDbLine
 62
7
  6
CONTINUOUS
 10
6.9654233793
 20
5.5164485597
 11
6.9637011003
 21
5.5276494671
  0
LINE
  5
70D
100
AcDbEntity
  8
0
100
AcDbLine
 62
7
  6
CONTINUOUS
 10
6.8676180847
 20
5.5822304737
 11
6.8661297535
 21
5.5934820669
  0
LINE
  5
70E
100
AcDbEntity
  8
0
100
AcDbLine
 62
7
  6
CONTINUOUS
 10
6.9434665092
 20
5.0060510871
 11
6.9419920001
 21
5.0173045001
  0
LINE
  5
70F
100
AcDbEntity
  8
0
100
AcDbLine
 62
7
  6
CONTINUOUS
 10
7.4479179737
 20
5.4457304737
 11
7.4479179737
 21
5.2507304737
  0
LINE
  5
710
100
AcDbEntity
  8
0
100
AcDbLine
 62
7
  6
CONTINUOUS
 10
7.5544935847
 20
5.5685062673
 11
7.5543295452
 21
5.5571749098
  0
LINE
  5
711
100
AcDbEntity
  8
0
100
AcDbLine
 62
7
  6
CONTINUOUS
 10
7.5469499083
 20
5.1296972981
 11
7.5467227353
 21
5.1183670304
  0
LINE
  5
712
100
AcDbEntity
  8
0
100
AcDbLine
 62
7
  6
CONTINUOUS
 10
7.620709752
 20
5.0350773499
 11
7.6198262217
 21
5.0237621895
  0
LINE
  5
713
100
AcDbEntity
  8
0
100
AcDbLine
 62
7
  6
CONTINUOUS
 10
7.666313228
 20
5.6144356086
 11
7.6654157994
 21
5.603121542
  0
LINE
  5
714
100
AcDbEntity
  8
0
100
AcDbLine
 62
7
  6
CONTINUOUS
 10
7.5690197457
 20
5.5485551865
 11
7.5680743338
 21
5.5372621457
  0
LINE
  5
715
100
AcDbEntity
  8
0
100
AcDbLine
 62
7
  6
CONTINUOUS
 10
7.5312201109
 20
5.1113122264
 11
7.5302117911
 21
5.1000246286
  0
LINE
  5
716
100
AcDbEntity
  8
0
100
AcDbLine
 62
7
  6
CONTINUOUS
 10
7.6038439472
 20
5.0173045001
 11
7.6023694381
 21
5.0060510871
  0
LINE
  5
717
100
AcDbEntity
  8
0
100
AcDbLine
 62
7
  6
CONTINUOUS
 10
7.6797061938
 20
5.5934820669
 11
7.6782178626
 21
5.5822304737
  0
LINE
  5
718
100
AcDbEntity
  8
0
100
AcDbLine
 62
7
  6
CONTINUOUS
 10
7.582134847
 20
5.5276494671
 11
7.580412568
 21
5.5164485597
  0
LINE
  5
719
100
AcDbEntity
  8
0
100
AcDbLine
 62
7
  6
CONTINUOUS
 10
7.5142593862
 20
5.094056178
 11
7.5124747247
 21
5.0828650406
  0
LINE
  5
71A
100
AcDbEntity
  8
0
100
AcDbLine
 62
7
  6
CONTINUOUS
 10
7.5860710974
 20
5.0004386953
 11
7.5840096509
 21
4.9892778747
  0
LINE
  5
71B
100
AcDbEntity
  8
0
100
AcDbLine
 62
7
  6
CONTINUOUS
 10
7.6919841813
 20
5.5718563076
 11
7.689909027
 21
5.5606980275
  0
LINE
  5
71C
100
AcDbEntity
  8
0
100
AcDbLine
 62
7
  6
CONTINUOUS
 10
2.9878903956
 20
5.5640209502
 11
2.998886039
 21
5.5667636492
  0
LINE
  5
71D
100
AcDbEntity
  8
0
100
AcDbLine
 62
7
  6
CONTINUOUS
 10
3.4140037708
 20
5.6690809806
 11
3.4250145254
 21
5.6717623715
  0
LINE
  5
71E
100
AcDbEntity
  8
0
100
AcDbLine
 62
7
  6
CONTINUOUS
 10
3.4632707226
 20
5.7757697478
 11
3.4743051055
 21
5.7784260375
  0
LINE
  5
71F
100
AcDbEntity
  8
0
100
AcDbLine
 62
7
  6
CONTINUOUS
 10
2.8981760263
 20
5.6401096831
 11
2.9092136637
 21
5.6427524167
  0
LINE
  5
720
100
AcDbEntity
  8
0
100
AcDbLine
 62
7
  6
CONTINUOUS
 10
3.4853855275
 20
5.765221527
 11
3.4965438076
 21
5.7672966813
  0
LINE
  5
721
100
AcDbEntity
  8
0
100
AcDbLine
 62
7
  6
CONTINUOUS
 10
2.9139653747
 20
5.6593221509
 11
2.9251261953
 21
5.6613835974
  0
LINE
  5
722
100
AcDbEntity
  8
0
100
AcDbLine
 62
7
  6
CONTINUOUS
 10
7.620709752
 20
5.6613835974
 11
7.6318705726
 21
5.6593221509
  0
LINE
  5
723
100
AcDbEntity
  8
0
100
AcDbLine
 62
7
  6
CONTINUOUS
 10
7.0492921397
 20
5.7672966813
 11
7.0604504198
 21
5.765221527
  0
LINE
  5
724
100
AcDbEntity
  8
0
100
AcDbLine
 62
7
  6
CONTINUOUS
 10
7.6366222836
 20
5.6427524167
 11
7.647659921
 21
5.6401096831
  0
LINE
  5
725
100
AcDbEntity
  8
0
100
AcDbLine
 62
7
  6
CONTINUOUS
 10
7.0715308418
 20
5.7784260375
 11
7.0825652247
 21
5.7757697478
  0
LINE
  5
726
100
AcDbEntity
  8
0
100
AcDbLine
 62
7
  6
CONTINUOUS
 10
7.1320791221
 20
5.6768193777
 11
7.1429907645
 21
5.6737595358
  0
LINE
  5
727
100
AcDbEntity
  8
0
100
AcDbLine
 62
7
  6
CONTINUOUS
 10
7.5543295452
 20
5.5571749098
 11
7.5652239694
 21
5.5540543179
  0
LINE
  5
728
100
AcDbEntity
  8
0
100
AcDbLine
 62
7
  6
CONTINUOUS
 10
7.651537927
 20
5.6233139717
 11
7.6624221277
 21
5.6200971946
  0
LINE
  5
729
100
AcDbEntity
  8
0
100
AcDbLine
 62
7
  6
CONTINUOUS
 10
7.0943215321
 20
5.7883762575
 11
7.1052017733
 21
5.7851461133
  0
LINE
  5
72A
100
AcDbEntity
  8
0
100
AcDbLine
 62
7
  6
CONTINUOUS
 10
7.6654157994
 20
5.603121542
 11
7.6761167306
 21
5.5993395384
  0
LINE
  5
72B
100
AcDbEntity
  8
0
100
AcDbLine
 62
7
  6
CONTINUOUS
 10
7.1176017428
 20
5.7971200686
 11
7.1282980203
 21
5.7933249233
  0
LINE
  5
72C
100
AcDbEntity
  8
0
100
AcDbLine
 62
7
  6
CONTINUOUS
 10
7.1550844272
 20
5.6857530734
 11
7.1657589682
 21
5.6819477156
  0
LINE
  5
72D
100
AcDbEntity
  8
0
100
AcDbLine
 62
7
  6
CONTINUOUS
 10
7.5680743338
 20
5.5372621457
 11
7.5787275064
 21
5.5333973705
  0
LINE
  5
72E
100
AcDbEntity
  8
0
100
AcDbLine
 62
7
  6
CONTINUOUS
 10
7.1786512629
 20
5.6930783202
 11
7.1890378333
 21
5.6885455807
  0
LINE
  5
72F
100
AcDbEntity
  8
0
100
AcDbLine
 62
7
  6
CONTINUOUS
 10
7.580412568
 20
5.5164485597
 11
7.5907737216
 21
5.5118580186
  0
LINE
  5
730
100
AcDbEntity
  8
0
100
AcDbLine
 62
7
  6
CONTINUOUS
 10
7.257240012
 20
4.9910744132
 11
7.2487365775
 21
4.9985656197
  0
LINE
  5
731
100
AcDbEntity
  8
0
100
AcDbLine
 62
7
  6
CONTINUOUS
 10
6.9287173154
 20
5.2820779464
 11
6.9202557525
 21
5.2896164161
  0
LINE
  5
732
100
AcDbEntity
  8
0
100
AcDbLine
 62
7
  6
CONTINUOUS
 10
7.232636763
 20
4.9930070594
 11
7.2246704168
 21
5.001067078
  0
LINE
  5
733
100
AcDbEntity
  8
0
100
AcDbLine
 62
7
  6
CONTINUOUS
 10
6.9249735133
 20
5.3059823672
 11
6.9170521996
 21
5.3140866477
  0
LINE
  5
734
100
AcDbEntity
  8
0
100
AcDbLine
 62
7
  6
CONTINUOUS
 10
7.2082254723
 20
4.9966325068
 11
7.2008341776
 21
5.005222928
  0
LINE
  5
735
100
AcDbEntity
  8
0
100
AcDbLine
 62
7
  6
CONTINUOUS
 10
6.922887825
 20
5.3300881195
 11
6.9155445092
 21
5.3387195901
  0
LINE
  5
736
100
AcDbEntity
  8
0
100
AcDbLine
 62
7
  6
CONTINUOUS
 10
7.1841224708
 20
5.0019334788
 11
7.1773414506
 21
5.0110133652
  0
LINE
  5
737
100
AcDbEntity
  8
0
100
AcDbLine
 62
7
  6
CONTINUOUS
 10
6.9224701897
 20
5.3542803283
 11
6.9157398661
 21
5.3633978563
  0
LINE
  5
738
100
AcDbEntity
  8
0
100
AcDbLine
 62
7
  6
CONTINUOUS
 10
6.8055593514
 20
5.3727237012
 11
6.7991251222
 21
5.3820732559
  0
LINE
  5
739
100
AcDbEntity
  8
0
100
AcDbLine
 62
7
  6
CONTINUOUS
 10
7.1347207601
 20
4.8937785728
 11
7.1282980203
 21
4.903136024
  0
LINE
  5
73A
100
AcDbEntity
  8
0
100
AcDbLine
 62
7
  6
CONTINUOUS
 10
7.1604426203
 20
5.0088847136
 11
7.1543041892
 21
5.0184107954
  0
LINE
  5
73B
100
AcDbEntity
  8
0
100
AcDbLine
 62
7
  6
CONTINUOUS
 10
6.9237225978
 20
5.3784437068
 11
6.9176373394
 21
5.3880038429
  0
LINE
  5
73C
100
AcDbEntity
  8
0
100
AcDbLine
 62
7
  6
CONTINUOUS
 10
6.8074817266
 20
5.3971497945
 11
6.8015456332
 21
5.4068232775
  0
LINE
  5
73D
100
AcDbEntity
  8
0
100
AcDbLine
 62
7
  6
CONTINUOUS
 10
7.1111259798
 20
4.9016340667
 11
7.1052017733
 21
4.9113148341
  0
LINE
  5
73E
100
AcDbEntity
  8
0
100
AcDbLine
 62
7
  6
CONTINUOUS
 10
7.1372987661
 20
5.0174530855
 11
7.1318321765
 21
5.0273799667
  0
LINE
  5
73F
100
AcDbEntity
  8
0
100
AcDbLine
 62
7
  6
CONTINUOUS
 10
6.9266390808
 20
5.4024631055
 11
6.9212278866
 21
5.4124202914
  0
LINE
  5
740
100
AcDbEntity
  8
0
100
AcDbLine
 62
7
  6
CONTINUOUS
 10
7.1148011992
 20
5.0275977622
 11
7.1100325018
 21
5.0378781367
  0
LINE
  5
741
100
AcDbEntity
  8
0
100
AcDbLine
 62
7
  6
CONTINUOUS
 10
6.9312057404
 20
5.426224061
 11
6.9264943973
 21
5.4365308461
  0
LINE
  5
742
100
AcDbEntity
  8
0
100
AcDbLine
 62
7
  6
CONTINUOUS
 10
7.0930571307
 20
5.0392703999
 11
7.0890090507
 21
5.0498552769
  0
LINE
  5
743
100
AcDbEntity
  8
0
100
AcDbLine
 62
7
  6
CONTINUOUS
 10
6.9374008145
 20
5.4496133415
 11
6.9334117741
 21
5.4602206093
  0
LINE
  5
744
100
AcDbEntity
  8
0
100
AcDbLine
 62
7
  6
CONTINUOUS
 10
7.6654157994
 20
5.0933394053
 11
7.666313228
 21
5.0820253387
  0
LINE
  5
745
100
AcDbEntity
  8
0
100
AcDbLine
 62
7
  6
CONTINUOUS
 10
7.6198262217
 20
5.6726987578
 11
7.620709752
 21
5.6613835974
  0
LINE
  5
746
100
AcDbEntity
  8
0
100
AcDbLine
 62
7
  6
CONTINUOUS
 10
7.5386255876
 20
5.5874076338
 11
7.5392437023
 21
5.5760919585
  0
LINE
  5
747
100
AcDbEntity
  8
0
100
AcDbLine
 62
7
  6
CONTINUOUS
 10
7.5613738186
 20
5.1491237799
 11
7.5619288751
 21
5.1378048363
  0
LINE
  5
748
100
AcDbEntity
  8
0
100
AcDbLine
 62
7
  6
CONTINUOUS
 10
7.651537927
 20
5.0731469756
 11
7.6518419932
 21
5.0618014468
  0
LINE
  5
749
100
AcDbEntity
  8
0
100
AcDbLine
 62
7
  6
CONTINUOUS
 10
7.636332154
 20
5.6540983104
 11
7.6366222836
 21
5.6427524167
  0
LINE
  5
74A
100
AcDbEntity
  8
0
100
AcDbLine
 62
7
  6
CONTINUOUS
 10
7.6254179737
 20
5.2312304737
 11
7.6254179737
 21
5.4652304737
  0
LINE
  5
74B
100
AcDbEntity
  8
DEFAULT_2
100
AcDbLine
 62
8
  6
HIDDEN
 10
7.6429179737
 20
5.2457310061
 11
7.6429179737
 21
5.4507299412
  0
LINE
  5
74C
100
AcDbEntity
  8
0
100
AcDbLine
 62
7
  6
CONTINUOUS
 10
7.6629179737
 20
5.4982304737
 11
7.6629179737
 21
5.1982304737
  0
LINE
  5
74D
100
AcDbEntity
  8
0
100
AcDbLine
 62
7
  6
CONTINUOUS
 10
7.7254179737
 20
5.4982304737
 11
7.7254179737
 21
5.1982304737
  0
LINE
  5
74E
100
AcDbEntity
  8
0
100
AcDbLine
 62
7
  6
CONTINUOUS
 10
7.6366222836
 20
5.0537085306
 11
7.636332154
 21
5.0423626369
  0
LINE
  5
74F
100
AcDbEntity
  8
0
100
AcDbLine
 62
7
  6
CONTINUOUS
 10
7.6518419932
 20
5.6346595005
 11
7.651537927
 21
5.6233139717
  0
LINE
  5
750
100
AcDbEntity
  8
0
100
AcDbLine
 62
7
  6
CONTINUOUS
 10
7.6782178626
 20
5.5822304737
 11
7.6887061938
 21
5.5778936096
  0
LINE
  5
751
100
AcDbEntity
  8
0
100
AcDbLine
 62
7
  6
CONTINUOUS
 10
7.1413076645
 20
5.8046335045
 11
7.1517906605
 21
5.8002837604
  0
LINE
  5
752
100
AcDbEntity
  8
0
100
AcDbLine
 62
7
  6
CONTINUOUS
 10
7.689909027
 20
5.5606980275
 11
7.7001560103
 21
5.5558181902
  0
LINE
  5
753
100
AcDbEntity
  8
0
100
AcDbLine
 62
7
  6
CONTINUOUS
 10
7.1653743209
 20
5.8108959713
 11
7.1756153023
 21
5.8060035508
  0
LINE
  5
754
100
AcDbEntity
  8
0
100
AcDbLine
 62
7
  6
CONTINUOUS
 10
7.2026673224
 20
5.6987602099
 11
7.2127164255
 21
5.6935216893
  0
LINE
  5
755
100
AcDbEntity
  8
0
100
AcDbLine
 62
7
  6
CONTINUOUS
 10
7.5912854503
 20
5.4948333378
 11
7.6013052095
 21
5.4895389069
  0
LINE
  5
756
100
AcDbEntity
  8
0
100
AcDbLine
 62
7
  6
CONTINUOUS
 10
7.7004572478
 20
5.5385832226
 11
7.7104347971
 21
5.5331737872
  0
LINE
  5
757
100
AcDbEntity
  8
0
100
AcDbLine
 62
7
  6
CONTINUOUS
 10
7.189735747
 20
5.8158903043
 11
7.199706644
 21
5.810468617
  0
LINE
  5
758
100
AcDbEntity
  8
DEFAULT_2
100
AcDbLine
 62
8
  6
HIDDEN
 10
7.7098336133
 20
5.515946674
 11
7.7195143806
 21
5.5100224675
  0
LINE
  5
759
100
AcDbEntity
  8
0
100
AcDbLine
 62
7
  6
CONTINUOUS
 10
7.2270181582
 20
5.7027716658
 11
7.2366819056
 21
5.6968523281
  0
LINE
  5
75A
100
AcDbEntity
  8
0
100
AcDbLine
 62
7
  6
CONTINUOUS
 10
7.2143251698
 20
5.8196028141
 11
7.2239986528
 21
5.8136667207
  0
LINE
  5
75B
100
AcDbEntity
  8
0
100
AcDbLine
 62
7
  6
CONTINUOUS
 10
7.6006411667
 20
5.4725194866
 11
7.6102717827
 21
5.4665463962
  0
LINE
  5
75C
100
AcDbEntity
  8
0
100
AcDbLine
 62
7
  6
CONTINUOUS
 10
7.2515877275
 20
5.7050935715
 11
7.2608200669
 21
5.6985216249
  0
LINE
  5
75D
100
AcDbEntity
  8
0
100
AcDbLine
 62
7
  6
CONTINUOUS
 10
7.6084351328
 20
5.4496133415
 11
7.6138259947
 21
5.4457304737
  0
LINE
  5
75E
100
AcDbEntity
  8
DEFAULT_2
100
AcDbLine
 62
8
  6
HIDDEN
 10
7.6138259947
 20
5.4457304737
 11
7.6176307113
 21
5.4429900562
  0
LINE
  5
75F
100
AcDbEntity
  8
0
100
AcDbLine
 62
7
  6
CONTINUOUS
 10
7.2762589452
 20
5.705714862
 11
7.2850158804
 21
5.6985216249
  0
LINE
  5
760
100
AcDbEntity
  8
DEFAULT_2
100
AcDbLine
 62
8
  6
HIDDEN
 10
7.6146302069
 20
5.426224061
 11
7.6233469268
 21
5.4189821437
  0
LINE
  5
761
100
AcDbEntity
  8
0
100
AcDbLine
 62
7
  6
CONTINUOUS
 10
7.4837565439
 20
5.6369402714
 11
7.4866886262
 21
5.6259936068
  0
LINE
  5
762
100
AcDbEntity
  8
0
100
AcDbLine
 62
7
  6
CONTINUOUS
 10
7.5961559129
 20
5.2127037803
 11
7.599026957
 21
5.2017409486
  0
LINE
  5
763
100
AcDbEntity
  8
0
100
AcDbLine
 62
7
  6
CONTINUOUS
 10
7.5031725923
 20
5.6217063603
 11
7.5053424654
 21
5.6105834909
  0
LINE
  5
764
100
AcDbEntity
  8
0
100
AcDbLine
 62
7
  6
CONTINUOUS
 10
7.5860355832
 20
5.1907261481
 11
7.5881434482
 21
5.1795913613
  0
LINE
  5
765
100
AcDbEntity
  8
0
100
AcDbLine
 62
7
  6
CONTINUOUS
 10
7.689909027
 20
5.1357629198
 11
7.6919841813
 21
5.1246046397
  0
LINE
  5
766
100
AcDbEntity
  8
0
100
AcDbLine
 62
7
  6
CONTINUOUS
 10
7.5840096509
 20
5.7071830726
 11
7.5860710974
 21
5.696022252
  0
LINE
  5
767
100
AcDbEntity
  8
0
100
AcDbLine
 62
7
  6
CONTINUOUS
 10
7.6782178626
 20
5.1142304737
 11
7.6797061938
 21
5.1029788804
  0
LINE
  5
768
100
AcDbEntity
  8
0
100
AcDbLine
 62
7
  6
CONTINUOUS
 10
7.6023694381
 20
5.6904098602
 11
7.6038439472
 21
5.6791564472
  0
LINE
  5
769
100
AcDbEntity
  8
0
100
AcDbLine
 62
7
  6
CONTINUOUS
 10
7.5214913727
 20
5.6051692121
 11
7.522888696
 21
5.5939231434
  0
LINE
  5
76A
100
AcDbEntity
  8
0
100
AcDbLine
 62
7
  6
CONTINUOUS
 10
7.5744231056
 20
5.1694990958
 11
7.5757577463
 21
5.1582454161
  0
LINE
  5
76B
100
AcDbEntity
  8
DEFAULT_2
100
AcDbLine
 62
8
  6
HIDDEN
 10
7.7180124233
 20
5.492850427
 11
7.7273698745
 21
5.4864276872
  0
LINE
  5
76C
100
AcDbEntity
  8
0
100
AcDbLine
 62
7
  6
CONTINUOUS
 10
7.2390751914
 20
5.8220233251
 11
7.2484247461
 21
5.8155890959
  0
LINE
  5
76D
100
AcDbEntity
  8
DEFAULT_2
100
AcDbLine
 62
8
  6
HIDDEN
 10
7.7249712604
 20
5.4693577868
 11
7.7339797473
 21
5.4624541179
  0
LINE
  5
76E
100
AcDbEntity
  8
0
100
AcDbLine
 62
7
  6
CONTINUOUS
 10
7.2639179737
 20
5.8231452028
 11
7.2729179737
 21
5.8162304737
  0
LINE
  5
76F
100
AcDbEntity
  8
DEFAULT_2
100
AcDbLine
 62
8
  6
HIDDEN
 10
7.7306910508
 20
5.445533145
 11
7.7393258818
 21
5.4381674696
  0
LINE
  5
770
100
AcDbEntity
  8
0
100
AcDbLine
 62
7
  6
CONTINUOUS
 10
7.2887854243
 20
5.8229653723
 11
7.2974112012
 21
5.8155890959
  0
LINE
  5
771
100
AcDbEntity
  8
0
100
AcDbLine
 62
7
  6
CONTINUOUS
 10
7.3009142417
 20
5.7046325766
 11
7.3091540417
 21
5.6968523281
  0
LINE
  5
772
100
AcDbEntity
  8
DEFAULT_2
100
AcDbLine
 62
8
  6
HIDDEN
 10
7.735156117
 20
5.4214418033
 11
7.7433936246
 21
5.4136343102
  0
LINE
  5
773
100
AcDbEntity
  8
0
100
AcDbLine
 62
7
  6
CONTINUOUS
 10
7.3136093834
 20
5.8214843264
 11
7.3218372945
 21
5.8136667207
  0
LINE
  5
774
100
AcDbEntity
  8
DEFAULT_2
100
AcDbLine
 62
8
  6
HIDDEN
 10
7.6191968665
 20
5.4024631055
 11
7.6273931887
 21
5.3946370672
  0
LINE
  5
775
100
AcDbEntity
  8
DEFAULT_2
100
AcDbLine
 62
8
  6
HIDDEN
 10
7.7383542207
 20
5.3971497945
 11
7.7461718264
 21
5.3889218834
  0
LINE
  5
776
100
AcDbEntity
  8
0
100
AcDbLine
 62
7
  6
CONTINUOUS
 10
7.3383218102
 20
5.8187061246
 11
7.3461293033
 21
5.810468617
  0
LINE
  5
777
100
AcDbEntity
  8
0
100
AcDbLine
 62
7
  6
CONTINUOUS
 10
7.3254361231
 20
5.7018518729
 11
7.3331195218
 21
5.6935216893
  0
LINE
  5
778
100
AcDbEntity
  8
DEFAULT_2
100
AcDbLine
 62
8
  6
HIDDEN
 10
7.6221133495
 20
5.3784437068
 11
7.6297502148
 21
5.3700708422
  0
LINE
  5
779
100
AcDbEntity
  8
DEFAULT_2
100
AcDbLine
 62
8
  6
HIDDEN
 10
7.7402765959
 20
5.3727237012
 11
7.7476528723
 21
5.3640979243
  0
LINE
  5
77A
100
AcDbEntity
  8
0
100
AcDbLine
 62
7
  6
CONTINUOUS
 10
7.3628549696
 20
5.8146383818
 11
7.370220645
 21
5.8060035508
  0
LINE
  5
77B
100
AcDbEntity
  8
0
100
AcDbLine
 62
7
  6
CONTINUOUS
 10
7.3497077317
 20
5.6973860021
 11
7.356798114
 21
5.6885455807
  0
LINE
  5
77C
100
AcDbEntity
  8
DEFAULT_2
100
AcDbLine
 62
8
  6
HIDDEN
 10
7.6233657576
 20
5.3542803283
 11
7.6304067727
 21
5.3454005378
  0
LINE
  5
77D
100
AcDbEntity
  8
DEFAULT_2
100
AcDbLine
 62
8
  6
HIDDEN
 10
7.7409179737
 20
5.3482304737
 11
7.7478327028
 21
5.3392304737
  0
LINE
  5
77E
100
AcDbEntity
  8
0
100
AcDbLine
 62
7
  6
CONTINUOUS
 10
7.3871416179
 20
5.8092922473
 11
7.3940452868
 21
5.8002837604
  0
LINE
  5
77F
100
AcDbEntity
  8
0
100
AcDbLine
 62
7
  6
CONTINUOUS
 10
7.3736134021
 20
5.6912562463
 11
7.3800769791
 21
5.6819477156
  0
LINE
  5
780
100
AcDbEntity
  8
DEFAULT_2
100
AcDbLine
 62
8
  6
HIDDEN
 10
7.7402765959
 20
5.3237372461
 11
7.7467108251
 21
5.3143876914
  0
LINE
  5
781
100
AcDbEntity
  8
0
100
AcDbLine
 62
7
  6
CONTINUOUS
 10
7.4111151872
 20
5.8026823745
 11
7.417537927
 21
5.7933249233
  0
LINE
  5
782
100
AcDbEntity
  8
DEFAULT_2
100
AcDbLine
 62
8
  6
HIDDEN
 10
7.6229481223
 20
5.3300881195
 11
7.6293597338
 21
5.3207437195
  0
LINE
  5
783
100
AcDbEntity
  8
DEFAULT_2
100
AcDbLine
 62
8
  6
HIDDEN
 10
7.7383542207
 20
5.2993111528
 11
7.7442903141
 21
5.2896376698
  0
LINE
  5
784
100
AcDbEntity
  8
0
100
AcDbLine
 62
7
  6
CONTINUOUS
 10
7.4347099675
 20
5.7948268806
 11
7.440634174
 21
5.7851461133
  0
LINE
  5
785
100
AcDbEntity
  8
0
100
AcDbLine
 62
7
  6
CONTINUOUS
 10
7.3970392129
 20
5.6834918164
 11
7.4028451828
 21
5.6737595358
  0
LINE
  5
786
100
AcDbEntity
  8
DEFAULT_2
100
AcDbLine
 62
8
  6
HIDDEN
 10
7.620862434
 20
5.3059823672
 11
7.6266140875
 21
5.296217888
  0
LINE
  5
787
100
AcDbEntity
  8
DEFAULT_2
100
AcDbLine
 62
8
  6
HIDDEN
 10
7.735156117
 20
5.275019144
 11
7.7405778043
 21
5.265048247
  0
LINE
  5
788
100
AcDbEntity
  8
0
100
AcDbLine
 62
7
  6
CONTINUOUS
 10
7.4578612872
 20
5.7857472971
 11
7.4632707226
 21
5.7757697478
  0
LINE
  5
789
100
AcDbEntity
  8
0
100
AcDbLine
 62
7
  6
CONTINUOUS
 10
7.4198735295
 20
5.6741297136
 11
7.4249942242
 21
5.6640200619
  0
LINE
  5
78A
100
AcDbEntity
  8
DEFAULT_2
100
AcDbLine
 62
8
  6
HIDDEN
 10
7.6171186319
 20
5.2820779464
 11
7.6221829181
 21
5.2719399201
  0
LINE
  5
78B
100
AcDbEntity
  8
DEFAULT_2
100
AcDbLine
 62
8
  6
HIDDEN
 10
7.7306910508
 20
5.2509278023
 11
7.7355834713
 21
5.2406868209
  0
LINE
  5
78C
100
AcDbEntity
  8
0
100
AcDbLine
 62
7
  6
CONTINUOUS
 10
7.4805056902
 20
5.7754685103
 11
7.4853855275
 21
5.765221527
  0
LINE
  5
78D
100
AcDbEntity
  8
0
100
AcDbLine
 62
7
  6
CONTINUOUS
 10
7.442007536
 20
5.6632145525
 11
7.446418553
 21
5.6527757067
  0
LINE
  5
78E
100
AcDbEntity
  8
DEFAULT_2
100
AcDbLine
 62
8
  6
HIDDEN
 10
7.6117345569
 20
5.2584887726
 11
7.6149620603
 21
5.2507304737
  0
LINE
  5
78F
100
AcDbEntity
  8
0
100
AcDbLine
 62
7
  6
CONTINUOUS
 10
7.6149620603
 20
5.2507304737
 11
7.6160873423
 21
5.2480255115
  0
LINE
  5
790
100
AcDbEntity
  8
DEFAULT_2
100
AcDbLine
 62
8
  6
HIDDEN
 10
7.7249712604
 20
5.2271031605
 11
7.7293210045
 21
5.2166201645
  0
LINE
  5
791
100
AcDbEntity
  8
0
100
AcDbLine
 62
7
  6
CONTINUOUS
 10
7.5025811096
 20
5.7640186938
 11
7.5069179737
 21
5.7535303626
  0
LINE
  5
792
100
AcDbEntity
  8
DEFAULT_2
100
AcDbLine
 62
8
  6
HIDDEN
 10
7.7180124233
 20
5.2036105203
 11
7.7218075686
 21
5.1929142428
  0
LINE
  5
793
100
AcDbEntity
  8
0
100
AcDbLine
 62
7
  6
CONTINUOUS
 10
7.5240270384
 20
5.7514292306
 11
7.527809042
 21
5.7407282994
  0
LINE
  5
794
100
AcDbEntity
  8
0
100
AcDbLine
 62
7
  6
CONTINUOUS
 10
7.4633357537
 20
5.6507983488
 11
7.4670160725
 21
5.6400800548
  0
LINE
  5
795
100
AcDbEntity
  8
0
100
AcDbLine
 62
7
  6
CONTINUOUS
 10
7.6047358666
 20
5.2353272588
 11
7.6083564081
 21
5.2245886252
  0
LINE
  5
796
100
AcDbEntity
  8
DEFAULT_2
100
AcDbLine
 62
8
  6
HIDDEN
 10
7.7098336133
 20
5.1805142733
 11
7.712159428
 21
5.1726801261
  0
LINE
  5
797
100
AcDbEntity
  8
0
100
AcDbLine
 62
7
  6
CONTINUOUS
 10
7.712159428
 20
5.1726801261
 11
7.7130637575
 21
5.1696340321
  0
LINE
  5
798
100
AcDbEntity
  8
0
100
AcDbLine
 62
7
  6
CONTINUOUS
 10
7.5447846946
 20
5.7377346277
 11
7.5480014717
 21
5.726850427
  0
LINE
  5
799
100
AcDbEntity
  8
0
100
AcDbLine
 62
7
  6
CONTINUOUS
 10
7.7004572478
 20
5.1578777247
 11
7.7031135375
 21
5.1468433418
  0
LINE
  5
79A
100
AcDbEntity
  8
0
100
AcDbLine
 62
7
  6
CONTINUOUS
 10
7.5647971831
 20
5.722972421
 11
7.5674399167
 21
5.7119347836
  0
LINE
  5
79B
100
AcDbEntity
  8
0
100
AcDbLine
 62
7
  6
CONTINUOUS
 10
9.0154179737
 20
5.5094804737
 11
9.0154179737
 21
5.1869807191
  0
LINE
  5
79C
100
AcDbEntity
  8
0
100
AcDbLine
 62
7
  6
CONTINUOUS
 10
9.0754179737
 20
5.5094804737
 11
9.0754179737
 21
5.1869807191
  0
ARC
  5
79D
100
AcDbEntity
  8
0
100
AcDbCircle
 62
7
  6
CONTINUOUS
 10
1.5004179737
 20
5.1869804737
 40
0.03
100
AcDbArc
 50
180.0
 51
360.0
  0
ARC
  5
79E
100
AcDbEntity
  8
0
100
AcDbCircle
 62
7
  6
CONTINUOUS
 10
1.5004179737
 20
5.5094804737
 40
0.03
100
AcDbArc
 50
0.0
 51
180.0
  0
ARC
  5
79F
100
AcDbEntity
  8
0
100
AcDbCircle
 62
7
  6
CONTINUOUS
 10
2.9204179737
 20
5.1934236555
 40
0.0378068182
100
AcDbArc
 50
90.0
 51
172.6955544394
  0
ARC
  5
7A0
100
AcDbEntity
  8
0
100
AcDbCircle
 62
7
  6
CONTINUOUS
 10
2.8516679737
 20
5.1982304737
 40
0.03125
100
AcDbArc
 50
180.0
 51
360.0
  0
ARC
  5
7A1
100
AcDbEntity
  8
0
100
AcDbCircle
 62
7
  6
CONTINUOUS
 10
2.9204179737
 20
5.5030372918
 40
0.0378068182
100
AcDbArc
 50
187.3044455606
 51
270.0
  0
ARC
  5
7A2
100
AcDbEntity
  8
0
100
AcDbCircle
 62
7
  6
CONTINUOUS
 10
2.8516679737
 20
5.4982304737
 40
0.03125
100
AcDbArc
 50
0.0
 51
180.0
  0
ARC
  5
7A3
100
AcDbEntity
  8
DEFAULT_2
100
AcDbCircle
 62
8
  6
HIDDEN
 10
3.2729179737
 20
5.3482304737
 40
0.475
100
AcDbArc
 50
158.6296077243
 51
201.3703922757
  0
ARC
  5
7A4
100
AcDbEntity
  8
0
100
AcDbCircle
 62
7
  6
CONTINUOUS
 10
3.2729179737
 20
5.3482304737
 40
0.475
100
AcDbArc
 50
201.3703922757
 51
158.6296077243
  0
CIRCLE
  5
7A5
100
AcDbEntity
  8
DEFAULT_2
100
AcDbCircle
 62
8
  6
HIDDEN
 10
3.2729179737
 20
5.3482304737
 40
0.45
  0
ARC
  5
7A6
100
AcDbEntity
  8
DEFAULT_2
100
AcDbCircle
 62
8
  6
HIDDEN
 10
3.2729179737
 20
5.3482304737
 40
0.41625
100
AcDbArc
 50
159.3428808492
 51
200.6571191508
  0
ARC
  5
7A7
100
AcDbEntity
  8
0
100
AcDbCircle
 62
7
  6
CONTINUOUS
 10
3.2729179737
 20
5.3482304737
 40
0.41625
100
AcDbArc
 50
200.6571191508
 51
159.3428808492
  0
ARC
  5
7A8
100
AcDbEntity
  8
DEFAULT_2
100
AcDbCircle
 62
8
  6
HIDDEN
 10
3.2729179737
 20
5.3482304737
 40
0.382862128
100
AcDbArc
 50
161.9256811262
 51
198.0743188739
  0
ARC
  5
7A9
100
AcDbEntity
  8
0
100
AcDbCircle
 62
7
  6
CONTINUOUS
 10
3.2729179737
 20
5.3482304737
 40
0.382862128
100
AcDbArc
 50
198.0743188739
 51
161.9256811262
  0
ARC
  5
7AA
100
AcDbEntity
  8
DEFAULT_2
100
AcDbCircle
 62
8
  6
HIDDEN
 10
3.2729179737
 20
5.3482304737
 40
0.3685530399
100
AcDbArc
 50
163.0404865547
 51
196.9595133708
  0
ARC
  5
7AB
100
AcDbEntity
  8
0
100
AcDbCircle
 62
7
  6
CONTINUOUS
 10
3.2729179737
 20
5.3482304737
 40
0.3685530399
100
AcDbArc
 50
196.9595133708
 51
163.0404865547
  0
ARC
  5
7AC
100
AcDbEntity
  8
DEFAULT_2
100
AcDbCircle
 62
8
  6
HIDDEN
 10
3.2729179737
 20
5.3482304737
 40
0.3575
100
AcDbArc
 50
194.299706493
 51
195.3706231773
  0
ARC
  5
7AD
100
AcDbEntity
  8
DEFAULT_2
100
AcDbCircle
 62
8
  6
HIDDEN
 10
3.2729179737
 20
5.3482304737
 40
0.3575
100
AcDbArc
 50
190.343662537
 51
191.4145792212
  0
ARC
  5
7AE
100
AcDbEntity
  8
DEFAULT_2
100
AcDbCircle
 62
8
  6
HIDDEN
 10
3.2729179737
 20
5.3482304737
 40
0.3575
100
AcDbArc
 50
186.387618581
 51
187.4585352652
  0
ARC
  5
7AF
100
AcDbEntity
  8
DEFAULT_2
100
AcDbCircle
 62
8
  6
HIDDEN
 10
3.2729179737
 20
5.3482304737
 40
0.3575
100
AcDbArc
 50
182.4315746249
 51
183.5024913092
  0
ARC
  5
7B0
100
AcDbEntity
  8
DEFAULT_2
100
AcDbCircle
 62
8
  6
HIDDEN
 10
3.2729179737
 20
5.3482304737
 40
0.3575
100
AcDbArc
 50
178.4755306689
 51
179.5464473531
  0
ARC
  5
7B1
100
AcDbEntity
  8
DEFAULT_2
100
AcDbCircle
 62
8
  6
HIDDEN
 10
3.2729179737
 20
5.3482304737
 40
0.3575
100
AcDbArc
 50
174.5194867128
 51
175.5904033971
  0
ARC
  5
7B2
100
AcDbEntity
  8
DEFAULT_2
100
AcDbCircle
 62
8
  6
HIDDEN
 10
3.2729179737
 20
5.3482304737
 40
0.3575
100
AcDbArc
 50
170.5634427568
 51
171.634359441
  0
ARC
  5
7B3
100
AcDbEntity
  8
DEFAULT_2
100
AcDbCircle
 62
8
  6
HIDDEN
 10
3.2729179737
 20
5.3482304737
 40
0.3575
100
AcDbArc
 50
166.6073988007
 51
167.678315485
  0
ARC
  5
7B4
100
AcDbEntity
  8
0
100
AcDbCircle
 62
7
  6
CONTINUOUS
 10
3.2729179737
 20
5.3482304737
 40
0.3575
100
AcDbArc
 50
87.4865196799
 51
88.5574363641
  0
ARC
  5
7B5
100
AcDbEntity
  8
0
100
AcDbCircle
 62
7
  6
CONTINUOUS
 10
3.2729179737
 20
5.3482304737
 40
0.3575
100
AcDbArc
 50
83.5304757238
 51
84.6013924081
  0
ARC
  5
7B6
100
AcDbEntity
  8
0
100
AcDbCircle
 62
7
  6
CONTINUOUS
 10
3.2729179737
 20
5.3482304737
 40
0.3575
100
AcDbArc
 50
79.5744317678
 51
80.645348452
  0
ARC
  5
7B7
100
AcDbEntity
  8
0
100
AcDbCircle
 62
7
  6
CONTINUOUS
 10
3.2729179737
 20
5.3482304737
 40
0.3575
100
AcDbArc
 50
75.6183878117
 51
76.689304496
  0
ARC
  5
7B8
100
AcDbEntity
  8
0
100
AcDbCircle
 62
7
  6
CONTINUOUS
 10
3.2729179737
 20
5.3482304737
 40
0.3575
100
AcDbArc
 50
71.6623438557
 51
72.7332605399
  0
ARC
  5
7B9
100
AcDbEntity
  8
0
100
AcDbCircle
 62
7
  6
CONTINUOUS
 10
3.2729179737
 20
5.3482304737
 40
0.3575
100
AcDbArc
 50
67.7062998996
 51
68.7772165839
  0
ARC
  5
7BA
100
AcDbEntity
  8
0
100
AcDbCircle
 62
7
  6
CONTINUOUS
 10
3.2729179737
 20
5.3482304737
 40
0.3575
100
AcDbArc
 50
63.7502559436
 51
64.8211726278
  0
ARC
  5
7BB
100
AcDbEntity
  8
0
100
AcDbCircle
 62
7
  6
CONTINUOUS
 10
3.2729179737
 20
5.3482304737
 40
0.3575
100
AcDbArc
 50
59.7942119875
 51
60.8651286718
  0
ARC
  5
7BC
100
AcDbEntity
  8
0
100
AcDbCircle
 62
7
  6
CONTINUOUS
 10
3.2729179737
 20
5.3482304737
 40
0.3575
100
AcDbArc
 50
55.8381680315
 51
56.9090847157
  0
ARC
  5
7BD
100
AcDbEntity
  8
0
100
AcDbCircle
 62
7
  6
CONTINUOUS
 10
3.2729179737
 20
5.3482304737
 40
0.3575
100
AcDbArc
 50
51.8821240755
 51
52.9530407597
  0
ARC
  5
7BE
100
AcDbEntity
  8
0
100
AcDbCircle
 62
7
  6
CONTINUOUS
 10
3.2729179737
 20
5.3482304737
 40
0.3575
100
AcDbArc
 50
47.9260801194
 51
48.9969968037
  0
ARC
  5
7BF
100
AcDbEntity
  8
0
100
AcDbCircle
 62
7
  6
CONTINUOUS
 10
3.2729179737
 20
5.3482304737
 40
0.3575
100
AcDbArc
 50
43.9700361634
 51
45.0409528476
  0
ARC
  5
7C0
100
AcDbEntity
  8
0
100
AcDbCircle
 62
7
  6
CONTINUOUS
 10
3.2729179737
 20
5.3482304737
 40
0.3575
100
AcDbArc
 50
40.0139922073
 51
41.0849088916
  0
ARC
  5
7C1
100
AcDbEntity
  8
0
100
AcDbCircle
 62
7
  6
CONTINUOUS
 10
3.2729179737
 20
5.3482304737
 40
0.3575
100
AcDbArc
 50
36.0579482513
 51
37.1288649355
  0
ARC
  5
7C2
100
AcDbEntity
  8
0
100
AcDbCircle
 62
7
  6
CONTINUOUS
 10
3.2729179737
 20
5.3482304737
 40
0.3575
100
AcDbArc
 50
32.1019042952
 51
33.1728209795
  0
ARC
  5
7C3
100
AcDbEntity
  8
0
100
AcDbCircle
 62
7
  6
CONTINUOUS
 10
3.2729179737
 20
5.3482304737
 40
0.3575
100
AcDbArc
 50
28.1458603392
 51
29.2167770234
  0
ARC
  5
7C4
100
AcDbEntity
  8
0
100
AcDbCircle
 62
7
  6
CONTINUOUS
 10
3.2729179737
 20
5.3482304737
 40
0.3575
100
AcDbArc
 50
24.1898163832
 51
25.2607330674
  0
ARC
  5
7C5
100
AcDbEntity
  8
0
100
AcDbCircle
 62
7
  6
CONTINUOUS
 10
3.2729179737
 20
5.3482304737
 40
0.3575
100
AcDbArc
 50
20.2337724271
 51
21.3046891114
  0
ARC
  5
7C6
100
AcDbEntity
  8
0
100
AcDbCircle
 62
7
  6
CONTINUOUS
 10
3.2729179737
 20
5.3482304737
 40
0.3575
100
AcDbArc
 50
16.2777284711
 51
17.3486451553
  0
ARC
  5
7C7
100
AcDbEntity
  8
0
100
AcDbCircle
 62
7
  6
CONTINUOUS
 10
3.2729179737
 20
5.3482304737
 40
0.3575
100
AcDbArc
 50
12.321684515
 51
13.3926011993
  0
ARC
  5
7C8
100
AcDbEntity
  8
0
100
AcDbCircle
 62
7
  6
CONTINUOUS
 10
3.2729179737
 20
5.3482304737
 40
0.3575
100
AcDbArc
 50
8.365640559
 51
9.4365572432
  0
ARC
  5
7C9
100
AcDbEntity
  8
0
100
AcDbCircle
 62
7
  6
CONTINUOUS
 10
3.2729179737
 20
5.3482304737
 40
0.3575
100
AcDbArc
 50
4.4095966029
 51
5.4805132872
  0
ARC
  5
7CA
100
AcDbEntity
  8
0
100
AcDbCircle
 62
7
  6
CONTINUOUS
 10
3.2729179737
 20
5.3482304737
 40
0.3575
100
AcDbArc
 50
0.4535526469
 51
1.5244693311
  0
ARC
  5
7CB
100
AcDbEntity
  8
0
100
AcDbCircle
 62
7
  6
CONTINUOUS
 10
3.2729179737
 20
5.3482304737
 40
0.3575
100
AcDbArc
 50
356.4975086908
 51
357.5684253751
  0
ARC
  5
7CC
100
AcDbEntity
  8
0
100
AcDbCircle
 62
7
  6
CONTINUOUS
 10
3.2729179737
 20
5.3482304737
 40
0.3575
100
AcDbArc
 50
352.5414647348
 51
353.612381419
  0
ARC
  5
7CD
100
AcDbEntity
  8
0
100
AcDbCircle
 62
7
  6
CONTINUOUS
 10
3.2729179737
 20
5.3482304737
 40
0.3575
100
AcDbArc
 50
348.5854207788
 51
349.656337463
  0
ARC
  5
7CE
100
AcDbEntity
  8
0
100
AcDbCircle
 62
7
  6
CONTINUOUS
 10
3.2729179737
 20
5.3482304737
 40
0.3575
100
AcDbArc
 50
344.6293768227
 51
345.700293507
  0
ARC
  5
7CF
100
AcDbEntity
  8
0
100
AcDbCircle
 62
7
  6
CONTINUOUS
 10
3.2729179737
 20
5.3482304737
 40
0.3575
100
AcDbArc
 50
340.6733328667
 51
341.7442495509
  0
ARC
  5
7D0
100
AcDbEntity
  8
0
100
AcDbCircle
 62
7
  6
CONTINUOUS
 10
3.2729179737
 20
5.3482304737
 40
0.3575
100
AcDbArc
 50
336.7172889106
 51
337.7882055949
  0
ARC
  5
7D1
100
AcDbEntity
  8
0
100
AcDbCircle
 62
7
  6
CONTINUOUS
 10
3.2729179737
 20
5.3482304737
 40
0.3575
100
AcDbArc
 50
332.7612449546
 51
333.8321616388
  0
ARC
  5
7D2
100
AcDbEntity
  8
0
100
AcDbCircle
 62
7
  6
CONTINUOUS
 10
3.2729179737
 20
5.3482304737
 40
0.3575
100
AcDbArc
 50
328.8052009985
 51
329.8761176828
  0
ARC
  5
7D3
100
AcDbEntity
  8
0
100
AcDbCircle
 62
7
  6
CONTINUOUS
 10
3.2729179737
 20
5.3482304737
 40
0.3575
100
AcDbArc
 50
324.8491570425
 51
325.9200737267
  0
ARC
  5
7D4
100
AcDbEntity
  8
0
100
AcDbCircle
 62
7
  6
CONTINUOUS
 10
3.2729179737
 20
5.3482304737
 40
0.3575
100
AcDbArc
 50
320.8931130864
 51
321.9640297707
  0
ARC
  5
7D5
100
AcDbEntity
  8
0
100
AcDbCircle
 62
7
  6
CONTINUOUS
 10
3.2729179737
 20
5.3482304737
 40
0.3575
100
AcDbArc
 50
316.9370691304
 51
318.0079858147
  0
ARC
  5
7D6
100
AcDbEntity
  8
0
100
AcDbCircle
 62
7
  6
CONTINUOUS
 10
3.2729179737
 20
5.3482304737
 40
0.3575
100
AcDbArc
 50
312.9810251744
 51
314.0519418586
  0
ARC
  5
7D7
100
AcDbEntity
  8
0
100
AcDbCircle
 62
7
  6
CONTINUOUS
 10
3.2729179737
 20
5.3482304737
 40
0.3575
100
AcDbArc
 50
309.0249812183
 51
310.0958979026
  0
ARC
  5
7D8
100
AcDbEntity
  8
0
100
AcDbCircle
 62
7
  6
CONTINUOUS
 10
3.2729179737
 20
5.3482304737
 40
0.3575
100
AcDbArc
 50
305.0689372623
 51
306.1398539465
  0
ARC
  5
7D9
100
AcDbEntity
  8
0
100
AcDbCircle
 62
7
  6
CONTINUOUS
 10
3.2729179737
 20
5.3482304737
 40
0.3575
100
AcDbArc
 50
301.1128933062
 51
302.1838099905
  0
ARC
  5
7DA
100
AcDbEntity
  8
0
100
AcDbCircle
 62
7
  6
CONTINUOUS
 10
3.2729179737
 20
5.3482304737
 40
0.3575
100
AcDbArc
 50
297.1568493502
 51
298.2277660344
  0
ARC
  5
7DB
100
AcDbEntity
  8
0
100
AcDbCircle
 62
7
  6
CONTINUOUS
 10
3.2729179737
 20
5.3482304737
 40
0.3575
100
AcDbArc
 50
293.2008053941
 51
294.2717220784
  0
ARC
  5
7DC
100
AcDbEntity
  8
0
100
AcDbCircle
 62
7
  6
CONTINUOUS
 10
3.2729179737
 20
5.3482304737
 40
0.3575
100
AcDbArc
 50
289.2447614381
 51
290.3156781223
  0
ARC
  5
7DD
100
AcDbEntity
  8
0
100
AcDbCircle
 62
7
  6
CONTINUOUS
 10
3.2729179737
 20
5.3482304737
 40
0.3575
100
AcDbArc
 50
285.2887174821
 51
286.3596341663
  0
ARC
  5
7DE
100
AcDbEntity
  8
0
100
AcDbCircle
 62
7
  6
CONTINUOUS
 10
3.2729179737
 20
5.3482304737
 40
0.3575
100
AcDbArc
 50
281.332673526
 51
282.4035902103
  0
ARC
  5
7DF
100
AcDbEntity
  8
0
100
AcDbCircle
 62
7
  6
CONTINUOUS
 10
3.2729179737
 20
5.3482304737
 40
0.3575
100
AcDbArc
 50
277.37662957
 51
278.4475462542
  0
ARC
  5
7E0
100
AcDbEntity
  8
0
100
AcDbCircle
 62
7
  6
CONTINUOUS
 10
3.2729179737
 20
5.3482304737
 40
0.3575
100
AcDbArc
 50
273.4205856139
 51
274.4915022982
  0
ARC
  5
7E1
100
AcDbEntity
  8
0
100
AcDbCircle
 62
7
  6
CONTINUOUS
 10
3.2729179737
 20
5.3482304737
 40
0.3575
100
AcDbArc
 50
269.4645416579
 51
270.5354583421
  0
ARC
  5
7E2
100
AcDbEntity
  8
0
100
AcDbCircle
 62
7
  6
CONTINUOUS
 10
3.2729179737
 20
5.3482304737
 40
0.3575
100
AcDbArc
 50
265.5084977018
 51
266.5794143861
  0
ARC
  5
7E3
100
AcDbEntity
  8
0
100
AcDbCircle
 62
7
  6
CONTINUOUS
 10
3.2729179737
 20
5.3482304737
 40
0.3575
100
AcDbArc
 50
261.5524537458
 51
262.62337043
  0
ARC
  5
7E4
100
AcDbEntity
  8
0
100
AcDbCircle
 62
7
  6
CONTINUOUS
 10
3.2729179737
 20
5.3482304737
 40
0.3575
100
AcDbArc
 50
257.5964097897
 51
258.667326474
  0
ARC
  5
7E5
100
AcDbEntity
  8
0
100
AcDbCircle
 62
7
  6
CONTINUOUS
 10
3.2729179737
 20
5.3482304737
 40
0.3575
100
AcDbArc
 50
253.6403658337
 51
254.7112825179
  0
ARC
  5
7E6
100
AcDbEntity
  8
0
100
AcDbCircle
 62
7
  6
CONTINUOUS
 10
3.2729179737
 20
5.3482304737
 40
0.3575
100
AcDbArc
 50
249.6843218777
 51
250.7552385619
  0
ARC
  5
7E7
100
AcDbEntity
  8
0
100
AcDbCircle
 62
7
  6
CONTINUOUS
 10
3.2729179737
 20
5.3482304737
 40
0.3575
100
AcDbArc
 50
245.7282779216
 51
246.7991946059
  0
ARC
  5
7E8
100
AcDbEntity
  8
0
100
AcDbCircle
 62
7
  6
CONTINUOUS
 10
3.2729179737
 20
5.3482304737
 40
0.3575
100
AcDbArc
 50
241.7722339656
 51
242.8431506498
  0
ARC
  5
7E9
100
AcDbEntity
  8
0
100
AcDbCircle
 62
7
  6
CONTINUOUS
 10
3.2729179737
 20
5.3482304737
 40
0.3575
100
AcDbArc
 50
237.8161900095
 51
238.8871066938
  0
ARC
  5
7EA
100
AcDbEntity
  8
0
100
AcDbCircle
 62
7
  6
CONTINUOUS
 10
3.2729179737
 20
5.3482304737
 40
0.3575
100
AcDbArc
 50
233.8601460535
 51
234.9310627377
  0
ARC
  5
7EB
100
AcDbEntity
  8
0
100
AcDbCircle
 62
7
  6
CONTINUOUS
 10
3.2729179737
 20
5.3482304737
 40
0.3575
100
AcDbArc
 50
229.9041020974
 51
230.9750187817
  0
ARC
  5
7EC
100
AcDbEntity
  8
0
100
AcDbCircle
 62
7
  6
CONTINUOUS
 10
3.2729179737
 20
5.3482304737
 40
0.3575
100
AcDbArc
 50
225.9480581414
 51
227.0189748256
  0
ARC
  5
7ED
100
AcDbEntity
  8
0
100
AcDbCircle
 62
7
  6
CONTINUOUS
 10
3.2729179737
 20
5.3482304737
 40
0.3575
100
AcDbArc
 50
221.9920141853
 51
223.0629308696
  0
ARC
  5
7EE
100
AcDbEntity
  8
0
100
AcDbCircle
 62
7
  6
CONTINUOUS
 10
3.2729179737
 20
5.3482304737
 40
0.3575
100
AcDbArc
 50
218.0359702293
 51
219.1068869136
  0
ARC
  5
7EF
100
AcDbEntity
  8
0
100
AcDbCircle
 62
7
  6
CONTINUOUS
 10
3.2729179737
 20
5.3482304737
 40
0.3575
100
AcDbArc
 50
214.0799262733
 51
215.1508429575
  0
ARC
  5
7F0
100
AcDbEntity
  8
0
100
AcDbCircle
 62
7
  6
CONTINUOUS
 10
3.2729179737
 20
5.3482304737
 40
0.3575
100
AcDbArc
 50
210.1238823172
 51
211.1947990015
  0
ARC
  5
7F1
100
AcDbEntity
  8
0
100
AcDbCircle
 62
7
  6
CONTINUOUS
 10
3.2729179737
 20
5.3482304737
 40
0.3575
100
AcDbArc
 50
206.1678383612
 51
207.2387550454
  0
ARC
  5
7F2
100
AcDbEntity
  8
0
100
AcDbCircle
 62
7
  6
CONTINUOUS
 10
3.2729179737
 20
5.3482304737
 40
0.3575
100
AcDbArc
 50
202.2117944051
 51
203.2827110894
  0
ARC
  5
7F3
100
AcDbEntity
  8
0
100
AcDbCircle
 62
7
  6
CONTINUOUS
 10
3.2729179737
 20
5.3482304737
 40
0.3575
100
AcDbArc
 50
198.2557504491
 51
199.3266671333
  0
ARC
  5
7F4
100
AcDbEntity
  8
0
100
AcDbCircle
 62
7
  6
CONTINUOUS
 10
3.2729179737
 20
5.3482304737
 40
0.3575
100
AcDbArc
 50
162.6513548447
 51
163.7222715289
  0
ARC
  5
7F5
100
AcDbEntity
  8
0
100
AcDbCircle
 62
7
  6
CONTINUOUS
 10
3.2729179737
 20
5.3482304737
 40
0.3575
100
AcDbArc
 50
158.6953108886
 51
159.7662275729
  0
ARC
  5
7F6
100
AcDbEntity
  8
0
100
AcDbCircle
 62
7
  6
CONTINUOUS
 10
3.2729179737
 20
5.3482304737
 40
0.3575
100
AcDbArc
 50
154.7392669326
 51
155.8101836168
  0
ARC
  5
7F7
100
AcDbEntity
  8
0
100
AcDbCircle
 62
7
  6
CONTINUOUS
 10
3.2729179737
 20
5.3482304737
 40
0.3575
100
AcDbArc
 50
150.7832229766
 51
151.8541396608
  0
ARC
  5
7F8
100
AcDbEntity
  8
0
100
AcDbCircle
 62
7
  6
CONTINUOUS
 10
3.2729179737
 20
5.3482304737
 40
0.3575
100
AcDbArc
 50
146.8271790205
 51
147.8980957048
  0
ARC
  5
7F9
100
AcDbEntity
  8
0
100
AcDbCircle
 62
7
  6
CONTINUOUS
 10
3.2729179737
 20
5.3482304737
 40
0.3575
100
AcDbArc
 50
142.8711350645
 51
143.9420517487
  0
ARC
  5
7FA
100
AcDbEntity
  8
0
100
AcDbCircle
 62
7
  6
CONTINUOUS
 10
3.2729179737
 20
5.3482304737
 40
0.3575
100
AcDbArc
 50
138.9150911084
 51
139.9860077927
  0
ARC
  5
7FB
100
AcDbEntity
  8
0
100
AcDbCircle
 62
7
  6
CONTINUOUS
 10
3.2729179737
 20
5.3482304737
 40
0.3575
100
AcDbArc
 50
134.9590471524
 51
136.0299638366
  0
ARC
  5
7FC
100
AcDbEntity
  8
0
100
AcDbCircle
 62
7
  6
CONTINUOUS
 10
3.2729179737
 20
5.3482304737
 40
0.3575
100
AcDbArc
 50
131.0030031963
 51
132.0739198806
  0
ARC
  5
7FD
100
AcDbEntity
  8
0
100
AcDbCircle
 62
7
  6
CONTINUOUS
 10
3.2729179737
 20
5.3482304737
 40
0.3575
100
AcDbArc
 50
127.0469592403
 51
128.1178759245
  0
ARC
  5
7FE
100
AcDbEntity
  8
0
100
AcDbCircle
 62
7
  6
CONTINUOUS
 10
3.2729179737
 20
5.3482304737
 40
0.3575
100
AcDbArc
 50
123.0909152843
 51
124.1618319685
  0
ARC
  5
7FF
100
AcDbEntity
  8
0
100
AcDbCircle
 62
7
  6
CONTINUOUS
 10
3.2729179737
 20
5.3482304737
 40
0.3575
100
AcDbArc
 50
119.1348713282
 51
120.2057880125
  0
ARC
  5
800
100
AcDbEntity
  8
0
100
AcDbCircle
 62
7
  6
CONTINUOUS
 10
3.2729179737
 20
5.3482304737
 40
0.3575
100
AcDbArc
 50
115.1788273722
 51
116.2497440564
  0
ARC
  5
801
100
AcDbEntity
  8
0
100
AcDbCircle
 62
7
  6
CONTINUOUS
 10
3.2729179737
 20
5.3482304737
 40
0.3575
100
AcDbArc
 50
111.2227834161
 51
112.2937001004
  0
ARC
  5
802
100
AcDbEntity
  8
0
100
AcDbCircle
 62
7
  6
CONTINUOUS
 10
3.2729179737
 20
5.3482304737
 40
0.3575
100
AcDbArc
 50
107.2667394601
 51
108.3376561443
  0
ARC
  5
803
100
AcDbEntity
  8
0
100
AcDbCircle
 62
7
  6
CONTINUOUS
 10
3.2729179737
 20
5.3482304737
 40
0.3575
100
AcDbArc
 50
103.310695504
 51
104.3816121883
  0
ARC
  5
804
100
AcDbEntity
  8
0
100
AcDbCircle
 62
7
  6
CONTINUOUS
 10
3.2729179737
 20
5.3482304737
 40
0.3575
100
AcDbArc
 50
99.354651548
 51
100.4255682322
  0
ARC
  5
805
100
AcDbEntity
  8
0
100
AcDbCircle
 62
7
  6
CONTINUOUS
 10
3.2729179737
 20
5.3482304737
 40
0.3575
100
AcDbArc
 50
95.3986075919
 51
96.4695242762
  0
ARC
  5
806
100
AcDbEntity
  8
0
100
AcDbCircle
 62
7
  6
CONTINUOUS
 10
3.2729179737
 20
5.3482304737
 40
0.3575
100
AcDbArc
 50
91.4425636359
 51
92.5134803201
  0
ARC
  5
807
100
AcDbEntity
  8
DEFAULT_2
100
AcDbCircle
 62
8
  6
HIDDEN
 10
3.2729179737
 20
5.3482304737
 40
0.3457531755
100
AcDbArc
 50
163.6200824382
 51
196.3799175618
  0
ARC
  5
808
100
AcDbEntity
  8
0
100
AcDbCircle
 62
7
  6
CONTINUOUS
 10
3.2729179737
 20
5.3482304737
 40
0.3457531755
100
AcDbArc
 50
196.3799175618
 51
163.6200824382
  0
CIRCLE
  5
809
100
AcDbEntity
  8
DEFAULT_2
100
AcDbCircle
 62
8
  6
HIDDEN
 10
3.2729179737
 20
5.3482304737
 40
0.3125
  0
CIRCLE
  5
80A
100
AcDbEntity
  8
DEFAULT_2
100
AcDbCircle
 62
8
  6
HIDDEN
 10
3.2729179737
 20
5.3482304737
 40
0.3
  0
ARC
  5
80B
100
AcDbEntity
  8
DEFAULT_2
100
AcDbCircle
 62
8
  6
HIDDEN
 10
3.2729179737
 20
5.3482304737
 40
0.2416529628
100
AcDbArc
 50
156.2016469575
 51
203.7983530425
  0
ARC
  5
80C
100
AcDbEntity
  8
0
100
AcDbCircle
 62
7
  6
CONTINUOUS
 10
3.2729179737
 20
5.3482304737
 40
0.2416529628
100
AcDbArc
 50
203.7983530425
 51
156.2016469575
  0
ARC
  5
80D
100
AcDbEntity
  8
DEFAULT_2
100
AcDbCircle
 62
8
  6
HIDDEN
 10
3.2729179737
 20
5.3482304737
 40
0.2291609373
100
AcDbArc
 50
154.8169712119
 51
205.1830287877
  0
ARC
  5
80E
100
AcDbEntity
  8
0
100
AcDbCircle
 62
7
  6
CONTINUOUS
 10
3.2729179737
 20
5.3482304737
 40
0.2291609373
100
AcDbArc
 50
205.1830287877
 51
154.8169712119
  0
ARC
  5
80F
100
AcDbEntity
  8
DEFAULT_2
100
AcDbCircle
 62
8
  6
HIDDEN
 10
3.2729179737
 20
5.3482304737
 40
0.215
100
AcDbArc
 50
153.0302471059
 51
206.9697528432
  0
ARC
  5
810
100
AcDbEntity
  8
0
100
AcDbCircle
 62
7
  6
CONTINUOUS
 10
3.2729179737
 20
5.3482304737
 40
0.215
100
AcDbArc
 50
206.9697528432
 51
153.0302471059
  0
ARC
  5
811
100
AcDbEntity
  8
DEFAULT_2
100
AcDbCircle
 62
8
  6
HIDDEN
 10
3.2729179737
 20
5.3482304737
 40
0.2
100
AcDbArc
 50
150.819399516
 51
209.180600484
  0
ARC
  5
812
100
AcDbEntity
  8
0
100
AcDbCircle
 62
7
  6
CONTINUOUS
 10
3.2729179737
 20
5.3482304737
 40
0.2
100
AcDbArc
 50
209.180600484
 51
150.819399516
  0
ARC
  5
813
100
AcDbEntity
  8
DEFAULT_2
100
AcDbCircle
 62
8
  6
HIDDEN
 10
3.2729179737
 20
5.3482304737
 40
0.185
100
AcDbArc
 50
148.1947599718
 51
211.805240034
  0
ARC
  5
814
100
AcDbEntity
  8
0
100
AcDbCircle
 62
7
  6
CONTINUOUS
 10
3.2729179737
 20
5.3482304737
 40
0.185
100
AcDbArc
 50
211.805240034
 51
148.1947599718
  0
ARC
  5
815
100
AcDbEntity
  8
DEFAULT_2
100
AcDbCircle
 62
8
  6
HIDDEN
 10
3.2729179737
 20
5.3482304737
 40
0.18375
100
AcDbArc
 50
147.9504610852
 51
212.0495389148
  0
ARC
  5
816
100
AcDbEntity
  8
0
100
AcDbCircle
 62
7
  6
CONTINUOUS
 10
3.2729179737
 20
5.3482304737
 40
0.18375
100
AcDbArc
 50
212.0495389148
 51
147.9504610852
  0
CIRCLE
  5
817
100
AcDbEntity
  8
DEFAULT_2
100
AcDbCircle
 62
8
  6
HIDDEN
 10
3.2729179737
 20
5.3482304737
 40
0.1575
  0
ARC
  5
818
100
AcDbEntity
  8
DEFAULT_2
100
AcDbCircle
 62
8
  6
HIDDEN
 10
3.2729179737
 20
5.3482304737
 40
0.15375
100
AcDbArc
 50
140.6370983531
 51
219.362901647
  0
ARC
  5
819
100
AcDbEntity
  8
0
100
AcDbCircle
 62
7
  6
CONTINUOUS
 10
3.2729179737
 20
5.3482304737
 40
0.15375
100
AcDbArc
 50
219.362901647
 51
140.6370983531
  0
CIRCLE
  5
81A
100
AcDbEntity
  8
DEFAULT_2
100
AcDbCircle
 62
8
  6
HIDDEN
 10
3.2729179737
 20
5.3482304737
 40
0.14875
  0
ARC
  5
81B
100
AcDbEntity
  8
DEFAULT_2
100
AcDbCircle
 62
8
  6
HIDDEN
 10
3.2729179737
 20
5.3482304737
 40
0.1075
100
AcDbArc
 50
114.8891195077
 51
245.1108805019
  0
ARC
  5
81C
100
AcDbEntity
  8
0
100
AcDbCircle
 62
7
  6
CONTINUOUS
 10
3.2729179737
 20
5.3482304737
 40
0.1075
100
AcDbArc
 50
245.1108805019
 51
114.8891195077
  0
ARC
  5
81D
100
AcDbEntity
  8
DEFAULT_2
100
AcDbCircle
 62
8
  6
HIDDEN
 10
3.2729179737
 20
5.3482304737
 40
0.0975
100
AcDbArc
 50
90.0
 51
270.0
  0
ARC
  5
81E
100
AcDbEntity
  8
0
100
AcDbCircle
 62
7
  6
CONTINUOUS
 10
3.2729179737
 20
5.3482304737
 40
0.0975
100
AcDbArc
 50
270.0
 51
90.0
  0
ARC
  5
81F
100
AcDbEntity
  8
DEFAULT_2
100
AcDbCircle
 62
8
  6
HIDDEN
 10
5.2729179737
 20
2.3447304737
 40
0.234625
100
AcDbArc
 50
0.0
 51
180.0
  0
ARC
  5
820
100
AcDbEntity
  8
0
100
AcDbCircle
 62
7
  6
CONTINUOUS
 10
5.2729179737
 20
2.3447304737
 40
0.234625
100
AcDbArc
 50
180.0
 51
360.0
  0
CIRCLE
  5
821
100
AcDbEntity
  8
DEFAULT_2
100
AcDbCircle
 62
8
  6
HIDDEN
 10
5.2729179737
 20
2.3447304737
 40
0.22875
  0
ARC
  5
822
100
AcDbEntity
  8
DEFAULT_2
100
AcDbCircle
 62
8
  6
HIDDEN
 10
5.2729179737
 20
5.3482304737
 40
0.5875
100
AcDbArc
 50
0.9222430865
 51
0.9318943328
  0
ARC
  5
823
100
AcDbEntity
  8
DEFAULT_2
100
AcDbCircle
 62
8
  6
HIDDEN
 10
5.2729179737
 20
5.3482304737
 40
0.5875
100
AcDbArc
 50
2.6683453847
 51
2.6777569135
  0
ARC
  5
824
100
AcDbEntity
  8
DEFAULT_2
100
AcDbCircle
 62
8
  6
HIDDEN
 10
5.2729179737
 20
5.3482304737
 40
0.5875
100
AcDbArc
 50
8.1222430865
 51
8.1308870472
  0
ARC
  5
825
100
AcDbEntity
  8
DEFAULT_2
100
AcDbCircle
 62
8
  6
HIDDEN
 10
5.2729179737
 20
5.3482304737
 40
0.5875
100
AcDbArc
 50
10.5222430865
 51
10.5313492204
  0
ARC
  5
826
100
AcDbEntity
  8
DEFAULT_2
100
AcDbCircle
 62
8
  6
HIDDEN
 10
5.2729179737
 20
5.3482304737
 40
0.5875
100
AcDbArc
 50
12.2681691497
 51
12.2777569135
  0
ARC
  5
827
100
AcDbEntity
  8
DEFAULT_2
100
AcDbCircle
 62
8
  6
HIDDEN
 10
5.2729179737
 20
5.3482304737
 40
0.5875
100
AcDbArc
 50
17.7222430865
 51
17.7318306137
  0
ARC
  5
828
100
AcDbEntity
  8
DEFAULT_2
100
AcDbCircle
 62
8
  6
HIDDEN
 10
5.2729179737
 20
5.3482304737
 40
0.5875
100
AcDbArc
 50
19.468648295
 51
19.4777569135
  0
ARC
  5
829
100
AcDbEntity
  8
DEFAULT_2
100
AcDbCircle
 62
8
  6
HIDDEN
 10
5.2729179737
 20
5.3482304737
 40
0.5875
100
AcDbArc
 50
21.8691141015
 51
21.8777569135
  0
ARC
  5
82A
100
AcDbEntity
  8
DEFAULT_2
100
AcDbCircle
 62
8
  6
HIDDEN
 10
5.2729179737
 20
5.3482304737
 40
0.5875
100
AcDbArc
 50
27.3222430865
 51
27.3316536634
  0
ARC
  5
82B
100
AcDbEntity
  8
DEFAULT_2
100
AcDbCircle
 62
8
  6
HIDDEN
 10
5.2729179737
 20
5.3482304737
 40
0.5875
100
AcDbArc
 50
29.0681043678
 51
29.0777569135
  0
ARC
  5
82C
100
AcDbEntity
  8
DEFAULT_2
100
AcDbCircle
 62
8
  6
HIDDEN
 10
5.2729179737
 20
5.3482304737
 40
0.5875
100
AcDbArc
 50
34.5222430865
 51
34.5316420914
  0
ARC
  5
82D
100
AcDbEntity
  8
DEFAULT_2
100
AcDbCircle
 62
8
  6
HIDDEN
 10
5.2729179737
 20
5.3482304737
 40
0.5875
100
AcDbArc
 50
36.2690734792
 51
36.2777569135
  0
ARC
  5
82E
100
AcDbEntity
  8
DEFAULT_2
100
AcDbCircle
 62
8
  6
HIDDEN
 10
5.2729179737
 20
5.3482304737
 40
0.5875
100
AcDbArc
 50
38.6686726944
 51
38.6777569135
  0
ARC
  5
82F
100
AcDbEntity
  8
DEFAULT_2
100
AcDbCircle
 62
8
  6
HIDDEN
 10
5.2729179737
 20
5.3482304737
 40
0.5875
100
AcDbArc
 50
44.1222430865
 51
44.131836347
  0
ARC
  5
830
100
AcDbEntity
  8
DEFAULT_2
100
AcDbCircle
 62
8
  6
HIDDEN
 10
5.2729179737
 20
5.3482304737
 40
0.5875
100
AcDbArc
 50
45.868163653
 51
45.8777569135
  0
ARC
  5
831
100
AcDbEntity
  8
DEFAULT_2
100
AcDbCircle
 62
8
  6
HIDDEN
 10
5.2729179737
 20
5.3482304737
 40
0.5875
100
AcDbArc
 50
51.3222430865
 51
51.3313273056
  0
ARC
  5
832
100
AcDbEntity
  8
DEFAULT_2
100
AcDbCircle
 62
8
  6
HIDDEN
 10
5.2729179737
 20
5.3482304737
 40
0.5875
100
AcDbArc
 50
53.7222430865
 51
53.7309265208
  0
ARC
  5
833
100
AcDbEntity
  8
DEFAULT_2
100
AcDbCircle
 62
8
  6
HIDDEN
 10
5.2729179737
 20
5.3482304737
 40
0.5875
100
AcDbArc
 50
55.4683579086
 51
55.4777569135
  0
ARC
  5
834
100
AcDbEntity
  8
DEFAULT_2
100
AcDbCircle
 62
8
  6
HIDDEN
 10
5.2729179737
 20
5.3482304737
 40
0.5875
100
AcDbArc
 50
60.9222430865
 51
60.9318956322
  0
ARC
  5
835
100
AcDbEntity
  8
DEFAULT_2
100
AcDbCircle
 62
8
  6
HIDDEN
 10
5.2729179737
 20
5.3482304737
 40
0.5875
100
AcDbArc
 50
62.6683463366
 51
62.6777569135
  0
ARC
  5
836
100
AcDbEntity
  8
DEFAULT_2
100
AcDbCircle
 62
8
  6
HIDDEN
 10
5.2729179737
 20
5.3482304737
 40
0.5875
100
AcDbArc
 50
68.1222430865
 51
68.1308858985
  0
ARC
  5
837
100
AcDbEntity
  8
DEFAULT_2
100
AcDbCircle
 62
8
  6
HIDDEN
 10
5.2729179737
 20
5.3482304737
 40
0.5875
100
AcDbArc
 50
70.5222430865
 51
70.531351705
  0
ARC
  5
838
100
AcDbEntity
  8
DEFAULT_2
100
AcDbCircle
 62
8
  6
HIDDEN
 10
5.2729179737
 20
5.3482304737
 40
0.5875
100
AcDbArc
 50
72.2681693863
 51
72.2777569135
  0
ARC
  5
839
100
AcDbEntity
  8
DEFAULT_2
100
AcDbCircle
 62
8
  6
HIDDEN
 10
5.2729179737
 20
5.3482304737
 40
0.5875
100
AcDbArc
 50
77.7222430865
 51
77.7318308503
  0
ARC
  5
83A
100
AcDbEntity
  8
DEFAULT_2
100
AcDbCircle
 62
8
  6
HIDDEN
 10
5.2729179737
 20
5.3482304737
 40
0.5875
100
AcDbArc
 50
79.4686507796
 51
79.4777569135
  0
ARC
  5
83B
100
AcDbEntity
  8
DEFAULT_2
100
AcDbCircle
 62
8
  6
HIDDEN
 10
5.2729179737
 20
5.3482304737
 40
0.5875
100
AcDbArc
 50
81.8691129528
 51
81.8777569135
  0
ARC
  5
83C
100
AcDbEntity
  8
DEFAULT_2
100
AcDbCircle
 62
8
  6
HIDDEN
 10
5.2729179737
 20
5.3482304737
 40
0.5875
100
AcDbArc
 50
87.3222430865
 51
87.3316543184
  0
ARC
  5
83D
100
AcDbEntity
  8
DEFAULT_2
100
AcDbCircle
 62
8
  6
HIDDEN
 10
5.2729179737
 20
5.3482304737
 40
0.5875
100
AcDbArc
 50
89.0681048328
 51
89.0777569135
  0
ARC
  5
83E
100
AcDbEntity
  8
DEFAULT_2
100
AcDbCircle
 62
8
  6
HIDDEN
 10
5.2729179737
 20
5.3482304737
 40
0.5875
100
AcDbArc
 50
94.5222430865
 51
94.5316409705
  0
ARC
  5
83F
100
AcDbEntity
  8
DEFAULT_2
100
AcDbCircle
 62
8
  6
HIDDEN
 10
5.2729179737
 20
5.3482304737
 40
0.5875
100
AcDbArc
 50
96.2690733336
 51
96.2777569135
  0
ARC
  5
840
100
AcDbEntity
  8
DEFAULT_2
100
AcDbCircle
 62
8
  6
HIDDEN
 10
5.2729179737
 20
5.3482304737
 40
0.5875
100
AcDbArc
 50
98.6686729647
 51
98.6777569135
  0
ARC
  5
841
100
AcDbEntity
  8
DEFAULT_2
100
AcDbCircle
 62
8
  6
HIDDEN
 10
5.2729179737
 20
5.3482304737
 40
0.5875
100
AcDbArc
 50
104.1222430865
 51
104.1318353478
  0
ARC
  5
842
100
AcDbEntity
  8
DEFAULT_2
100
AcDbCircle
 62
8
  6
HIDDEN
 10
5.2729179737
 20
5.3482304737
 40
0.5875
100
AcDbArc
 50
105.8681633004
 51
105.8777569135
  0
ARC
  5
843
100
AcDbEntity
  8
DEFAULT_2
100
AcDbCircle
 62
8
  6
HIDDEN
 10
5.2729179737
 20
5.3482304737
 40
0.5875
100
AcDbArc
 50
111.3222430865
 51
111.3313280994
  0
ARC
  5
844
100
AcDbEntity
  8
DEFAULT_2
100
AcDbCircle
 62
8
  6
HIDDEN
 10
5.2729179737
 20
5.3482304737
 40
0.5875
100
AcDbArc
 50
113.7222430865
 51
113.7309243147
  0
ARC
  5
845
100
AcDbEntity
  8
DEFAULT_2
100
AcDbCircle
 62
8
  6
HIDDEN
 10
5.2729179737
 20
5.3482304737
 40
0.5875
100
AcDbArc
 50
115.4683584442
 51
115.4777569135
  0
ARC
  5
846
100
AcDbEntity
  8
DEFAULT_2
100
AcDbCircle
 62
8
  6
HIDDEN
 10
5.2729179737
 20
5.3482304737
 40
0.5875
100
AcDbArc
 50
120.9222430865
 51
120.9318952009
  0
ARC
  5
847
100
AcDbEntity
  8
DEFAULT_2
100
AcDbCircle
 62
8
  6
HIDDEN
 10
5.2729179737
 20
5.3482304737
 40
0.5875
100
AcDbArc
 50
122.6683450966
 51
122.6777569135
  0
ARC
  5
848
100
AcDbEntity
  8
DEFAULT_2
100
AcDbCircle
 62
8
  6
HIDDEN
 10
5.2729179737
 20
5.3482304737
 40
0.5875
100
AcDbArc
 50
128.1222430865
 51
128.1308874272
  0
ARC
  5
849
100
AcDbEntity
  8
DEFAULT_2
100
AcDbCircle
 62
8
  6
HIDDEN
 10
5.2729179737
 20
5.3482304737
 40
0.5875
100
AcDbArc
 50
130.5222430865
 51
130.531350339
  0
ARC
  5
84A
100
AcDbEntity
  8
DEFAULT_2
100
AcDbCircle
 62
8
  6
HIDDEN
 10
5.2729179737
 20
5.3482304737
 40
0.5875
100
AcDbArc
 50
132.2681690618
 51
132.2777569135
  0
ARC
  5
84B
100
AcDbEntity
  8
DEFAULT_2
100
AcDbCircle
 62
8
  6
HIDDEN
 10
5.2729179737
 20
5.3482304737
 40
0.5875
100
AcDbArc
 50
137.7222430865
 51
137.7318309382
  0
ARC
  5
84C
100
AcDbEntity
  8
DEFAULT_2
100
AcDbCircle
 62
8
  6
HIDDEN
 10
5.2729179737
 20
5.3482304737
 40
0.5875
100
AcDbArc
 50
139.468649661
 51
139.4777569135
  0
ARC
  5
84D
100
AcDbEntity
  8
DEFAULT_2
100
AcDbCircle
 62
8
  6
HIDDEN
 10
5.2729179737
 20
5.3482304737
 40
0.5875
100
AcDbArc
 50
141.8691125728
 51
141.8777569135
  0
ARC
  5
84E
100
AcDbEntity
  8
DEFAULT_2
100
AcDbCircle
 62
8
  6
HIDDEN
 10
5.2729179737
 20
5.3482304737
 40
0.5875
100
AcDbArc
 50
147.3222430865
 51
147.3316549034
  0
ARC
  5
84F
100
AcDbEntity
  8
DEFAULT_2
100
AcDbCircle
 62
8
  6
HIDDEN
 10
5.2729179737
 20
5.3482304737
 40
0.5875
100
AcDbArc
 50
149.0681047991
 51
149.0777569135
  0
ARC
  5
850
100
AcDbEntity
  8
DEFAULT_2
100
AcDbCircle
 62
8
  6
HIDDEN
 10
5.2729179737
 20
5.3482304737
 40
0.5875
100
AcDbArc
 50
154.5222430865
 51
154.5316415558
  0
ARC
  5
851
100
AcDbEntity
  8
DEFAULT_2
100
AcDbCircle
 62
8
  6
HIDDEN
 10
5.2729179737
 20
5.3482304737
 40
0.5875
100
AcDbArc
 50
156.2690756853
 51
156.2777569135
  0
ARC
  5
852
100
AcDbEntity
  8
DEFAULT_2
100
AcDbCircle
 62
8
  6
HIDDEN
 10
5.2729179737
 20
5.3482304737
 40
0.5875
100
AcDbArc
 50
158.6686719006
 51
158.6777569135
  0
ARC
  5
853
100
AcDbEntity
  8
DEFAULT_2
100
AcDbCircle
 62
8
  6
HIDDEN
 10
5.2729179737
 20
5.3482304737
 40
0.5875
100
AcDbArc
 50
164.1222430865
 51
164.1318366996
  0
ARC
  5
854
100
AcDbEntity
  8
DEFAULT_2
100
AcDbCircle
 62
8
  6
HIDDEN
 10
5.2729179737
 20
5.3482304737
 40
0.5875
100
AcDbArc
 50
165.8681646522
 51
165.8777569135
  0
ARC
  5
855
100
AcDbEntity
  8
DEFAULT_2
100
AcDbCircle
 62
8
  6
HIDDEN
 10
5.2729179737
 20
5.3482304737
 40
0.5875
100
AcDbArc
 50
171.3222430865
 51
171.3313270353
  0
ARC
  5
856
100
AcDbEntity
  8
DEFAULT_2
100
AcDbCircle
 62
8
  6
HIDDEN
 10
5.2729179737
 20
5.3482304737
 40
0.5875
100
AcDbArc
 50
173.7222430865
 51
173.7309266664
  0
ARC
  5
857
100
AcDbEntity
  8
DEFAULT_2
100
AcDbCircle
 62
8
  6
HIDDEN
 10
5.2729179737
 20
5.3482304737
 40
0.5875
100
AcDbArc
 50
175.468358766
 51
175.4777569135
  0
ARC
  5
858
100
AcDbEntity
  8
DEFAULT_2
100
AcDbCircle
 62
8
  6
HIDDEN
 10
5.2729179737
 20
5.3482304737
 40
0.5875
100
AcDbArc
 50
355.468358766
 51
355.4777569135
  0
ARC
  5
859
100
AcDbEntity
  8
DEFAULT_2
100
AcDbCircle
 62
8
  6
HIDDEN
 10
5.2729179737
 20
5.3482304737
 40
0.5875
100
AcDbArc
 50
353.7222430865
 51
353.7309266664
  0
ARC
  5
85A
100
AcDbEntity
  8
DEFAULT_2
100
AcDbCircle
 62
8
  6
HIDDEN
 10
5.2729179737
 20
5.3482304737
 40
0.5875
100
AcDbArc
 50
351.3222430865
 51
351.3313270353
  0
ARC
  5
85B
100
AcDbEntity
  8
DEFAULT_2
100
AcDbCircle
 62
8
  6
HIDDEN
 10
5.2729179737
 20
5.3482304737
 40
0.5875
100
AcDbArc
 50
345.8681646522
 51
345.8777569135
  0
ARC
  5
85C
100
AcDbEntity
  8
DEFAULT_2
100
AcDbCircle
 62
8
  6
HIDDEN
 10
5.2729179737
 20
5.3482304737
 40
0.5875
100
AcDbArc
 50
344.1222430865
 51
344.1318366996
  0
ARC
  5
85D
100
AcDbEntity
  8
DEFAULT_2
100
AcDbCircle
 62
8
  6
HIDDEN
 10
5.2729179737
 20
5.3482304737
 40
0.5875
100
AcDbArc
 50
338.6686719006
 51
338.6777569135
  0
ARC
  5
85E
100
AcDbEntity
  8
DEFAULT_2
100
AcDbCircle
 62
8
  6
HIDDEN
 10
5.2729179737
 20
5.3482304737
 40
0.5875
100
AcDbArc
 50
336.2690756853
 51
336.2777569135
  0
ARC
  5
85F
100
AcDbEntity
  8
DEFAULT_2
100
AcDbCircle
 62
8
  6
HIDDEN
 10
5.2729179737
 20
5.3482304737
 40
0.5875
100
AcDbArc
 50
334.5222430865
 51
334.5316415558
  0
ARC
  5
860
100
AcDbEntity
  8
DEFAULT_2
100
AcDbCircle
 62
8
  6
HIDDEN
 10
5.2729179737
 20
5.3482304737
 40
0.5875
100
AcDbArc
 50
329.0681047991
 51
329.0777569135
  0
ARC
  5
861
100
AcDbEntity
  8
DEFAULT_2
100
AcDbCircle
 62
8
  6
HIDDEN
 10
5.2729179737
 20
5.3482304737
 40
0.5875
100
AcDbArc
 50
327.3222430865
 51
327.3316549034
  0
ARC
  5
862
100
AcDbEntity
  8
DEFAULT_2
100
AcDbCircle
 62
8
  6
HIDDEN
 10
5.2729179737
 20
5.3482304737
 40
0.5875
100
AcDbArc
 50
321.8691125728
 51
321.8777569135
  0
ARC
  5
863
100
AcDbEntity
  8
DEFAULT_2
100
AcDbCircle
 62
8
  6
HIDDEN
 10
5.2729179737
 20
5.3482304737
 40
0.5875
100
AcDbArc
 50
319.468649661
 51
319.4777569135
  0
ARC
  5
864
100
AcDbEntity
  8
DEFAULT_2
100
AcDbCircle
 62
8
  6
HIDDEN
 10
5.2729179737
 20
5.3482304737
 40
0.5875
100
AcDbArc
 50
317.7222430865
 51
317.7318309382
  0
ARC
  5
865
100
AcDbEntity
  8
DEFAULT_2
100
AcDbCircle
 62
8
  6
HIDDEN
 10
5.2729179737
 20
5.3482304737
 40
0.5875
100
AcDbArc
 50
312.2681690618
 51
312.2777569135
  0
ARC
  5
866
100
AcDbEntity
  8
DEFAULT_2
100
AcDbCircle
 62
8
  6
HIDDEN
 10
5.2729179737
 20
5.3482304737
 40
0.5875
100
AcDbArc
 50
310.5222430865
 51
310.531350339
  0
ARC
  5
867
100
AcDbEntity
  8
DEFAULT_2
100
AcDbCircle
 62
8
  6
HIDDEN
 10
5.2729179737
 20
5.3482304737
 40
0.5875
100
AcDbArc
 50
308.1222430865
 51
308.1308874272
  0
ARC
  5
868
100
AcDbEntity
  8
DEFAULT_2
100
AcDbCircle
 62
8
  6
HIDDEN
 10
5.2729179737
 20
5.3482304737
 40
0.5875
100
AcDbArc
 50
302.6683450966
 51
302.6777569135
  0
ARC
  5
869
100
AcDbEntity
  8
DEFAULT_2
100
AcDbCircle
 62
8
  6
HIDDEN
 10
5.2729179737
 20
5.3482304737
 40
0.5875
100
AcDbArc
 50
300.9222430865
 51
300.9318952009
  0
ARC
  5
86A
100
AcDbEntity
  8
DEFAULT_2
100
AcDbCircle
 62
8
  6
HIDDEN
 10
5.2729179737
 20
5.3482304737
 40
0.5875
100
AcDbArc
 50
295.4683584442
 51
295.4777569135
  0
ARC
  5
86B
100
AcDbEntity
  8
DEFAULT_2
100
AcDbCircle
 62
8
  6
HIDDEN
 10
5.2729179737
 20
5.3482304737
 40
0.5875
100
AcDbArc
 50
242.6683463366
 51
242.6777569135
  0
ARC
  5
86C
100
AcDbEntity
  8
DEFAULT_2
100
AcDbCircle
 62
8
  6
HIDDEN
 10
5.2729179737
 20
5.3482304737
 40
0.5875
100
AcDbArc
 50
240.9222430865
 51
240.9318956322
  0
ARC
  5
86D
100
AcDbEntity
  8
DEFAULT_2
100
AcDbCircle
 62
8
  6
HIDDEN
 10
5.2729179737
 20
5.3482304737
 40
0.5875
100
AcDbArc
 50
235.4683579086
 51
235.4777569135
  0
ARC
  5
86E
100
AcDbEntity
  8
DEFAULT_2
100
AcDbCircle
 62
8
  6
HIDDEN
 10
5.2729179737
 20
5.3482304737
 40
0.5875
100
AcDbArc
 50
233.7222430865
 51
233.7309265208
  0
ARC
  5
86F
100
AcDbEntity
  8
DEFAULT_2
100
AcDbCircle
 62
8
  6
HIDDEN
 10
5.2729179737
 20
5.3482304737
 40
0.5875
100
AcDbArc
 50
231.3222430865
 51
231.3313273056
  0
ARC
  5
870
100
AcDbEntity
  8
DEFAULT_2
100
AcDbCircle
 62
8
  6
HIDDEN
 10
5.2729179737
 20
5.3482304737
 40
0.5875
100
AcDbArc
 50
225.868163653
 51
225.8777569135
  0
ARC
  5
871
100
AcDbEntity
  8
DEFAULT_2
100
AcDbCircle
 62
8
  6
HIDDEN
 10
5.2729179737
 20
5.3482304737
 40
0.5875
100
AcDbArc
 50
224.1222430865
 51
224.131836347
  0
ARC
  5
872
100
AcDbEntity
  8
DEFAULT_2
100
AcDbCircle
 62
8
  6
HIDDEN
 10
5.2729179737
 20
5.3482304737
 40
0.5875
100
AcDbArc
 50
218.6686726944
 51
218.6777569135
  0
ARC
  5
873
100
AcDbEntity
  8
DEFAULT_2
100
AcDbCircle
 62
8
  6
HIDDEN
 10
5.2729179737
 20
5.3482304737
 40
0.5875
100
AcDbArc
 50
216.2690734792
 51
216.2777569135
  0
ARC
  5
874
100
AcDbEntity
  8
DEFAULT_2
100
AcDbCircle
 62
8
  6
HIDDEN
 10
5.2729179737
 20
5.3482304737
 40
0.5875
100
AcDbArc
 50
214.5222430865
 51
214.5316420914
  0
ARC
  5
875
100
AcDbEntity
  8
DEFAULT_2
100
AcDbCircle
 62
8
  6
HIDDEN
 10
5.2729179737
 20
5.3482304737
 40
0.5875
100
AcDbArc
 50
209.0681043678
 51
209.0777569135
  0
ARC
  5
876
100
AcDbEntity
  8
DEFAULT_2
100
AcDbCircle
 62
8
  6
HIDDEN
 10
5.2729179737
 20
5.3482304737
 40
0.5875
100
AcDbArc
 50
207.3222430865
 51
207.3316536634
  0
ARC
  5
877
100
AcDbEntity
  8
DEFAULT_2
100
AcDbCircle
 62
8
  6
HIDDEN
 10
5.2729179737
 20
5.3482304737
 40
0.5875
100
AcDbArc
 50
201.8691141015
 51
201.8777569135
  0
ARC
  5
878
100
AcDbEntity
  8
DEFAULT_2
100
AcDbCircle
 62
8
  6
HIDDEN
 10
5.2729179737
 20
5.3482304737
 40
0.5875
100
AcDbArc
 50
199.468648295
 51
199.4777569135
  0
ARC
  5
879
100
AcDbEntity
  8
DEFAULT_2
100
AcDbCircle
 62
8
  6
HIDDEN
 10
5.2729179737
 20
5.3482304737
 40
0.5875
100
AcDbArc
 50
197.7222430865
 51
197.7318306137
  0
ARC
  5
87A
100
AcDbEntity
  8
DEFAULT_2
100
AcDbCircle
 62
8
  6
HIDDEN
 10
5.2729179737
 20
5.3482304737
 40
0.5875
100
AcDbArc
 50
192.2681691497
 51
192.2777569135
  0
ARC
  5
87B
100
AcDbEntity
  8
DEFAULT_2
100
AcDbCircle
 62
8
  6
HIDDEN
 10
5.2729179737
 20
5.3482304737
 40
0.5875
100
AcDbArc
 50
190.5222430865
 51
190.5313492204
  0
ARC
  5
87C
100
AcDbEntity
  8
DEFAULT_2
100
AcDbCircle
 62
8
  6
HIDDEN
 10
5.2729179737
 20
5.3482304737
 40
0.5875
100
AcDbArc
 50
188.1222430865
 51
188.1308870472
  0
ARC
  5
87D
100
AcDbEntity
  8
DEFAULT_2
100
AcDbCircle
 62
8
  6
HIDDEN
 10
5.2729179737
 20
5.3482304737
 40
0.5875
100
AcDbArc
 50
182.6683453847
 51
182.6777569135
  0
ARC
  5
87E
100
AcDbEntity
  8
DEFAULT_2
100
AcDbCircle
 62
8
  6
HIDDEN
 10
5.2729179737
 20
5.3482304737
 40
0.5875
100
AcDbArc
 50
180.9222430865
 51
180.9318943328
  0
ARC
  5
87F
100
AcDbEntity
  8
DEFAULT_2
100
AcDbCircle
 62
8
  6
HIDDEN
 10
5.2729179737
 20
5.3482304737
 40
0.5875
100
AcDbArc
 50
246.4584278913
 51
293.5382862341
  0
ARC
  5
880
100
AcDbEntity
  8
0
100
AcDbCircle
 62
7
  6
CONTINUOUS
 10
5.2729179737
 20
5.3482304737
 40
0.5875
100
AcDbArc
 50
0.9318943328
 51
2.6683453847
  0
ARC
  5
881
100
AcDbEntity
  8
0
100
AcDbCircle
 62
7
  6
CONTINUOUS
 10
5.2729179737
 20
5.3482304737
 40
0.5875
100
AcDbArc
 50
10.5313492204
 51
12.2681691497
  0
ARC
  5
882
100
AcDbEntity
  8
0
100
AcDbCircle
 62
7
  6
CONTINUOUS
 10
5.2729179737
 20
5.3482304737
 40
0.5875
100
AcDbArc
 50
17.7318306137
 51
19.468648295
  0
ARC
  5
883
100
AcDbEntity
  8
0
100
AcDbCircle
 62
7
  6
CONTINUOUS
 10
5.2729179737
 20
5.3482304737
 40
0.5875
100
AcDbArc
 50
27.3316536634
 51
29.0681043678
  0
ARC
  5
884
100
AcDbEntity
  8
0
100
AcDbCircle
 62
7
  6
CONTINUOUS
 10
5.2729179737
 20
5.3482304737
 40
0.5875
100
AcDbArc
 50
34.5316420914
 51
36.2690734792
  0
ARC
  5
885
100
AcDbEntity
  8
0
100
AcDbCircle
 62
7
  6
CONTINUOUS
 10
5.2729179737
 20
5.3482304737
 40
0.5875
100
AcDbArc
 50
44.131836347
 51
45.868163653
  0
ARC
  5
886
100
AcDbEntity
  8
0
100
AcDbCircle
 62
7
  6
CONTINUOUS
 10
5.2729179737
 20
5.3482304737
 40
0.5875
100
AcDbArc
 50
53.7309265208
 51
55.4683579086
  0
ARC
  5
887
100
AcDbEntity
  8
0
100
AcDbCircle
 62
7
  6
CONTINUOUS
 10
5.2729179737
 20
5.3482304737
 40
0.5875
100
AcDbArc
 50
60.9318956322
 51
62.6683463366
  0
ARC
  5
888
100
AcDbEntity
  8
0
100
AcDbCircle
 62
7
  6
CONTINUOUS
 10
5.2729179737
 20
5.3482304737
 40
0.5875
100
AcDbArc
 50
70.531351705
 51
72.2681693863
  0
ARC
  5
889
100
AcDbEntity
  8
0
100
AcDbCircle
 62
7
  6
CONTINUOUS
 10
5.2729179737
 20
5.3482304737
 40
0.5875
100
AcDbArc
 50
77.7318308503
 51
79.4686507796
  0
ARC
  5
88A
100
AcDbEntity
  8
0
100
AcDbCircle
 62
7
  6
CONTINUOUS
 10
5.2729179737
 20
5.3482304737
 40
0.5875
100
AcDbArc
 50
87.3316543184
 51
89.0681048328
  0
ARC
  5
88B
100
AcDbEntity
  8
0
100
AcDbCircle
 62
7
  6
CONTINUOUS
 10
5.2729179737
 20
5.3482304737
 40
0.5875
100
AcDbArc
 50
89.0777569135
 51
94.5222430865
  0
ARC
  5
88C
100
AcDbEntity
  8
0
100
AcDbCircle
 62
7
  6
CONTINUOUS
 10
5.2729179737
 20
5.3482304737
 40
0.5875
100
AcDbArc
 50
94.5316409705
 51
96.2690733336
  0
ARC
  5
88D
100
AcDbEntity
  8
0
100
AcDbCircle
 62
7
  6
CONTINUOUS
 10
5.2729179737
 20
5.3482304737
 40
0.5875
100
AcDbArc
 50
96.2777569135
 51
98.6686729647
  0
ARC
  5
88E
100
AcDbEntity
  8
0
100
AcDbCircle
 62
7
  6
CONTINUOUS
 10
5.2729179737
 20
5.3482304737
 40
0.5875
100
AcDbArc
 50
98.6777569135
 51
104.1222430865
  0
ARC
  5
88F
100
AcDbEntity
  8
0
100
AcDbCircle
 62
7
  6
CONTINUOUS
 10
5.2729179737
 20
5.3482304737
 40
0.5875
100
AcDbArc
 50
104.1318353478
 51
105.8681633004
  0
ARC
  5
890
100
AcDbEntity
  8
0
100
AcDbCircle
 62
7
  6
CONTINUOUS
 10
5.2729179737
 20
5.3482304737
 40
0.5875
100
AcDbArc
 50
105.8777569135
 51
111.3222430865
  0
ARC
  5
891
100
AcDbEntity
  8
0
100
AcDbCircle
 62
7
  6
CONTINUOUS
 10
5.2729179737
 20
5.3482304737
 40
0.5875
100
AcDbArc
 50
111.3313280994
 51
113.7222430865
  0
ARC
  5
892
100
AcDbEntity
  8
0
100
AcDbCircle
 62
7
  6
CONTINUOUS
 10
5.2729179737
 20
5.3482304737
 40
0.5875
100
AcDbArc
 50
113.7309243147
 51
115.4683584442
  0
ARC
  5
893
100
AcDbEntity
  8
0
100
AcDbCircle
 62
7
  6
CONTINUOUS
 10
5.2729179737
 20
5.3482304737
 40
0.5875
100
AcDbArc
 50
115.4777569135
 51
120.9222430865
  0
ARC
  5
894
100
AcDbEntity
  8
0
100
AcDbCircle
 62
7
  6
CONTINUOUS
 10
5.2729179737
 20
5.3482304737
 40
0.5875
100
AcDbArc
 50
120.9318952009
 51
122.6683450966
  0
ARC
  5
895
100
AcDbEntity
  8
0
100
AcDbCircle
 62
7
  6
CONTINUOUS
 10
5.2729179737
 20
5.3482304737
 40
0.5875
100
AcDbArc
 50
122.6777569135
 51
128.1222430865
  0
ARC
  5
896
100
AcDbEntity
  8
0
100
AcDbCircle
 62
7
  6
CONTINUOUS
 10
5.2729179737
 20
5.3482304737
 40
0.5875
100
AcDbArc
 50
128.1308874272
 51
130.5222430865
  0
ARC
  5
897
100
AcDbEntity
  8
0
100
AcDbCircle
 62
7
  6
CONTINUOUS
 10
5.2729179737
 20
5.3482304737
 40
0.5875
100
AcDbArc
 50
130.531350339
 51
132.2681690618
  0
ARC
  5
898
100
AcDbEntity
  8
0
100
AcDbCircle
 62
7
  6
CONTINUOUS
 10
5.2729179737
 20
5.3482304737
 40
0.5875
100
AcDbArc
 50
132.2777569135
 51
137.7222430865
  0
ARC
  5
899
100
AcDbEntity
  8
0
100
AcDbCircle
 62
7
  6
CONTINUOUS
 10
5.2729179737
 20
5.3482304737
 40
0.5875
100
AcDbArc
 50
137.7318309382
 51
139.468649661
  0
ARC
  5
89A
100
AcDbEntity
  8
0
100
AcDbCircle
 62
7
  6
CONTINUOUS
 10
5.2729179737
 20
5.3482304737
 40
0.5875
100
AcDbArc
 50
139.4777569135
 51
141.8691125728
  0
ARC
  5
89B
100
AcDbEntity
  8
0
100
AcDbCircle
 62
7
  6
CONTINUOUS
 10
5.2729179737
 20
5.3482304737
 40
0.5875
100
AcDbArc
 50
141.8777569135
 51
147.3222430865
  0
ARC
  5
89C
100
AcDbEntity
  8
0
100
AcDbCircle
 62
7
  6
CONTINUOUS
 10
5.2729179737
 20
5.3482304737
 40
0.5875
100
AcDbArc
 50
147.3316549034
 51
149.0681047991
  0
ARC
  5
89D
100
AcDbEntity
  8
0
100
AcDbCircle
 62
7
  6
CONTINUOUS
 10
5.2729179737
 20
5.3482304737
 40
0.5875
100
AcDbArc
 50
149.0777569135
 51
154.5222430865
  0
ARC
  5
89E
100
AcDbEntity
  8
0
100
AcDbCircle
 62
7
  6
CONTINUOUS
 10
5.2729179737
 20
5.3482304737
 40
0.5875
100
AcDbArc
 50
154.5316415558
 51
156.2690756853
  0
ARC
  5
89F
100
AcDbEntity
  8
0
100
AcDbCircle
 62
7
  6
CONTINUOUS
 10
5.2729179737
 20
5.3482304737
 40
0.5875
100
AcDbArc
 50
156.2777569135
 51
158.6686719006
  0
ARC
  5
8A0
100
AcDbEntity
  8
0
100
AcDbCircle
 62
7
  6
CONTINUOUS
 10
5.2729179737
 20
5.3482304737
 40
0.5875
100
AcDbArc
 50
158.6777569135
 51
164.1222430865
  0
ARC
  5
8A1
100
AcDbEntity
  8
0
100
AcDbCircle
 62
7
  6
CONTINUOUS
 10
5.2729179737
 20
5.3482304737
 40
0.5875
100
AcDbArc
 50
164.1318366996
 51
165.8681646522
  0
ARC
  5
8A2
100
AcDbEntity
  8
0
100
AcDbCircle
 62
7
  6
CONTINUOUS
 10
5.2729179737
 20
5.3482304737
 40
0.5875
100
AcDbArc
 50
165.8777569135
 51
171.3222430865
  0
ARC
  5
8A3
100
AcDbEntity
  8
0
100
AcDbCircle
 62
7
  6
CONTINUOUS
 10
5.2729179737
 20
5.3482304737
 40
0.5875
100
AcDbArc
 50
171.3313270353
 51
173.7222430865
  0
ARC
  5
8A4
100
AcDbEntity
  8
0
100
AcDbCircle
 62
7
  6
CONTINUOUS
 10
5.2729179737
 20
5.3482304737
 40
0.5875
100
AcDbArc
 50
173.7309266664
 51
175.468358766
  0
ARC
  5
8A5
100
AcDbEntity
  8
0
100
AcDbCircle
 62
7
  6
CONTINUOUS
 10
5.2729179737
 20
5.3482304737
 40
0.5875
100
AcDbArc
 50
81.8777569135
 51
87.3222430865
  0
ARC
  5
8A6
100
AcDbEntity
  8
0
100
AcDbCircle
 62
7
  6
CONTINUOUS
 10
5.2729179737
 20
5.3482304737
 40
0.5875
100
AcDbArc
 50
79.4777569135
 51
81.8691129528
  0
ARC
  5
8A7
100
AcDbEntity
  8
0
100
AcDbCircle
 62
7
  6
CONTINUOUS
 10
5.2729179737
 20
5.3482304737
 40
0.5875
100
AcDbArc
 50
72.2777569135
 51
77.7222430865
  0
ARC
  5
8A8
100
AcDbEntity
  8
0
100
AcDbCircle
 62
7
  6
CONTINUOUS
 10
5.2729179737
 20
5.3482304737
 40
0.5875
100
AcDbArc
 50
68.1308858985
 51
70.5222430865
  0
ARC
  5
8A9
100
AcDbEntity
  8
0
100
AcDbCircle
 62
7
  6
CONTINUOUS
 10
5.2729179737
 20
5.3482304737
 40
0.5875
100
AcDbArc
 50
353.7309266664
 51
355.468358766
  0
ARC
  5
8AA
100
AcDbEntity
  8
0
100
AcDbCircle
 62
7
  6
CONTINUOUS
 10
5.2729179737
 20
5.3482304737
 40
0.5875
100
AcDbArc
 50
344.1318366996
 51
345.8681646522
  0
ARC
  5
8AB
100
AcDbEntity
  8
0
100
AcDbCircle
 62
7
  6
CONTINUOUS
 10
5.2729179737
 20
5.3482304737
 40
0.5875
100
AcDbArc
 50
334.5316415558
 51
336.2690756853
  0
ARC
  5
8AC
100
AcDbEntity
  8
0
100
AcDbCircle
 62
7
  6
CONTINUOUS
 10
5.2729179737
 20
5.3482304737
 40
0.5875
100
AcDbArc
 50
327.3316549034
 51
329.0681047991
  0
ARC
  5
8AD
100
AcDbEntity
  8
0
100
AcDbCircle
 62
7
  6
CONTINUOUS
 10
5.2729179737
 20
5.3482304737
 40
0.5875
100
AcDbArc
 50
317.7318309382
 51
319.468649661
  0
ARC
  5
8AE
100
AcDbEntity
  8
0
100
AcDbCircle
 62
7
  6
CONTINUOUS
 10
5.2729179737
 20
5.3482304737
 40
0.5875
100
AcDbArc
 50
310.531350339
 51
312.2681690618
  0
ARC
  5
8AF
100
AcDbEntity
  8
0
100
AcDbCircle
 62
7
  6
CONTINUOUS
 10
5.2729179737
 20
5.3482304737
 40
0.5875
100
AcDbArc
 50
300.9318952009
 51
302.6683450966
  0
ARC
  5
8B0
100
AcDbEntity
  8
0
100
AcDbCircle
 62
7
  6
CONTINUOUS
 10
5.2729179737
 20
5.3482304737
 40
0.5875
100
AcDbArc
 50
293.7309243147
 51
295.4683584442
  0
ARC
  5
8B1
100
AcDbEntity
  8
0
100
AcDbCircle
 62
7
  6
CONTINUOUS
 10
5.2729179737
 20
5.3482304737
 40
0.5875
100
AcDbArc
 50
240.9318956322
 51
242.6683463366
  0
ARC
  5
8B2
100
AcDbEntity
  8
0
100
AcDbCircle
 62
7
  6
CONTINUOUS
 10
5.2729179737
 20
5.3482304737
 40
0.5875
100
AcDbArc
 50
233.7309265208
 51
235.4683579086
  0
ARC
  5
8B3
100
AcDbEntity
  8
0
100
AcDbCircle
 62
7
  6
CONTINUOUS
 10
5.2729179737
 20
5.3482304737
 40
0.5875
100
AcDbArc
 50
224.131836347
 51
225.868163653
  0
ARC
  5
8B4
100
AcDbEntity
  8
0
100
AcDbCircle
 62
7
  6
CONTINUOUS
 10
5.2729179737
 20
5.3482304737
 40
0.5875
100
AcDbArc
 50
218.6777569135
 51
224.1222430865
  0
ARC
  5
8B5
100
AcDbEntity
  8
0
100
AcDbCircle
 62
7
  6
CONTINUOUS
 10
5.2729179737
 20
5.3482304737
 40
0.5875
100
AcDbArc
 50
216.2777569135
 51
218.6686726944
  0
ARC
  5
8B6
100
AcDbEntity
  8
0
100
AcDbCircle
 62
7
  6
CONTINUOUS
 10
5.2729179737
 20
5.3482304737
 40
0.5875
100
AcDbArc
 50
214.5316420914
 51
216.2690734792
  0
ARC
  5
8B7
100
AcDbEntity
  8
0
100
AcDbCircle
 62
7
  6
CONTINUOUS
 10
5.2729179737
 20
5.3482304737
 40
0.5875
100
AcDbArc
 50
209.0777569135
 51
214.5222430865
  0
ARC
  5
8B8
100
AcDbEntity
  8
0
100
AcDbCircle
 62
7
  6
CONTINUOUS
 10
5.2729179737
 20
5.3482304737
 40
0.5875
100
AcDbArc
 50
207.3316536634
 51
209.0681043678
  0
ARC
  5
8B9
100
AcDbEntity
  8
0
100
AcDbCircle
 62
7
  6
CONTINUOUS
 10
5.2729179737
 20
5.3482304737
 40
0.5875
100
AcDbArc
 50
201.8777569135
 51
207.3222430865
  0
ARC
  5
8BA
100
AcDbEntity
  8
0
100
AcDbCircle
 62
7
  6
CONTINUOUS
 10
5.2729179737
 20
5.3482304737
 40
0.5875
100
AcDbArc
 50
199.4777569135
 51
201.8691141015
  0
ARC
  5
8BB
100
AcDbEntity
  8
0
100
AcDbCircle
 62
7
  6
CONTINUOUS
 10
5.2729179737
 20
5.3482304737
 40
0.5875
100
AcDbArc
 50
197.7318306137
 51
199.468648295
  0
ARC
  5
8BC
100
AcDbEntity
  8
0
100
AcDbCircle
 62
7
  6
CONTINUOUS
 10
5.2729179737
 20
5.3482304737
 40
0.5875
100
AcDbArc
 50
192.2777569135
 51
197.7222430865
  0
ARC
  5
8BD
100
AcDbEntity
  8
0
100
AcDbCircle
 62
7
  6
CONTINUOUS
 10
5.2729179737
 20
5.3482304737
 40
0.5875
100
AcDbArc
 50
190.5313492204
 51
192.2681691497
  0
ARC
  5
8BE
100
AcDbEntity
  8
0
100
AcDbCircle
 62
7
  6
CONTINUOUS
 10
5.2729179737
 20
5.3482304737
 40
0.5875
100
AcDbArc
 50
188.1308870472
 51
190.5222430865
  0
ARC
  5
8BF
100
AcDbEntity
  8
0
100
AcDbCircle
 62
7
  6
CONTINUOUS
 10
5.2729179737
 20
5.3482304737
 40
0.5875
100
AcDbArc
 50
182.6777569135
 51
188.1222430865
  0
ARC
  5
8C0
100
AcDbEntity
  8
0
100
AcDbCircle
 62
7
  6
CONTINUOUS
 10
5.2729179737
 20
5.3482304737
 40
0.5875
100
AcDbArc
 50
180.9318943328
 51
182.6683453847
  0
ARC
  5
8C1
100
AcDbEntity
  8
0
100
AcDbCircle
 62
7
  6
CONTINUOUS
 10
5.2729179737
 20
5.3482304737
 40
0.5875
100
AcDbArc
 50
175.4777569135
 51
180.9222430865
  0
ARC
  5
8C2
100
AcDbEntity
  8
0
100
AcDbCircle
 62
7
  6
CONTINUOUS
 10
5.2729179737
 20
5.3482304737
 40
0.5875
100
AcDbArc
 50
62.6777569135
 51
68.1222430865
  0
ARC
  5
8C3
100
AcDbEntity
  8
0
100
AcDbCircle
 62
7
  6
CONTINUOUS
 10
5.2729179737
 20
5.3482304737
 40
0.5875
100
AcDbArc
 50
55.4777569135
 51
60.9222430865
  0
ARC
  5
8C4
100
AcDbEntity
  8
0
100
AcDbCircle
 62
7
  6
CONTINUOUS
 10
5.2729179737
 20
5.3482304737
 40
0.5875
100
AcDbArc
 50
51.3313273056
 51
53.7222430865
  0
ARC
  5
8C5
100
AcDbEntity
  8
0
100
AcDbCircle
 62
7
  6
CONTINUOUS
 10
5.2729179737
 20
5.3482304737
 40
0.5875
100
AcDbArc
 50
45.8777569135
 51
51.3222430865
  0
ARC
  5
8C6
100
AcDbEntity
  8
0
100
AcDbCircle
 62
7
  6
CONTINUOUS
 10
5.2729179737
 20
5.3482304737
 40
0.5875
100
AcDbArc
 50
38.6777569135
 51
44.1222430865
  0
ARC
  5
8C7
100
AcDbEntity
  8
0
100
AcDbCircle
 62
7
  6
CONTINUOUS
 10
5.2729179737
 20
5.3482304737
 40
0.5875
100
AcDbArc
 50
36.2777569135
 51
38.6686726944
  0
ARC
  5
8C8
100
AcDbEntity
  8
0
100
AcDbCircle
 62
7
  6
CONTINUOUS
 10
5.2729179737
 20
5.3482304737
 40
0.5875
100
AcDbArc
 50
29.0777569135
 51
34.5222430865
  0
ARC
  5
8C9
100
AcDbEntity
  8
0
100
AcDbCircle
 62
7
  6
CONTINUOUS
 10
5.2729179737
 20
5.3482304737
 40
0.5875
100
AcDbArc
 50
21.8777569135
 51
27.3222430865
  0
ARC
  5
8CA
100
AcDbEntity
  8
0
100
AcDbCircle
 62
7
  6
CONTINUOUS
 10
5.2729179737
 20
5.3482304737
 40
0.5875
100
AcDbArc
 50
19.4777569135
 51
21.8691141015
  0
ARC
  5
8CB
100
AcDbEntity
  8
0
100
AcDbCircle
 62
7
  6
CONTINUOUS
 10
5.2729179737
 20
5.3482304737
 40
0.5875
100
AcDbArc
 50
12.2777569135
 51
17.7222430865
  0
ARC
  5
8CC
100
AcDbEntity
  8
0
100
AcDbCircle
 62
7
  6
CONTINUOUS
 10
5.2729179737
 20
5.3482304737
 40
0.5875
100
AcDbArc
 50
8.1308870472
 51
10.5222430865
  0
ARC
  5
8CD
100
AcDbEntity
  8
0
100
AcDbCircle
 62
7
  6
CONTINUOUS
 10
5.2729179737
 20
5.3482304737
 40
0.5875
100
AcDbArc
 50
2.6777569135
 51
8.1222430865
  0
ARC
  5
8CE
100
AcDbEntity
  8
0
100
AcDbCircle
 62
7
  6
CONTINUOUS
 10
5.2729179737
 20
5.3482304737
 40
0.5875
100
AcDbArc
 50
355.4777569135
 51
0.9222430865
  0
ARC
  5
8CF
100
AcDbEntity
  8
0
100
AcDbCircle
 62
7
  6
CONTINUOUS
 10
5.2729179737
 20
5.3482304737
 40
0.5875
100
AcDbArc
 50
351.3313270353
 51
353.7222430865
  0
ARC
  5
8D0
100
AcDbEntity
  8
0
100
AcDbCircle
 62
7
  6
CONTINUOUS
 10
5.2729179737
 20
5.3482304737
 40
0.5875
100
AcDbArc
 50
345.8777569135
 51
351.3222430865
  0
ARC
  5
8D1
100
AcDbEntity
  8
0
100
AcDbCircle
 62
7
  6
CONTINUOUS
 10
5.2729179737
 20
5.3482304737
 40
0.5875
100
AcDbArc
 50
338.6777569135
 51
344.1222430865
  0
ARC
  5
8D2
100
AcDbEntity
  8
0
100
AcDbCircle
 62
7
  6
CONTINUOUS
 10
5.2729179737
 20
5.3482304737
 40
0.5875
100
AcDbArc
 50
336.2777569135
 51
338.6686719006
  0
ARC
  5
8D3
100
AcDbEntity
  8
0
100
AcDbCircle
 62
7
  6
CONTINUOUS
 10
5.2729179737
 20
5.3482304737
 40
0.5875
100
AcDbArc
 50
329.0777569135
 51
334.5222430865
  0
ARC
  5
8D4
100
AcDbEntity
  8
0
100
AcDbCircle
 62
7
  6
CONTINUOUS
 10
5.2729179737
 20
5.3482304737
 40
0.5875
100
AcDbArc
 50
321.8777569135
 51
327.3222430865
  0
ARC
  5
8D5
100
AcDbEntity
  8
0
100
AcDbCircle
 62
7
  6
CONTINUOUS
 10
5.2729179737
 20
5.3482304737
 40
0.5875
100
AcDbArc
 50
319.4777569135
 51
321.8691125728
  0
ARC
  5
8D6
100
AcDbEntity
  8
0
100
AcDbCircle
 62
7
  6
CONTINUOUS
 10
5.2729179737
 20
5.3482304737
 40
0.5875
100
AcDbArc
 50
312.2777569135
 51
317.7222430865
  0
ARC
  5
8D7
100
AcDbEntity
  8
0
100
AcDbCircle
 62
7
  6
CONTINUOUS
 10
5.2729179737
 20
5.3482304737
 40
0.5875
100
AcDbArc
 50
308.1308874272
 51
310.5222430865
  0
ARC
  5
8D8
100
AcDbEntity
  8
0
100
AcDbCircle
 62
7
  6
CONTINUOUS
 10
5.2729179737
 20
5.3482304737
 40
0.5875
100
AcDbArc
 50
302.6777569135
 51
308.1222430865
  0
ARC
  5
8D9
100
AcDbEntity
  8
0
100
AcDbCircle
 62
7
  6
CONTINUOUS
 10
5.2729179737
 20
5.3482304737
 40
0.5875
100
AcDbArc
 50
295.4777569135
 51
300.9222430865
  0
ARC
  5
8DA
100
AcDbEntity
  8
0
100
AcDbCircle
 62
7
  6
CONTINUOUS
 10
5.2729179737
 20
5.3482304737
 40
0.5875
100
AcDbArc
 50
293.5382862341
 51
293.7222430865
  0
ARC
  5
8DB
100
AcDbEntity
  8
0
100
AcDbCircle
 62
7
  6
CONTINUOUS
 10
5.2729179737
 20
5.3482304737
 40
0.5875
100
AcDbArc
 50
242.6777569135
 51
246.4584278913
  0
ARC
  5
8DC
100
AcDbEntity
  8
0
100
AcDbCircle
 62
7
  6
CONTINUOUS
 10
5.2729179737
 20
5.3482304737
 40
0.5875
100
AcDbArc
 50
235.4777569135
 51
240.9222430865
  0
ARC
  5
8DD
100
AcDbEntity
  8
0
100
AcDbCircle
 62
7
  6
CONTINUOUS
 10
5.2729179737
 20
5.3482304737
 40
0.5875
100
AcDbArc
 50
231.3313273056
 51
233.7222430865
  0
ARC
  5
8DE
100
AcDbEntity
  8
0
100
AcDbCircle
 62
7
  6
CONTINUOUS
 10
5.2729179737
 20
5.3482304737
 40
0.5875
100
AcDbArc
 50
225.8777569135
 51
231.3222430865
  0
ARC
  5
8DF
100
AcDbEntity
  8
DEFAULT_2
100
AcDbCircle
 62
8
  6
HIDDEN
 10
5.2729179737
 20
5.3482304737
 40
0.5875
100
AcDbArc
 50
293.7222430865
 51
293.7309243147
  0
CIRCLE
  5
8E0
100
AcDbEntity
  8
DEFAULT_2
100
AcDbCircle
 62
8
  6
HIDDEN
 10
5.2729179737
 20
5.3482304737
 40
0.5625
  0
ARC
  5
8E1
100
AcDbEntity
  8
DEFAULT_2
100
AcDbCircle
 62
8
  6
HIDDEN
 10
5.2729179737
 20
5.3482304737
 40
0.5414469601
100
AcDbArc
 50
244.31773805
 51
295.68226195
  0
ARC
  5
8E2
100
AcDbEntity
  8
0
100
AcDbCircle
 62
7
  6
CONTINUOUS
 10
5.2729179737
 20
5.3482304737
 40
0.5414469601
100
AcDbArc
 50
295.68226195
 51
244.31773805
  0
ARC
  5
8E3
100
AcDbEntity
  8
DEFAULT_2
100
AcDbCircle
 62
8
  6
HIDDEN
 10
5.2729179737
 20
5.3482304737
 40
0.4970909501
100
AcDbArc
 50
241.8351765365
 51
298.1648234635
  0
ARC
  5
8E4
100
AcDbEntity
  8
0
100
AcDbCircle
 62
7
  6
CONTINUOUS
 10
5.2729179737
 20
5.3482304737
 40
0.4970909501
100
AcDbArc
 50
298.1648234635
 51
241.8351765365
  0
ARC
  5
8E5
100
AcDbEntity
  8
DEFAULT_2
100
AcDbCircle
 62
8
  6
HIDDEN
 10
5.2729179737
 20
5.3482304737
 40
0.4837841471
100
AcDbArc
 50
240.9843219894
 51
299.0156780106
  0
ARC
  5
8E6
100
AcDbEntity
  8
0
100
AcDbCircle
 62
7
  6
CONTINUOUS
 10
5.2729179737
 20
5.3482304737
 40
0.4837841471
100
AcDbArc
 50
299.0156780106
 51
240.9843219894
  0
ARC
  5
8E7
100
AcDbEntity
  8
DEFAULT_2
100
AcDbCircle
 62
8
  6
HIDDEN
 10
5.2729179737
 20
5.3482304737
 40
0.45625
100
AcDbArc
 50
271.1302914269
 51
271.94663165
  0
ARC
  5
8E8
100
AcDbEntity
  8
DEFAULT_2
100
AcDbCircle
 62
8
  6
HIDDEN
 10
5.2729179737
 20
5.3482304737
 40
0.45625
100
AcDbArc
 50
274.2072145039
 51
275.0235547269
  0
ARC
  5
8E9
100
AcDbEntity
  8
DEFAULT_2
100
AcDbCircle
 62
8
  6
HIDDEN
 10
5.2729179737
 20
5.3482304737
 40
0.45625
100
AcDbArc
 50
277.2841375808
 51
278.1004778038
  0
ARC
  5
8EA
100
AcDbEntity
  8
DEFAULT_2
100
AcDbCircle
 62
8
  6
HIDDEN
 10
5.2729179737
 20
5.3482304737
 40
0.45625
100
AcDbArc
 50
280.3610606577
 51
281.1774008807
  0
ARC
  5
8EB
100
AcDbEntity
  8
DEFAULT_2
100
AcDbCircle
 62
8
  6
HIDDEN
 10
5.2729179737
 20
5.3482304737
 40
0.45625
100
AcDbArc
 50
283.4379837346
 51
284.2543239577
  0
ARC
  5
8EC
100
AcDbEntity
  8
DEFAULT_2
100
AcDbCircle
 62
8
  6
HIDDEN
 10
5.2729179737
 20
5.3482304737
 40
0.45625
100
AcDbArc
 50
286.5149068116
 51
287.3312470346
  0
ARC
  5
8ED
100
AcDbEntity
  8
DEFAULT_2
100
AcDbCircle
 62
8
  6
HIDDEN
 10
5.2729179737
 20
5.3482304737
 40
0.45625
100
AcDbArc
 50
289.5918298885
 51
290.4081701115
  0
ARC
  5
8EE
100
AcDbEntity
  8
DEFAULT_2
100
AcDbCircle
 62
8
  6
HIDDEN
 10
5.2729179737
 20
5.3482304737
 40
0.45625
100
AcDbArc
 50
292.6687529654
 51
293.4850931884
  0
ARC
  5
8EF
100
AcDbEntity
  8
DEFAULT_2
100
AcDbCircle
 62
8
  6
HIDDEN
 10
5.2729179737
 20
5.3482304737
 40
0.45625
100
AcDbArc
 50
295.7456760423
 51
296.5620162654
  0
ARC
  5
8F0
100
AcDbEntity
  8
DEFAULT_2
100
AcDbCircle
 62
8
  6
HIDDEN
 10
5.2729179737
 20
5.3482304737
 40
0.45625
100
AcDbArc
 50
298.8225991193
 51
299.6389393423
  0
ARC
  5
8F1
100
AcDbEntity
  8
DEFAULT_2
100
AcDbCircle
 62
8
  6
HIDDEN
 10
5.2729179737
 20
5.3482304737
 40
0.45625
100
AcDbArc
 50
240.3610606577
 51
241.1774008807
  0
ARC
  5
8F2
100
AcDbEntity
  8
DEFAULT_2
100
AcDbCircle
 62
8
  6
HIDDEN
 10
5.2729179737
 20
5.3482304737
 40
0.45625
100
AcDbArc
 50
243.4379837346
 51
244.2543239577
  0
ARC
  5
8F3
100
AcDbEntity
  8
DEFAULT_2
100
AcDbCircle
 62
8
  6
HIDDEN
 10
5.2729179737
 20
5.3482304737
 40
0.45625
100
AcDbArc
 50
246.5149068116
 51
247.3312470346
  0
ARC
  5
8F4
100
AcDbEntity
  8
DEFAULT_2
100
AcDbCircle
 62
8
  6
HIDDEN
 10
5.2729179737
 20
5.3482304737
 40
0.45625
100
AcDbArc
 50
249.5918298885
 51
250.4081701115
  0
ARC
  5
8F5
100
AcDbEntity
  8
DEFAULT_2
100
AcDbCircle
 62
8
  6
HIDDEN
 10
5.2729179737
 20
5.3482304737
 40
0.45625
100
AcDbArc
 50
252.6687529654
 51
253.4850931884
  0
ARC
  5
8F6
100
AcDbEntity
  8
DEFAULT_2
100
AcDbCircle
 62
8
  6
HIDDEN
 10
5.2729179737
 20
5.3482304737
 40
0.45625
100
AcDbArc
 50
255.7456760423
 51
256.5620162654
  0
ARC
  5
8F7
100
AcDbEntity
  8
DEFAULT_2
100
AcDbCircle
 62
8
  6
HIDDEN
 10
5.2729179737
 20
5.3482304737
 40
0.45625
100
AcDbArc
 50
258.8225991193
 51
259.6389393423
  0
ARC
  5
8F8
100
AcDbEntity
  8
DEFAULT_2
100
AcDbCircle
 62
8
  6
HIDDEN
 10
5.2729179737
 20
5.3482304737
 40
0.45625
100
AcDbArc
 50
261.8995221962
 51
262.7158624192
  0
ARC
  5
8F9
100
AcDbEntity
  8
DEFAULT_2
100
AcDbCircle
 62
8
  6
HIDDEN
 10
5.2729179737
 20
5.3482304737
 40
0.45625
100
AcDbArc
 50
264.9764452731
 51
265.7927854961
  0
ARC
  5
8FA
100
AcDbEntity
  8
DEFAULT_2
100
AcDbCircle
 62
8
  6
HIDDEN
 10
5.2729179737
 20
5.3482304737
 40
0.45625
100
AcDbArc
 50
268.05336835
 51
268.8697085731
  0
ARC
  5
8FB
100
AcDbEntity
  8
0
100
AcDbCircle
 62
7
  6
CONTINUOUS
 10
5.2729179737
 20
5.3482304737
 40
0.45625
100
AcDbArc
 50
301.8995221962
 51
302.7158624192
  0
ARC
  5
8FC
100
AcDbEntity
  8
0
100
AcDbCircle
 62
7
  6
CONTINUOUS
 10
5.2729179737
 20
5.3482304737
 40
0.45625
100
AcDbArc
 50
304.9764452731
 51
305.7927854961
  0
ARC
  5
8FD
100
AcDbEntity
  8
0
100
AcDbCircle
 62
7
  6
CONTINUOUS
 10
5.2729179737
 20
5.3482304737
 40
0.45625
100
AcDbArc
 50
308.05336835
 51
308.8697085731
  0
ARC
  5
8FE
100
AcDbEntity
  8
0
100
AcDbCircle
 62
7
  6
CONTINUOUS
 10
5.2729179737
 20
5.3482304737
 40
0.45625
100
AcDbArc
 50
311.1302914269
 51
311.94663165
  0
ARC
  5
8FF
100
AcDbEntity
  8
0
100
AcDbCircle
 62
7
  6
CONTINUOUS
 10
5.2729179737
 20
5.3482304737
 40
0.45625
100
AcDbArc
 50
314.2072145039
 51
315.0235547269
  0
ARC
  5
900
100
AcDbEntity
  8
0
100
AcDbCircle
 62
7
  6
CONTINUOUS
 10
5.2729179737
 20
5.3482304737
 40
0.45625
100
AcDbArc
 50
317.2841375808
 51
318.1004778038
  0
ARC
  5
901
100
AcDbEntity
  8
0
100
AcDbCircle
 62
7
  6
CONTINUOUS
 10
5.2729179737
 20
5.3482304737
 40
0.45625
100
AcDbArc
 50
320.3610606577
 51
321.1774008807
  0
ARC
  5
902
100
AcDbEntity
  8
0
100
AcDbCircle
 62
7
  6
CONTINUOUS
 10
5.2729179737
 20
5.3482304737
 40
0.45625
100
AcDbArc
 50
323.4379837346
 51
324.2543239577
  0
ARC
  5
903
100
AcDbEntity
  8
0
100
AcDbCircle
 62
7
  6
CONTINUOUS
 10
5.2729179737
 20
5.3482304737
 40
0.45625
100
AcDbArc
 50
326.5149068116
 51
327.3312470346
  0
ARC
  5
904
100
AcDbEntity
  8
0
100
AcDbCircle
 62
7
  6
CONTINUOUS
 10
5.2729179737
 20
5.3482304737
 40
0.45625
100
AcDbArc
 50
329.5918298885
 51
330.4081701115
  0
ARC
  5
905
100
AcDbEntity
  8
0
100
AcDbCircle
 62
7
  6
CONTINUOUS
 10
5.2729179737
 20
5.3482304737
 40
0.45625
100
AcDbArc
 50
332.6687529654
 51
333.4850931884
  0
ARC
  5
906
100
AcDbEntity
  8
0
100
AcDbCircle
 62
7
  6
CONTINUOUS
 10
5.2729179737
 20
5.3482304737
 40
0.45625
100
AcDbArc
 50
335.7456760423
 51
336.5620162654
  0
ARC
  5
907
100
AcDbEntity
  8
0
100
AcDbCircle
 62
7
  6
CONTINUOUS
 10
5.2729179737
 20
5.3482304737
 40
0.45625
100
AcDbArc
 50
338.8225991193
 51
339.6389393423
  0
ARC
  5
908
100
AcDbEntity
  8
0
100
AcDbCircle
 62
7
  6
CONTINUOUS
 10
5.2729179737
 20
5.3482304737
 40
0.45625
100
AcDbArc
 50
341.8995221962
 51
342.7158624192
  0
ARC
  5
909
100
AcDbEntity
  8
0
100
AcDbCircle
 62
7
  6
CONTINUOUS
 10
5.2729179737
 20
5.3482304737
 40
0.45625
100
AcDbArc
 50
344.9764452731
 51
345.7927854961
  0
ARC
  5
90A
100
AcDbEntity
  8
0
100
AcDbCircle
 62
7
  6
CONTINUOUS
 10
5.2729179737
 20
5.3482304737
 40
0.45625
100
AcDbArc
 50
348.05336835
 51
348.8697085731
  0
ARC
  5
90B
100
AcDbEntity
  8
0
100
AcDbCircle
 62
7
  6
CONTINUOUS
 10
5.2729179737
 20
5.3482304737
 40
0.45625
100
AcDbArc
 50
351.1302914269
 51
351.94663165
  0
ARC
  5
90C
100
AcDbEntity
  8
0
100
AcDbCircle
 62
7
  6
CONTINUOUS
 10
5.2729179737
 20
5.3482304737
 40
0.45625
100
AcDbArc
 50
354.2072145039
 51
355.0235547269
  0
ARC
  5
90D
100
AcDbEntity
  8
0
100
AcDbCircle
 62
7
  6
CONTINUOUS
 10
5.2729179737
 20
5.3482304737
 40
0.45625
100
AcDbArc
 50
357.2841375808
 51
358.1004778038
  0
ARC
  5
90E
100
AcDbEntity
  8
0
100
AcDbCircle
 62
7
  6
CONTINUOUS
 10
5.2729179737
 20
5.3482304737
 40
0.45625
100
AcDbArc
 50
0.3610606577
 51
1.1774008807
  0
ARC
  5
90F
100
AcDbEntity
  8
0
100
AcDbCircle
 62
7
  6
CONTINUOUS
 10
5.2729179737
 20
5.3482304737
 40
0.45625
100
AcDbArc
 50
3.4379837346
 51
4.2543239577
  0
ARC
  5
910
100
AcDbEntity
  8
0
100
AcDbCircle
 62
7
  6
CONTINUOUS
 10
5.2729179737
 20
5.3482304737
 40
0.45625
100
AcDbArc
 50
6.5149068116
 51
7.3312470346
  0
ARC
  5
911
100
AcDbEntity
  8
0
100
AcDbCircle
 62
7
  6
CONTINUOUS
 10
5.2729179737
 20
5.3482304737
 40
0.45625
100
AcDbArc
 50
9.5918298885
 51
10.4081701115
  0
ARC
  5
912
100
AcDbEntity
  8
0
100
AcDbCircle
 62
7
  6
CONTINUOUS
 10
5.2729179737
 20
5.3482304737
 40
0.45625
100
AcDbArc
 50
12.6687529654
 51
13.4850931884
  0
ARC
  5
913
100
AcDbEntity
  8
0
100
AcDbCircle
 62
7
  6
CONTINUOUS
 10
5.2729179737
 20
5.3482304737
 40
0.45625
100
AcDbArc
 50
15.7456760423
 51
16.5620162654
  0
ARC
  5
914
100
AcDbEntity
  8
0
100
AcDbCircle
 62
7
  6
CONTINUOUS
 10
5.2729179737
 20
5.3482304737
 40
0.45625
100
AcDbArc
 50
18.8225991193
 51
19.6389393423
  0
ARC
  5
915
100
AcDbEntity
  8
0
100
AcDbCircle
 62
7
  6
CONTINUOUS
 10
5.2729179737
 20
5.3482304737
 40
0.45625
100
AcDbArc
 50
21.8995221962
 51
22.7158624192
  0
ARC
  5
916
100
AcDbEntity
  8
0
100
AcDbCircle
 62
7
  6
CONTINUOUS
 10
5.2729179737
 20
5.3482304737
 40
0.45625
100
AcDbArc
 50
24.9764452731
 51
25.7927854961
  0
ARC
  5
917
100
AcDbEntity
  8
0
100
AcDbCircle
 62
7
  6
CONTINUOUS
 10
5.2729179737
 20
5.3482304737
 40
0.45625
100
AcDbArc
 50
28.05336835
 51
28.8697085731
  0
ARC
  5
918
100
AcDbEntity
  8
0
100
AcDbCircle
 62
7
  6
CONTINUOUS
 10
5.2729179737
 20
5.3482304737
 40
0.45625
100
AcDbArc
 50
31.1302914269
 51
31.94663165
  0
ARC
  5
919
100
AcDbEntity
  8
0
100
AcDbCircle
 62
7
  6
CONTINUOUS
 10
5.2729179737
 20
5.3482304737
 40
0.45625
100
AcDbArc
 50
34.2072145039
 51
35.0235547269
  0
ARC
  5
91A
100
AcDbEntity
  8
0
100
AcDbCircle
 62
7
  6
CONTINUOUS
 10
5.2729179737
 20
5.3482304737
 40
0.45625
100
AcDbArc
 50
37.2841375808
 51
38.1004778038
  0
ARC
  5
91B
100
AcDbEntity
  8
0
100
AcDbCircle
 62
7
  6
CONTINUOUS
 10
5.2729179737
 20
5.3482304737
 40
0.45625
100
AcDbArc
 50
40.3610606577
 51
41.1774008807
  0
ARC
  5
91C
100
AcDbEntity
  8
0
100
AcDbCircle
 62
7
  6
CONTINUOUS
 10
5.2729179737
 20
5.3482304737
 40
0.45625
100
AcDbArc
 50
43.4379837346
 51
44.2543239577
  0
ARC
  5
91D
100
AcDbEntity
  8
0
100
AcDbCircle
 62
7
  6
CONTINUOUS
 10
5.2729179737
 20
5.3482304737
 40
0.45625
100
AcDbArc
 50
46.5149068116
 51
47.3312470346
  0
ARC
  5
91E
100
AcDbEntity
  8
0
100
AcDbCircle
 62
7
  6
CONTINUOUS
 10
5.2729179737
 20
5.3482304737
 40
0.45625
100
AcDbArc
 50
49.5918298885
 51
50.4081701115
  0
ARC
  5
91F
100
AcDbEntity
  8
0
100
AcDbCircle
 62
7
  6
CONTINUOUS
 10
5.2729179737
 20
5.3482304737
 40
0.45625
100
AcDbArc
 50
52.6687529654
 51
53.4850931884
  0
ARC
  5
920
100
AcDbEntity
  8
0
100
AcDbCircle
 62
7
  6
CONTINUOUS
 10
5.2729179737
 20
5.3482304737
 40
0.45625
100
AcDbArc
 50
55.7456760423
 51
56.5620162654
  0
ARC
  5
921
100
AcDbEntity
  8
0
100
AcDbCircle
 62
7
  6
CONTINUOUS
 10
5.2729179737
 20
5.3482304737
 40
0.45625
100
AcDbArc
 50
58.8225991193
 51
59.6389393423
  0
ARC
  5
922
100
AcDbEntity
  8
0
100
AcDbCircle
 62
7
  6
CONTINUOUS
 10
5.2729179737
 20
5.3482304737
 40
0.45625
100
AcDbArc
 50
61.8995221962
 51
62.7158624192
  0
ARC
  5
923
100
AcDbEntity
  8
0
100
AcDbCircle
 62
7
  6
CONTINUOUS
 10
5.2729179737
 20
5.3482304737
 40
0.45625
100
AcDbArc
 50
64.9764452731
 51
65.7927854961
  0
ARC
  5
924
100
AcDbEntity
  8
0
100
AcDbCircle
 62
7
  6
CONTINUOUS
 10
5.2729179737
 20
5.3482304737
 40
0.45625
100
AcDbArc
 50
68.05336835
 51
68.8697085731
  0
ARC
  5
925
100
AcDbEntity
  8
0
100
AcDbCircle
 62
7
  6
CONTINUOUS
 10
5.2729179737
 20
5.3482304737
 40
0.45625
100
AcDbArc
 50
71.1302914269
 51
71.94663165
  0
ARC
  5
926
100
AcDbEntity
  8
0
100
AcDbCircle
 62
7
  6
CONTINUOUS
 10
5.2729179737
 20
5.3482304737
 40
0.45625
100
AcDbArc
 50
74.2072145039
 51
75.0235547269
  0
ARC
  5
927
100
AcDbEntity
  8
0
100
AcDbCircle
 62
7
  6
CONTINUOUS
 10
5.2729179737
 20
5.3482304737
 40
0.45625
100
AcDbArc
 50
77.2841375808
 51
78.1004778038
  0
ARC
  5
928
100
AcDbEntity
  8
0
100
AcDbCircle
 62
7
  6
CONTINUOUS
 10
5.2729179737
 20
5.3482304737
 40
0.45625
100
AcDbArc
 50
80.3610606577
 51
81.1774008807
  0
ARC
  5
929
100
AcDbEntity
  8
0
100
AcDbCircle
 62
7
  6
CONTINUOUS
 10
5.2729179737
 20
5.3482304737
 40
0.45625
100
AcDbArc
 50
83.4379837346
 51
84.2543239577
  0
ARC
  5
92A
100
AcDbEntity
  8
0
100
AcDbCircle
 62
7
  6
CONTINUOUS
 10
5.2729179737
 20
5.3482304737
 40
0.45625
100
AcDbArc
 50
86.5149068116
 51
87.3312470346
  0
ARC
  5
92B
100
AcDbEntity
  8
0
100
AcDbCircle
 62
7
  6
CONTINUOUS
 10
5.2729179737
 20
5.3482304737
 40
0.45625
100
AcDbArc
 50
89.5918298885
 51
90.4081701115
  0
ARC
  5
92C
100
AcDbEntity
  8
0
100
AcDbCircle
 62
7
  6
CONTINUOUS
 10
5.2729179737
 20
5.3482304737
 40
0.45625
100
AcDbArc
 50
92.6687529654
 51
93.4850931884
  0
ARC
  5
92D
100
AcDbEntity
  8
0
100
AcDbCircle
 62
7
  6
CONTINUOUS
 10
5.2729179737
 20
5.3482304737
 40
0.45625
100
AcDbArc
 50
95.7456760423
 51
96.5620162654
  0
ARC
  5
92E
100
AcDbEntity
  8
0
100
AcDbCircle
 62
7
  6
CONTINUOUS
 10
5.2729179737
 20
5.3482304737
 40
0.45625
100
AcDbArc
 50
98.8225991193
 51
99.6389393423
  0
ARC
  5
92F
100
AcDbEntity
  8
0
100
AcDbCircle
 62
7
  6
CONTINUOUS
 10
5.2729179737
 20
5.3482304737
 40
0.45625
100
AcDbArc
 50
101.8995221962
 51
102.7158624192
  0
ARC
  5
930
100
AcDbEntity
  8
0
100
AcDbCircle
 62
7
  6
CONTINUOUS
 10
5.2729179737
 20
5.3482304737
 40
0.45625
100
AcDbArc
 50
104.9764452731
 51
105.7927854961
  0
ARC
  5
931
100
AcDbEntity
  8
0
100
AcDbCircle
 62
7
  6
CONTINUOUS
 10
5.2729179737
 20
5.3482304737
 40
0.45625
100
AcDbArc
 50
108.05336835
 51
108.8697085731
  0
ARC
  5
932
100
AcDbEntity
  8
0
100
AcDbCircle
 62
7
  6
CONTINUOUS
 10
5.2729179737
 20
5.3482304737
 40
0.45625
100
AcDbArc
 50
111.1302914269
 51
111.94663165
  0
ARC
  5
933
100
AcDbEntity
  8
0
100
AcDbCircle
 62
7
  6
CONTINUOUS
 10
5.2729179737
 20
5.3482304737
 40
0.45625
100
AcDbArc
 50
114.2072145039
 51
115.0235547269
  0
ARC
  5
934
100
AcDbEntity
  8
0
100
AcDbCircle
 62
7
  6
CONTINUOUS
 10
5.2729179737
 20
5.3482304737
 40
0.45625
100
AcDbArc
 50
117.2841375808
 51
118.1004778038
  0
ARC
  5
935
100
AcDbEntity
  8
0
100
AcDbCircle
 62
7
  6
CONTINUOUS
 10
5.2729179737
 20
5.3482304737
 40
0.45625
100
AcDbArc
 50
120.3610606577
 51
121.1774008807
  0
ARC
  5
936
100
AcDbEntity
  8
0
100
AcDbCircle
 62
7
  6
CONTINUOUS
 10
5.2729179737
 20
5.3482304737
 40
0.45625
100
AcDbArc
 50
123.4379837346
 51
124.2543239577
  0
ARC
  5
937
100
AcDbEntity
  8
0
100
AcDbCircle
 62
7
  6
CONTINUOUS
 10
5.2729179737
 20
5.3482304737
 40
0.45625
100
AcDbArc
 50
126.5149068116
 51
127.3312470346
  0
ARC
  5
938
100
AcDbEntity
  8
0
100
AcDbCircle
 62
7
  6
CONTINUOUS
 10
5.2729179737
 20
5.3482304737
 40
0.45625
100
AcDbArc
 50
129.5918298885
 51
130.4081701115
  0
ARC
  5
939
100
AcDbEntity
  8
0
100
AcDbCircle
 62
7
  6
CONTINUOUS
 10
5.2729179737
 20
5.3482304737
 40
0.45625
100
AcDbArc
 50
132.6687529654
 51
133.4850931884
  0
ARC
  5
93A
100
AcDbEntity
  8
0
100
AcDbCircle
 62
7
  6
CONTINUOUS
 10
5.2729179737
 20
5.3482304737
 40
0.45625
100
AcDbArc
 50
135.7456760423
 51
136.5620162654
  0
ARC
  5
93B
100
AcDbEntity
  8
0
100
AcDbCircle
 62
7
  6
CONTINUOUS
 10
5.2729179737
 20
5.3482304737
 40
0.45625
100
AcDbArc
 50
138.8225991193
 51
139.6389393423
  0
ARC
  5
93C
100
AcDbEntity
  8
0
100
AcDbCircle
 62
7
  6
CONTINUOUS
 10
5.2729179737
 20
5.3482304737
 40
0.45625
100
AcDbArc
 50
141.8995221962
 51
142.7158624192
  0
ARC
  5
93D
100
AcDbEntity
  8
0
100
AcDbCircle
 62
7
  6
CONTINUOUS
 10
5.2729179737
 20
5.3482304737
 40
0.45625
100
AcDbArc
 50
144.9764452731
 51
145.7927854961
  0
ARC
  5
93E
100
AcDbEntity
  8
0
100
AcDbCircle
 62
7
  6
CONTINUOUS
 10
5.2729179737
 20
5.3482304737
 40
0.45625
100
AcDbArc
 50
148.05336835
 51
148.8697085731
  0
ARC
  5
93F
100
AcDbEntity
  8
0
100
AcDbCircle
 62
7
  6
CONTINUOUS
 10
5.2729179737
 20
5.3482304737
 40
0.45625
100
AcDbArc
 50
151.1302914269
 51
151.94663165
  0
ARC
  5
940
100
AcDbEntity
  8
0
100
AcDbCircle
 62
7
  6
CONTINUOUS
 10
5.2729179737
 20
5.3482304737
 40
0.45625
100
AcDbArc
 50
154.2072145039
 51
155.0235547269
  0
ARC
  5
941
100
AcDbEntity
  8
0
100
AcDbCircle
 62
7
  6
CONTINUOUS
 10
5.2729179737
 20
5.3482304737
 40
0.45625
100
AcDbArc
 50
157.2841375808
 51
158.1004778038
  0
ARC
  5
942
100
AcDbEntity
  8
0
100
AcDbCircle
 62
7
  6
CONTINUOUS
 10
5.2729179737
 20
5.3482304737
 40
0.45625
100
AcDbArc
 50
160.3610606577
 51
161.1774008807
  0
ARC
  5
943
100
AcDbEntity
  8
0
100
AcDbCircle
 62
7
  6
CONTINUOUS
 10
5.2729179737
 20
5.3482304737
 40
0.45625
100
AcDbArc
 50
163.4379837346
 51
164.2543239577
  0
ARC
  5
944
100
AcDbEntity
  8
0
100
AcDbCircle
 62
7
  6
CONTINUOUS
 10
5.2729179737
 20
5.3482304737
 40
0.45625
100
AcDbArc
 50
166.5149068116
 51
167.3312470346
  0
ARC
  5
945
100
AcDbEntity
  8
0
100
AcDbCircle
 62
7
  6
CONTINUOUS
 10
5.2729179737
 20
5.3482304737
 40
0.45625
100
AcDbArc
 50
169.5918298885
 51
170.4081701115
  0
ARC
  5
946
100
AcDbEntity
  8
0
100
AcDbCircle
 62
7
  6
CONTINUOUS
 10
5.2729179737
 20
5.3482304737
 40
0.45625
100
AcDbArc
 50
172.6687529654
 51
173.4850931884
  0
ARC
  5
947
100
AcDbEntity
  8
0
100
AcDbCircle
 62
7
  6
CONTINUOUS
 10
5.2729179737
 20
5.3482304737
 40
0.45625
100
AcDbArc
 50
175.7456760423
 51
176.5620162654
  0
ARC
  5
948
100
AcDbEntity
  8
0
100
AcDbCircle
 62
7
  6
CONTINUOUS
 10
5.2729179737
 20
5.3482304737
 40
0.45625
100
AcDbArc
 50
178.8225991193
 51
179.6389393423
  0
ARC
  5
949
100
AcDbEntity
  8
0
100
AcDbCircle
 62
7
  6
CONTINUOUS
 10
5.2729179737
 20
5.3482304737
 40
0.45625
100
AcDbArc
 50
181.8995221962
 51
182.7158624192
  0
ARC
  5
94A
100
AcDbEntity
  8
0
100
AcDbCircle
 62
7
  6
CONTINUOUS
 10
5.2729179737
 20
5.3482304737
 40
0.45625
100
AcDbArc
 50
184.9764452731
 51
185.7927854961
  0
ARC
  5
94B
100
AcDbEntity
  8
0
100
AcDbCircle
 62
7
  6
CONTINUOUS
 10
5.2729179737
 20
5.3482304737
 40
0.45625
100
AcDbArc
 50
188.05336835
 51
188.8697085731
  0
ARC
  5
94C
100
AcDbEntity
  8
0
100
AcDbCircle
 62
7
  6
CONTINUOUS
 10
5.2729179737
 20
5.3482304737
 40
0.45625
100
AcDbArc
 50
191.1302914269
 51
191.94663165
  0
ARC
  5
94D
100
AcDbEntity
  8
0
100
AcDbCircle
 62
7
  6
CONTINUOUS
 10
5.2729179737
 20
5.3482304737
 40
0.45625
100
AcDbArc
 50
194.2072145039
 51
195.0235547269
  0
ARC
  5
94E
100
AcDbEntity
  8
0
100
AcDbCircle
 62
7
  6
CONTINUOUS
 10
5.2729179737
 20
5.3482304737
 40
0.45625
100
AcDbArc
 50
197.2841375808
 51
198.1004778038
  0
ARC
  5
94F
100
AcDbEntity
  8
0
100
AcDbCircle
 62
7
  6
CONTINUOUS
 10
5.2729179737
 20
5.3482304737
 40
0.45625
100
AcDbArc
 50
200.3610606577
 51
201.1774008807
  0
ARC
  5
950
100
AcDbEntity
  8
0
100
AcDbCircle
 62
7
  6
CONTINUOUS
 10
5.2729179737
 20
5.3482304737
 40
0.45625
100
AcDbArc
 50
203.4379837346
 51
204.2543239577
  0
ARC
  5
951
100
AcDbEntity
  8
0
100
AcDbCircle
 62
7
  6
CONTINUOUS
 10
5.2729179737
 20
5.3482304737
 40
0.45625
100
AcDbArc
 50
206.5149068116
 51
207.3312470346
  0
ARC
  5
952
100
AcDbEntity
  8
0
100
AcDbCircle
 62
7
  6
CONTINUOUS
 10
5.2729179737
 20
5.3482304737
 40
0.45625
100
AcDbArc
 50
209.5918298885
 51
210.4081701115
  0
ARC
  5
953
100
AcDbEntity
  8
0
100
AcDbCircle
 62
7
  6
CONTINUOUS
 10
5.2729179737
 20
5.3482304737
 40
0.45625
100
AcDbArc
 50
212.6687529654
 51
213.4850931884
  0
ARC
  5
954
100
AcDbEntity
  8
0
100
AcDbCircle
 62
7
  6
CONTINUOUS
 10
5.2729179737
 20
5.3482304737
 40
0.45625
100
AcDbArc
 50
215.7456760423
 51
216.5620162654
  0
ARC
  5
955
100
AcDbEntity
  8
0
100
AcDbCircle
 62
7
  6
CONTINUOUS
 10
5.2729179737
 20
5.3482304737
 40
0.45625
100
AcDbArc
 50
218.8225991193
 51
219.6389393423
  0
ARC
  5
956
100
AcDbEntity
  8
0
100
AcDbCircle
 62
7
  6
CONTINUOUS
 10
5.2729179737
 20
5.3482304737
 40
0.45625
100
AcDbArc
 50
221.8995221962
 51
222.7158624192
  0
ARC
  5
957
100
AcDbEntity
  8
0
100
AcDbCircle
 62
7
  6
CONTINUOUS
 10
5.2729179737
 20
5.3482304737
 40
0.45625
100
AcDbArc
 50
224.9764452731
 51
225.7927854961
  0
ARC
  5
958
100
AcDbEntity
  8
0
100
AcDbCircle
 62
7
  6
CONTINUOUS
 10
5.2729179737
 20
5.3482304737
 40
0.45625
100
AcDbArc
 50
228.05336835
 51
228.8697085731
  0
ARC
  5
959
100
AcDbEntity
  8
0
100
AcDbCircle
 62
7
  6
CONTINUOUS
 10
5.2729179737
 20
5.3482304737
 40
0.45625
100
AcDbArc
 50
231.1302914269
 51
231.94663165
  0
ARC
  5
95A
100
AcDbEntity
  8
0
100
AcDbCircle
 62
7
  6
CONTINUOUS
 10
5.2729179737
 20
5.3482304737
 40
0.45625
100
AcDbArc
 50
234.2072145039
 51
235.0235547269
  0
ARC
  5
95B
100
AcDbEntity
  8
0
100
AcDbCircle
 62
7
  6
CONTINUOUS
 10
5.2729179737
 20
5.3482304737
 40
0.45625
100
AcDbArc
 50
237.2841375808
 51
238.1004778038
  0
ARC
  5
95C
100
AcDbEntity
  8
DEFAULT_2
100
AcDbCircle
 62
8
  6
HIDDEN
 10
5.2729179737
 20
5.3482304737
 40
0.4393611446
100
AcDbArc
 50
237.7184110036
 51
302.2815889964
  0
ARC
  5
95D
100
AcDbEntity
  8
0
100
AcDbCircle
 62
7
  6
CONTINUOUS
 10
5.2729179737
 20
5.3482304737
 40
0.4393611446
100
AcDbArc
 50
302.2815889964
 51
237.7184110036
  0
CIRCLE
  5
95E
100
AcDbEntity
  8
DEFAULT_2
100
AcDbCircle
 62
8
  6
HIDDEN
 10
5.2729179737
 20
5.3482304737
 40
0.40625
  0
CIRCLE
  5
95F
100
AcDbEntity
  8
DEFAULT_2
100
AcDbCircle
 62
8
  6
HIDDEN
 10
5.2729179737
 20
5.3482304737
 40
0.375
  0
ARC
  5
960
100
AcDbEntity
  8
DEFAULT_2
100
AcDbCircle
 62
8
  6
HIDDEN
 10
5.2729179737
 20
5.3482304737
 40
0.3168033698
100
AcDbArc
 50
222.2137059369
 51
317.7862940631
  0
ARC
  5
961
100
AcDbEntity
  8
0
100
AcDbCircle
 62
7
  6
CONTINUOUS
 10
5.2729179737
 20
5.3482304737
 40
0.3168033698
100
AcDbArc
 50
317.7862940631
 51
222.2137059369
  0
ARC
  5
962
100
AcDbEntity
  8
DEFAULT_2
100
AcDbCircle
 62
8
  6
HIDDEN
 10
5.2729179737
 20
5.3482304737
 40
0.3053135784
100
AcDbArc
 50
219.7703460661
 51
320.2296539387
  0
ARC
  5
963
100
AcDbEntity
  8
0
100
AcDbCircle
 62
7
  6
CONTINUOUS
 10
5.2729179737
 20
5.3482304737
 40
0.3053135784
100
AcDbArc
 50
320.2296539387
 51
219.7703460661
  0
ARC
  5
964
100
AcDbEntity
  8
DEFAULT_2
100
AcDbCircle
 62
8
  6
HIDDEN
 10
5.2729179737
 20
5.3482304737
 40
0.29625
100
AcDbArc
 50
217.6165277952
 51
322.3834722051
  0
ARC
  5
965
100
AcDbEntity
  8
0
100
AcDbCircle
 62
7
  6
CONTINUOUS
 10
5.2729179737
 20
5.3482304737
 40
0.29625
100
AcDbArc
 50
322.3834722051
 51
217.6165277952
  0
ARC
  5
966
100
AcDbEntity
  8
DEFAULT_2
100
AcDbCircle
 62
8
  6
HIDDEN
 10
5.2729179737
 20
5.3482304737
 40
0.28125
100
AcDbArc
 50
213.4506137962
 51
326.5493862038
  0
ARC
  5
967
100
AcDbEntity
  8
0
100
AcDbCircle
 62
7
  6
CONTINUOUS
 10
5.2729179737
 20
5.3482304737
 40
0.28125
100
AcDbArc
 50
326.5493862038
 51
213.4506137962
  0
ARC
  5
968
100
AcDbEntity
  8
DEFAULT_2
100
AcDbCircle
 62
8
  6
HIDDEN
 10
5.2729179737
 20
5.3482304737
 40
0.26625
100
AcDbArc
 50
208.1982467171
 51
331.8017532908
  0
ARC
  5
969
100
AcDbEntity
  8
0
100
AcDbCircle
 62
7
  6
CONTINUOUS
 10
5.2729179737
 20
5.3482304737
 40
0.26625
100
AcDbArc
 50
331.8017532908
 51
208.1982467171
  0
ARC
  5
96A
100
AcDbEntity
  8
DEFAULT_2
100
AcDbCircle
 62
8
  6
HIDDEN
 10
5.2729179737
 20
5.3482304737
 40
0.234625
100
AcDbArc
 50
180.0
 51
360.0
  0
ARC
  5
96B
100
AcDbEntity
  8
0
100
AcDbCircle
 62
7
  6
CONTINUOUS
 10
5.2729179737
 20
5.3482304737
 40
0.234625
100
AcDbArc
 50
0.0
 51
180.0
  0
ARC
  5
96C
100
AcDbEntity
  8
0
100
AcDbCircle
 62
7
  6
CONTINUOUS
 10
7.6254179737
 20
5.1934236555
 40
0.0378068182
100
AcDbArc
 50
7.3044455606
 51
90.0
  0
ARC
  5
96D
100
AcDbEntity
  8
0
100
AcDbCircle
 62
7
  6
CONTINUOUS
 10
7.6941679737
 20
5.1982304737
 40
0.03125
100
AcDbArc
 50
180.0
 51
360.0
  0
ARC
  5
96E
100
AcDbEntity
  8
0
100
AcDbCircle
 62
7
  6
CONTINUOUS
 10
9.0454179737
 20
5.1869804737
 40
0.03
100
AcDbArc
 50
180.0
 51
360.0
  0
ARC
  5
96F
100
AcDbEntity
  8
DEFAULT_2
100
AcDbCircle
 62
8
  6
HIDDEN
 10
7.2729179737
 20
5.3482304737
 40
0.475
100
AcDbArc
 50
338.6297686705
 51
21.3702313295
  0
ARC
  5
970
100
AcDbEntity
  8
0
100
AcDbCircle
 62
7
  6
CONTINUOUS
 10
7.2729179737
 20
5.3482304737
 40
0.475
100
AcDbArc
 50
21.3702313295
 51
338.6297686705
  0
CIRCLE
  5
971
100
AcDbEntity
  8
DEFAULT_2
100
AcDbCircle
 62
8
  6
HIDDEN
 10
7.2729179737
 20
5.3482304737
 40
0.45
  0
ARC
  5
972
100
AcDbEntity
  8
DEFAULT_2
100
AcDbCircle
 62
8
  6
HIDDEN
 10
7.2729179737
 20
5.3482304737
 40
0.41625
100
AcDbArc
 50
339.3386374058
 51
20.6613625943
  0
ARC
  5
973
100
AcDbEntity
  8
0
100
AcDbCircle
 62
7
  6
CONTINUOUS
 10
7.2729179737
 20
5.3482304737
 40
0.41625
100
AcDbArc
 50
20.6613625942
 51
339.3386374058
  0
ARC
  5
974
100
AcDbEntity
  8
DEFAULT_2
100
AcDbCircle
 62
8
  6
HIDDEN
 10
7.2729179737
 20
5.3482304737
 40
0.382862128
100
AcDbArc
 50
341.9256797578
 51
18.0743202422
  0
ARC
  5
975
100
AcDbEntity
  8
0
100
AcDbCircle
 62
7
  6
CONTINUOUS
 10
7.2729179737
 20
5.3482304737
 40
0.382862128
100
AcDbArc
 50
18.0743202422
 51
341.9256797578
  0
ARC
  5
976
100
AcDbEntity
  8
DEFAULT_2
100
AcDbCircle
 62
8
  6
HIDDEN
 10
7.2729179737
 20
5.3482304737
 40
0.3685530399
100
AcDbArc
 50
343.0415670937
 51
16.9584328688
  0
ARC
  5
977
100
AcDbEntity
  8
0
100
AcDbCircle
 62
7
  6
CONTINUOUS
 10
7.2729179737
 20
5.3482304737
 40
0.3685530399
100
AcDbArc
 50
16.9584328688
 51
343.0415670937
  0
ARC
  5
978
100
AcDbEntity
  8
DEFAULT_2
100
AcDbCircle
 62
8
  6
HIDDEN
 10
7.2729179737
 20
5.3482304737
 40
0.3575
100
AcDbArc
 50
14.299706493
 51
15.3706231773
  0
ARC
  5
979
100
AcDbEntity
  8
DEFAULT_2
100
AcDbCircle
 62
8
  6
HIDDEN
 10
7.2729179737
 20
5.3482304737
 40
0.3575
100
AcDbArc
 50
10.343662537
 51
11.4145792212
  0
ARC
  5
97A
100
AcDbEntity
  8
DEFAULT_2
100
AcDbCircle
 62
8
  6
HIDDEN
 10
7.2729179737
 20
5.3482304737
 40
0.3575
100
AcDbArc
 50
6.387618581
 51
7.4585352652
  0
ARC
  5
97B
100
AcDbEntity
  8
DEFAULT_2
100
AcDbCircle
 62
8
  6
HIDDEN
 10
7.2729179737
 20
5.3482304737
 40
0.3575
100
AcDbArc
 50
2.4315746249
 51
3.5024913092
  0
ARC
  5
97C
100
AcDbEntity
  8
DEFAULT_2
100
AcDbCircle
 62
8
  6
HIDDEN
 10
7.2729179737
 20
5.3482304737
 40
0.3575
100
AcDbArc
 50
358.4755306689
 51
359.5464473531
  0
ARC
  5
97D
100
AcDbEntity
  8
DEFAULT_2
100
AcDbCircle
 62
8
  6
HIDDEN
 10
7.2729179737
 20
5.3482304737
 40
0.3575
100
AcDbArc
 50
354.5194867128
 51
355.5904033971
  0
ARC
  5
97E
100
AcDbEntity
  8
DEFAULT_2
100
AcDbCircle
 62
8
  6
HIDDEN
 10
7.2729179737
 20
5.3482304737
 40
0.3575
100
AcDbArc
 50
350.5634427568
 51
351.634359441
  0
ARC
  5
97F
100
AcDbEntity
  8
DEFAULT_2
100
AcDbCircle
 62
8
  6
HIDDEN
 10
7.2729179737
 20
5.3482304737
 40
0.3575
100
AcDbArc
 50
346.6073988007
 51
347.678315485
  0
ARC
  5
980
100
AcDbEntity
  8
0
100
AcDbCircle
 62
7
  6
CONTINUOUS
 10
7.2729179737
 20
5.3482304737
 40
0.3575
100
AcDbArc
 50
267.4865196799
 51
268.5574363641
  0
ARC
  5
981
100
AcDbEntity
  8
0
100
AcDbCircle
 62
7
  6
CONTINUOUS
 10
7.2729179737
 20
5.3482304737
 40
0.3575
100
AcDbArc
 50
263.5304757238
 51
264.6013924081
  0
ARC
  5
982
100
AcDbEntity
  8
0
100
AcDbCircle
 62
7
  6
CONTINUOUS
 10
7.2729179737
 20
5.3482304737
 40
0.3575
100
AcDbArc
 50
259.5744317678
 51
260.645348452
  0
ARC
  5
983
100
AcDbEntity
  8
0
100
AcDbCircle
 62
7
  6
CONTINUOUS
 10
7.2729179737
 20
5.3482304737
 40
0.3575
100
AcDbArc
 50
255.6183878117
 51
256.689304496
  0
ARC
  5
984
100
AcDbEntity
  8
0
100
AcDbCircle
 62
7
  6
CONTINUOUS
 10
7.2729179737
 20
5.3482304737
 40
0.3575
100
AcDbArc
 50
251.6623438557
 51
252.7332605399
  0
ARC
  5
985
100
AcDbEntity
  8
0
100
AcDbCircle
 62
7
  6
CONTINUOUS
 10
7.2729179737
 20
5.3482304737
 40
0.3575
100
AcDbArc
 50
247.7062998996
 51
248.7772165839
  0
ARC
  5
986
100
AcDbEntity
  8
0
100
AcDbCircle
 62
7
  6
CONTINUOUS
 10
7.2729179737
 20
5.3482304737
 40
0.3575
100
AcDbArc
 50
243.7502559436
 51
244.8211726278
  0
ARC
  5
987
100
AcDbEntity
  8
0
100
AcDbCircle
 62
7
  6
CONTINUOUS
 10
7.2729179737
 20
5.3482304737
 40
0.3575
100
AcDbArc
 50
239.7942119875
 51
240.8651286718
  0
ARC
  5
988
100
AcDbEntity
  8
0
100
AcDbCircle
 62
7
  6
CONTINUOUS
 10
7.2729179737
 20
5.3482304737
 40
0.3575
100
AcDbArc
 50
235.8381680315
 51
236.9090847157
  0
ARC
  5
989
100
AcDbEntity
  8
0
100
AcDbCircle
 62
7
  6
CONTINUOUS
 10
7.2729179737
 20
5.3482304737
 40
0.3575
100
AcDbArc
 50
231.8821240755
 51
232.9530407597
  0
ARC
  5
98A
100
AcDbEntity
  8
0
100
AcDbCircle
 62
7
  6
CONTINUOUS
 10
7.2729179737
 20
5.3482304737
 40
0.3575
100
AcDbArc
 50
227.9260801194
 51
228.9969968037
  0
ARC
  5
98B
100
AcDbEntity
  8
0
100
AcDbCircle
 62
7
  6
CONTINUOUS
 10
7.2729179737
 20
5.3482304737
 40
0.3575
100
AcDbArc
 50
223.9700361634
 51
225.0409528476
  0
ARC
  5
98C
100
AcDbEntity
  8
0
100
AcDbCircle
 62
7
  6
CONTINUOUS
 10
7.2729179737
 20
5.3482304737
 40
0.3575
100
AcDbArc
 50
220.0139922073
 51
221.0849088916
  0
ARC
  5
98D
100
AcDbEntity
  8
0
100
AcDbCircle
 62
7
  6
CONTINUOUS
 10
7.2729179737
 20
5.3482304737
 40
0.3575
100
AcDbArc
 50
216.0579482513
 51
217.1288649355
  0
ARC
  5
98E
100
AcDbEntity
  8
0
100
AcDbCircle
 62
7
  6
CONTINUOUS
 10
7.2729179737
 20
5.3482304737
 40
0.3575
100
AcDbArc
 50
212.1019042952
 51
213.1728209795
  0
ARC
  5
98F
100
AcDbEntity
  8
0
100
AcDbCircle
 62
7
  6
CONTINUOUS
 10
7.2729179737
 20
5.3482304737
 40
0.3575
100
AcDbArc
 50
208.1458603392
 51
209.2167770234
  0
ARC
  5
990
100
AcDbEntity
  8
0
100
AcDbCircle
 62
7
  6
CONTINUOUS
 10
7.2729179737
 20
5.3482304737
 40
0.3575
100
AcDbArc
 50
204.1898163832
 51
205.2607330674
  0
ARC
  5
991
100
AcDbEntity
  8
0
100
AcDbCircle
 62
7
  6
CONTINUOUS
 10
7.2729179737
 20
5.3482304737
 40
0.3575
100
AcDbArc
 50
200.2337724271
 51
201.3046891114
  0
ARC
  5
992
100
AcDbEntity
  8
0
100
AcDbCircle
 62
7
  6
CONTINUOUS
 10
7.2729179737
 20
5.3482304737
 40
0.3575
100
AcDbArc
 50
196.2777284711
 51
197.3486451553
  0
ARC
  5
993
100
AcDbEntity
  8
0
100
AcDbCircle
 62
7
  6
CONTINUOUS
 10
7.2729179737
 20
5.3482304737
 40
0.3575
100
AcDbArc
 50
192.321684515
 51
193.3926011993
  0
ARC
  5
994
100
AcDbEntity
  8
0
100
AcDbCircle
 62
7
  6
CONTINUOUS
 10
7.2729179737
 20
5.3482304737
 40
0.3575
100
AcDbArc
 50
188.365640559
 51
189.4365572432
  0
ARC
  5
995
100
AcDbEntity
  8
0
100
AcDbCircle
 62
7
  6
CONTINUOUS
 10
7.2729179737
 20
5.3482304737
 40
0.3575
100
AcDbArc
 50
184.4095966029
 51
185.4805132872
  0
ARC
  5
996
100
AcDbEntity
  8
0
100
AcDbCircle
 62
7
  6
CONTINUOUS
 10
7.2729179737
 20
5.3482304737
 40
0.3575
100
AcDbArc
 50
180.4535526469
 51
181.5244693311
  0
ARC
  5
997
100
AcDbEntity
  8
0
100
AcDbCircle
 62
7
  6
CONTINUOUS
 10
7.2729179737
 20
5.3482304737
 40
0.3575
100
AcDbArc
 50
176.4975086908
 51
177.5684253751
  0
ARC
  5
998
100
AcDbEntity
  8
0
100
AcDbCircle
 62
7
  6
CONTINUOUS
 10
7.2729179737
 20
5.3482304737
 40
0.3575
100
AcDbArc
 50
172.5414647348
 51
173.612381419
  0
ARC
  5
999
100
AcDbEntity
  8
0
100
AcDbCircle
 62
7
  6
CONTINUOUS
 10
7.2729179737
 20
5.3482304737
 40
0.3575
100
AcDbArc
 50
168.5854207788
 51
169.656337463
  0
ARC
  5
99A
100
AcDbEntity
  8
0
100
AcDbCircle
 62
7
  6
CONTINUOUS
 10
7.2729179737
 20
5.3482304737
 40
0.3575
100
AcDbArc
 50
164.6293768227
 51
165.700293507
  0
ARC
  5
99B
100
AcDbEntity
  8
0
100
AcDbCircle
 62
7
  6
CONTINUOUS
 10
7.2729179737
 20
5.3482304737
 40
0.3575
100
AcDbArc
 50
160.6733328667
 51
161.7442495509
  0
ARC
  5
99C
100
AcDbEntity
  8
0
100
AcDbCircle
 62
7
  6
CONTINUOUS
 10
7.2729179737
 20
5.3482304737
 40
0.3575
100
AcDbArc
 50
156.7172889106
 51
157.7882055949
  0
ARC
  5
99D
100
AcDbEntity
  8
0
100
AcDbCircle
 62
7
  6
CONTINUOUS
 10
7.2729179737
 20
5.3482304737
 40
0.3575
100
AcDbArc
 50
152.7612449546
 51
153.8321616388
  0
ARC
  5
99E
100
AcDbEntity
  8
0
100
AcDbCircle
 62
7
  6
CONTINUOUS
 10
7.2729179737
 20
5.3482304737
 40
0.3575
100
AcDbArc
 50
148.8052009985
 51
149.8761176828
  0
ARC
  5
99F
100
AcDbEntity
  8
0
100
AcDbCircle
 62
7
  6
CONTINUOUS
 10
7.2729179737
 20
5.3482304737
 40
0.3575
100
AcDbArc
 50
144.8491570425
 51
145.9200737267
  0
ARC
  5
9A0
100
AcDbEntity
  8
0
100
AcDbCircle
 62
7
  6
CONTINUOUS
 10
7.2729179737
 20
5.3482304737
 40
0.3575
100
AcDbArc
 50
140.8931130864
 51
141.9640297707
  0
ARC
  5
9A1
100
AcDbEntity
  8
0
100
AcDbCircle
 62
7
  6
CONTINUOUS
 10
7.2729179737
 20
5.3482304737
 40
0.3575
100
AcDbArc
 50
136.9370691304
 51
138.0079858147
  0
ARC
  5
9A2
100
AcDbEntity
  8
0
100
AcDbCircle
 62
7
  6
CONTINUOUS
 10
7.2729179737
 20
5.3482304737
 40
0.3575
100
AcDbArc
 50
132.9810251744
 51
134.0519418586
  0
ARC
  5
9A3
100
AcDbEntity
  8
0
100
AcDbCircle
 62
7
  6
CONTINUOUS
 10
7.2729179737
 20
5.3482304737
 40
0.3575
100
AcDbArc
 50
129.0249812183
 51
130.0958979026
  0
ARC
  5
9A4
100
AcDbEntity
  8
0
100
AcDbCircle
 62
7
  6
CONTINUOUS
 10
7.2729179737
 20
5.3482304737
 40
0.3575
100
AcDbArc
 50
125.0689372623
 51
126.1398539465
  0
ARC
  5
9A5
100
AcDbEntity
  8
0
100
AcDbCircle
 62
7
  6
CONTINUOUS
 10
7.2729179737
 20
5.3482304737
 40
0.3575
100
AcDbArc
 50
121.1128933062
 51
122.1838099905
  0
ARC
  5
9A6
100
AcDbEntity
  8
0
100
AcDbCircle
 62
7
  6
CONTINUOUS
 10
7.2729179737
 20
5.3482304737
 40
0.3575
100
AcDbArc
 50
117.1568493502
 51
118.2277660344
  0
ARC
  5
9A7
100
AcDbEntity
  8
0
100
AcDbCircle
 62
7
  6
CONTINUOUS
 10
7.2729179737
 20
5.3482304737
 40
0.3575
100
AcDbArc
 50
113.2008053941
 51
114.2717220784
  0
ARC
  5
9A8
100
AcDbEntity
  8
0
100
AcDbCircle
 62
7
  6
CONTINUOUS
 10
7.2729179737
 20
5.3482304737
 40
0.3575
100
AcDbArc
 50
109.2447614381
 51
110.3156781223
  0
ARC
  5
9A9
100
AcDbEntity
  8
0
100
AcDbCircle
 62
7
  6
CONTINUOUS
 10
7.2729179737
 20
5.3482304737
 40
0.3575
100
AcDbArc
 50
105.2887174821
 51
106.3596341663
  0
ARC
  5
9AA
100
AcDbEntity
  8
0
100
AcDbCircle
 62
7
  6
CONTINUOUS
 10
7.2729179737
 20
5.3482304737
 40
0.3575
100
AcDbArc
 50
101.332673526
 51
102.4035902103
  0
ARC
  5
9AB
100
AcDbEntity
  8
0
100
AcDbCircle
 62
7
  6
CONTINUOUS
 10
7.2729179737
 20
5.3482304737
 40
0.3575
100
AcDbArc
 50
97.37662957
 51
98.4475462542
  0
ARC
  5
9AC
100
AcDbEntity
  8
0
100
AcDbCircle
 62
7
  6
CONTINUOUS
 10
7.2729179737
 20
5.3482304737
 40
0.3575
100
AcDbArc
 50
93.4205856139
 51
94.4915022982
  0
ARC
  5
9AD
100
AcDbEntity
  8
0
100
AcDbCircle
 62
7
  6
CONTINUOUS
 10
7.2729179737
 20
5.3482304737
 40
0.3575
100
AcDbArc
 50
89.4645416579
 51
90.5354583421
  0
ARC
  5
9AE
100
AcDbEntity
  8
0
100
AcDbCircle
 62
7
  6
CONTINUOUS
 10
7.2729179737
 20
5.3482304737
 40
0.3575
100
AcDbArc
 50
85.5084977018
 51
86.5794143861
  0
ARC
  5
9AF
100
AcDbEntity
  8
0
100
AcDbCircle
 62
7
  6
CONTINUOUS
 10
7.2729179737
 20
5.3482304737
 40
0.3575
100
AcDbArc
 50
81.5524537458
 51
82.62337043
  0
ARC
  5
9B0
100
AcDbEntity
  8
0
100
AcDbCircle
 62
7
  6
CONTINUOUS
 10
7.2729179737
 20
5.3482304737
 40
0.3575
100
AcDbArc
 50
77.5964097897
 51
78.667326474
  0
ARC
  5
9B1
100
AcDbEntity
  8
0
100
AcDbCircle
 62
7
  6
CONTINUOUS
 10
7.2729179737
 20
5.3482304737
 40
0.3575
100
AcDbArc
 50
73.6403658337
 51
74.7112825179
  0
ARC
  5
9B2
100
AcDbEntity
  8
0
100
AcDbCircle
 62
7
  6
CONTINUOUS
 10
7.2729179737
 20
5.3482304737
 40
0.3575
100
AcDbArc
 50
69.6843218777
 51
70.7552385619
  0
ARC
  5
9B3
100
AcDbEntity
  8
0
100
AcDbCircle
 62
7
  6
CONTINUOUS
 10
7.2729179737
 20
5.3482304737
 40
0.3575
100
AcDbArc
 50
65.7282779216
 51
66.7991946059
  0
ARC
  5
9B4
100
AcDbEntity
  8
0
100
AcDbCircle
 62
7
  6
CONTINUOUS
 10
7.2729179737
 20
5.3482304737
 40
0.3575
100
AcDbArc
 50
61.7722339656
 51
62.8431506498
  0
ARC
  5
9B5
100
AcDbEntity
  8
0
100
AcDbCircle
 62
7
  6
CONTINUOUS
 10
7.2729179737
 20
5.3482304737
 40
0.3575
100
AcDbArc
 50
57.8161900095
 51
58.8871066938
  0
ARC
  5
9B6
100
AcDbEntity
  8
0
100
AcDbCircle
 62
7
  6
CONTINUOUS
 10
7.2729179737
 20
5.3482304737
 40
0.3575
100
AcDbArc
 50
53.8601460535
 51
54.9310627377
  0
ARC
  5
9B7
100
AcDbEntity
  8
0
100
AcDbCircle
 62
7
  6
CONTINUOUS
 10
7.2729179737
 20
5.3482304737
 40
0.3575
100
AcDbArc
 50
49.9041020974
 51
50.9750187817
  0
ARC
  5
9B8
100
AcDbEntity
  8
0
100
AcDbCircle
 62
7
  6
CONTINUOUS
 10
7.2729179737
 20
5.3482304737
 40
0.3575
100
AcDbArc
 50
45.9480581414
 51
47.0189748256
  0
ARC
  5
9B9
100
AcDbEntity
  8
0
100
AcDbCircle
 62
7
  6
CONTINUOUS
 10
7.2729179737
 20
5.3482304737
 40
0.3575
100
AcDbArc
 50
41.9920141853
 51
43.0629308696
  0
ARC
  5
9BA
100
AcDbEntity
  8
0
100
AcDbCircle
 62
7
  6
CONTINUOUS
 10
7.2729179737
 20
5.3482304737
 40
0.3575
100
AcDbArc
 50
38.0359702293
 51
39.1068869136
  0
ARC
  5
9BB
100
AcDbEntity
  8
0
100
AcDbCircle
 62
7
  6
CONTINUOUS
 10
7.2729179737
 20
5.3482304737
 40
0.3575
100
AcDbArc
 50
34.0799262733
 51
35.1508429575
  0
ARC
  5
9BC
100
AcDbEntity
  8
0
100
AcDbCircle
 62
7
  6
CONTINUOUS
 10
7.2729179737
 20
5.3482304737
 40
0.3575
100
AcDbArc
 50
30.1238823172
 51
31.1947990015
  0
ARC
  5
9BD
100
AcDbEntity
  8
0
100
AcDbCircle
 62
7
  6
CONTINUOUS
 10
7.2729179737
 20
5.3482304737
 40
0.3575
100
AcDbArc
 50
26.1678383612
 51
27.2387550454
  0
ARC
  5
9BE
100
AcDbEntity
  8
0
100
AcDbCircle
 62
7
  6
CONTINUOUS
 10
7.2729179737
 20
5.3482304737
 40
0.3575
100
AcDbArc
 50
22.2117944051
 51
23.2827110894
  0
ARC
  5
9BF
100
AcDbEntity
  8
0
100
AcDbCircle
 62
7
  6
CONTINUOUS
 10
7.2729179737
 20
5.3482304737
 40
0.3575
100
AcDbArc
 50
18.2557504491
 51
19.3266671333
  0
ARC
  5
9C0
100
AcDbEntity
  8
0
100
AcDbCircle
 62
7
  6
CONTINUOUS
 10
7.2729179737
 20
5.3482304737
 40
0.3575
100
AcDbArc
 50
342.6513548447
 51
343.7222715289
  0
ARC
  5
9C1
100
AcDbEntity
  8
0
100
AcDbCircle
 62
7
  6
CONTINUOUS
 10
7.2729179737
 20
5.3482304737
 40
0.3575
100
AcDbArc
 50
338.6953108886
 51
339.7662275729
  0
ARC
  5
9C2
100
AcDbEntity
  8
0
100
AcDbCircle
 62
7
  6
CONTINUOUS
 10
7.2729179737
 20
5.3482304737
 40
0.3575
100
AcDbArc
 50
334.7392669326
 51
335.8101836168
  0
ARC
  5
9C3
100
AcDbEntity
  8
0
100
AcDbCircle
 62
7
  6
CONTINUOUS
 10
7.2729179737
 20
5.3482304737
 40
0.3575
100
AcDbArc
 50
330.7832229766
 51
331.8541396608
  0
ARC
  5
9C4
100
AcDbEntity
  8
0
100
AcDbCircle
 62
7
  6
CONTINUOUS
 10
7.2729179737
 20
5.3482304737
 40
0.3575
100
AcDbArc
 50
326.8271790205
 51
327.8980957048
  0
ARC
  5
9C5
100
AcDbEntity
  8
0
100
AcDbCircle
 62
7
  6
CONTINUOUS
 10
7.2729179737
 20
5.3482304737
 40
0.3575
100
AcDbArc
 50
322.8711350645
 51
323.9420517487
  0
ARC
  5
9C6
100
AcDbEntity
  8
0
100
AcDbCircle
 62
7
  6
CONTINUOUS
 10
7.2729179737
 20
5.3482304737
 40
0.3575
100
AcDbArc
 50
318.9150911084
 51
319.9860077927
  0
ARC
  5
9C7
100
AcDbEntity
  8
0
100
AcDbCircle
 62
7
  6
CONTINUOUS
 10
7.2729179737
 20
5.3482304737
 40
0.3575
100
AcDbArc
 50
314.9590471524
 51
316.0299638366
  0
ARC
  5
9C8
100
AcDbEntity
  8
0
100
AcDbCircle
 62
7
  6
CONTINUOUS
 10
7.2729179737
 20
5.3482304737
 40
0.3575
100
AcDbArc
 50
311.0030031963
 51
312.0739198806
  0
ARC
  5
9C9
100
AcDbEntity
  8
0
100
AcDbCircle
 62
7
  6
CONTINUOUS
 10
7.2729179737
 20
5.3482304737
 40
0.3575
100
AcDbArc
 50
307.0469592403
 51
308.1178759245
  0
ARC
  5
9CA
100
AcDbEntity
  8
0
100
AcDbCircle
 62
7
  6
CONTINUOUS
 10
7.2729179737
 20
5.3482304737
 40
0.3575
100
AcDbArc
 50
303.0909152843
 51
304.1618319685
  0
ARC
  5
9CB
100
AcDbEntity
  8
0
100
AcDbCircle
 62
7
  6
CONTINUOUS
 10
7.2729179737
 20
5.3482304737
 40
0.3575
100
AcDbArc
 50
299.1348713282
 51
300.2057880125
  0
ARC
  5
9CC
100
AcDbEntity
  8
0
100
AcDbCircle
 62
7
  6
CONTINUOUS
 10
7.2729179737
 20
5.3482304737
 40
0.3575
100
AcDbArc
 50
295.1788273722
 51
296.2497440564
  0
ARC
  5
9CD
100
AcDbEntity
  8
0
100
AcDbCircle
 62
7
  6
CONTINUOUS
 10
7.2729179737
 20
5.3482304737
 40
0.3575
100
AcDbArc
 50
291.2227834161
 51
292.2937001004
  0
ARC
  5
9CE
100
AcDbEntity
  8
0
100
AcDbCircle
 62
7
  6
CONTINUOUS
 10
7.2729179737
 20
5.3482304737
 40
0.3575
100
AcDbArc
 50
287.2667394601
 51
288.3376561443
  0
ARC
  5
9CF
100
AcDbEntity
  8
0
100
AcDbCircle
 62
7
  6
CONTINUOUS
 10
7.2729179737
 20
5.3482304737
 40
0.3575
100
AcDbArc
 50
283.310695504
 51
284.3816121883
  0
ARC
  5
9D0
100
AcDbEntity
  8
0
100
AcDbCircle
 62
7
  6
CONTINUOUS
 10
7.2729179737
 20
5.3482304737
 40
0.3575
100
AcDbArc
 50
279.354651548
 51
280.4255682322
  0
ARC
  5
9D1
100
AcDbEntity
  8
0
100
AcDbCircle
 62
7
  6
CONTINUOUS
 10
7.2729179737
 20
5.3482304737
 40
0.3575
100
AcDbArc
 50
275.3986075919
 51
276.4695242762
  0
ARC
  5
9D2
100
AcDbEntity
  8
0
100
AcDbCircle
 62
7
  6
CONTINUOUS
 10
7.2729179737
 20
5.3482304737
 40
0.3575
100
AcDbArc
 50
271.4425636359
 51
272.5134803201
  0
ARC
  5
9D3
100
AcDbEntity
  8
DEFAULT_2
100
AcDbCircle
 62
8
  6
HIDDEN
 10
7.2729179737
 20
5.3482304737
 40
0.3457531755
100
AcDbArc
 50
343.619676436
 51
16.380323564
  0
ARC
  5
9D4
100
AcDbEntity
  8
0
100
AcDbCircle
 62
7
  6
CONTINUOUS
 10
7.2729179737
 20
5.3482304737
 40
0.3457531755
100
AcDbArc
 50
16.380323564
 51
343.619676436
  0
CIRCLE
  5
9D5
100
AcDbEntity
  8
DEFAULT_2
100
AcDbCircle
 62
8
  6
HIDDEN
 10
7.2729179737
 20
5.3482304737
 40
0.3125
  0
CIRCLE
  5
9D6
100
AcDbEntity
  8
DEFAULT_2
100
AcDbCircle
 62
8
  6
HIDDEN
 10
7.2729179737
 20
5.3482304737
 40
0.3
  0
ARC
  5
9D7
100
AcDbEntity
  8
DEFAULT_2
100
AcDbCircle
 62
8
  6
HIDDEN
 10
7.2729179737
 20
5.3482304737
 40
0.2416529628
100
AcDbArc
 50
336.2024399062
 51
23.7975600938
  0
ARC
  5
9D8
100
AcDbEntity
  8
0
100
AcDbCircle
 62
7
  6
CONTINUOUS
 10
7.2729179737
 20
5.3482304737
 40
0.2416529628
100
AcDbArc
 50
23.7975600938
 51
336.2024399062
  0
ARC
  5
9D9
100
AcDbEntity
  8
DEFAULT_2
100
AcDbCircle
 62
8
  6
HIDDEN
 10
7.2729179737
 20
5.3482304737
 40
0.2291609373
100
AcDbArc
 50
334.8175186097
 51
25.1824813902
  0
ARC
  5
9DA
100
AcDbEntity
  8
0
100
AcDbCircle
 62
7
  6
CONTINUOUS
 10
7.2729179737
 20
5.3482304737
 40
0.2291609373
100
AcDbArc
 50
25.1824813902
 51
334.8175186097
  0
ARC
  5
9DB
100
AcDbEntity
  8
DEFAULT_2
100
AcDbCircle
 62
8
  6
HIDDEN
 10
7.2729179737
 20
5.3482304737
 40
0.215
100
AcDbArc
 50
333.0302734502
 51
26.9697265846
  0
ARC
  5
9DC
100
AcDbEntity
  8
0
100
AcDbCircle
 62
7
  6
CONTINUOUS
 10
7.2729179737
 20
5.3482304737
 40
0.215
100
AcDbArc
 50
26.9697265846
 51
333.0302734502
  0
ARC
  5
9DD
100
AcDbEntity
  8
DEFAULT_2
100
AcDbCircle
 62
8
  6
HIDDEN
 10
7.2729179737
 20
5.3482304737
 40
0.2
100
AcDbArc
 50
330.8202219137
 51
29.1797780863
  0
ARC
  5
9DE
100
AcDbEntity
  8
0
100
AcDbCircle
 62
7
  6
CONTINUOUS
 10
7.2729179737
 20
5.3482304737
 40
0.2
100
AcDbArc
 50
29.1797780863
 51
330.8202219137
  0
ARC
  5
9DF
100
AcDbEntity
  8
DEFAULT_2
100
AcDbCircle
 62
8
  6
HIDDEN
 10
7.2729179737
 20
5.3482304737
 40
0.185
100
AcDbArc
 50
328.191700887
 51
31.808299114
  0
ARC
  5
9E0
100
AcDbEntity
  8
0
100
AcDbCircle
 62
7
  6
CONTINUOUS
 10
7.2729179737
 20
5.3482304737
 40
0.185
100
AcDbArc
 50
31.808299114
 51
328.191700887
  0
ARC
  5
9E1
100
AcDbEntity
  8
DEFAULT_2
100
AcDbCircle
 62
8
  6
HIDDEN
 10
7.2729179737
 20
5.3482304737
 40
0.18375
100
AcDbArc
 50
327.9504610853
 51
32.0495389148
  0
ARC
  5
9E2
100
AcDbEntity
  8
0
100
AcDbCircle
 62
7
  6
CONTINUOUS
 10
7.2729179737
 20
5.3482304737
 40
0.18375
100
AcDbArc
 50
32.0495389148
 51
327.9504610853
  0
CIRCLE
  5
9E3
100
AcDbEntity
  8
DEFAULT_2
100
AcDbCircle
 62
8
  6
HIDDEN
 10
7.2729179737
 20
5.3482304737
 40
0.1575
  0
ARC
  5
9E4
100
AcDbEntity
  8
DEFAULT_2
100
AcDbCircle
 62
8
  6
HIDDEN
 10
7.2729179737
 20
5.3482304737
 40
0.15375
100
AcDbArc
 50
320.6383714512
 51
39.3616285488
  0
ARC
  5
9E5
100
AcDbEntity
  8
0
100
AcDbCircle
 62
7
  6
CONTINUOUS
 10
7.2729179737
 20
5.3482304737
 40
0.15375
100
AcDbArc
 50
39.3616285488
 51
320.6383714512
  0
CIRCLE
  5
9E6
100
AcDbEntity
  8
DEFAULT_2
100
AcDbCircle
 62
8
  6
HIDDEN
 10
7.2729179737
 20
5.3482304737
 40
0.14875
  0
ARC
  5
9E7
100
AcDbEntity
  8
DEFAULT_2
100
AcDbCircle
 62
8
  6
HIDDEN
 10
7.2729179737
 20
5.3482304737
 40
0.1075
100
AcDbArc
 50
294.8934112168
 51
65.106588772
  0
ARC
  5
9E8
100
AcDbEntity
  8
0
100
AcDbCircle
 62
7
  6
CONTINUOUS
 10
7.2729179737
 20
5.3482304737
 40
0.1075
100
AcDbArc
 50
65.106588772
 51
294.8934112168
  0
ARC
  5
9E9
100
AcDbEntity
  8
DEFAULT_2
100
AcDbCircle
 62
8
  6
HIDDEN
 10
7.2729179737
 20
5.3482304737
 40
0.0975
100
AcDbArc
 50
270.0
 51
90.0
  0
ARC
  5
9EA
100
AcDbEntity
  8
0
100
AcDbCircle
 62
7
  6
CONTINUOUS
 10
7.2729179737
 20
5.3482304737
 40
0.0975
100
AcDbArc
 50
90.0
 51
270.0
  0
ARC
  5
9EB
100
AcDbEntity
  8
0
100
AcDbCircle
 62
7
  6
CONTINUOUS
 10
7.6254179737
 20
5.5030372918
 40
0.0378068182
100
AcDbArc
 50
270.0
 51
352.6955544394
  0
ARC
  5
9EC
100
AcDbEntity
  8
0
100
AcDbCircle
 62
7
  6
CONTINUOUS
 10
7.6941679737
 20
5.4982304737
 40
0.03125
100
AcDbArc
 50
0.0
 51
180.0
  0
ARC
  5
9ED
100
AcDbEntity
  8
0
100
AcDbCircle
 62
7
  6
CONTINUOUS
 10
9.0454179737
 20
5.5094804737
 40
0.03
100
AcDbArc
 50
0.0
 51
180.0
  0
ENDSEC
  0
SECTION
  2
OBJECTS
  0
DICTIONARY
  5
C
100
AcDbDictionary
280
0
281
1
  3
ACAD_GROUP
350
D
  3
ACAD_MLINESTYLE
350
17
  3
ACAD_LAYOUT
350
1A
  3
ACAD_PLOTSETTINGS
350
19
  3
ACAD_PLOTSTYLENAME
350
E
  0
DICTIONARY
  5
D
102
{ACAD_REACTORS
330
C
102
}
100
AcDbDictionary
280
0
281
1
  0
ACDBDICTIONARYWDFLT
  5
E
102
{ACAD_REACTORS
330
C
102
}
100
AcDbDictionary
281
1
  3
Normal
350
F
100
AcDbDictionaryWithDefault
340
F
  0
DICTIONARY
  5
17
102
{ACAD_REACTORS
330
C
102
}
100
AcDbDictionary
280
0
281
1
  3
Standard
350
18
  0
DICTIONARY
  5
19
102
{ACAD_REACTORS
330
C
102
}
100
AcDbDictionary
281
1
  0
DICTIONARY
  5
1A
102
{ACAD_REACTORS
330
C
102
}
100
AcDbDictionary
281
1
  3
Model
350
9EE
  3
Layout1
350
9EF
  0
ACDBPLACEHOLDER
  5
F
102
{ACAD_REACTORS
330
E
102
}
  0
MLINESTYLE
  5
18
102
{ACAD_REACTORS
330
17
102
}
100
AcDbMlineStyle
  2
STANDARD
 70
0
  3

 62
256
 51
90.0
 52
90.0
 71
2
 49
0.5
 62
256
  6
BYLAYER
 49
-0.5
 62
256
  6
BYLAYER
  0
LAYOUT
  5
9EE
102
{ACAD_REACTORS
330
1A
102
}
100
AcDbPlotSettings
  1

  2
none_device
  4
ANSI_A_(11.00_x_8.50_Inches)
  6

 40
0.0
 41
0.0
 42
0.0
 43
0.0
 44
279.4
 45
215.9
 46
0.0
 47
0.0
 48
0.0
 49
0.0
140
0.0
141
0.0
142
1.0
143
1.0
 70
1024
 72
0
 73
0
 74
0
  7

 75
0
147
1.0
148
0.0
149
0.0
100
AcDbLayout
  1
Model
 70
0
 71
0
 10
0.0
 20
0.0
 11
11.0
 21
8.5
 12
0.0
 22
0.0
 32
0.0
 14
0.0
 24
0.0
 34
0.0
 15
0.0
 25
0.0
 35
0.0
146
0.0
 13
0.0
 23
0.0
 33
0.0
 16
1.0
 26
0.0
 36
0.0
 17
0.0
 27
1.0
 37
0.0
 76
0
330
202
345
0
346
0
  0
LAYOUT
  5
9EF
102
{ACAD_REACTORS
330
1A
102
}
100
AcDbPlotSettings
  1

  2
none_device
  4
ANSI_A_(11.00_x_8.50_Inches)
  6

 40
0.0
 41
0.0
 42
0.0
 43
0.0
 44
279.4
 45
215.9
 46
0.0
 47
0.0
 48
0.0
 49
0.0
140
0.0
141
0.0
142
1.0
143
1.0
 70
0
 72
0
 73
0
 74
0
  7

 75
0
147
1.0
148
0.0
149
0.0
100
AcDbLayout
  1
Layout1
 70
0
 71
1
 10
0.0
 20
0.0
 11
11.0
 21
8.5
 12
0.0
 22
0.0
 32
0.0
 14
0.0
 24
0.0
 34
0.0
 15
0.0
 25
0.0
 35
0.0
146
0.0
 13
0.0
 23
0.0
 33
0.0
 16
1.0
 26
0.0
 36
0.0
 17
0.0
 27
1.0
 37
0.0
 76
0
330
203
345
0
346
0
  0
ENDSEC
  0
EOF
