999
DXF file: 2949_front.dxf
999
Pro/ENGINEER 2019352 by Parametric Technology Corporation
  0
SECTION
  2
HEADER
  9
$ACADVER
  1
AC1032
  9
$DWGCODEPAGE
  3
ANSI_1252
  9
$EXTMAX
 10
11.0
 20
8.5
 30
0.0
  9
$EXTMIN
 10
0.0
 20
0.0
 30
0.0
  9
$LIMMIN
 10
0.0
 20
0.0
  9
$LIMMAX
 10
11.0
 20
8.5
  9
$VIEWCTR
 10
5.5
 20
4.25
  9
$VIEWSIZE
 40
8.5
  9
$CLAYER
  8
0
  9
$LTSCALE
 40
0.605
  9
$CELTYPE
  6
BYLAYER
  9
$DIMSCALE
 40
1.0
  9
$DIMASZ
 40
0.1
  9
$DIMEXO
 40
0.0625
  9
$DIMDLI
 40
0.418
  9
$DIMEXE
 40
0.125
  9
$DIMCEN
 40
0.099
  9
$DIMLFAC
 40
1.0
  9
$DIMBLK
  1
_FILLED
  9
$DIMALT
 70
1
  9
$DIMALTD
 70
2
  9
$DIMALTTD
 70
2
  9
$DIMALTF
 40
25.4
  9
$DIMTXT
 40
0.08
  9
$DIMTOL
 70
1
  9
$DIMLIM
 70
0
  9
$DIMTFAC
 40
1.0
  9
$DIMTP
 40
0.001
  9
$DIMTM
 40
0.001
  9
$DIMGAP
 40
0.09
  9
$DIMDSEP
 70
46
  9
$AUNITS
 70
0
  9
$PDMODE
 70
3
  9
$PDSIZE
 40
0.3125
  9
$HANDSEED
  5
51D
  9
$TILEMODE
 70
1
  9
$MEASUREMENT
 70
0
  9
$INSUNITS
 70
1
  0
ENDSEC
  0
SECTION
  2
CLASSES
  0
CLASS
  1
ACDBDICTIONARYWDFLT
  2
AcDbDictionaryWithDefault
  3
AutoCAD 2000
 90
0
 91
1
280
0
281
0
  0
CLASS
  1
ACDBPLACEHOLDER
  2
AcDbPlaceHolder
  3
AutoCAD 2000
 90
0
 91
1
280
0
281
0
  0
CLASS
  1
LAYOUT
  2
AcDbLayout
  3
AutoCAD 2000
 90
0
 91
0
280
0
281
0
  0
ENDSEC
  0
SECTION
  2
TABLES
  0
TABLE
  2
VPORT
  5
8
100
AcDbSymbolTable
 70
2
  0
VPORT
  5
1F4
100
AcDbSymbolTableRecord
100
AcDbViewportTableRecord
  2
*ACTIVE
 70
0
 10
0.0
 20
0.0
 11
1.0
 21
1.0
 12
5.5
 22
4.25
 13
0.0
 23
0.0
 14
1.0
 24
1.0
 15
0.0
 25
0.0
 16
0.0
 26
0.0
 36
1.0
 17
0.0
 27
0.0
 37
0.0
 40
8.5
 41
1.2941176471
 42
50.0
 43
0.0
 44
0.0
 50
0.0
 51
0.0
 71
0
 72
100
 73
1
 74
1
 75
0
 76
0
 77
0
 78
0
  0
ENDTAB
  0
TABLE
  2
LTYPE
  5
5
100
AcDbSymbolTable
 70
6
  0
LTYPE
  5
14
100
AcDbSymbolTableRecord
100
AcDbLinetypeTableRecord
  2
BYBLOCK
 70
0
  3

 72
65
 73
0
 40
0.0
  0
LTYPE
  5
15
100
AcDbSymbolTableRecord
100
AcDbLinetypeTableRecord
  2
BYLAYER
 70
0
  3

 72
65
 73
0
 40
0.0
  0
LTYPE
  5
16
100
AcDbSymbolTableRecord
100
AcDbLinetypeTableRecord
  2
CONTINUOUS
 70
64
  3
Solid line
 72
65
 73
0
 40
0.0
  0
LTYPE
  5
1F5
100
AcDbSymbolTableRecord
100
AcDbLinetypeTableRecord
  2
CENTER
 70
64
  3
____ _ ____ _ ____ _ ____ _ ____ _ ____ _ ____
 72
65
 73
4
 40
0.6
 49
0.375
 74
0
 49
-0.075
 74
0
 49
0.075
 74
0
 49
-0.075
 74
0
  0
LTYPE
  5
1F6
100
AcDbSymbolTableRecord
100
AcDbLinetypeTableRecord
  2
HIDDEN
 70
64
  3
- - - - - - - - - - - - - - - - - - - -
 72
65
 73
2
 40
0.2
 49
0.1
 74
0
 49
-0.1
 74
0
  0
LTYPE
  5
1F7
100
AcDbSymbolTableRecord
100
AcDbLinetypeTableRecord
  2
PHANTOM
 70
64
  3
_____ _ _ _____ _ _ _____ _ _ _____
 72
65
 73
6
 40
0.8
 49
0.45
 74
0
 49
-0.05
 74
0
 49
0.1
 74
0
 49
-0.05
 74
0
 49
0.1
 74
0
 49
-0.05
 74
0
  0
LTYPE
  5
1F8
100
AcDbSymbolTableRecord
100
AcDbLinetypeTableRecord
  2
DOT
 70
64
  3
. . . . . . . . . . . . . . . . . . . .
 72
65
 73
2
 40
0.2
 49
0.1
 74
0
 49
-0.1
 74
0
  0
LTYPE
  5
1F9
100
AcDbSymbolTableRecord
100
AcDbLinetypeTableRecord
  2
DASHED
 70
64
  3
- - - - - - - - - - - - - - - - - - - -
 72
65
 73
2
 40
0.2
 49
0.1
 74
0
 49
-0.1
 74
0
  0
ENDTAB
  0
TABLE
  2
LAYER
  5
2
100
AcDbSymbolTable
 70
36
  0
LAYER
  5
10
100
AcDbSymbolTableRecord
100
AcDbLayerTableRecord
  2
0
 70
0
 62
7
  6
CONTINUOUS
370
-3
390
F
  0
LAYER
  5
1FA
100
AcDbSymbolTableRecord
100
AcDbLayerTableRecord
  2
DEFAULT_1
 70
0
 62
7
  6
CENTER
370
-3
390
F
  0
LAYER
  5
1FB
100
AcDbSymbolTableRecord
100
AcDbLayerTableRecord
  2
DEFAULT_2
 70
0
 62
8
  6
HIDDEN
370
-3
390
F
  0
LAYER
  5
1FC
100
AcDbSymbolTableRecord
100
AcDbLayerTableRecord
  2
DEFAULT_3
 70
0
 62
7
  6
PHANTOM
370
-3
390
F
  0
LAYER
  5
1FD
100
AcDbSymbolTableRecord
100
AcDbLayerTableRecord
  2
DEFAULT_COORDINATE_SYSTEM
 70
0
 62
7
  6
CONTINUOUS
370
-3
390
F
  0
LAYER
  5
1FE
100
AcDbSymbolTableRecord
100
AcDbLayerTableRecord
  2
DEFAULT_DATUM_AXES
 70
0
 62
7
  6
CONTINUOUS
370
-3
390
F
  0
LAYER
  5
1FF
100
AcDbSymbolTableRecord
100
AcDbLayerTableRecord
  2
DEFAULT_DATUM_PLANES
 70
0
 62
7
  6
CONTINUOUS
370
-3
390
F
  0
ENDTAB
  0
TABLE
  2
STYLE
  5
3
100
AcDbSymbolTable
 70
1
  0
STYLE
  5
11
100
AcDbSymbolTableRecord
100
AcDbTextStyleTableRecord
  2
STANDARD
 70
0
 40
0.0
 41
0.8
 50
0.0
 71
0
 42
0.2
  3
txt
  4

  0
STYLE
  5
200
100
AcDbSymbolTableRecord
100
AcDbTextStyleTableRecord
  2
TEXTSTYLE_1
 70
0
 40
0.0
 41
0.8
 50
0.0
 71
0
 42
0.2
  3
gdt
  4

  0
ENDTAB
  0
TABLE
  2
VIEW
  5
6
100
AcDbSymbolTable
 70
0
  0
ENDTAB
  0
TABLE
  2
UCS
  5
7
100
AcDbSymbolTable
 70
0
  0
ENDTAB
  0
TABLE
  2
APPID
  5
9
100
AcDbSymbolTable
 70
1
  0
APPID
  5
201
100
AcDbSymbolTableRecord
100
AcDbRegAppTableRecord
  2
ACAD
 70
0
  0
ENDTAB
  0
TABLE
  2
BLOCK_RECORD
  5
1
100
AcDbSymbolTable
 70
0
  0
BLOCK_RECORD
  5
202
100
AcDbSymbolTableRecord
100
AcDbBlockTableRecord
  2
*Model_Space
  0
BLOCK_RECORD
  5
203
100
AcDbSymbolTableRecord
100
AcDbBlockTableRecord
  2
*Paper_Space
  0
BLOCK_RECORD
  5
204
100
AcDbSymbolTableRecord
100
AcDbBlockTableRecord
  2
_FILLED
  0
ENDTAB
  0
TABLE
  2
DIMSTYLE
  5
A
100
AcDbSymbolTable
 70
1
100
AcDbDimStyleTable
 71
0
  0
DIMSTYLE
105
205
100
AcDbSymbolTableRecord
100
AcDbDimStyleTableRecord
  2
STANDARD
 70
0
  3

  4

 40
1.0
 41
0.1
 42
0.0625
 43
0.38
 44
0.125
 45
0.0
 46
0.0
 47
0.001
 48
0.001
140
0.08
141
0.09
142
0.0
143
25.4
144
1.0
145
0.0
146
1.0
147
0.09
 71
1.0
 72
0.0
 73
1
 74
1
 75
0
 76
0
 77
0
 78
4
 79
1
170
1
171
2
172
0
173
0
174
0
175
0
176
0
177
0
178
0
270
2
179
3
271
3
272
3
273
2
274
2
275
0
280
0
281
0
282
0
283
1
284
4
285
0
286
0
287
3
288
0
340
11
278
46
341
204
342
204
343
204
344
204
  0
ENDTAB
  0
ENDSEC
  0
SECTION
  2
BLOCKS
  0
BLOCK
  5
20
100
AcDbEntity
  8
0
100
AcDbBlockBegin
  2
*Model_Space
 70
0
 10
0.0
 20
0.0
 30
0.0
  3
*Model_Space
  1

  0
ENDBLK
  5
21
100
AcDbEntity
  8
0
100
AcDbBlockEnd
  0
BLOCK
  5
1C
100
AcDbEntity
  8
0
100
AcDbBlockBegin
  2
*Paper_Space
 70
0
 10
0.0
 20
0.0
 30
0.0
  3
*Paper_Space
  1

  0
ENDBLK
  5
1D
100
AcDbEntity
  8
0
100
AcDbBlockEnd
  0
BLOCK
  5
206
100
AcDbEntity
  8
0
100
AcDbBlockBegin
  2
_FILLED
 70
64
 10
0.0
 20
0.0
  3
_FILLED
  1

  0
SOLID
  5
207
100
AcDbEntity
  8
0
  6
BYBLOCK
 62
0
100
AcDbTrace
 10
0.0
 20
0.0
 11
-1.0
 21
0.2
 12
-1.0
 22
-0.2
 13
-1.0
 23
-0.2
  0
ENDBLK
  5
208
100
AcDbEntity
  8
0
  6
BYBLOCK
 62
0
100
AcDbBlockEnd
  0
ENDSEC
  0
SECTION
  2
ENTITIES
  0
MTEXT
  5
209
100
AcDbEntity
  8
0
100
AcDbMText
 62
2
  6
CONTINUOUS
  7
STANDARD
 71
3
 72
1
 10
5.6572106336
 20
1.8431874216
 30
0.0
 11
1.0
 21
0.0
 31
0.0
 73
2
 44
0.9
  1
SCALE 0.500
 40
0.08
 41
0.704
  0
LINE
  5
20A
100
AcDbEntity
  8
0
100
AcDbLine
 62
7
  6
CONTINUOUS
 10
0.0
 20
0.0
 11
0.0
 21
8.5
  0
LINE
  5
20B
100
AcDbEntity
  8
0
100
AcDbLine
 62
7
  6
CONTINUOUS
 10
0.0
 20
0.0
 11
11.0
 21
0.0
  0
LINE
  5
20C
100
AcDbEntity
  8
0
100
AcDbLine
 62
7
  6
CONTINUOUS
 10
0.0
 20
8.5
 11
11.0
 21
8.5
  0
LINE
  5
20D
100
AcDbEntity
  8
0
100
AcDbLine
 62
7
  6
CONTINUOUS
 10
11.0
 20
0.0
 11
11.0
 21
8.5
  0
LINE
  5
20E
100
AcDbEntity
  8
0
100
AcDbLine
 62
7
  6
CONTINUOUS
 10
1.4354822773
 20
4.4559678482
 11
1.4354822773
 21
4.1334678482
  0
LINE
  5
20F
100
AcDbEntity
  8
0
100
AcDbLine
 62
7
  6
CONTINUOUS
 10
1.4954822773
 20
4.4559678482
 11
1.4954822773
 21
4.1334678482
  0
LINE
  5
210
100
AcDbEntity
  8
0
100
AcDbLine
 62
7
  6
CONTINUOUS
 10
2.7629822773
 20
2.9692178482
 11
2.7629822773
 21
2.9292178482
  0
LINE
  5
211
100
AcDbEntity
  8
0
100
AcDbLine
 62
7
  6
CONTINUOUS
 10
2.7630675481
 20
3.0442178482
 11
2.7630675481
 21
3.0842178482
  0
LINE
  5
212
100
AcDbEntity
  8
0
100
AcDbLine
 62
7
  6
CONTINUOUS
 10
2.7632473786
 20
3.0442178482
 11
2.7632473786
 21
3.0842178482
  0
LINE
  5
213
100
AcDbEntity
  8
0
100
AcDbLine
 62
7
  6
CONTINUOUS
 10
2.7641894258
 20
3.0442178482
 11
2.7641894258
 21
3.0842178482
  0
LINE
  5
214
100
AcDbEntity
  8
0
100
AcDbLine
 62
7
  6
CONTINUOUS
 10
2.7647284245
 20
3.0442178482
 11
2.7647284245
 21
3.0842178482
  0
LINE
  5
215
100
AcDbEntity
  8
0
100
AcDbLine
 62
7
  6
CONTINUOUS
 10
2.7666099368
 20
3.0442178482
 11
2.7666099368
 21
3.0842178482
  0
LINE
  5
216
100
AcDbEntity
  8
0
100
AcDbLine
 62
7
  6
CONTINUOUS
 10
2.7675066263
 20
3.0442178482
 11
2.7675066263
 21
3.0842178482
  0
LINE
  5
217
100
AcDbEntity
  8
0
100
AcDbLine
 62
7
  6
CONTINUOUS
 10
2.7703224467
 20
3.0442178482
 11
2.7703224467
 21
3.0842178482
  0
LINE
  5
218
100
AcDbEntity
  8
0
100
AcDbLine
 62
7
  6
CONTINUOUS
 10
2.7715743692
 20
3.0442178482
 11
2.7715743692
 21
3.0842178482
  0
LINE
  5
219
100
AcDbEntity
  8
0
100
AcDbLine
 62
7
  6
CONTINUOUS
 10
2.7753167796
 20
3.0442178482
 11
2.7753167796
 21
3.0842178482
  0
LINE
  5
21A
100
AcDbEntity
  8
0
100
AcDbLine
 62
7
  6
CONTINUOUS
 10
2.7769205037
 20
3.0442178482
 11
2.7769205037
 21
3.0842178482
  0
LINE
  5
21B
100
AcDbEntity
  8
0
100
AcDbLine
 62
7
  6
CONTINUOUS
 10
2.7815792465
 20
3.0442178482
 11
2.7815792465
 21
3.0842178482
  0
LINE
  5
21C
100
AcDbEntity
  8
0
100
AcDbLine
 62
7
  6
CONTINUOUS
 10
2.7835303765
 20
3.0442178482
 11
2.7835303765
 21
3.0842178482
  0
LINE
  5
21D
100
AcDbEntity
  8
0
100
AcDbLine
 62
7
  6
CONTINUOUS
 10
2.7854822773
 20
4.1447178482
 11
2.7854822773
 21
4.4447178482
  0
LINE
  5
21E
100
AcDbEntity
  8
0
100
AcDbLine
 62
7
  6
CONTINUOUS
 10
2.7879822773
 20
3.0442178482
 11
2.7879822773
 21
2.9942178482
  0
LINE
  5
21F
100
AcDbEntity
  8
0
100
AcDbLine
 62
7
  6
CONTINUOUS
 10
2.7890926824
 20
3.0442178482
 11
2.7890926824
 21
3.0842178482
  0
LINE
  5
220
100
AcDbEntity
  8
0
100
AcDbLine
 62
7
  6
CONTINUOUS
 10
2.7913858703
 20
3.0442178482
 11
2.7913858703
 21
3.0842178482
  0
LINE
  5
221
100
AcDbEntity
  8
0
100
AcDbLine
 62
7
  6
CONTINUOUS
 10
2.7978364934
 20
3.0442178482
 11
2.7978364934
 21
3.0842178482
  0
LINE
  5
222
100
AcDbEntity
  8
0
100
AcDbLine
 62
7
  6
CONTINUOUS
 10
2.8004654539
 20
3.0442178482
 11
2.8004654539
 21
3.0842178482
  0
LINE
  5
223
100
AcDbEntity
  8
0
100
AcDbLine
 62
7
  6
CONTINUOUS
 10
2.8077867135
 20
3.0442178482
 11
2.8077867135
 21
3.0842178482
  0
LINE
  5
224
100
AcDbEntity
  8
0
100
AcDbLine
 62
7
  6
CONTINUOUS
 10
2.8107442407
 20
3.0442178482
 11
2.8107442407
 21
3.0842178482
  0
LINE
  5
225
100
AcDbEntity
  8
0
100
AcDbLine
 62
7
  6
CONTINUOUS
 10
2.8189160696
 20
3.0442178482
 11
2.8189160696
 21
3.0842178482
  0
LINE
  5
226
100
AcDbEntity
  8
0
100
AcDbLine
 62
7
  6
CONTINUOUS
 10
2.8221940572
 20
3.0442178482
 11
2.8221940572
 21
3.0842178482
  0
LINE
  5
227
100
AcDbEntity
  8
0
100
AcDbLine
 62
7
  6
CONTINUOUS
 10
2.8311940572
 20
3.0442178482
 11
2.8311940572
 21
3.0842178482
  0
LINE
  5
228
100
AcDbEntity
  8
0
100
AcDbLine
 62
7
  6
CONTINUOUS
 10
2.8347835203
 20
3.0442178482
 11
2.8347835203
 21
3.0842178482
  0
LINE
  5
229
100
AcDbEntity
  8
0
100
AcDbLine
 62
7
  6
CONTINUOUS
 10
2.844587023
 20
3.0442178482
 11
2.844587023
 21
3.0842178482
  0
LINE
  5
22A
100
AcDbEntity
  8
0
100
AcDbLine
 62
7
  6
CONTINUOUS
 10
2.8479822773
 20
4.4447178482
 11
2.8479822773
 21
4.1447178482
  0
LINE
  5
22B
100
AcDbEntity
  8
0
100
AcDbLine
 62
7
  6
CONTINUOUS
 10
2.8484781232
 20
3.0442178482
 11
2.8484781232
 21
3.0842178482
  0
LINE
  5
22C
100
AcDbEntity
  8
0
100
AcDbLine
 62
7
  6
CONTINUOUS
 10
2.8590582578
 20
3.0442178482
 11
2.8590582578
 21
3.0842178482
  0
LINE
  5
22D
100
AcDbEntity
  8
0
100
AcDbLine
 62
7
  6
CONTINUOUS
 10
2.8632403299
 20
3.0442178482
 11
2.8632403299
 21
3.0842178482
  0
LINE
  5
22E
100
AcDbEntity
  8
0
100
AcDbLine
 62
7
  6
CONTINUOUS
 10
2.8742779673
 20
3.0842178482
 11
2.8742779673
 21
3.0442178482
  0
LINE
  5
22F
100
AcDbEntity
  8
0
100
AcDbLine
 62
7
  6
CONTINUOUS
 10
2.874568097
 20
3.0442178482
 11
2.874568097
 21
3.0842178482
  0
LINE
  5
230
100
AcDbEntity
  8
0
100
AcDbLine
 62
7
  6
CONTINUOUS
 10
2.8790296783
 20
3.0442178482
 11
2.8790296783
 21
3.0842178482
  0
LINE
  5
231
100
AcDbEntity
  8
0
100
AcDbLine
 62
7
  6
CONTINUOUS
 10
2.8804934782
 20
3.7342178482
 11
2.8804934782
 21
3.7842178482
  0
LINE
  5
232
100
AcDbEntity
  8
0
100
AcDbLine
 62
7
  6
CONTINUOUS
 10
2.8808041698
 20
3.7342178482
 11
2.8808041698
 21
3.7842178482
  0
LINE
  5
233
100
AcDbEntity
  8
0
100
AcDbLine
 62
7
  6
CONTINUOUS
 10
2.8811500362
 20
3.7342178482
 11
2.8811500362
 21
3.7842178482
  0
LINE
  5
234
100
AcDbEntity
  8
0
100
AcDbLine
 62
7
  6
CONTINUOUS
 10
2.882701643
 20
3.7342178482
 11
2.882701643
 21
3.7842178482
  0
LINE
  5
235
100
AcDbEntity
  8
0
100
AcDbLine
 62
7
  6
CONTINUOUS
 10
2.8835070623
 20
3.7342178482
 11
2.8835070623
 21
3.7842178482
  0
LINE
  5
236
100
AcDbEntity
  8
0
100
AcDbLine
 62
7
  6
CONTINUOUS
 10
2.8854822773
 20
4.4117178482
 11
2.8854822773
 21
4.1777178482
  0
LINE
  5
237
100
AcDbEntity
  8
0
100
AcDbLine
 62
7
  6
CONTINUOUS
 10
2.8862921903
 20
3.7342178482
 11
2.8862921903
 21
3.7842178482
  0
LINE
  5
238
100
AcDbEntity
  8
0
100
AcDbLine
 62
7
  6
CONTINUOUS
 10
2.8875533242
 20
3.7342178482
 11
2.8875533242
 21
3.7842178482
  0
LINE
  5
239
100
AcDbEntity
  8
0
100
AcDbLine
 62
7
  6
CONTINUOUS
 10
2.890190499
 20
3.0842178482
 11
2.890190499
 21
3.0442178482
  0
LINE
  5
23A
100
AcDbEntity
  8
0
100
AcDbLine
 62
7
  6
CONTINUOUS
 10
2.8910740292
 20
3.0442178482
 11
2.8910740292
 21
3.0842178482
  0
LINE
  5
23B
100
AcDbEntity
  8
0
100
AcDbLine
 62
7
  6
CONTINUOUS
 10
2.891558701
 20
3.7342178482
 11
2.891558701
 21
3.7842178482
  0
LINE
  5
23C
100
AcDbEntity
  8
0
100
AcDbLine
 62
7
  6
CONTINUOUS
 10
2.8932695396
 20
3.7342178482
 11
2.8932695396
 21
3.7842178482
  0
LINE
  5
23D
100
AcDbEntity
  8
0
100
AcDbLine
 62
7
  6
CONTINUOUS
 10
2.8958028908
 20
3.0442178482
 11
2.8958028908
 21
3.0842178482
  0
LINE
  5
23E
100
AcDbEntity
  8
0
100
AcDbLine
 62
7
  6
CONTINUOUS
 10
2.8984760778
 20
3.7342178482
 11
2.8984760778
 21
3.7842178482
  0
LINE
  5
23F
100
AcDbEntity
  8
0
100
AcDbLine
 62
7
  6
CONTINUOUS
 10
2.9006284683
 20
3.7342178482
 11
2.9006284683
 21
3.7842178482
  0
LINE
  5
240
100
AcDbEntity
  8
0
100
AcDbLine
 62
7
  6
CONTINUOUS
 10
2.9070113562
 20
3.7342178482
 11
2.9070113562
 21
3.7842178482
  0
LINE
  5
241
100
AcDbEntity
  8
0
100
AcDbLine
 62
7
  6
CONTINUOUS
 10
2.9070563037
 20
3.0842178482
 11
2.9070563037
 21
3.0442178482
  0
LINE
  5
242
100
AcDbEntity
  8
0
100
AcDbLine
 62
7
  6
CONTINUOUS
 10
2.9085308128
 20
3.0442178482
 11
2.9085308128
 21
3.0842178482
  0
LINE
  5
243
100
AcDbEntity
  8
0
100
AcDbLine
 62
7
  6
CONTINUOUS
 10
2.9095950414
 20
3.7342178482
 11
2.9095950414
 21
3.7842178482
  0
LINE
  5
244
100
AcDbEntity
  8
0
100
AcDbLine
 62
7
  6
CONTINUOUS
 10
2.9135139932
 20
3.0442178482
 11
2.9135139932
 21
3.0842178482
  0
LINE
  5
245
100
AcDbEntity
  8
0
100
AcDbLine
 62
7
  6
CONTINUOUS
 10
2.9171238618
 20
3.7342178482
 11
2.9171238618
 21
3.7842178482
  0
LINE
  5
246
100
AcDbEntity
  8
0
100
AcDbLine
 62
7
  6
CONTINUOUS
 10
2.9201265293
 20
3.7342178482
 11
2.9201265293
 21
3.7842178482
  0
LINE
  5
247
100
AcDbEntity
  8
0
100
AcDbLine
 62
7
  6
CONTINUOUS
 10
2.9248291535
 20
3.0842178482
 11
2.9248291535
 21
3.0442178482
  0
LINE
  5
248
100
AcDbEntity
  8
0
100
AcDbLine
 62
7
  6
CONTINUOUS
 10
2.9254822773
 20
3.7342178482
 11
2.9254822773
 21
3.1242178482
  0
LINE
  5
249
100
AcDbEntity
  8
0
100
AcDbLine
 62
7
  6
CONTINUOUS
 10
2.9268906
 20
3.0442178482
 11
2.9268906
 21
3.0842178482
  0
LINE
  5
24A
100
AcDbEntity
  8
0
100
AcDbLine
 62
7
  6
CONTINUOUS
 10
2.9287654039
 20
3.7342178482
 11
2.9287654039
 21
3.7842178482
  0
LINE
  5
24B
100
AcDbEntity
  8
0
100
AcDbLine
 62
7
  6
CONTINUOUS
 10
2.9321144405
 20
3.0442178482
 11
2.9321144405
 21
3.0842178482
  0
LINE
  5
24C
100
AcDbEntity
  8
0
100
AcDbLine
 62
7
  6
CONTINUOUS
 10
2.9321727446
 20
3.7342178482
 11
2.9321727446
 21
3.7842178482
  0
LINE
  5
24D
100
AcDbEntity
  8
0
100
AcDbLine
 62
7
  6
CONTINUOUS
 10
2.9379822773
 20
3.1242178482
 11
2.9379822773
 21
3.1192178482
  0
LINE
  5
24E
100
AcDbEntity
  8
0
100
AcDbLine
 62
7
  6
CONTINUOUS
 10
2.9418805052
 20
3.7342178482
 11
2.9418805052
 21
3.7842178482
  0
LINE
  5
24F
100
AcDbEntity
  8
0
100
AcDbLine
 62
7
  6
CONTINUOUS
 10
2.9434603343
 20
3.0842178482
 11
2.9434603343
 21
3.0442178482
  0
LINE
  5
250
100
AcDbEntity
  8
0
100
AcDbLine
 62
7
  6
CONTINUOUS
 10
2.9456762815
 20
3.7342178482
 11
2.9456762815
 21
3.7842178482
  0
LINE
  5
251
100
AcDbEntity
  8
0
100
AcDbLine
 62
7
  6
CONTINUOUS
 10
2.9461030679
 20
3.0442178482
 11
2.9461030679
 21
3.0842178482
  0
LINE
  5
252
100
AcDbEntity
  8
0
100
AcDbLine
 62
7
  6
CONTINUOUS
 10
2.9515532504
 20
3.0442178482
 11
2.9515532504
 21
3.0842178482
  0
LINE
  5
253
100
AcDbEntity
  8
0
100
AcDbLine
 62
7
  6
CONTINUOUS
 10
2.9564066663
 20
3.7342178482
 11
2.9564066663
 21
3.7842178482
  0
LINE
  5
254
100
AcDbEntity
  8
0
100
AcDbLine
 62
7
  6
CONTINUOUS
 10
2.9605727897
 20
3.7342178482
 11
2.9605727897
 21
3.7842178482
  0
LINE
  5
255
100
AcDbEntity
  8
0
100
AcDbLine
 62
7
  6
CONTINUOUS
 10
2.9628987792
 20
3.0842178482
 11
2.9628987792
 21
3.0442178482
  0
LINE
  5
256
100
AcDbEntity
  8
0
100
AcDbLine
 62
7
  6
CONTINUOUS
 10
2.9661155563
 20
3.0442178482
 11
2.9661155563
 21
3.0842178482
  0
LINE
  5
257
100
AcDbEntity
  8
0
100
AcDbLine
 62
7
  6
CONTINUOUS
 10
2.9716565487
 20
3.7842178482
 11
2.9716565487
 21
3.7342178482
  0
LINE
  5
258
100
AcDbEntity
  8
0
100
AcDbLine
 62
7
  6
CONTINUOUS
 10
2.9717771424
 20
3.0442178482
 11
2.9717771424
 21
3.0842178482
  0
LINE
  5
259
100
AcDbEntity
  8
0
100
AcDbLine
 62
7
  6
CONTINUOUS
 10
2.9722746634
 20
3.7342178482
 11
2.9722746634
 21
3.7842178482
  0
LINE
  5
25A
100
AcDbEntity
  8
0
100
AcDbLine
 62
7
  6
CONTINUOUS
 10
2.9767912804
 20
3.7342178482
 11
2.9767912804
 21
3.7842178482
  0
LINE
  5
25B
100
AcDbEntity
  8
0
100
AcDbLine
 62
7
  6
CONTINUOUS
 10
2.9830912089
 20
3.0842178482
 11
2.9830912089
 21
3.0442178482
  0
LINE
  5
25C
100
AcDbEntity
  8
0
100
AcDbLine
 62
7
  6
CONTINUOUS
 10
2.9868732126
 20
3.0442178482
 11
2.9868732126
 21
3.0842178482
  0
LINE
  5
25D
100
AcDbEntity
  8
0
100
AcDbLine
 62
7
  6
CONTINUOUS
 10
2.988011555
 20
3.7842178482
 11
2.988011555
 21
3.7342178482
  0
LINE
  5
25E
100
AcDbEntity
  8
0
100
AcDbLine
 62
7
  6
CONTINUOUS
 10
2.9894088783
 20
3.7342178482
 11
2.9894088783
 21
3.7842178482
  0
LINE
  5
25F
100
AcDbEntity
  8
0
100
AcDbLine
 62
7
  6
CONTINUOUS
 10
2.9927306841
 20
3.0442178482
 11
2.9927306841
 21
3.0842178482
  0
LINE
  5
260
100
AcDbEntity
  8
0
100
AcDbLine
 62
7
  6
CONTINUOUS
 10
2.9942544651
 20
3.7342178482
 11
2.9942544651
 21
3.7842178482
  0
LINE
  5
261
100
AcDbEntity
  8
0
100
AcDbLine
 62
7
  6
CONTINUOUS
 10
3.0039822773
 20
3.0842178482
 11
3.0039822773
 21
3.0442178482
  0
LINE
  5
262
100
AcDbEntity
  8
0
100
AcDbLine
 62
7
  6
CONTINUOUS
 10
3.0055577856
 20
3.7842178482
 11
3.0055577856
 21
3.7342178482
  0
LINE
  5
263
100
AcDbEntity
  8
0
100
AcDbLine
 62
7
  6
CONTINUOUS
 10
3.0077276586
 20
3.7342178482
 11
3.0077276586
 21
3.7842178482
  0
LINE
  5
264
100
AcDbEntity
  8
0
100
AcDbLine
 62
7
  6
CONTINUOUS
 10
3.0083191413
 20
3.0442178482
 11
3.0083191413
 21
3.0842178482
  0
LINE
  5
265
100
AcDbEntity
  8
0
100
AcDbLine
 62
7
  6
CONTINUOUS
 10
3.0128791239
 20
3.7342178482
 11
3.0128791239
 21
3.7842178482
  0
LINE
  5
266
100
AcDbEntity
  8
0
100
AcDbLine
 62
7
  6
CONTINUOUS
 10
3.0143564433
 20
3.0442178482
 11
3.0143564433
 21
3.0842178482
  0
LINE
  5
267
100
AcDbEntity
  8
0
100
AcDbLine
 62
7
  6
CONTINUOUS
 10
3.0242116247
 20
3.7842178482
 11
3.0242116247
 21
3.7342178482
  0
LINE
  5
268
100
AcDbEntity
  8
0
100
AcDbLine
 62
7
  6
CONTINUOUS
 10
3.0255147234
 20
3.0842178482
 11
3.0255147234
 21
3.0442178482
  0
LINE
  5
269
100
AcDbEntity
  8
0
100
AcDbLine
 62
7
  6
CONTINUOUS
 10
3.027143707
 20
3.7342178482
 11
3.027143707
 21
3.7842178482
  0
LINE
  5
26A
100
AcDbEntity
  8
0
100
AcDbLine
 62
7
  6
CONTINUOUS
 10
3.0303945608
 20
3.0442178482
 11
3.0303945608
 21
3.0842178482
  0
LINE
  5
26B
100
AcDbEntity
  8
0
100
AcDbLine
 62
7
  6
CONTINUOUS
 10
3.0325765017
 20
3.7342178482
 11
3.0325765017
 21
3.7842178482
  0
LINE
  5
26C
100
AcDbEntity
  8
0
100
AcDbLine
 62
7
  6
CONTINUOUS
 10
3.0365951455
 20
3.0442178482
 11
3.0365951455
 21
3.0842178482
  0
LINE
  5
26D
100
AcDbEntity
  8
0
100
AcDbLine
 62
7
  6
CONTINUOUS
 10
3.0379822773
 20
3.9067178482
 11
3.0379822773
 21
3.8617178482
  0
LINE
  5
26E
100
AcDbEntity
  8
0
100
AcDbLine
 62
7
  6
CONTINUOUS
 10
3.0438841784
 20
3.7842178482
 11
3.0438841784
 21
3.7342178482
  0
LINE
  5
26F
100
AcDbEntity
  8
0
100
AcDbLine
 62
7
  6
CONTINUOUS
 10
3.0475644973
 20
3.7342178482
 11
3.0475644973
 21
3.7842178482
  0
LINE
  5
270
100
AcDbEntity
  8
0
100
AcDbLine
 62
7
  6
CONTINUOUS
 10
3.0476295283
 20
3.0842178482
 11
3.0476295283
 21
3.0442178482
  0
LINE
  5
271
100
AcDbEntity
  8
0
100
AcDbLine
 62
7
  6
CONTINUOUS
 10
3.0530389637
 20
3.0442178482
 11
3.0530389637
 21
3.0842178482
  0
LINE
  5
272
100
AcDbEntity
  8
0
100
AcDbLine
 62
7
  6
CONTINUOUS
 10
3.0532527315
 20
3.7342178482
 11
3.0532527315
 21
3.7842178482
  0
LINE
  5
273
100
AcDbEntity
  8
0
100
AcDbLine
 62
7
  6
CONTINUOUS
 10
3.0593858357
 20
3.0442178482
 11
3.0593858357
 21
3.0842178482
  0
LINE
  5
274
100
AcDbEntity
  8
0
100
AcDbLine
 62
7
  6
CONTINUOUS
 10
3.0629822773
 20
4.1972178482
 11
3.0629822773
 21
4.3922178482
  0
LINE
  5
275
100
AcDbEntity
  8
0
100
AcDbLine
 62
7
  6
CONTINUOUS
 10
3.0644816979
 20
3.7842178482
 11
3.0644816979
 21
3.7342178482
  0
LINE
  5
276
100
AcDbEntity
  8
0
100
AcDbLine
 62
7
  6
CONTINUOUS
 10
3.068892715
 20
3.7342178482
 11
3.068892715
 21
3.7842178482
  0
LINE
  5
277
100
AcDbEntity
  8
0
100
AcDbLine
 62
7
  6
CONTINUOUS
 10
3.0702660769
 20
3.0842178482
 11
3.0702660769
 21
3.0442178482
  0
LINE
  5
278
100
AcDbEntity
  8
0
100
AcDbLine
 62
7
  6
CONTINUOUS
 10
3.0748092818
 20
3.7342178482
 11
3.0748092818
 21
3.7842178482
  0
LINE
  5
279
100
AcDbEntity
  8
0
100
AcDbLine
 62
7
  6
CONTINUOUS
 10
3.0761902834
 20
3.0442178482
 11
3.0761902834
 21
3.0842178482
  0
LINE
  5
27A
100
AcDbEntity
  8
0
100
AcDbLine
 62
7
  6
CONTINUOUS
 10
3.0826660464
 20
3.0442178482
 11
3.0826660464
 21
3.0842178482
  0
LINE
  5
27B
100
AcDbEntity
  8
0
100
AcDbLine
 62
7
  6
CONTINUOUS
 10
3.0859060267
 20
3.7842178482
 11
3.0859060267
 21
3.7342178482
  0
LINE
  5
27C
100
AcDbEntity
  8
0
100
AcDbLine
 62
7
  6
CONTINUOUS
 10
3.0892322773
 20
3.9217178482
 11
3.0892322773
 21
4.0275315785
  0
LINE
  5
27D
100
AcDbEntity
  8
0
100
AcDbLine
 62
7
  6
CONTINUOUS
 10
3.0910267214
 20
3.7342178482
 11
3.0910267214
 21
3.7842178482
  0
LINE
  5
27E
100
AcDbEntity
  8
0
100
AcDbLine
 62
7
  6
CONTINUOUS
 10
3.0933623239
 20
3.0842178482
 11
3.0933623239
 21
3.0442178482
  0
LINE
  5
27F
100
AcDbEntity
  8
0
100
AcDbLine
 62
7
  6
CONTINUOUS
 10
3.0971434257
 20
3.7342178482
 11
3.0971434257
 21
3.7842178482
  0
LINE
  5
280
100
AcDbEntity
  8
0
100
AcDbLine
 62
7
  6
CONTINUOUS
 10
3.0997850637
 20
3.0442178482
 11
3.0997850637
 21
3.0842178482
  0
LINE
  5
281
100
AcDbEntity
  8
0
100
AcDbLine
 62
7
  6
CONTINUOUS
 10
3.1063719681
 20
3.0442178482
 11
3.1063719681
 21
3.0842178482
  0
LINE
  5
282
100
AcDbEntity
  8
0
100
AcDbLine
 62
7
  6
CONTINUOUS
 10
3.1080550681
 20
3.7842178482
 11
3.1080550681
 21
3.7342178482
  0
LINE
  5
283
100
AcDbEntity
  8
0
100
AcDbLine
 62
7
  6
CONTINUOUS
 10
3.113861038
 20
3.7342178482
 11
3.113861038
 21
3.7842178482
  0
LINE
  5
284
100
AcDbEntity
  8
0
100
AcDbLine
 62
7
  6
CONTINUOUS
 10
3.1168549642
 20
3.0842178482
 11
3.1168549642
 21
3.0442178482
  0
LINE
  5
285
100
AcDbEntity
  8
0
100
AcDbLine
 62
7
  6
CONTINUOUS
 10
3.1201487309
 20
3.7342178482
 11
3.1201487309
 21
3.7842178482
  0
LINE
  5
286
100
AcDbEntity
  8
0
100
AcDbLine
 62
7
  6
CONTINUOUS
 10
3.123758633
 20
3.0442178482
 11
3.123758633
 21
3.0842178482
  0
LINE
  5
287
100
AcDbEntity
  8
0
100
AcDbLine
 62
7
  6
CONTINUOUS
 10
3.1304386245
 20
3.0442178482
 11
3.1304386245
 21
3.0842178482
  0
LINE
  5
288
100
AcDbEntity
  8
0
100
AcDbLine
 62
7
  6
CONTINUOUS
 10
3.1308232718
 20
3.7842178482
 11
3.1308232718
 21
3.7342178482
  0
LINE
  5
289
100
AcDbEntity
  8
0
100
AcDbLine
 62
7
  6
CONTINUOUS
 10
3.1372868488
 20
3.7342178482
 11
3.1372868488
 21
3.7842178482
  0
LINE
  5
28A
100
AcDbEntity
  8
0
100
AcDbLine
 62
7
  6
CONTINUOUS
 10
3.1404822773
 20
4.1072178482
 11
3.1404822773
 21
4.1197178482
  0
LINE
  5
28B
100
AcDbEntity
  8
0
100
AcDbLine
 62
7
  6
CONTINUOUS
 10
3.140679606
 20
3.0842178482
 11
3.140679606
 21
3.0442178482
  0
LINE
  5
28C
100
AcDbEntity
  8
0
100
AcDbLine
 62
7
  6
CONTINUOUS
 10
3.1437155665
 20
3.7342178482
 11
3.1437155665
 21
3.7842178482
  0
LINE
  5
28D
100
AcDbEntity
  8
0
100
AcDbLine
 62
7
  6
CONTINUOUS
 10
3.1480452814
 20
3.0442178482
 11
3.1480452814
 21
3.0842178482
  0
LINE
  5
28E
100
AcDbEntity
  8
0
100
AcDbLine
 62
7
  6
CONTINUOUS
 10
3.154102137
 20
3.7842178482
 11
3.154102137
 21
3.7342178482
  0
LINE
  5
28F
100
AcDbEntity
  8
0
100
AcDbLine
 62
7
  6
CONTINUOUS
 10
3.1548000506
 20
3.0442178482
 11
3.1548000506
 21
3.0842178482
  0
LINE
  5
290
100
AcDbEntity
  8
0
100
AcDbLine
 62
7
  6
CONTINUOUS
 10
3.1611925192
 20
3.7342178482
 11
3.1611925192
 21
3.7842178482
  0
LINE
  5
291
100
AcDbEntity
  8
0
100
AcDbLine
 62
7
  6
CONTINUOUS
 10
3.1647709477
 20
3.0842178482
 11
3.1647709477
 21
3.0442178482
  0
LINE
  5
292
100
AcDbEntity
  8
0
100
AcDbLine
 62
7
  6
CONTINUOUS
 10
3.167731626
 20
3.7342178482
 11
3.167731626
 21
3.7842178482
  0
LINE
  5
293
100
AcDbEntity
  8
0
100
AcDbLine
 62
7
  6
CONTINUOUS
 10
3.1725784408
 20
3.0442178482
 11
3.1725784408
 21
3.0842178482
  0
LINE
  5
294
100
AcDbEntity
  8
0
100
AcDbLine
 62
7
  6
CONTINUOUS
 10
3.1777807292
 20
3.7842178482
 11
3.1777807292
 21
3.7342178482
  0
LINE
  5
295
100
AcDbEntity
  8
0
100
AcDbLine
 62
7
  6
CONTINUOUS
 10
3.1793894734
 20
3.0442178482
 11
3.1793894734
 21
3.0842178482
  0
LINE
  5
296
100
AcDbEntity
  8
0
100
AcDbLine
 62
7
  6
CONTINUOUS
 10
3.1854641278
 20
3.7342178482
 11
3.1854641278
 21
3.7842178482
  0
LINE
  5
297
100
AcDbEntity
  8
0
100
AcDbLine
 62
7
  6
CONTINUOUS
 10
3.1890629565
 20
3.0842178482
 11
3.1890629565
 21
3.0442178482
  0
LINE
  5
298
100
AcDbEntity
  8
0
100
AcDbLine
 62
7
  6
CONTINUOUS
 10
3.1920824618
 20
3.7342178482
 11
3.1920824618
 21
3.7842178482
  0
LINE
  5
299
100
AcDbEntity
  8
0
100
AcDbLine
 62
7
  6
CONTINUOUS
 10
3.1972908675
 20
3.0442178482
 11
3.1972908675
 21
3.0842178482
  0
LINE
  5
29A
100
AcDbEntity
  8
0
100
AcDbLine
 62
7
  6
CONTINUOUS
 10
3.2017462092
 20
3.7842178482
 11
3.2017462092
 21
3.7342178482
  0
LINE
  5
29B
100
AcDbEntity
  8
0
100
AcDbLine
 62
7
  6
CONTINUOUS
 10
3.204139495
 20
3.0442178482
 11
3.204139495
 21
3.0842178482
  0
LINE
  5
29C
100
AcDbEntity
  8
0
100
AcDbLine
 62
7
  6
CONTINUOUS
 10
3.2099860093
 20
3.7342178482
 11
3.2099860093
 21
3.7842178482
  0
LINE
  5
29D
100
AcDbEntity
  8
0
100
AcDbLine
 62
7
  6
CONTINUOUS
 10
3.2134890498
 20
3.0842178482
 11
3.2134890498
 21
3.0442178482
  0
LINE
  5
29E
100
AcDbEntity
  8
0
100
AcDbLine
 62
7
  6
CONTINUOUS
 10
3.2166520312
 20
3.7342178482
 11
3.2166520312
 21
3.7842178482
  0
LINE
  5
29F
100
AcDbEntity
  8
0
100
AcDbLine
 62
7
  6
CONTINUOUS
 10
3.2221148266
 20
3.0442178482
 11
3.2221148266
 21
3.0842178482
  0
LINE
  5
2A0
100
AcDbEntity
  8
0
100
AcDbLine
 62
7
  6
CONTINUOUS
 10
3.2258843706
 20
3.7842178482
 11
3.2258843706
 21
3.7342178482
  0
LINE
  5
2A1
100
AcDbEntity
  8
0
100
AcDbLine
 62
7
  6
CONTINUOUS
 10
3.2289822773
 20
3.0442178482
 11
3.2289822773
 21
3.0842178482
  0
LINE
  5
2A2
100
AcDbEntity
  8
0
100
AcDbLine
 62
7
  6
CONTINUOUS
 10
3.2346413057
 20
3.7342178482
 11
3.2346413057
 21
3.7842178482
  0
LINE
  5
2A3
100
AcDbEntity
  8
0
100
AcDbLine
 62
7
  6
CONTINUOUS
 10
3.2379822773
 20
3.0842178482
 11
3.2379822773
 21
3.0442178482
  0
LINE
  5
2A4
100
AcDbEntity
  8
0
100
AcDbLine
 62
7
  6
CONTINUOUS
 10
3.2413232489
 20
3.7342178482
 11
3.2413232489
 21
3.7842178482
  0
LINE
  5
2A5
100
AcDbEntity
  8
0
100
AcDbLine
 62
7
  6
CONTINUOUS
 10
3.2469822773
 20
3.0442178482
 11
3.2469822773
 21
3.0842178482
  0
LINE
  5
2A6
100
AcDbEntity
  8
0
100
AcDbLine
 62
7
  6
CONTINUOUS
 10
3.250080184
 20
3.7842178482
 11
3.250080184
 21
3.7342178482
  0
LINE
  5
2A7
100
AcDbEntity
  8
0
100
AcDbLine
 62
7
  6
CONTINUOUS
 10
3.253849728
 20
3.0442178482
 11
3.253849728
 21
3.0842178482
  0
LINE
  5
2A8
100
AcDbEntity
  8
0
100
AcDbLine
 62
7
  6
CONTINUOUS
 10
3.2593125234
 20
3.7342178482
 11
3.2593125234
 21
3.7842178482
  0
LINE
  5
2A9
100
AcDbEntity
  8
0
100
AcDbLine
 62
7
  6
CONTINUOUS
 10
3.2624755048
 20
3.0842178482
 11
3.2624755048
 21
3.0442178482
  0
LINE
  5
2AA
100
AcDbEntity
  8
0
100
AcDbLine
 62
7
  6
CONTINUOUS
 10
3.2659785453
 20
3.7342178482
 11
3.2659785453
 21
3.7842178482
  0
LINE
  5
2AB
100
AcDbEntity
  8
0
100
AcDbLine
 62
7
  6
CONTINUOUS
 10
3.2718250596
 20
3.0442178482
 11
3.2718250596
 21
3.0842178482
  0
LINE
  5
2AC
100
AcDbEntity
  8
0
100
AcDbLine
 62
7
  6
CONTINUOUS
 10
3.2742183454
 20
3.7842178482
 11
3.2742183454
 21
3.7342178482
  0
LINE
  5
2AD
100
AcDbEntity
  8
0
100
AcDbLine
 62
7
  6
CONTINUOUS
 10
3.2786736871
 20
3.0442178482
 11
3.2786736871
 21
3.0842178482
  0
LINE
  5
2AE
100
AcDbEntity
  8
0
100
AcDbLine
 62
7
  6
CONTINUOUS
 10
3.2838820927
 20
3.7342178482
 11
3.2838820927
 21
3.7842178482
  0
LINE
  5
2AF
100
AcDbEntity
  8
0
100
AcDbLine
 62
7
  6
CONTINUOUS
 10
3.2869015981
 20
3.0842178482
 11
3.2869015981
 21
3.0442178482
  0
LINE
  5
2B0
100
AcDbEntity
  8
0
100
AcDbLine
 62
7
  6
CONTINUOUS
 10
3.2905004268
 20
3.7342178482
 11
3.2905004268
 21
3.7842178482
  0
LINE
  5
2B1
100
AcDbEntity
  8
0
100
AcDbLine
 62
7
  6
CONTINUOUS
 10
3.2965750812
 20
3.0442178482
 11
3.2965750812
 21
3.0842178482
  0
LINE
  5
2B2
100
AcDbEntity
  8
0
100
AcDbLine
 62
7
  6
CONTINUOUS
 10
3.2981838254
 20
3.7842178482
 11
3.2981838254
 21
3.7342178482
  0
LINE
  5
2B3
100
AcDbEntity
  8
0
100
AcDbLine
 62
7
  6
CONTINUOUS
 10
3.3033861138
 20
3.0442178482
 11
3.3033861138
 21
3.0842178482
  0
LINE
  5
2B4
100
AcDbEntity
  8
0
100
AcDbLine
 62
7
  6
CONTINUOUS
 10
3.3082329286
 20
3.7342178482
 11
3.3082329286
 21
3.7842178482
  0
LINE
  5
2B5
100
AcDbEntity
  8
0
100
AcDbLine
 62
7
  6
CONTINUOUS
 10
3.3111936069
 20
3.0842178482
 11
3.3111936069
 21
3.0442178482
  0
LINE
  5
2B6
100
AcDbEntity
  8
0
100
AcDbLine
 62
7
  6
CONTINUOUS
 10
3.3147720353
 20
3.7342178482
 11
3.3147720353
 21
3.7842178482
  0
LINE
  5
2B7
100
AcDbEntity
  8
0
100
AcDbLine
 62
7
  6
CONTINUOUS
 10
3.321164504
 20
3.0442178482
 11
3.321164504
 21
3.0842178482
  0
LINE
  5
2B8
100
AcDbEntity
  8
0
100
AcDbLine
 62
7
  6
CONTINUOUS
 10
3.3218624176
 20
3.7842178482
 11
3.3218624176
 21
3.7342178482
  0
LINE
  5
2B9
100
AcDbEntity
  8
0
100
AcDbLine
 62
7
  6
CONTINUOUS
 10
3.3279192732
 20
3.0442178482
 11
3.3279192732
 21
3.0842178482
  0
LINE
  5
2BA
100
AcDbEntity
  8
0
100
AcDbLine
 62
7
  6
CONTINUOUS
 10
3.332248988
 20
3.7342178482
 11
3.332248988
 21
3.7842178482
  0
LINE
  5
2BB
100
AcDbEntity
  8
0
100
AcDbLine
 62
7
  6
CONTINUOUS
 10
3.3352849486
 20
3.0842178482
 11
3.3352849486
 21
3.0442178482
  0
LINE
  5
2BC
100
AcDbEntity
  8
0
100
AcDbLine
 62
7
  6
CONTINUOUS
 10
3.3354822773
 20
4.1072178482
 11
3.3354822773
 21
4.1197178482
  0
LINE
  5
2BD
100
AcDbEntity
  8
0
100
AcDbLine
 62
7
  6
CONTINUOUS
 10
3.3386777057
 20
3.7342178482
 11
3.3386777057
 21
3.7842178482
  0
LINE
  5
2BE
100
AcDbEntity
  8
0
100
AcDbLine
 62
7
  6
CONTINUOUS
 10
3.3451412828
 20
3.7842178482
 11
3.3451412828
 21
3.7342178482
  0
LINE
  5
2BF
100
AcDbEntity
  8
0
100
AcDbLine
 62
7
  6
CONTINUOUS
 10
3.34552593
 20
3.0442178482
 11
3.34552593
 21
3.0842178482
  0
LINE
  5
2C0
100
AcDbEntity
  8
0
100
AcDbLine
 62
7
  6
CONTINUOUS
 10
3.3522059216
 20
3.0442178482
 11
3.3522059216
 21
3.0842178482
  0
LINE
  5
2C1
100
AcDbEntity
  8
0
100
AcDbLine
 62
7
  6
CONTINUOUS
 10
3.3558158237
 20
3.7342178482
 11
3.3558158237
 21
3.7842178482
  0
LINE
  5
2C2
100
AcDbEntity
  8
0
100
AcDbLine
 62
7
  6
CONTINUOUS
 10
3.3591095904
 20
3.0842178482
 11
3.3591095904
 21
3.0442178482
  0
LINE
  5
2C3
100
AcDbEntity
  8
0
100
AcDbLine
 62
7
  6
CONTINUOUS
 10
3.3621035166
 20
3.7342178482
 11
3.3621035166
 21
3.7842178482
  0
LINE
  5
2C4
100
AcDbEntity
  8
0
100
AcDbLine
 62
7
  6
CONTINUOUS
 10
3.3679094865
 20
3.7842178482
 11
3.3679094865
 21
3.7342178482
  0
LINE
  5
2C5
100
AcDbEntity
  8
0
100
AcDbLine
 62
7
  6
CONTINUOUS
 10
3.3695925864
 20
3.0442178482
 11
3.3695925864
 21
3.0842178482
  0
LINE
  5
2C6
100
AcDbEntity
  8
0
100
AcDbLine
 62
7
  6
CONTINUOUS
 10
3.3761794908
 20
3.0442178482
 11
3.3761794908
 21
3.0842178482
  0
LINE
  5
2C7
100
AcDbEntity
  8
0
100
AcDbLine
 62
7
  6
CONTINUOUS
 10
3.3788211289
 20
3.7342178482
 11
3.3788211289
 21
3.7842178482
  0
LINE
  5
2C8
100
AcDbEntity
  8
0
100
AcDbLine
 62
7
  6
CONTINUOUS
 10
3.3826022307
 20
3.0842178482
 11
3.3826022307
 21
3.0442178482
  0
LINE
  5
2C9
100
AcDbEntity
  8
0
100
AcDbLine
 62
7
  6
CONTINUOUS
 10
3.3849378332
 20
3.7342178482
 11
3.3849378332
 21
3.7842178482
  0
LINE
  5
2CA
100
AcDbEntity
  8
0
100
AcDbLine
 62
7
  6
CONTINUOUS
 10
3.3867322773
 20
3.9217178482
 11
3.3867322773
 21
4.0275315785
  0
LINE
  5
2CB
100
AcDbEntity
  8
0
100
AcDbLine
 62
7
  6
CONTINUOUS
 10
3.3900585279
 20
3.7842178482
 11
3.3900585279
 21
3.7342178482
  0
LINE
  5
2CC
100
AcDbEntity
  8
0
100
AcDbLine
 62
7
  6
CONTINUOUS
 10
3.6879822773
 20
2.9942178482
 11
3.7129822773
 21
2.9692178482
  0
LINE
  5
2CD
100
AcDbEntity
  8
0
100
AcDbLine
 62
7
  6
CONTINUOUS
 10
3.3932985081
 20
3.0442178482
 11
3.3932985081
 21
3.0842178482
  0
LINE
  5
2CE
100
AcDbEntity
  8
0
100
AcDbLine
 62
7
  6
CONTINUOUS
 10
3.3997742712
 20
3.0442178482
 11
3.3997742712
 21
3.0842178482
  0
LINE
  5
2CF
100
AcDbEntity
  8
0
100
AcDbLine
 62
7
  6
CONTINUOUS
 10
3.4011552728
 20
3.7342178482
 11
3.4011552728
 21
3.7842178482
  0
LINE
  5
2D0
100
AcDbEntity
  8
0
100
AcDbLine
 62
7
  6
CONTINUOUS
 10
3.4056984777
 20
3.0842178482
 11
3.4056984777
 21
3.0442178482
  0
LINE
  5
2D1
100
AcDbEntity
  8
0
100
AcDbLine
 62
7
  6
CONTINUOUS
 10
3.4070718396
 20
3.7342178482
 11
3.4070718396
 21
3.7842178482
  0
LINE
  5
2D2
100
AcDbEntity
  8
0
100
AcDbLine
 62
7
  6
CONTINUOUS
 10
3.4114828566
 20
3.7842178482
 11
3.4114828566
 21
3.7342178482
  0
LINE
  5
2D3
100
AcDbEntity
  8
0
100
AcDbLine
 62
7
  6
CONTINUOUS
 10
3.4165787188
 20
3.0442178482
 11
3.4165787188
 21
3.0842178482
  0
LINE
  5
2D4
100
AcDbEntity
  8
0
100
AcDbLine
 62
7
  6
CONTINUOUS
 10
3.422711823
 20
3.7342178482
 11
3.422711823
 21
3.7842178482
  0
LINE
  5
2D5
100
AcDbEntity
  8
0
100
AcDbLine
 62
7
  6
CONTINUOUS
 10
3.4229255909
 20
3.0442178482
 11
3.4229255909
 21
3.0842178482
  0
LINE
  5
2D6
100
AcDbEntity
  8
0
100
AcDbLine
 62
7
  6
CONTINUOUS
 10
3.4283350262
 20
3.0842178482
 11
3.4283350262
 21
3.0442178482
  0
LINE
  5
2D7
100
AcDbEntity
  8
0
100
AcDbLine
 62
7
  6
CONTINUOUS
 10
3.4284000573
 20
3.7342178482
 11
3.4284000573
 21
3.7842178482
  0
LINE
  5
2D8
100
AcDbEntity
  8
0
100
AcDbLine
 62
7
  6
CONTINUOUS
 10
3.4320803762
 20
3.7842178482
 11
3.4320803762
 21
3.7342178482
  0
LINE
  5
2D9
100
AcDbEntity
  8
0
100
AcDbLine
 62
7
  6
CONTINUOUS
 10
3.4379822773
 20
3.9067178482
 11
3.4379822773
 21
3.8617178482
  0
LINE
  5
2DA
100
AcDbEntity
  8
0
100
AcDbLine
 62
7
  6
CONTINUOUS
 10
3.4393694091
 20
3.0442178482
 11
3.4393694091
 21
3.0842178482
  0
LINE
  5
2DB
100
AcDbEntity
  8
0
100
AcDbLine
 62
7
  6
CONTINUOUS
 10
3.4433880529
 20
3.7342178482
 11
3.4433880529
 21
3.7842178482
  0
LINE
  5
2DC
100
AcDbEntity
  8
0
100
AcDbLine
 62
7
  6
CONTINUOUS
 10
3.4455699938
 20
3.0442178482
 11
3.4455699938
 21
3.0842178482
  0
LINE
  5
2DD
100
AcDbEntity
  8
0
100
AcDbLine
 62
7
  6
CONTINUOUS
 10
3.4488208475
 20
3.7342178482
 11
3.4488208475
 21
3.7842178482
  0
LINE
  5
2DE
100
AcDbEntity
  8
0
100
AcDbLine
 62
7
  6
CONTINUOUS
 10
3.4504498312
 20
3.0842178482
 11
3.4504498312
 21
3.0442178482
  0
LINE
  5
2DF
100
AcDbEntity
  8
0
100
AcDbLine
 62
7
  6
CONTINUOUS
 10
3.4517529298
 20
3.7842178482
 11
3.4517529298
 21
3.7342178482
  0
LINE
  5
2E0
100
AcDbEntity
  8
0
100
AcDbLine
 62
7
  6
CONTINUOUS
 10
3.4616081112
 20
3.0442178482
 11
3.4616081112
 21
3.0842178482
  0
LINE
  5
2E1
100
AcDbEntity
  8
0
100
AcDbLine
 62
7
  6
CONTINUOUS
 10
3.4630854307
 20
3.7342178482
 11
3.4630854307
 21
3.7842178482
  0
LINE
  5
2E2
100
AcDbEntity
  8
0
100
AcDbLine
 62
7
  6
CONTINUOUS
 10
3.4676454132
 20
3.0442178482
 11
3.4676454132
 21
3.0842178482
  0
LINE
  5
2E3
100
AcDbEntity
  8
0
100
AcDbLine
 62
7
  6
CONTINUOUS
 10
3.468236896
 20
3.7342178482
 11
3.468236896
 21
3.7842178482
  0
LINE
  5
2E4
100
AcDbEntity
  8
0
100
AcDbLine
 62
7
  6
CONTINUOUS
 10
3.470406769
 20
3.7842178482
 11
3.470406769
 21
3.7342178482
  0
LINE
  5
2E5
100
AcDbEntity
  8
0
100
AcDbLine
 62
7
  6
CONTINUOUS
 10
3.4719822773
 20
3.0842178482
 11
3.4719822773
 21
3.0442178482
  0
LINE
  5
2E6
100
AcDbEntity
  8
0
100
AcDbLine
 62
7
  6
CONTINUOUS
 10
3.4817100895
 20
3.7342178482
 11
3.4817100895
 21
3.7842178482
  0
LINE
  5
2E7
100
AcDbEntity
  8
0
100
AcDbLine
 62
7
  6
CONTINUOUS
 10
3.4832338705
 20
3.0442178482
 11
3.4832338705
 21
3.0842178482
  0
LINE
  5
2E8
100
AcDbEntity
  8
0
100
AcDbLine
 62
7
  6
CONTINUOUS
 10
3.4865556763
 20
3.7342178482
 11
3.4865556763
 21
3.7842178482
  0
LINE
  5
2E9
100
AcDbEntity
  8
0
100
AcDbLine
 62
7
  6
CONTINUOUS
 10
3.4879529996
 20
3.7842178482
 11
3.4879529996
 21
3.7342178482
  0
LINE
  5
2EA
100
AcDbEntity
  8
0
100
AcDbLine
 62
7
  6
CONTINUOUS
 10
3.489091342
 20
3.0442178482
 11
3.489091342
 21
3.0842178482
  0
LINE
  5
2EB
100
AcDbEntity
  8
0
100
AcDbLine
 62
7
  6
CONTINUOUS
 10
3.4928733457
 20
3.0842178482
 11
3.4928733457
 21
3.0442178482
  0
LINE
  5
2EC
100
AcDbEntity
  8
0
100
AcDbLine
 62
7
  6
CONTINUOUS
 10
3.4991732742
 20
3.7342178482
 11
3.4991732742
 21
3.7842178482
  0
LINE
  5
2ED
100
AcDbEntity
  8
0
100
AcDbLine
 62
7
  6
CONTINUOUS
 10
3.5036898912
 20
3.7342178482
 11
3.5036898912
 21
3.7842178482
  0
LINE
  5
2EE
100
AcDbEntity
  8
0
100
AcDbLine
 62
7
  6
CONTINUOUS
 10
3.5041874122
 20
3.0442178482
 11
3.5041874122
 21
3.0842178482
  0
LINE
  5
2EF
100
AcDbEntity
  8
0
100
AcDbLine
 62
7
  6
CONTINUOUS
 10
3.5043080059
 20
3.7842178482
 11
3.5043080059
 21
3.7342178482
  0
LINE
  5
2F0
100
AcDbEntity
  8
0
100
AcDbLine
 62
7
  6
CONTINUOUS
 10
3.5098489983
 20
3.0442178482
 11
3.5098489983
 21
3.0842178482
  0
LINE
  5
2F1
100
AcDbEntity
  8
0
100
AcDbLine
 62
7
  6
CONTINUOUS
 10
3.5130657754
 20
3.0842178482
 11
3.5130657754
 21
3.0442178482
  0
LINE
  5
2F2
100
AcDbEntity
  8
0
100
AcDbLine
 62
7
  6
CONTINUOUS
 10
3.5153917649
 20
3.7342178482
 11
3.5153917649
 21
3.7842178482
  0
LINE
  5
2F3
100
AcDbEntity
  8
0
100
AcDbLine
 62
7
  6
CONTINUOUS
 10
3.5195578883
 20
3.7342178482
 11
3.5195578883
 21
3.7842178482
  0
LINE
  5
2F4
100
AcDbEntity
  8
0
100
AcDbLine
 62
7
  6
CONTINUOUS
 10
3.5244113042
 20
3.0442178482
 11
3.5244113042
 21
3.0842178482
  0
LINE
  5
2F5
100
AcDbEntity
  8
0
100
AcDbLine
 62
7
  6
CONTINUOUS
 10
3.5298614867
 20
3.0442178482
 11
3.5298614867
 21
3.0842178482
  0
LINE
  5
2F6
100
AcDbEntity
  8
0
100
AcDbLine
 62
7
  6
CONTINUOUS
 10
3.530288273
 20
3.7342178482
 11
3.530288273
 21
3.7842178482
  0
LINE
  5
2F7
100
AcDbEntity
  8
0
100
AcDbLine
 62
7
  6
CONTINUOUS
 10
3.5325042203
 20
3.0842178482
 11
3.5325042203
 21
3.0442178482
  0
LINE
  5
2F8
100
AcDbEntity
  8
0
100
AcDbLine
 62
7
  6
CONTINUOUS
 10
3.5340840494
 20
3.7342178482
 11
3.5340840494
 21
3.7842178482
  0
LINE
  5
2F9
100
AcDbEntity
  8
0
100
AcDbLine
 62
7
  6
CONTINUOUS
 10
3.5379822773
 20
3.1242178482
 11
3.5379822773
 21
3.1192178482
  0
LINE
  5
2FA
100
AcDbEntity
  8
0
100
AcDbLine
 62
7
  6
CONTINUOUS
 10
3.54379181
 20
3.7342178482
 11
3.54379181
 21
3.7842178482
  0
LINE
  5
2FB
100
AcDbEntity
  8
0
100
AcDbLine
 62
7
  6
CONTINUOUS
 10
3.543850114
 20
3.0442178482
 11
3.543850114
 21
3.0842178482
  0
LINE
  5
2FC
100
AcDbEntity
  8
0
100
AcDbLine
 62
7
  6
CONTINUOUS
 10
3.5471991507
 20
3.7342178482
 11
3.5471991507
 21
3.7842178482
  0
LINE
  5
2FD
100
AcDbEntity
  8
0
100
AcDbLine
 62
7
  6
CONTINUOUS
 10
3.5490739546
 20
3.0442178482
 11
3.5490739546
 21
3.0842178482
  0
LINE
  5
2FE
100
AcDbEntity
  8
0
100
AcDbLine
 62
7
  6
CONTINUOUS
 10
3.5504822773
 20
3.7342178482
 11
3.5504822773
 21
3.1242178482
  0
LINE
  5
2FF
100
AcDbEntity
  8
0
100
AcDbLine
 62
7
  6
CONTINUOUS
 10
3.5511354011
 20
3.0842178482
 11
3.5511354011
 21
3.0442178482
  0
LINE
  5
300
100
AcDbEntity
  8
0
100
AcDbLine
 62
7
  6
CONTINUOUS
 10
3.5558380253
 20
3.7342178482
 11
3.5558380253
 21
3.7842178482
  0
LINE
  5
301
100
AcDbEntity
  8
0
100
AcDbLine
 62
7
  6
CONTINUOUS
 10
3.5588406928
 20
3.7342178482
 11
3.5588406928
 21
3.7842178482
  0
LINE
  5
302
100
AcDbEntity
  8
0
100
AcDbLine
 62
7
  6
CONTINUOUS
 10
3.5624505614
 20
3.0442178482
 11
3.5624505614
 21
3.0842178482
  0
LINE
  5
303
100
AcDbEntity
  8
0
100
AcDbLine
 62
7
  6
CONTINUOUS
 10
3.5663695132
 20
3.7342178482
 11
3.5663695132
 21
3.7842178482
  0
LINE
  5
304
100
AcDbEntity
  8
0
100
AcDbLine
 62
7
  6
CONTINUOUS
 10
3.5674337418
 20
3.0442178482
 11
3.5674337418
 21
3.0842178482
  0
LINE
  5
305
100
AcDbEntity
  8
0
100
AcDbLine
 62
7
  6
CONTINUOUS
 10
3.5689082509
 20
3.0842178482
 11
3.5689082509
 21
3.0442178482
  0
LINE
  5
306
100
AcDbEntity
  8
0
100
AcDbLine
 62
7
  6
CONTINUOUS
 10
3.5689531984
 20
3.7342178482
 11
3.5689531984
 21
3.7842178482
  0
LINE
  5
307
100
AcDbEntity
  8
0
100
AcDbLine
 62
7
  6
CONTINUOUS
 10
3.5753360863
 20
3.7342178482
 11
3.5753360863
 21
3.7842178482
  0
LINE
  5
308
100
AcDbEntity
  8
0
100
AcDbLine
 62
7
  6
CONTINUOUS
 10
3.5774884768
 20
3.7342178482
 11
3.5774884768
 21
3.7842178482
  0
LINE
  5
309
100
AcDbEntity
  8
0
100
AcDbLine
 62
7
  6
CONTINUOUS
 10
3.5801616638
 20
3.0442178482
 11
3.5801616638
 21
3.0842178482
  0
LINE
  5
30A
100
AcDbEntity
  8
0
100
AcDbLine
 62
7
  6
CONTINUOUS
 10
3.582695015
 20
3.7342178482
 11
3.582695015
 21
3.7842178482
  0
LINE
  5
30B
100
AcDbEntity
  8
0
100
AcDbLine
 62
7
  6
CONTINUOUS
 10
3.5844058536
 20
3.7342178482
 11
3.5844058536
 21
3.7842178482
  0
LINE
  5
30C
100
AcDbEntity
  8
0
100
AcDbLine
 62
7
  6
CONTINUOUS
 10
3.5848905254
 20
3.0442178482
 11
3.5848905254
 21
3.0842178482
  0
LINE
  5
30D
100
AcDbEntity
  8
0
100
AcDbLine
 62
7
  6
CONTINUOUS
 10
3.5857740556
 20
3.0842178482
 11
3.5857740556
 21
3.0442178482
  0
LINE
  5
30E
100
AcDbEntity
  8
0
100
AcDbLine
 62
7
  6
CONTINUOUS
 10
3.5884112304
 20
3.7342178482
 11
3.5884112304
 21
3.7842178482
  0
LINE
  5
30F
100
AcDbEntity
  8
0
100
AcDbLine
 62
7
  6
CONTINUOUS
 10
3.5896723643
 20
3.7342178482
 11
3.5896723643
 21
3.7842178482
  0
LINE
  5
310
100
AcDbEntity
  8
0
100
AcDbLine
 62
7
  6
CONTINUOUS
 10
3.5924574923
 20
3.7342178482
 11
3.5924574923
 21
3.7842178482
  0
LINE
  5
311
100
AcDbEntity
  8
0
100
AcDbLine
 62
7
  6
CONTINUOUS
 10
3.5932629116
 20
3.7342178482
 11
3.5932629116
 21
3.7842178482
  0
LINE
  5
312
100
AcDbEntity
  8
0
100
AcDbLine
 62
7
  6
CONTINUOUS
 10
3.5948145184
 20
3.7342178482
 11
3.5948145184
 21
3.7842178482
  0
LINE
  5
313
100
AcDbEntity
  8
0
100
AcDbLine
 62
7
  6
CONTINUOUS
 10
3.5951603848
 20
3.7342178482
 11
3.5951603848
 21
3.7842178482
  0
LINE
  5
314
100
AcDbEntity
  8
0
100
AcDbLine
 62
7
  6
CONTINUOUS
 10
3.5954710764
 20
3.7342178482
 11
3.5954710764
 21
3.7842178482
  0
LINE
  5
315
100
AcDbEntity
  8
0
100
AcDbLine
 62
7
  6
CONTINUOUS
 10
3.5969348763
 20
3.0442178482
 11
3.5969348763
 21
3.0842178482
  0
LINE
  5
316
100
AcDbEntity
  8
0
100
AcDbLine
 62
7
  6
CONTINUOUS
 10
3.6013964576
 20
3.0442178482
 11
3.6013964576
 21
3.0842178482
  0
LINE
  5
317
100
AcDbEntity
  8
0
100
AcDbLine
 62
7
  6
CONTINUOUS
 10
3.6016865873
 20
3.0842178482
 11
3.6016865873
 21
3.0442178482
  0
LINE
  5
318
100
AcDbEntity
  8
0
100
AcDbLine
 62
7
  6
CONTINUOUS
 10
3.6127242246
 20
3.0442178482
 11
3.6127242246
 21
3.0842178482
  0
LINE
  5
319
100
AcDbEntity
  8
0
100
AcDbLine
 62
7
  6
CONTINUOUS
 10
3.6169062968
 20
3.0442178482
 11
3.6169062968
 21
3.0842178482
  0
LINE
  5
31A
100
AcDbEntity
  8
0
100
AcDbLine
 62
7
  6
CONTINUOUS
 10
3.6274864314
 20
3.0442178482
 11
3.6274864314
 21
3.0842178482
  0
LINE
  5
31B
100
AcDbEntity
  8
0
100
AcDbLine
 62
7
  6
CONTINUOUS
 10
3.6313775316
 20
3.0442178482
 11
3.6313775316
 21
3.0842178482
  0
LINE
  5
31C
100
AcDbEntity
  8
0
100
AcDbLine
 62
7
  6
CONTINUOUS
 10
3.6411810343
 20
3.0442178482
 11
3.6411810343
 21
3.0842178482
  0
LINE
  5
31D
100
AcDbEntity
  8
0
100
AcDbLine
 62
7
  6
CONTINUOUS
 10
3.6447704974
 20
3.0442178482
 11
3.6447704974
 21
3.0842178482
  0
LINE
  5
31E
100
AcDbEntity
  8
0
100
AcDbLine
 62
7
  6
CONTINUOUS
 10
3.6537704974
 20
3.0442178482
 11
3.6537704974
 21
3.0842178482
  0
LINE
  5
31F
100
AcDbEntity
  8
0
100
AcDbLine
 62
7
  6
CONTINUOUS
 10
3.6570484849
 20
3.0442178482
 11
3.6570484849
 21
3.0842178482
  0
LINE
  5
320
100
AcDbEntity
  8
0
100
AcDbLine
 62
7
  6
CONTINUOUS
 10
3.6652203139
 20
3.0442178482
 11
3.6652203139
 21
3.0842178482
  0
LINE
  5
321
100
AcDbEntity
  8
0
100
AcDbLine
 62
7
  6
CONTINUOUS
 10
3.6681778411
 20
3.0442178482
 11
3.6681778411
 21
3.0842178482
  0
LINE
  5
322
100
AcDbEntity
  8
0
100
AcDbLine
 62
7
  6
CONTINUOUS
 10
3.6754991007
 20
3.0442178482
 11
3.6754991007
 21
3.0842178482
  0
LINE
  5
323
100
AcDbEntity
  8
0
100
AcDbLine
 62
7
  6
CONTINUOUS
 10
3.6781280612
 20
3.0442178482
 11
3.6781280612
 21
3.0842178482
  0
LINE
  5
324
100
AcDbEntity
  8
0
100
AcDbLine
 62
7
  6
CONTINUOUS
 10
3.6845786843
 20
3.0442178482
 11
3.6845786843
 21
3.0842178482
  0
LINE
  5
325
100
AcDbEntity
  8
0
100
AcDbLine
 62
7
  6
CONTINUOUS
 10
3.6868718722
 20
3.0442178482
 11
3.6868718722
 21
3.0842178482
  0
LINE
  5
326
100
AcDbEntity
  8
0
100
AcDbLine
 62
7
  6
CONTINUOUS
 10
3.6879822773
 20
3.0442178482
 11
3.6879822773
 21
2.9942178482
  0
LINE
  5
327
100
AcDbEntity
  8
0
100
AcDbLine
 62
7
  6
CONTINUOUS
 10
3.6924341781
 20
3.0442178482
 11
3.6924341781
 21
3.0842178482
  0
LINE
  5
328
100
AcDbEntity
  8
0
100
AcDbLine
 62
7
  6
CONTINUOUS
 10
3.6943853081
 20
3.0442178482
 11
3.6943853081
 21
3.0842178482
  0
LINE
  5
329
100
AcDbEntity
  8
0
100
AcDbLine
 62
7
  6
CONTINUOUS
 10
3.6990440509
 20
3.0442178482
 11
3.6990440509
 21
3.0842178482
  0
LINE
  5
32A
100
AcDbEntity
  8
0
100
AcDbLine
 62
7
  6
CONTINUOUS
 10
3.700647775
 20
3.0442178482
 11
3.700647775
 21
3.0842178482
  0
LINE
  5
32B
100
AcDbEntity
  8
0
100
AcDbLine
 62
7
  6
CONTINUOUS
 10
3.7043901854
 20
3.0442178482
 11
3.7043901854
 21
3.0842178482
  0
LINE
  5
32C
100
AcDbEntity
  8
0
100
AcDbLine
 62
7
  6
CONTINUOUS
 10
3.7056421079
 20
3.0442178482
 11
3.7056421079
 21
3.0842178482
  0
LINE
  5
32D
100
AcDbEntity
  8
0
100
AcDbLine
 62
7
  6
CONTINUOUS
 10
3.7084579283
 20
3.0442178482
 11
3.7084579283
 21
3.0842178482
  0
LINE
  5
32E
100
AcDbEntity
  8
0
100
AcDbLine
 62
7
  6
CONTINUOUS
 10
3.7093546177
 20
3.0442178482
 11
3.7093546177
 21
3.0842178482
  0
LINE
  5
32F
100
AcDbEntity
  8
0
100
AcDbLine
 62
7
  6
CONTINUOUS
 10
3.7112361301
 20
3.0442178482
 11
3.7112361301
 21
3.0842178482
  0
LINE
  5
330
100
AcDbEntity
  8
0
100
AcDbLine
 62
7
  6
CONTINUOUS
 10
3.7117751287
 20
3.0442178482
 11
3.7117751287
 21
3.0842178482
  0
LINE
  5
331
100
AcDbEntity
  8
0
100
AcDbLine
 62
7
  6
CONTINUOUS
 10
3.712717176
 20
3.0442178482
 11
3.712717176
 21
3.0842178482
  0
LINE
  5
332
100
AcDbEntity
  8
0
100
AcDbLine
 62
7
  6
CONTINUOUS
 10
3.7128970065
 20
3.0442178482
 11
3.7128970065
 21
3.0842178482
  0
LINE
  5
333
100
AcDbEntity
  8
0
100
AcDbLine
 62
7
  6
CONTINUOUS
 10
3.7129822773
 20
2.9692178482
 11
3.7129822773
 21
2.9292178482
  0
LINE
  5
334
100
AcDbEntity
  8
0
100
AcDbLine
 62
7
  6
CONTINUOUS
 10
7.7129822773
 20
2.9292178482
 11
6.7629822773
 21
2.9292178482
  0
LINE
  5
335
100
AcDbEntity
  8
0
100
AcDbLine
 62
7
  6
CONTINUOUS
 10
5.7442322773
 20
2.9292178482
 11
4.7317322773
 21
2.9292178482
  0
LINE
  5
336
100
AcDbEntity
  8
0
100
AcDbLine
 62
7
  6
CONTINUOUS
 10
2.7629822773
 20
2.9292178482
 11
3.7129822773
 21
2.9292178482
  0
LINE
  5
337
100
AcDbEntity
  8
0
100
AcDbLine
 62
7
  6
CONTINUOUS
 10
7.7129822773
 20
2.9692178482
 11
6.7629822773
 21
2.9692178482
  0
LINE
  5
338
100
AcDbEntity
  8
0
100
AcDbLine
 62
7
  6
CONTINUOUS
 10
2.7629822773
 20
2.9692178482
 11
3.7129822773
 21
2.9692178482
  0
LINE
  5
339
100
AcDbEntity
  8
0
100
AcDbLine
 62
7
  6
CONTINUOUS
 10
7.6879822773
 20
2.9942178482
 11
6.7879822773
 21
2.9942178482
  0
LINE
  5
33A
100
AcDbEntity
  8
0
100
AcDbLine
 62
7
  6
CONTINUOUS
 10
2.7879822773
 20
2.9942178482
 11
3.6879822773
 21
2.9942178482
  0
LINE
  5
33B
100
AcDbEntity
  8
0
100
AcDbLine
 62
7
  6
CONTINUOUS
 10
7.7128970065
 20
3.0442178482
 11
6.7630675481
 21
3.0442178482
  0
LINE
  5
33C
100
AcDbEntity
  8
0
100
AcDbLine
 62
7
  6
CONTINUOUS
 10
3.7128970065
 20
3.0442178482
 11
2.7630675481
 21
3.0442178482
  0
LINE
  5
33D
100
AcDbEntity
  8
0
100
AcDbLine
 62
7
  6
CONTINUOUS
 10
5.7442322773
 20
3.053701582
 11
5.5871598328
 21
3.053701582
  0
LINE
  5
33E
100
AcDbEntity
  8
0
100
AcDbLine
 62
7
  6
CONTINUOUS
 10
4.8888047218
 20
3.053701582
 11
4.7317322773
 21
3.053701582
  0
LINE
  5
33F
100
AcDbEntity
  8
0
100
AcDbLine
 62
7
  6
CONTINUOUS
 10
2.7630675481
 20
3.0842178482
 11
3.7128970065
 21
3.0842178482
  0
LINE
  5
340
100
AcDbEntity
  8
0
100
AcDbLine
 62
7
  6
CONTINUOUS
 10
6.7630675481
 20
3.0842178482
 11
7.7128970065
 21
3.0842178482
  0
LINE
  5
341
100
AcDbEntity
  8
0
100
AcDbLine
 62
7
  6
CONTINUOUS
 10
5.7254822773
 20
3.0892178482
 11
5.5655606511
 21
3.0892178482
  0
LINE
  5
342
100
AcDbEntity
  8
0
100
AcDbLine
 62
7
  6
CONTINUOUS
 10
4.9104039034
 20
3.0892178482
 11
4.7504822773
 21
3.0892178482
  0
LINE
  5
343
100
AcDbEntity
  8
0
100
AcDbLine
 62
7
  6
CONTINUOUS
 10
7.6208444052
 20
3.1087178482
 11
6.8551201493
 21
3.1087178482
  0
LINE
  5
344
100
AcDbEntity
  8
0
100
AcDbLine
 62
7
  6
CONTINUOUS
 10
3.6208444052
 20
3.1087178482
 11
2.8551201493
 21
3.1087178482
  0
LINE
  5
345
100
AcDbEntity
  8
0
100
AcDbLine
 62
7
  6
CONTINUOUS
 10
7.6065353172
 20
3.1192178482
 11
6.8694292374
 21
3.1192178482
  0
LINE
  5
346
100
AcDbEntity
  8
0
100
AcDbLine
 62
7
  6
CONTINUOUS
 10
3.6065353172
 20
3.1192178482
 11
2.8694292374
 21
3.1192178482
  0
LINE
  5
347
100
AcDbEntity
  8
0
100
AcDbLine
 62
7
  6
CONTINUOUS
 10
2.9254822773
 20
3.1242178482
 11
3.5504822773
 21
3.1242178482
  0
LINE
  5
348
100
AcDbEntity
  8
0
100
AcDbLine
 62
7
  6
CONTINUOUS
 10
6.9254822773
 20
3.1242178482
 11
7.5504822773
 21
3.1242178482
  0
LINE
  5
349
100
AcDbEntity
  8
0
100
AcDbLine
 62
7
  6
CONTINUOUS
 10
5.4854822773
 20
3.1792178482
 11
4.9904822773
 21
3.1792178482
  0
LINE
  5
34A
100
AcDbEntity
  8
0
100
AcDbLine
 62
7
  6
CONTINUOUS
 10
5.4692322773
 20
3.2192178482
 11
5.0067322773
 21
3.2192178482
  0
LINE
  5
34B
100
AcDbEntity
  8
0
100
AcDbLine
 62
7
  6
CONTINUOUS
 10
2.7879822773
 20
2.9942178482
 11
2.7629822773
 21
2.9692178482
  0
LINE
  5
34C
100
AcDbEntity
  8
0
100
AcDbLine
 62
7
  6
CONTINUOUS
 10
5.4929822773
 20
3.2492178482
 11
5.4669513704
 21
3.2492178482
  0
LINE
  5
34D
100
AcDbEntity
  8
0
100
AcDbLine
 62
7
  6
CONTINUOUS
 10
5.0090131842
 20
3.2492178482
 11
4.9829822773
 21
3.2492178482
  0
LINE
  5
34E
100
AcDbEntity
  8
0
100
AcDbLine
 62
7
  6
CONTINUOUS
 10
5.5129822773
 20
3.2692178482
 11
5.4628787522
 21
3.2692178482
  0
LINE
  5
34F
100
AcDbEntity
  8
0
100
AcDbLine
 62
7
  6
CONTINUOUS
 10
5.0130858024
 20
3.2692178482
 11
4.9629822773
 21
3.2692178482
  0
LINE
  5
350
100
AcDbEntity
  8
0
100
AcDbLine
 62
7
  6
CONTINUOUS
 10
5.4516263208
 20
3.3012691302
 11
5.0243382338
 21
3.3012691302
  0
LINE
  5
351
100
AcDbEntity
  8
0
100
AcDbLine
 62
7
  6
CONTINUOUS
 10
5.4470664697
 20
3.3042178482
 11
5.0288980849
 21
3.3042178482
  0
LINE
  5
352
100
AcDbEntity
  8
0
100
AcDbLine
 62
7
  6
CONTINUOUS
 10
5.5129822773
 20
3.3492178482
 11
4.9629822773
 21
3.3492178482
  0
LINE
  5
353
100
AcDbEntity
  8
0
100
AcDbLine
 62
7
  6
CONTINUOUS
 10
5.4929822773
 20
3.3692178482
 11
4.9829822773
 21
3.3692178482
  0
LINE
  5
354
100
AcDbEntity
  8
0
100
AcDbLine
 62
7
  6
CONTINUOUS
 10
4.7052934752
 20
5.4682178482
 11
4.7052934752
 21
5.1632178482
  0
LINE
  5
355
100
AcDbEntity
  8
0
100
AcDbLine
 62
7
  6
CONTINUOUS
 10
4.7317322773
 20
2.9292178482
 11
4.7317322773
 21
3.053701582
  0
LINE
  5
356
100
AcDbEntity
  8
0
100
AcDbLine
 62
7
  6
CONTINUOUS
 10
5.5920783761
 20
3.5095904182
 11
4.8838861785
 21
3.5095904182
  0
LINE
  5
357
100
AcDbEntity
  8
0
100
AcDbLine
 62
7
  6
CONTINUOUS
 10
5.566417579
 20
3.5808882346
 11
4.9095469756
 21
3.5808882346
  0
LINE
  5
358
100
AcDbEntity
  8
0
100
AcDbLine
 62
7
  6
CONTINUOUS
 10
7.5954710764
 20
3.7342178482
 11
6.8804934782
 21
3.7342178482
  0
LINE
  5
359
100
AcDbEntity
  8
0
100
AcDbLine
 62
7
  6
CONTINUOUS
 10
3.5954710764
 20
3.7342178482
 11
2.8804934782
 21
3.7342178482
  0
LINE
  5
35A
100
AcDbEntity
  8
0
100
AcDbLine
 62
7
  6
CONTINUOUS
 10
4.8043310706
 20
5.4682178482
 11
4.8043310706
 21
5.1632178482
  0
LINE
  5
35B
100
AcDbEntity
  8
0
100
AcDbLine
 62
7
  6
CONTINUOUS
 10
4.8579822773
 20
4.700634422
 11
4.8579822773
 21
4.9803482326
  0
LINE
  5
35C
100
AcDbEntity
  8
0
100
AcDbLine
 62
7
  6
CONTINUOUS
 10
4.9182977555
 20
5.4682178482
 11
4.9182977555
 21
5.1632178482
  0
LINE
  5
35D
100
AcDbEntity
  8
0
100
AcDbLine
 62
7
  6
CONTINUOUS
 10
4.9629822773
 20
3.2692178482
 11
4.9629822773
 21
3.3492178482
  0
LINE
  5
35E
100
AcDbEntity
  8
0
100
AcDbLine
 62
7
  6
CONTINUOUS
 10
4.9095469756
 20
3.5808882346
 11
4.9501878109
 21
4.6632178482
  0
LINE
  5
35F
100
AcDbEntity
  8
0
100
AcDbLine
 62
7
  6
CONTINUOUS
 10
5.6322166667
 20
5.015288483
 11
5.7329822773
 21
5.1184343836
  0
LINE
  5
360
100
AcDbEntity
  8
0
100
AcDbLine
 62
7
  6
CONTINUOUS
 10
2.8804934782
 20
3.7842178482
 11
3.5954710764
 21
3.7842178482
  0
LINE
  5
361
100
AcDbEntity
  8
0
100
AcDbLine
 62
7
  6
CONTINUOUS
 10
6.8804934782
 20
3.7842178482
 11
7.5954710764
 21
3.7842178482
  0
LINE
  5
362
100
AcDbEntity
  8
0
100
AcDbLine
 62
7
  6
CONTINUOUS
 10
7.4796352401
 20
3.8400214196
 11
6.9963293145
 21
3.8400214196
  0
LINE
  5
363
100
AcDbEntity
  8
0
100
AcDbLine
 62
7
  6
CONTINUOUS
 10
3.4796352401
 20
3.8400214196
 11
2.9963293145
 21
3.8400214196
  0
LINE
  5
364
100
AcDbEntity
  8
0
100
AcDbLine
 62
7
  6
CONTINUOUS
 10
7.4671432146
 20
3.8467178482
 11
7.00882134
 21
3.8467178482
  0
LINE
  5
365
100
AcDbEntity
  8
0
100
AcDbLine
 62
7
  6
CONTINUOUS
 10
3.4671432146
 20
3.8467178482
 11
3.00882134
 21
3.8467178482
  0
LINE
  5
366
100
AcDbEntity
  8
0
100
AcDbLine
 62
7
  6
CONTINUOUS
 10
3.0379822773
 20
3.8617178482
 11
3.4379822773
 21
3.8617178482
  0
LINE
  5
367
100
AcDbEntity
  8
0
100
AcDbLine
 62
7
  6
CONTINUOUS
 10
7.0379822773
 20
3.8617178482
 11
7.4379822773
 21
3.8617178482
  0
LINE
  5
368
100
AcDbEntity
  8
0
100
AcDbLine
 62
7
  6
CONTINUOUS
 10
7.4379822773
 20
3.9067178482
 11
7.0379822773
 21
3.9067178482
  0
LINE
  5
369
100
AcDbEntity
  8
0
100
AcDbLine
 62
7
  6
CONTINUOUS
 10
3.4379822773
 20
3.9067178482
 11
3.0379822773
 21
3.9067178482
  0
LINE
  5
36A
100
AcDbEntity
  8
0
100
AcDbLine
 62
7
  6
CONTINUOUS
 10
7.4229822773
 20
3.9217178482
 11
7.0529822773
 21
3.9217178482
  0
LINE
  5
36B
100
AcDbEntity
  8
0
100
AcDbLine
 62
7
  6
CONTINUOUS
 10
3.4229822773
 20
3.9217178482
 11
3.0529822773
 21
3.9217178482
  0
LINE
  5
36C
100
AcDbEntity
  8
0
100
AcDbLine
 62
7
  6
CONTINUOUS
 10
7.3867322773
 20
4.0275315785
 11
7.0892322773
 21
4.0275315785
  0
LINE
  5
36D
100
AcDbEntity
  8
0
100
AcDbLine
 62
7
  6
CONTINUOUS
 10
3.3867322773
 20
4.0275315785
 11
3.0892322773
 21
4.0275315785
  0
LINE
  5
36E
100
AcDbEntity
  8
0
100
AcDbLine
 62
7
  6
CONTINUOUS
 10
5.0067322773
 20
3.2192178482
 11
5.0067322773
 21
3.1792178482
  0
LINE
  5
36F
100
AcDbEntity
  8
0
100
AcDbLine
 62
7
  6
CONTINUOUS
 10
5.1573956616
 20
5.4682178482
 11
5.1573956616
 21
5.1632178482
  0
LINE
  5
370
100
AcDbEntity
  8
0
100
AcDbLine
 62
7
  6
CONTINUOUS
 10
7.3954822773
 20
4.0374531459
 11
7.0804822773
 21
4.0374531459
  0
LINE
  5
371
100
AcDbEntity
  8
0
100
AcDbLine
 62
7
  6
CONTINUOUS
 10
3.3954822773
 20
4.0374531459
 11
3.0804822773
 21
4.0374531459
  0
LINE
  5
372
100
AcDbEntity
  8
0
100
AcDbLine
 62
7
  6
CONTINUOUS
 10
3.3917322773
 20
4.0972178482
 11
3.0842322773
 21
4.0972178482
  0
LINE
  5
373
100
AcDbEntity
  8
0
100
AcDbLine
 62
7
  6
CONTINUOUS
 10
7.0842322773
 20
4.0972178482
 11
7.3917322773
 21
4.0972178482
  0
LINE
  5
374
100
AcDbEntity
  8
0
100
AcDbLine
 62
7
  6
CONTINUOUS
 10
3.1404822773
 20
4.1072178482
 11
3.3354822773
 21
4.1072178482
  0
LINE
  5
375
100
AcDbEntity
  8
0
100
AcDbLine
 62
7
  6
CONTINUOUS
 10
7.1404822773
 20
4.1072178482
 11
7.3354822773
 21
4.1072178482
  0
LINE
  5
376
100
AcDbEntity
  8
0
100
AcDbLine
 62
7
  6
CONTINUOUS
 10
3.1404822773
 20
4.1197178482
 11
3.3354822773
 21
4.1197178482
  0
LINE
  5
377
100
AcDbEntity
  8
0
100
AcDbLine
 62
7
  6
CONTINUOUS
 10
7.1404822773
 20
4.1197178482
 11
7.3354822773
 21
4.1197178482
  0
LINE
  5
378
100
AcDbEntity
  8
0
100
AcDbLine
 62
7
  6
CONTINUOUS
 10
8.9804822773
 20
4.1447178482
 11
7.6904822773
 21
4.1447178482
  0
LINE
  5
379
100
AcDbEntity
  8
0
100
AcDbLine
 62
7
  6
CONTINUOUS
 10
1.4954822773
 20
4.1447178482
 11
2.7854822773
 21
4.1447178482
  0
LINE
  5
37A
100
AcDbEntity
  8
0
100
AcDbLine
 62
7
  6
CONTINUOUS
 10
3.0629822773
 20
4.1972178482
 11
2.8854822773
 21
4.1972178482
  0
LINE
  5
37B
100
AcDbEntity
  8
0
100
AcDbLine
 62
7
  6
CONTINUOUS
 10
7.4129822773
 20
4.1972178482
 11
7.5904822773
 21
4.1972178482
  0
LINE
  5
37C
100
AcDbEntity
  8
0
100
AcDbLine
 62
7
  6
CONTINUOUS
 10
5.566417579
 20
3.5808882346
 11
5.5257767437
 21
4.6632178482
  0
LINE
  5
37D
100
AcDbEntity
  8
0
100
AcDbLine
 62
7
  6
CONTINUOUS
 10
5.318568893
 20
5.4682178482
 11
5.318568893
 21
5.1632178482
  0
LINE
  5
37E
100
AcDbEntity
  8
0
100
AcDbLine
 62
7
  6
CONTINUOUS
 10
5.4692322773
 20
3.2192178482
 11
5.4692322773
 21
3.1792178482
  0
LINE
  5
37F
100
AcDbEntity
  8
0
100
AcDbLine
 62
7
  6
CONTINUOUS
 10
5.5129822773
 20
3.2692178482
 11
5.5129822773
 21
3.3492178482
  0
LINE
  5
380
100
AcDbEntity
  8
0
100
AcDbLine
 62
7
  6
CONTINUOUS
 10
3.0629822773
 20
4.3922178482
 11
2.8854822773
 21
4.3922178482
  0
LINE
  5
381
100
AcDbEntity
  8
0
100
AcDbLine
 62
7
  6
CONTINUOUS
 10
7.4129822773
 20
4.3922178482
 11
7.5904822773
 21
4.3922178482
  0
LINE
  5
382
100
AcDbEntity
  8
0
100
AcDbLine
 62
7
  6
CONTINUOUS
 10
8.9804822773
 20
4.4447178482
 11
7.6904822773
 21
4.4447178482
  0
LINE
  5
383
100
AcDbEntity
  8
0
100
AcDbLine
 62
7
  6
CONTINUOUS
 10
1.4954822773
 20
4.4447178482
 11
2.7854822773
 21
4.4447178482
  0
LINE
  5
384
100
AcDbEntity
  8
0
100
AcDbLine
 62
7
  6
CONTINUOUS
 10
4.8437478879
 20
5.015288483
 11
4.7429822773
 21
5.1184343836
  0
LINE
  5
385
100
AcDbEntity
  8
0
100
AcDbLine
 62
7
  6
CONTINUOUS
 10
5.557666799
 20
5.4682178482
 11
5.557666799
 21
5.1632178482
  0
LINE
  5
386
100
AcDbEntity
  8
0
100
AcDbLine
 62
7
  6
CONTINUOUS
 10
5.6179822773
 20
4.700634422
 11
5.6179822773
 21
4.9803482326
  0
LINE
  5
387
100
AcDbEntity
  8
0
100
AcDbLine
 62
7
  6
CONTINUOUS
 10
5.671633484
 20
5.4682178482
 11
5.671633484
 21
5.1632178482
  0
LINE
  5
388
100
AcDbEntity
  8
0
100
AcDbLine
 62
7
  6
CONTINUOUS
 10
5.7442322773
 20
2.9292178482
 11
5.7442322773
 21
3.053701582
  0
LINE
  5
389
100
AcDbEntity
  8
0
100
AcDbLine
 62
7
  6
CONTINUOUS
 10
5.7706710794
 20
5.4682178482
 11
5.7706710794
 21
5.1632178482
  0
LINE
  5
38A
100
AcDbEntity
  8
0
100
AcDbLine
 62
7
  6
CONTINUOUS
 10
5.6079822773
 20
4.6632178482
 11
4.8679822773
 21
4.6632178482
  0
LINE
  5
38B
100
AcDbEntity
  8
0
100
AcDbLine
 62
7
  6
CONTINUOUS
 10
5.6179822773
 20
4.700634422
 11
4.8579822773
 21
4.700634422
  0
LINE
  5
38C
100
AcDbEntity
  8
0
100
AcDbLine
 62
7
  6
CONTINUOUS
 10
5.6179822773
 20
4.9803482326
 11
4.8579822773
 21
4.9803482326
  0
LINE
  5
38D
100
AcDbEntity
  8
0
100
AcDbLine
 62
7
  6
CONTINUOUS
 10
5.6322166667
 20
5.015288483
 11
4.8437478879
 21
5.015288483
  0
LINE
  5
38E
100
AcDbEntity
  8
0
100
AcDbLine
 62
7
  6
CONTINUOUS
 10
7.6879822773
 20
2.9942178482
 11
7.7129822773
 21
2.9692178482
  0
LINE
  5
38F
100
AcDbEntity
  8
0
100
AcDbLine
 62
7
  6
CONTINUOUS
 10
5.7706710794
 20
5.1632178482
 11
5.671633484
 21
5.1632178482
  0
LINE
  5
390
100
AcDbEntity
  8
0
100
AcDbLine
 62
7
  6
CONTINUOUS
 10
5.557666799
 20
5.1632178482
 11
5.318568893
 21
5.1632178482
  0
LINE
  5
391
100
AcDbEntity
  8
0
100
AcDbLine
 62
7
  6
CONTINUOUS
 10
5.1573956616
 20
5.1632178482
 11
4.9182977555
 21
5.1632178482
  0
LINE
  5
392
100
AcDbEntity
  8
0
100
AcDbLine
 62
7
  6
CONTINUOUS
 10
4.8043310706
 20
5.1632178482
 11
4.7052934752
 21
5.1632178482
  0
LINE
  5
393
100
AcDbEntity
  8
0
100
AcDbLine
 62
7
  6
CONTINUOUS
 10
5.7706710794
 20
5.4682178482
 11
5.671633484
 21
5.4682178482
  0
LINE
  5
394
100
AcDbEntity
  8
0
100
AcDbLine
 62
7
  6
CONTINUOUS
 10
5.557666799
 20
5.4682178482
 11
5.318568893
 21
5.4682178482
  0
LINE
  5
395
100
AcDbEntity
  8
0
100
AcDbLine
 62
7
  6
CONTINUOUS
 10
5.1573956616
 20
5.4682178482
 11
4.9182977555
 21
5.4682178482
  0
LINE
  5
396
100
AcDbEntity
  8
0
100
AcDbLine
 62
7
  6
CONTINUOUS
 10
4.8043310706
 20
5.4682178482
 11
4.7052934752
 21
5.4682178482
  0
LINE
  5
397
100
AcDbEntity
  8
0
100
AcDbLine
 62
7
  6
CONTINUOUS
 10
5.7017322773
 20
5.5432178482
 11
4.7742322773
 21
5.5432178482
  0
LINE
  5
398
100
AcDbEntity
  8
0
100
AcDbLine
 62
7
  6
CONTINUOUS
 10
5.6925504938
 20
5.5732178482
 11
4.7834140608
 21
5.5732178482
  0
LINE
  5
399
100
AcDbEntity
  8
0
100
AcDbLine
 62
7
  6
CONTINUOUS
 10
6.7629822773
 20
2.9692178482
 11
6.7629822773
 21
2.9292178482
  0
LINE
  5
39A
100
AcDbEntity
  8
0
100
AcDbLine
 62
7
  6
CONTINUOUS
 10
6.7630675481
 20
3.0442178482
 11
6.7630675481
 21
3.0842178482
  0
LINE
  5
39B
100
AcDbEntity
  8
0
100
AcDbLine
 62
7
  6
CONTINUOUS
 10
6.7632473786
 20
3.0442178482
 11
6.7632473786
 21
3.0842178482
  0
LINE
  5
39C
100
AcDbEntity
  8
0
100
AcDbLine
 62
7
  6
CONTINUOUS
 10
6.7641894258
 20
3.0442178482
 11
6.7641894258
 21
3.0842178482
  0
LINE
  5
39D
100
AcDbEntity
  8
0
100
AcDbLine
 62
7
  6
CONTINUOUS
 10
6.7647284245
 20
3.0442178482
 11
6.7647284245
 21
3.0842178482
  0
LINE
  5
39E
100
AcDbEntity
  8
0
100
AcDbLine
 62
7
  6
CONTINUOUS
 10
6.7666099368
 20
3.0442178482
 11
6.7666099368
 21
3.0842178482
  0
LINE
  5
39F
100
AcDbEntity
  8
0
100
AcDbLine
 62
7
  6
CONTINUOUS
 10
6.7675066263
 20
3.0442178482
 11
6.7675066263
 21
3.0842178482
  0
LINE
  5
3A0
100
AcDbEntity
  8
0
100
AcDbLine
 62
7
  6
CONTINUOUS
 10
6.7703224467
 20
3.0442178482
 11
6.7703224467
 21
3.0842178482
  0
LINE
  5
3A1
100
AcDbEntity
  8
0
100
AcDbLine
 62
7
  6
CONTINUOUS
 10
6.7715743692
 20
3.0442178482
 11
6.7715743692
 21
3.0842178482
  0
LINE
  5
3A2
100
AcDbEntity
  8
0
100
AcDbLine
 62
7
  6
CONTINUOUS
 10
6.7753167796
 20
3.0442178482
 11
6.7753167796
 21
3.0842178482
  0
LINE
  5
3A3
100
AcDbEntity
  8
0
100
AcDbLine
 62
7
  6
CONTINUOUS
 10
6.7769205037
 20
3.0442178482
 11
6.7769205037
 21
3.0842178482
  0
LINE
  5
3A4
100
AcDbEntity
  8
0
100
AcDbLine
 62
7
  6
CONTINUOUS
 10
6.7815792465
 20
3.0442178482
 11
6.7815792465
 21
3.0842178482
  0
LINE
  5
3A5
100
AcDbEntity
  8
0
100
AcDbLine
 62
7
  6
CONTINUOUS
 10
6.7835303765
 20
3.0442178482
 11
6.7835303765
 21
3.0842178482
  0
LINE
  5
3A6
100
AcDbEntity
  8
0
100
AcDbLine
 62
7
  6
CONTINUOUS
 10
6.7879822773
 20
3.0442178482
 11
6.7879822773
 21
2.9942178482
  0
LINE
  5
3A7
100
AcDbEntity
  8
0
100
AcDbLine
 62
7
  6
CONTINUOUS
 10
6.7890926824
 20
3.0442178482
 11
6.7890926824
 21
3.0842178482
  0
LINE
  5
3A8
100
AcDbEntity
  8
0
100
AcDbLine
 62
7
  6
CONTINUOUS
 10
6.7913858703
 20
3.0442178482
 11
6.7913858703
 21
3.0842178482
  0
LINE
  5
3A9
100
AcDbEntity
  8
0
100
AcDbLine
 62
7
  6
CONTINUOUS
 10
6.7978364934
 20
3.0442178482
 11
6.7978364934
 21
3.0842178482
  0
LINE
  5
3AA
100
AcDbEntity
  8
0
100
AcDbLine
 62
7
  6
CONTINUOUS
 10
6.8004654539
 20
3.0442178482
 11
6.8004654539
 21
3.0842178482
  0
LINE
  5
3AB
100
AcDbEntity
  8
0
100
AcDbLine
 62
7
  6
CONTINUOUS
 10
6.8077867135
 20
3.0442178482
 11
6.8077867135
 21
3.0842178482
  0
LINE
  5
3AC
100
AcDbEntity
  8
0
100
AcDbLine
 62
7
  6
CONTINUOUS
 10
6.8107442407
 20
3.0442178482
 11
6.8107442407
 21
3.0842178482
  0
LINE
  5
3AD
100
AcDbEntity
  8
0
100
AcDbLine
 62
7
  6
CONTINUOUS
 10
6.8189160696
 20
3.0442178482
 11
6.8189160696
 21
3.0842178482
  0
LINE
  5
3AE
100
AcDbEntity
  8
0
100
AcDbLine
 62
7
  6
CONTINUOUS
 10
6.8221940572
 20
3.0442178482
 11
6.8221940572
 21
3.0842178482
  0
LINE
  5
3AF
100
AcDbEntity
  8
0
100
AcDbLine
 62
7
  6
CONTINUOUS
 10
6.8311940572
 20
3.0442178482
 11
6.8311940572
 21
3.0842178482
  0
LINE
  5
3B0
100
AcDbEntity
  8
0
100
AcDbLine
 62
7
  6
CONTINUOUS
 10
6.8347835203
 20
3.0442178482
 11
6.8347835203
 21
3.0842178482
  0
LINE
  5
3B1
100
AcDbEntity
  8
0
100
AcDbLine
 62
7
  6
CONTINUOUS
 10
6.844587023
 20
3.0442178482
 11
6.844587023
 21
3.0842178482
  0
LINE
  5
3B2
100
AcDbEntity
  8
0
100
AcDbLine
 62
7
  6
CONTINUOUS
 10
6.8484781232
 20
3.0442178482
 11
6.8484781232
 21
3.0842178482
  0
LINE
  5
3B3
100
AcDbEntity
  8
0
100
AcDbLine
 62
7
  6
CONTINUOUS
 10
6.8590582578
 20
3.0442178482
 11
6.8590582578
 21
3.0842178482
  0
LINE
  5
3B4
100
AcDbEntity
  8
0
100
AcDbLine
 62
7
  6
CONTINUOUS
 10
6.8632403299
 20
3.0442178482
 11
6.8632403299
 21
3.0842178482
  0
LINE
  5
3B5
100
AcDbEntity
  8
0
100
AcDbLine
 62
7
  6
CONTINUOUS
 10
6.8742779673
 20
3.0842178482
 11
6.8742779673
 21
3.0442178482
  0
LINE
  5
3B6
100
AcDbEntity
  8
0
100
AcDbLine
 62
7
  6
CONTINUOUS
 10
6.874568097
 20
3.0442178482
 11
6.874568097
 21
3.0842178482
  0
LINE
  5
3B7
100
AcDbEntity
  8
0
100
AcDbLine
 62
7
  6
CONTINUOUS
 10
6.8790296783
 20
3.0442178482
 11
6.8790296783
 21
3.0842178482
  0
LINE
  5
3B8
100
AcDbEntity
  8
0
100
AcDbLine
 62
7
  6
CONTINUOUS
 10
6.8804934782
 20
3.7342178482
 11
6.8804934782
 21
3.7842178482
  0
LINE
  5
3B9
100
AcDbEntity
  8
0
100
AcDbLine
 62
7
  6
CONTINUOUS
 10
6.8806088128
 20
3.7342178482
 11
6.8806088128
 21
3.7842178482
  0
LINE
  5
3BA
100
AcDbEntity
  8
0
100
AcDbLine
 62
7
  6
CONTINUOUS
 10
6.8815405172
 20
3.7342178482
 11
6.8815405172
 21
3.7842178482
  0
LINE
  5
3BB
100
AcDbEntity
  8
0
100
AcDbLine
 62
7
  6
CONTINUOUS
 10
6.8821165032
 20
3.7342178482
 11
6.8821165032
 21
3.7842178482
  0
LINE
  5
3BC
100
AcDbEntity
  8
0
100
AcDbLine
 62
7
  6
CONTINUOUS
 10
6.8842861635
 20
3.7342178482
 11
6.8842861635
 21
3.7842178482
  0
LINE
  5
3BD
100
AcDbEntity
  8
0
100
AcDbLine
 62
7
  6
CONTINUOUS
 10
6.8853200561
 20
3.7342178482
 11
6.8853200561
 21
3.7842178482
  0
LINE
  5
3BE
100
AcDbEntity
  8
0
100
AcDbLine
 62
7
  6
CONTINUOUS
 10
6.8887173328
 20
3.7342178482
 11
6.8887173328
 21
3.7842178482
  0
LINE
  5
3BF
100
AcDbEntity
  8
0
100
AcDbLine
 62
7
  6
CONTINUOUS
 10
6.890190499
 20
3.0842178482
 11
6.890190499
 21
3.0442178482
  0
LINE
  5
3C0
100
AcDbEntity
  8
0
100
AcDbLine
 62
7
  6
CONTINUOUS
 10
6.890204205
 20
3.7342178482
 11
6.890204205
 21
3.7842178482
  0
LINE
  5
3C1
100
AcDbEntity
  8
0
100
AcDbLine
 62
7
  6
CONTINUOUS
 10
6.8910740292
 20
3.0442178482
 11
6.8910740292
 21
3.0842178482
  0
LINE
  5
3C2
100
AcDbEntity
  8
0
100
AcDbLine
 62
7
  6
CONTINUOUS
 10
6.8948129087
 20
3.7342178482
 11
6.8948129087
 21
3.7842178482
  0
LINE
  5
3C3
100
AcDbEntity
  8
0
100
AcDbLine
 62
7
  6
CONTINUOUS
 10
6.8958028908
 20
3.0442178482
 11
6.8958028908
 21
3.0842178482
  0
LINE
  5
3C4
100
AcDbEntity
  8
0
100
AcDbLine
 62
7
  6
CONTINUOUS
 10
6.8967456749
 20
3.7342178482
 11
6.8967456749
 21
3.7842178482
  0
LINE
  5
3C5
100
AcDbEntity
  8
0
100
AcDbLine
 62
7
  6
CONTINUOUS
 10
6.9025438428
 20
3.7342178482
 11
6.9025438428
 21
3.7842178482
  0
LINE
  5
3C6
100
AcDbEntity
  8
0
100
AcDbLine
 62
7
  6
CONTINUOUS
 10
6.9049132925
 20
3.7342178482
 11
6.9049132925
 21
3.7842178482
  0
LINE
  5
3C7
100
AcDbEntity
  8
0
100
AcDbLine
 62
7
  6
CONTINUOUS
 10
6.9070563037
 20
3.0842178482
 11
6.9070563037
 21
3.0442178482
  0
LINE
  5
3C8
100
AcDbEntity
  8
0
100
AcDbLine
 62
7
  6
CONTINUOUS
 10
6.9085308128
 20
3.0442178482
 11
6.9085308128
 21
3.0842178482
  0
LINE
  5
3C9
100
AcDbEntity
  8
0
100
AcDbLine
 62
7
  6
CONTINUOUS
 10
6.9118732939
 20
3.7342178482
 11
6.9118732939
 21
3.7842178482
  0
LINE
  5
3CA
100
AcDbEntity
  8
0
100
AcDbLine
 62
7
  6
CONTINUOUS
 10
6.9135139932
 20
3.0442178482
 11
6.9135139932
 21
3.0842178482
  0
LINE
  5
3CB
100
AcDbEntity
  8
0
100
AcDbLine
 62
7
  6
CONTINUOUS
 10
6.9146681356
 20
3.7342178482
 11
6.9146681356
 21
3.7842178482
  0
LINE
  5
3CC
100
AcDbEntity
  8
0
100
AcDbLine
 62
7
  6
CONTINUOUS
 10
6.9227568028
 20
3.7342178482
 11
6.9227568028
 21
3.7842178482
  0
LINE
  5
3CD
100
AcDbEntity
  8
0
100
AcDbLine
 62
7
  6
CONTINUOUS
 10
6.9248291535
 20
3.0842178482
 11
6.9248291535
 21
3.0442178482
  0
LINE
  5
3CE
100
AcDbEntity
  8
0
100
AcDbLine
 62
7
  6
CONTINUOUS
 10
6.9254822773
 20
3.7342178482
 11
6.9254822773
 21
3.1242178482
  0
LINE
  5
3CF
100
AcDbEntity
  8
0
100
AcDbLine
 62
7
  6
CONTINUOUS
 10
6.9259637177
 20
3.7342178482
 11
6.9259637177
 21
3.7842178482
  0
LINE
  5
3D0
100
AcDbEntity
  8
0
100
AcDbLine
 62
7
  6
CONTINUOUS
 10
6.9268906
 20
3.0442178482
 11
6.9268906
 21
3.0842178482
  0
LINE
  5
3D1
100
AcDbEntity
  8
0
100
AcDbLine
 62
7
  6
CONTINUOUS
 10
6.9321144405
 20
3.0442178482
 11
6.9321144405
 21
3.0842178482
  0
LINE
  5
3D2
100
AcDbEntity
  8
0
100
AcDbLine
 62
7
  6
CONTINUOUS
 10
6.9351425046
 20
3.7342178482
 11
6.9351425046
 21
3.7842178482
  0
LINE
  5
3D3
100
AcDbEntity
  8
0
100
AcDbLine
 62
7
  6
CONTINUOUS
 10
6.9379822773
 20
3.1242178482
 11
6.9379822773
 21
3.1192178482
  0
LINE
  5
3D4
100
AcDbEntity
  8
0
100
AcDbLine
 62
7
  6
CONTINUOUS
 10
6.9387462104
 20
3.7342178482
 11
6.9387462104
 21
3.7842178482
  0
LINE
  5
3D5
100
AcDbEntity
  8
0
100
AcDbLine
 62
7
  6
CONTINUOUS
 10
6.9434603343
 20
3.0842178482
 11
6.9434603343
 21
3.0442178482
  0
LINE
  5
3D6
100
AcDbEntity
  8
0
100
AcDbLine
 62
7
  6
CONTINUOUS
 10
6.9461030679
 20
3.0442178482
 11
6.9461030679
 21
3.0842178482
  0
LINE
  5
3D7
100
AcDbEntity
  8
0
100
AcDbLine
 62
7
  6
CONTINUOUS
 10
6.9489713759
 20
3.7342178482
 11
6.9489713759
 21
3.7842178482
  0
LINE
  5
3D8
100
AcDbEntity
  8
0
100
AcDbLine
 62
7
  6
CONTINUOUS
 10
6.9515532504
 20
3.0442178482
 11
6.9515532504
 21
3.0842178482
  0
LINE
  5
3D9
100
AcDbEntity
  8
0
100
AcDbLine
 62
7
  6
CONTINUOUS
 10
6.9529546992
 20
3.7342178482
 11
6.9529546992
 21
3.7842178482
  0
LINE
  5
3DA
100
AcDbEntity
  8
0
100
AcDbLine
 62
7
  6
CONTINUOUS
 10
6.9628987792
 20
3.0842178482
 11
6.9628987792
 21
3.0442178482
  0
LINE
  5
3DB
100
AcDbEntity
  8
0
100
AcDbLine
 62
7
  6
CONTINUOUS
 10
6.9639503427
 20
3.7842178482
 11
6.9639503427
 21
3.7342178482
  0
LINE
  5
3DC
100
AcDbEntity
  8
0
100
AcDbLine
 62
7
  6
CONTINUOUS
 10
6.9641775157
 20
3.7342178482
 11
6.9641775157
 21
3.7842178482
  0
LINE
  5
3DD
100
AcDbEntity
  8
0
100
AcDbLine
 62
7
  6
CONTINUOUS
 10
6.9661155563
 20
3.0442178482
 11
6.9661155563
 21
3.0842178482
  0
LINE
  5
3DE
100
AcDbEntity
  8
0
100
AcDbLine
 62
7
  6
CONTINUOUS
 10
6.9685214743
 20
3.7342178482
 11
6.9685214743
 21
3.7842178482
  0
LINE
  5
3DF
100
AcDbEntity
  8
0
100
AcDbLine
 62
7
  6
CONTINUOUS
 10
6.9717771424
 20
3.0442178482
 11
6.9717771424
 21
3.0842178482
  0
LINE
  5
3E0
100
AcDbEntity
  8
0
100
AcDbLine
 62
7
  6
CONTINUOUS
 10
6.97968014
 20
3.7842178482
 11
6.97968014
 21
3.7342178482
  0
LINE
  5
3E1
100
AcDbEntity
  8
0
100
AcDbLine
 62
7
  6
CONTINUOUS
 10
6.9806884599
 20
3.7342178482
 11
6.9806884599
 21
3.7842178482
  0
LINE
  5
3E2
100
AcDbEntity
  8
0
100
AcDbLine
 62
7
  6
CONTINUOUS
 10
6.9830912089
 20
3.0842178482
 11
6.9830912089
 21
3.0442178482
  0
LINE
  5
3E3
100
AcDbEntity
  8
0
100
AcDbLine
 62
7
  6
CONTINUOUS
 10
6.9853723527
 20
3.7342178482
 11
6.9853723527
 21
3.7842178482
  0
LINE
  5
3E4
100
AcDbEntity
  8
0
100
AcDbLine
 62
7
  6
CONTINUOUS
 10
6.9868732126
 20
3.0442178482
 11
6.9868732126
 21
3.0842178482
  0
LINE
  5
3E5
100
AcDbEntity
  8
0
100
AcDbLine
 62
7
  6
CONTINUOUS
 10
6.9927306841
 20
3.0442178482
 11
6.9927306841
 21
3.0842178482
  0
LINE
  5
3E6
100
AcDbEntity
  8
0
100
AcDbLine
 62
7
  6
CONTINUOUS
 10
6.9966408647
 20
3.7842178482
 11
6.9966408647
 21
3.7342178482
  0
LINE
  5
3E7
100
AcDbEntity
  8
0
100
AcDbLine
 62
7
  6
CONTINUOUS
 10
6.9984255263
 20
3.7342178482
 11
6.9984255263
 21
3.7842178482
  0
LINE
  5
3E8
100
AcDbEntity
  8
0
100
AcDbLine
 62
7
  6
CONTINUOUS
 10
7.0034270325
 20
3.7342178482
 11
7.0034270325
 21
3.7842178482
  0
LINE
  5
3E9
100
AcDbEntity
  8
0
100
AcDbLine
 62
7
  6
CONTINUOUS
 10
7.0039822773
 20
3.0842178482
 11
7.0039822773
 21
3.0442178482
  0
LINE
  5
3EA
100
AcDbEntity
  8
0
100
AcDbLine
 62
7
  6
CONTINUOUS
 10
7.0083191413
 20
3.0442178482
 11
7.0083191413
 21
3.0842178482
  0
LINE
  5
3EB
100
AcDbEntity
  8
0
100
AcDbLine
 62
7
  6
CONTINUOUS
 10
7.0143564433
 20
3.0442178482
 11
7.0143564433
 21
3.0842178482
  0
LINE
  5
3EC
100
AcDbEntity
  8
0
100
AcDbLine
 62
7
  6
CONTINUOUS
 10
7.0147516911
 20
3.7842178482
 11
7.0147516911
 21
3.7342178482
  0
LINE
  5
3ED
100
AcDbEntity
  8
0
100
AcDbLine
 62
7
  6
CONTINUOUS
 10
7.0173041897
 20
3.7342178482
 11
7.0173041897
 21
3.7842178482
  0
LINE
  5
3EE
100
AcDbEntity
  8
0
100
AcDbLine
 62
7
  6
CONTINUOUS
 10
7.0225994749
 20
3.7342178482
 11
7.0225994749
 21
3.7842178482
  0
LINE
  5
3EF
100
AcDbEntity
  8
0
100
AcDbLine
 62
7
  6
CONTINUOUS
 10
7.0255147234
 20
3.0842178482
 11
7.0255147234
 21
3.0442178482
  0
LINE
  5
3F0
100
AcDbEntity
  8
0
100
AcDbLine
 62
7
  6
CONTINUOUS
 10
7.0303945608
 20
3.0442178482
 11
7.0303945608
 21
3.0842178482
  0
LINE
  5
3F1
100
AcDbEntity
  8
0
100
AcDbLine
 62
7
  6
CONTINUOUS
 10
7.0339263129
 20
3.7842178482
 11
7.0339263129
 21
3.7342178482
  0
LINE
  5
3F2
100
AcDbEntity
  8
0
100
AcDbLine
 62
7
  6
CONTINUOUS
 10
7.0365951455
 20
3.0442178482
 11
7.0365951455
 21
3.0842178482
  0
LINE
  5
3F3
100
AcDbEntity
  8
0
100
AcDbLine
 62
7
  6
CONTINUOUS
 10
7.0372344847
 20
3.7342178482
 11
7.0372344847
 21
3.7842178482
  0
LINE
  5
3F4
100
AcDbEntity
  8
0
100
AcDbLine
 62
7
  6
CONTINUOUS
 10
7.0379822773
 20
3.9067178482
 11
7.0379822773
 21
3.8617178482
  0
LINE
  5
3F5
100
AcDbEntity
  8
0
100
AcDbLine
 62
7
  6
CONTINUOUS
 10
7.0427983144
 20
3.7342178482
 11
7.0427983144
 21
3.7842178482
  0
LINE
  5
3F6
100
AcDbEntity
  8
0
100
AcDbLine
 62
7
  6
CONTINUOUS
 10
7.0476295283
 20
3.0842178482
 11
7.0476295283
 21
3.0442178482
  0
LINE
  5
3F7
100
AcDbEntity
  8
0
100
AcDbLine
 62
7
  6
CONTINUOUS
 10
7.0530389637
 20
3.0442178482
 11
7.0530389637
 21
3.0842178482
  0
LINE
  5
3F8
100
AcDbEntity
  8
0
100
AcDbLine
 62
7
  6
CONTINUOUS
 10
7.0540733543
 20
3.7842178482
 11
7.0540733543
 21
3.7342178482
  0
LINE
  5
3F9
100
AcDbEntity
  8
0
100
AcDbLine
 62
7
  6
CONTINUOUS
 10
7.0581214343
 20
3.7342178482
 11
7.0581214343
 21
3.7842178482
  0
LINE
  5
3FA
100
AcDbEntity
  8
0
100
AcDbLine
 62
7
  6
CONTINUOUS
 10
7.0593858357
 20
3.0442178482
 11
7.0593858357
 21
3.0842178482
  0
LINE
  5
3FB
100
AcDbEntity
  8
0
100
AcDbLine
 62
7
  6
CONTINUOUS
 10
7.0639272944
 20
3.7342178482
 11
7.0639272944
 21
3.7842178482
  0
LINE
  5
3FC
100
AcDbEntity
  8
0
100
AcDbLine
 62
7
  6
CONTINUOUS
 10
7.0702660769
 20
3.0842178482
 11
7.0702660769
 21
3.0442178482
  0
LINE
  5
3FD
100
AcDbEntity
  8
0
100
AcDbLine
 62
7
  6
CONTINUOUS
 10
7.0750968055
 20
3.7842178482
 11
7.0750968055
 21
3.7342178482
  0
LINE
  5
3FE
100
AcDbEntity
  8
0
100
AcDbLine
 62
7
  6
CONTINUOUS
 10
7.0761902834
 20
3.0442178482
 11
7.0761902834
 21
3.0842178482
  0
LINE
  5
3FF
100
AcDbEntity
  8
0
100
AcDbLine
 62
7
  6
CONTINUOUS
 10
7.0798655028
 20
3.7342178482
 11
7.0798655028
 21
3.7842178482
  0
LINE
  5
400
100
AcDbEntity
  8
0
100
AcDbLine
 62
7
  6
CONTINUOUS
 10
7.0826660464
 20
3.0442178482
 11
7.0826660464
 21
3.0842178482
  0
LINE
  5
401
100
AcDbEntity
  8
0
100
AcDbLine
 62
7
  6
CONTINUOUS
 10
7.0858857256
 20
3.7342178482
 11
7.0858857256
 21
3.7842178482
  0
LINE
  5
402
100
AcDbEntity
  8
0
100
AcDbLine
 62
7
  6
CONTINUOUS
 10
7.0892322773
 20
3.9217178482
 11
7.0892322773
 21
4.0275315785
  0
LINE
  5
403
100
AcDbEntity
  8
0
100
AcDbLine
 62
7
  6
CONTINUOUS
 10
7.0933623239
 20
3.0842178482
 11
7.0933623239
 21
3.0442178482
  0
LINE
  5
404
100
AcDbEntity
  8
0
100
AcDbLine
 62
7
  6
CONTINUOUS
 10
7.0968964801
 20
3.7842178482
 11
7.0968964801
 21
3.7342178482
  0
LINE
  5
405
100
AcDbEntity
  8
0
100
AcDbLine
 62
7
  6
CONTINUOUS
 10
7.0997850637
 20
3.0442178482
 11
7.0997850637
 21
3.0842178482
  0
LINE
  5
406
100
AcDbEntity
  8
0
100
AcDbLine
 62
7
  6
CONTINUOUS
 10
7.1023630697
 20
3.7342178482
 11
7.1023630697
 21
3.7842178482
  0
LINE
  5
407
100
AcDbEntity
  8
0
100
AcDbLine
 62
7
  6
CONTINUOUS
 10
7.1063719681
 20
3.0442178482
 11
7.1063719681
 21
3.0842178482
  0
LINE
  5
408
100
AcDbEntity
  8
0
100
AcDbLine
 62
7
  6
CONTINUOUS
 10
7.1085689661
 20
3.7342178482
 11
7.1085689661
 21
3.7842178482
  0
LINE
  5
409
100
AcDbEntity
  8
0
100
AcDbLine
 62
7
  6
CONTINUOUS
 10
7.1168549642
 20
3.0842178482
 11
7.1168549642
 21
3.0442178482
  0
LINE
  5
40A
100
AcDbEntity
  8
0
100
AcDbLine
 62
7
  6
CONTINUOUS
 10
7.1193684928
 20
3.7842178482
 11
7.1193684928
 21
3.7342178482
  0
LINE
  5
40B
100
AcDbEntity
  8
0
100
AcDbLine
 62
7
  6
CONTINUOUS
 10
7.123758633
 20
3.0442178482
 11
7.123758633
 21
3.0842178482
  0
LINE
  5
40C
100
AcDbEntity
  8
0
100
AcDbLine
 62
7
  6
CONTINUOUS
 10
7.1255069239
 20
3.7342178482
 11
7.1255069239
 21
3.7842178482
  0
LINE
  5
40D
100
AcDbEntity
  8
0
100
AcDbLine
 62
7
  6
CONTINUOUS
 10
7.1304386245
 20
3.0442178482
 11
7.1304386245
 21
3.0842178482
  0
LINE
  5
40E
100
AcDbEntity
  8
0
100
AcDbLine
 62
7
  6
CONTINUOUS
 10
7.13186892
 20
3.7342178482
 11
7.13186892
 21
3.7842178482
  0
LINE
  5
40F
100
AcDbEntity
  8
0
100
AcDbLine
 62
7
  6
CONTINUOUS
 10
7.1404822773
 20
4.1072178482
 11
7.1404822773
 21
4.1197178482
  0
LINE
  5
410
100
AcDbEntity
  8
0
100
AcDbLine
 62
7
  6
CONTINUOUS
 10
7.140679606
 20
3.0842178482
 11
7.140679606
 21
3.0442178482
  0
LINE
  5
411
100
AcDbEntity
  8
0
100
AcDbLine
 62
7
  6
CONTINUOUS
 10
7.1424057542
 20
3.7842178482
 11
7.1424057542
 21
3.7342178482
  0
LINE
  5
412
100
AcDbEntity
  8
0
100
AcDbLine
 62
7
  6
CONTINUOUS
 10
7.1480452814
 20
3.0442178482
 11
7.1480452814
 21
3.0842178482
  0
LINE
  5
413
100
AcDbEntity
  8
0
100
AcDbLine
 62
7
  6
CONTINUOUS
 10
7.1491867744
 20
3.7342178482
 11
7.1491867744
 21
3.7842178482
  0
LINE
  5
414
100
AcDbEntity
  8
0
100
AcDbLine
 62
7
  6
CONTINUOUS
 10
7.1548000506
 20
3.0442178482
 11
7.1548000506
 21
3.0842178482
  0
LINE
  5
415
100
AcDbEntity
  8
0
100
AcDbLine
 62
7
  6
CONTINUOUS
 10
7.1556745524
 20
3.7342178482
 11
7.1556745524
 21
3.7842178482
  0
LINE
  5
416
100
AcDbEntity
  8
0
100
AcDbLine
 62
7
  6
CONTINUOUS
 10
7.1647709477
 20
3.0842178482
 11
7.1647709477
 21
3.0442178482
  0
LINE
  5
417
100
AcDbEntity
  8
0
100
AcDbLine
 62
7
  6
CONTINUOUS
 10
7.1658984813
 20
3.7842178482
 11
7.1658984813
 21
3.7342178482
  0
LINE
  5
418
100
AcDbEntity
  8
0
100
AcDbLine
 62
7
  6
CONTINUOUS
 10
7.1725784408
 20
3.0442178482
 11
7.1725784408
 21
3.0842178482
  0
LINE
  5
419
100
AcDbEntity
  8
0
100
AcDbLine
 62
7
  6
CONTINUOUS
 10
7.1732897759
 20
3.7342178482
 11
7.1732897759
 21
3.7842178482
  0
LINE
  5
41A
100
AcDbEntity
  8
0
100
AcDbLine
 62
7
  6
CONTINUOUS
 10
7.1793894734
 20
3.0442178482
 11
7.1793894734
 21
3.0842178482
  0
LINE
  5
41B
100
AcDbEntity
  8
0
100
AcDbLine
 62
7
  6
CONTINUOUS
 10
7.1798724186
 20
3.7342178482
 11
7.1798724186
 21
3.7842178482
  0
LINE
  5
41C
100
AcDbEntity
  8
0
100
AcDbLine
 62
7
  6
CONTINUOUS
 10
7.1890629565
 20
3.0842178482
 11
7.1890629565
 21
3.0442178482
  0
LINE
  5
41D
100
AcDbEntity
  8
0
100
AcDbLine
 62
7
  6
CONTINUOUS
 10
7.1897347204
 20
3.7842178482
 11
7.1897347204
 21
3.7342178482
  0
LINE
  5
41E
100
AcDbEntity
  8
0
100
AcDbLine
 62
7
  6
CONTINUOUS
 10
7.1972908675
 20
3.0442178482
 11
7.1972908675
 21
3.0842178482
  0
LINE
  5
41F
100
AcDbEntity
  8
0
100
AcDbLine
 62
7
  6
CONTINUOUS
 10
7.1977010666
 20
3.7342178482
 11
7.1977010666
 21
3.7842178482
  0
LINE
  5
420
100
AcDbEntity
  8
0
100
AcDbLine
 62
7
  6
CONTINUOUS
 10
7.204139495
 20
3.0442178482
 11
7.204139495
 21
3.0842178482
  0
LINE
  5
421
100
AcDbEntity
  8
0
100
AcDbLine
 62
7
  6
CONTINUOUS
 10
7.2043472047
 20
3.7342178482
 11
7.2043472047
 21
3.7842178482
  0
LINE
  5
422
100
AcDbEntity
  8
0
100
AcDbLine
 62
7
  6
CONTINUOUS
 10
7.2134890498
 20
3.0842178482
 11
7.2134890498
 21
3.0442178482
  0
LINE
  5
423
100
AcDbEntity
  8
0
100
AcDbLine
 62
7
  6
CONTINUOUS
 10
7.2138008812
 20
3.7842178482
 11
7.2138008812
 21
3.7342178482
  0
LINE
  5
424
100
AcDbEntity
  8
0
100
AcDbLine
 62
7
  6
CONTINUOUS
 10
7.2221148266
 20
3.0442178482
 11
7.2221148266
 21
3.0842178482
  0
LINE
  5
425
100
AcDbEntity
  8
0
100
AcDbLine
 62
7
  6
CONTINUOUS
 10
7.2223043156
 20
3.7342178482
 11
7.2223043156
 21
3.7842178482
  0
LINE
  5
426
100
AcDbEntity
  8
0
100
AcDbLine
 62
7
  6
CONTINUOUS
 10
7.2289822773
 20
3.0442178482
 11
7.2289822773
 21
3.0842178482
  0
LINE
  5
427
100
AcDbEntity
  8
0
100
AcDbLine
 62
7
  6
CONTINUOUS
 10
7.2289822773
 20
3.7342178482
 11
7.2289822773
 21
3.7842178482
  0
LINE
  5
428
100
AcDbEntity
  8
0
100
AcDbLine
 62
7
  6
CONTINUOUS
 10
7.2379822773
 20
3.7842178482
 11
7.2379822773
 21
3.7342178482
  0
LINE
  5
429
100
AcDbEntity
  8
0
100
AcDbLine
 62
7
  6
CONTINUOUS
 10
7.2379822773
 20
3.0842178482
 11
7.2379822773
 21
3.0442178482
  0
LINE
  5
42A
100
AcDbEntity
  8
0
100
AcDbLine
 62
7
  6
CONTINUOUS
 10
7.2469822773
 20
3.0442178482
 11
7.2469822773
 21
3.0842178482
  0
LINE
  5
42B
100
AcDbEntity
  8
0
100
AcDbLine
 62
7
  6
CONTINUOUS
 10
7.2469822773
 20
3.7342178482
 11
7.2469822773
 21
3.7842178482
  0
LINE
  5
42C
100
AcDbEntity
  8
0
100
AcDbLine
 62
7
  6
CONTINUOUS
 10
7.2536602389
 20
3.7342178482
 11
7.2536602389
 21
3.7842178482
  0
LINE
  5
42D
100
AcDbEntity
  8
0
100
AcDbLine
 62
7
  6
CONTINUOUS
 10
7.253849728
 20
3.0442178482
 11
7.253849728
 21
3.0842178482
  0
LINE
  5
42E
100
AcDbEntity
  8
0
100
AcDbLine
 62
7
  6
CONTINUOUS
 10
7.2621636734
 20
3.7842178482
 11
7.2621636734
 21
3.7342178482
  0
LINE
  5
42F
100
AcDbEntity
  8
0
100
AcDbLine
 62
7
  6
CONTINUOUS
 10
7.2624755048
 20
3.0842178482
 11
7.2624755048
 21
3.0442178482
  0
LINE
  5
430
100
AcDbEntity
  8
0
100
AcDbLine
 62
7
  6
CONTINUOUS
 10
7.2716173498
 20
3.7342178482
 11
7.2716173498
 21
3.7842178482
  0
LINE
  5
431
100
AcDbEntity
  8
0
100
AcDbLine
 62
7
  6
CONTINUOUS
 10
7.2718250596
 20
3.0442178482
 11
7.2718250596
 21
3.0842178482
  0
LINE
  5
432
100
AcDbEntity
  8
0
100
AcDbLine
 62
7
  6
CONTINUOUS
 10
7.278263488
 20
3.7342178482
 11
7.278263488
 21
3.7842178482
  0
LINE
  5
433
100
AcDbEntity
  8
0
100
AcDbLine
 62
7
  6
CONTINUOUS
 10
7.2786736871
 20
3.0442178482
 11
7.2786736871
 21
3.0842178482
  0
LINE
  5
434
100
AcDbEntity
  8
0
100
AcDbLine
 62
7
  6
CONTINUOUS
 10
7.2862298342
 20
3.7842178482
 11
7.2862298342
 21
3.7342178482
  0
LINE
  5
435
100
AcDbEntity
  8
0
100
AcDbLine
 62
7
  6
CONTINUOUS
 10
7.2869015981
 20
3.0842178482
 11
7.2869015981
 21
3.0442178482
  0
LINE
  5
436
100
AcDbEntity
  8
0
100
AcDbLine
 62
7
  6
CONTINUOUS
 10
7.296092136
 20
3.7342178482
 11
7.296092136
 21
3.7842178482
  0
LINE
  5
437
100
AcDbEntity
  8
0
100
AcDbLine
 62
7
  6
CONTINUOUS
 10
7.2965750812
 20
3.0442178482
 11
7.2965750812
 21
3.0842178482
  0
LINE
  5
438
100
AcDbEntity
  8
0
100
AcDbLine
 62
7
  6
CONTINUOUS
 10
7.3026747787
 20
3.7342178482
 11
7.3026747787
 21
3.7842178482
  0
LINE
  5
439
100
AcDbEntity
  8
0
100
AcDbLine
 62
7
  6
CONTINUOUS
 10
7.3033861138
 20
3.0442178482
 11
7.3033861138
 21
3.0842178482
  0
LINE
  5
43A
100
AcDbEntity
  8
0
100
AcDbLine
 62
7
  6
CONTINUOUS
 10
7.3100660733
 20
3.7842178482
 11
7.3100660733
 21
3.7342178482
  0
LINE
  5
43B
100
AcDbEntity
  8
0
100
AcDbLine
 62
7
  6
CONTINUOUS
 10
7.3111936069
 20
3.0842178482
 11
7.3111936069
 21
3.0442178482
  0
LINE
  5
43C
100
AcDbEntity
  8
0
100
AcDbLine
 62
7
  6
CONTINUOUS
 10
7.3202900021
 20
3.7342178482
 11
7.3202900021
 21
3.7842178482
  0
LINE
  5
43D
100
AcDbEntity
  8
0
100
AcDbLine
 62
7
  6
CONTINUOUS
 10
7.321164504
 20
3.0442178482
 11
7.321164504
 21
3.0842178482
  0
LINE
  5
43E
100
AcDbEntity
  8
0
100
AcDbLine
 62
7
  6
CONTINUOUS
 10
7.3267777802
 20
3.7342178482
 11
7.3267777802
 21
3.7842178482
  0
LINE
  5
43F
100
AcDbEntity
  8
0
100
AcDbLine
 62
7
  6
CONTINUOUS
 10
7.3279192732
 20
3.0442178482
 11
7.3279192732
 21
3.0842178482
  0
LINE
  5
440
100
AcDbEntity
  8
0
100
AcDbLine
 62
7
  6
CONTINUOUS
 10
7.3335588004
 20
3.7842178482
 11
7.3335588004
 21
3.7342178482
  0
LINE
  5
441
100
AcDbEntity
  8
0
100
AcDbLine
 62
7
  6
CONTINUOUS
 10
7.3352849486
 20
3.0842178482
 11
7.3352849486
 21
3.0442178482
  0
LINE
  5
442
100
AcDbEntity
  8
0
100
AcDbLine
 62
7
  6
CONTINUOUS
 10
7.3354822773
 20
4.1072178482
 11
7.3354822773
 21
4.1197178482
  0
LINE
  5
443
100
AcDbEntity
  8
0
100
AcDbLine
 62
7
  6
CONTINUOUS
 10
7.3440956345
 20
3.7342178482
 11
7.3440956345
 21
3.7842178482
  0
LINE
  5
444
100
AcDbEntity
  8
0
100
AcDbLine
 62
7
  6
CONTINUOUS
 10
7.34552593
 20
3.0442178482
 11
7.34552593
 21
3.0842178482
  0
LINE
  5
445
100
AcDbEntity
  8
0
100
AcDbLine
 62
7
  6
CONTINUOUS
 10
7.3504576307
 20
3.7342178482
 11
7.3504576307
 21
3.7842178482
  0
LINE
  5
446
100
AcDbEntity
  8
0
100
AcDbLine
 62
7
  6
CONTINUOUS
 10
7.3522059216
 20
3.0442178482
 11
7.3522059216
 21
3.0842178482
  0
LINE
  5
447
100
AcDbEntity
  8
0
100
AcDbLine
 62
7
  6
CONTINUOUS
 10
7.3565960618
 20
3.7842178482
 11
7.3565960618
 21
3.7342178482
  0
LINE
  5
448
100
AcDbEntity
  8
0
100
AcDbLine
 62
7
  6
CONTINUOUS
 10
7.3591095904
 20
3.0842178482
 11
7.3591095904
 21
3.0442178482
  0
LINE
  5
449
100
AcDbEntity
  8
0
100
AcDbLine
 62
7
  6
CONTINUOUS
 10
7.3673955884
 20
3.7342178482
 11
7.3673955884
 21
3.7842178482
  0
LINE
  5
44A
100
AcDbEntity
  8
0
100
AcDbLine
 62
7
  6
CONTINUOUS
 10
7.3695925864
 20
3.0442178482
 11
7.3695925864
 21
3.0842178482
  0
LINE
  5
44B
100
AcDbEntity
  8
0
100
AcDbLine
 62
7
  6
CONTINUOUS
 10
7.3736014848
 20
3.7342178482
 11
7.3736014848
 21
3.7842178482
  0
LINE
  5
44C
100
AcDbEntity
  8
0
100
AcDbLine
 62
7
  6
CONTINUOUS
 10
7.3761794908
 20
3.0442178482
 11
7.3761794908
 21
3.0842178482
  0
LINE
  5
44D
100
AcDbEntity
  8
0
100
AcDbLine
 62
7
  6
CONTINUOUS
 10
7.3790680745
 20
3.7842178482
 11
7.3790680745
 21
3.7342178482
  0
LINE
  5
44E
100
AcDbEntity
  8
0
100
AcDbLine
 62
7
  6
CONTINUOUS
 10
7.3826022307
 20
3.0842178482
 11
7.3826022307
 21
3.0442178482
  0
LINE
  5
44F
100
AcDbEntity
  8
0
100
AcDbLine
 62
7
  6
CONTINUOUS
 10
7.3867322773
 20
3.9217178482
 11
7.3867322773
 21
4.0275315785
  0
LINE
  5
450
100
AcDbEntity
  8
0
100
AcDbLine
 62
7
  6
CONTINUOUS
 10
7.390078829
 20
3.7342178482
 11
7.390078829
 21
3.7842178482
  0
LINE
  5
451
100
AcDbEntity
  8
0
100
AcDbLine
 62
7
  6
CONTINUOUS
 10
7.3932985081
 20
3.0442178482
 11
7.3932985081
 21
3.0842178482
  0
LINE
  5
452
100
AcDbEntity
  8
0
100
AcDbLine
 62
7
  6
CONTINUOUS
 10
7.3960990518
 20
3.7342178482
 11
7.3960990518
 21
3.7842178482
  0
LINE
  5
453
100
AcDbEntity
  8
0
100
AcDbLine
 62
7
  6
CONTINUOUS
 10
7.3997742712
 20
3.0442178482
 11
7.3997742712
 21
3.0842178482
  0
LINE
  5
454
100
AcDbEntity
  8
0
100
AcDbLine
 62
7
  6
CONTINUOUS
 10
7.4008677491
 20
3.7842178482
 11
7.4008677491
 21
3.7342178482
  0
LINE
  5
455
100
AcDbEntity
  8
0
100
AcDbLine
 62
7
  6
CONTINUOUS
 10
7.4056984777
 20
3.0842178482
 11
7.4056984777
 21
3.0442178482
  0
LINE
  5
456
100
AcDbEntity
  8
0
100
AcDbLine
 62
7
  6
CONTINUOUS
 10
7.4120372602
 20
3.7342178482
 11
7.4120372602
 21
3.7842178482
  0
LINE
  5
457
100
AcDbEntity
  8
0
100
AcDbLine
 62
7
  6
CONTINUOUS
 10
7.4129822773
 20
4.3922178482
 11
7.4129822773
 21
4.1972178482
  0
LINE
  5
458
100
AcDbEntity
  8
0
100
AcDbLine
 62
7
  6
CONTINUOUS
 10
7.4165787188
 20
3.0442178482
 11
7.4165787188
 21
3.0842178482
  0
LINE
  5
459
100
AcDbEntity
  8
0
100
AcDbLine
 62
7
  6
CONTINUOUS
 10
7.4178431202
 20
3.7342178482
 11
7.4178431202
 21
3.7842178482
  0
LINE
  5
45A
100
AcDbEntity
  8
0
100
AcDbLine
 62
7
  6
CONTINUOUS
 10
7.4218912003
 20
3.7842178482
 11
7.4218912003
 21
3.7342178482
  0
LINE
  5
45B
100
AcDbEntity
  8
0
100
AcDbLine
 62
7
  6
CONTINUOUS
 10
7.4229255909
 20
3.0442178482
 11
7.4229255909
 21
3.0842178482
  0
LINE
  5
45C
100
AcDbEntity
  8
0
100
AcDbLine
 62
7
  6
CONTINUOUS
 10
6.7879822773
 20
2.9942178482
 11
6.7629822773
 21
2.9692178482
  0
LINE
  5
45D
100
AcDbEntity
  8
0
100
AcDbLine
 62
7
  6
CONTINUOUS
 10
7.4283350262
 20
3.0842178482
 11
7.4283350262
 21
3.0442178482
  0
LINE
  5
45E
100
AcDbEntity
  8
0
100
AcDbLine
 62
7
  6
CONTINUOUS
 10
7.4331662402
 20
3.7342178482
 11
7.4331662402
 21
3.7842178482
  0
LINE
  5
45F
100
AcDbEntity
  8
0
100
AcDbLine
 62
7
  6
CONTINUOUS
 10
7.4379822773
 20
3.9067178482
 11
7.4379822773
 21
3.8617178482
  0
LINE
  5
460
100
AcDbEntity
  8
0
100
AcDbLine
 62
7
  6
CONTINUOUS
 10
7.4387300699
 20
3.7342178482
 11
7.4387300699
 21
3.7842178482
  0
LINE
  5
461
100
AcDbEntity
  8
0
100
AcDbLine
 62
7
  6
CONTINUOUS
 10
7.4393694091
 20
3.0442178482
 11
7.4393694091
 21
3.0842178482
  0
LINE
  5
462
100
AcDbEntity
  8
0
100
AcDbLine
 62
7
  6
CONTINUOUS
 10
7.4420382417
 20
3.7842178482
 11
7.4420382417
 21
3.7342178482
  0
LINE
  5
463
100
AcDbEntity
  8
0
100
AcDbLine
 62
7
  6
CONTINUOUS
 10
7.4455699938
 20
3.0442178482
 11
7.4455699938
 21
3.0842178482
  0
LINE
  5
464
100
AcDbEntity
  8
0
100
AcDbLine
 62
7
  6
CONTINUOUS
 10
7.4504498312
 20
3.0842178482
 11
7.4504498312
 21
3.0442178482
  0
LINE
  5
465
100
AcDbEntity
  8
0
100
AcDbLine
 62
7
  6
CONTINUOUS
 10
7.4533650797
 20
3.7342178482
 11
7.4533650797
 21
3.7842178482
  0
LINE
  5
466
100
AcDbEntity
  8
0
100
AcDbLine
 62
7
  6
CONTINUOUS
 10
7.4586603649
 20
3.7342178482
 11
7.4586603649
 21
3.7842178482
  0
LINE
  5
467
100
AcDbEntity
  8
0
100
AcDbLine
 62
7
  6
CONTINUOUS
 10
7.4612128635
 20
3.7842178482
 11
7.4612128635
 21
3.7342178482
  0
LINE
  5
468
100
AcDbEntity
  8
0
100
AcDbLine
 62
7
  6
CONTINUOUS
 10
7.4616081112
 20
3.0442178482
 11
7.4616081112
 21
3.0842178482
  0
LINE
  5
469
100
AcDbEntity
  8
0
100
AcDbLine
 62
7
  6
CONTINUOUS
 10
7.4676454132
 20
3.0442178482
 11
7.4676454132
 21
3.0842178482
  0
LINE
  5
46A
100
AcDbEntity
  8
0
100
AcDbLine
 62
7
  6
CONTINUOUS
 10
7.4719822773
 20
3.0842178482
 11
7.4719822773
 21
3.0442178482
  0
LINE
  5
46B
100
AcDbEntity
  8
0
100
AcDbLine
 62
7
  6
CONTINUOUS
 10
7.472537522
 20
3.7342178482
 11
7.472537522
 21
3.7842178482
  0
LINE
  5
46C
100
AcDbEntity
  8
0
100
AcDbLine
 62
7
  6
CONTINUOUS
 10
7.4775390283
 20
3.7342178482
 11
7.4775390283
 21
3.7842178482
  0
LINE
  5
46D
100
AcDbEntity
  8
0
100
AcDbLine
 62
7
  6
CONTINUOUS
 10
7.4793236899
 20
3.7842178482
 11
7.4793236899
 21
3.7342178482
  0
LINE
  5
46E
100
AcDbEntity
  8
0
100
AcDbLine
 62
7
  6
CONTINUOUS
 10
7.4832338705
 20
3.0442178482
 11
7.4832338705
 21
3.0842178482
  0
LINE
  5
46F
100
AcDbEntity
  8
0
100
AcDbLine
 62
7
  6
CONTINUOUS
 10
7.489091342
 20
3.0442178482
 11
7.489091342
 21
3.0842178482
  0
LINE
  5
470
100
AcDbEntity
  8
0
100
AcDbLine
 62
7
  6
CONTINUOUS
 10
7.4905922018
 20
3.7342178482
 11
7.4905922018
 21
3.7842178482
  0
LINE
  5
471
100
AcDbEntity
  8
0
100
AcDbLine
 62
7
  6
CONTINUOUS
 10
7.4928733457
 20
3.0842178482
 11
7.4928733457
 21
3.0442178482
  0
LINE
  5
472
100
AcDbEntity
  8
0
100
AcDbLine
 62
7
  6
CONTINUOUS
 10
7.4952760947
 20
3.7342178482
 11
7.4952760947
 21
3.7842178482
  0
LINE
  5
473
100
AcDbEntity
  8
0
100
AcDbLine
 62
7
  6
CONTINUOUS
 10
7.4962844145
 20
3.7842178482
 11
7.4962844145
 21
3.7342178482
  0
LINE
  5
474
100
AcDbEntity
  8
0
100
AcDbLine
 62
7
  6
CONTINUOUS
 10
7.5041874122
 20
3.0442178482
 11
7.5041874122
 21
3.0842178482
  0
LINE
  5
475
100
AcDbEntity
  8
0
100
AcDbLine
 62
7
  6
CONTINUOUS
 10
7.5074430803
 20
3.7342178482
 11
7.5074430803
 21
3.7842178482
  0
LINE
  5
476
100
AcDbEntity
  8
0
100
AcDbLine
 62
7
  6
CONTINUOUS
 10
7.5098489983
 20
3.0442178482
 11
7.5098489983
 21
3.0842178482
  0
LINE
  5
477
100
AcDbEntity
  8
0
100
AcDbLine
 62
7
  6
CONTINUOUS
 10
7.5117870389
 20
3.7342178482
 11
7.5117870389
 21
3.7842178482
  0
LINE
  5
478
100
AcDbEntity
  8
0
100
AcDbLine
 62
7
  6
CONTINUOUS
 10
7.5120142119
 20
3.7842178482
 11
7.5120142119
 21
3.7342178482
  0
LINE
  5
479
100
AcDbEntity
  8
0
100
AcDbLine
 62
7
  6
CONTINUOUS
 10
7.5130657754
 20
3.0842178482
 11
7.5130657754
 21
3.0442178482
  0
LINE
  5
47A
100
AcDbEntity
  8
0
100
AcDbLine
 62
7
  6
CONTINUOUS
 10
7.5230098553
 20
3.7342178482
 11
7.5230098553
 21
3.7842178482
  0
LINE
  5
47B
100
AcDbEntity
  8
0
100
AcDbLine
 62
7
  6
CONTINUOUS
 10
7.5244113042
 20
3.0442178482
 11
7.5244113042
 21
3.0842178482
  0
LINE
  5
47C
100
AcDbEntity
  8
0
100
AcDbLine
 62
7
  6
CONTINUOUS
 10
7.5269931787
 20
3.7342178482
 11
7.5269931787
 21
3.7842178482
  0
LINE
  5
47D
100
AcDbEntity
  8
0
100
AcDbLine
 62
7
  6
CONTINUOUS
 10
7.5298614867
 20
3.0442178482
 11
7.5298614867
 21
3.0842178482
  0
LINE
  5
47E
100
AcDbEntity
  8
0
100
AcDbLine
 62
7
  6
CONTINUOUS
 10
7.5325042203
 20
3.0842178482
 11
7.5325042203
 21
3.0442178482
  0
LINE
  5
47F
100
AcDbEntity
  8
0
100
AcDbLine
 62
7
  6
CONTINUOUS
 10
7.5372183442
 20
3.7342178482
 11
7.5372183442
 21
3.7842178482
  0
LINE
  5
480
100
AcDbEntity
  8
0
100
AcDbLine
 62
7
  6
CONTINUOUS
 10
7.5379822773
 20
3.1242178482
 11
7.5379822773
 21
3.1192178482
  0
LINE
  5
481
100
AcDbEntity
  8
0
100
AcDbLine
 62
7
  6
CONTINUOUS
 10
7.54082205
 20
3.7342178482
 11
7.54082205
 21
3.7842178482
  0
LINE
  5
482
100
AcDbEntity
  8
0
100
AcDbLine
 62
7
  6
CONTINUOUS
 10
7.543850114
 20
3.0442178482
 11
7.543850114
 21
3.0842178482
  0
LINE
  5
483
100
AcDbEntity
  8
0
100
AcDbLine
 62
7
  6
CONTINUOUS
 10
7.5490739546
 20
3.0442178482
 11
7.5490739546
 21
3.0842178482
  0
LINE
  5
484
100
AcDbEntity
  8
0
100
AcDbLine
 62
7
  6
CONTINUOUS
 10
7.5500008368
 20
3.7342178482
 11
7.5500008368
 21
3.7842178482
  0
LINE
  5
485
100
AcDbEntity
  8
0
100
AcDbLine
 62
7
  6
CONTINUOUS
 10
7.5504822773
 20
3.7342178482
 11
7.5504822773
 21
3.1242178482
  0
LINE
  5
486
100
AcDbEntity
  8
0
100
AcDbLine
 62
7
  6
CONTINUOUS
 10
7.5511354011
 20
3.0842178482
 11
7.5511354011
 21
3.0442178482
  0
LINE
  5
487
100
AcDbEntity
  8
0
100
AcDbLine
 62
7
  6
CONTINUOUS
 10
7.5532077518
 20
3.7342178482
 11
7.5532077518
 21
3.7842178482
  0
LINE
  5
488
100
AcDbEntity
  8
0
100
AcDbLine
 62
7
  6
CONTINUOUS
 10
7.561296419
 20
3.7342178482
 11
7.561296419
 21
3.7842178482
  0
LINE
  5
489
100
AcDbEntity
  8
0
100
AcDbLine
 62
7
  6
CONTINUOUS
 10
7.5624505614
 20
3.0442178482
 11
7.5624505614
 21
3.0842178482
  0
LINE
  5
48A
100
AcDbEntity
  8
0
100
AcDbLine
 62
7
  6
CONTINUOUS
 10
7.5640912607
 20
3.7342178482
 11
7.5640912607
 21
3.7842178482
  0
LINE
  5
48B
100
AcDbEntity
  8
0
100
AcDbLine
 62
7
  6
CONTINUOUS
 10
7.5674337418
 20
3.0442178482
 11
7.5674337418
 21
3.0842178482
  0
LINE
  5
48C
100
AcDbEntity
  8
0
100
AcDbLine
 62
7
  6
CONTINUOUS
 10
7.5689082509
 20
3.0842178482
 11
7.5689082509
 21
3.0442178482
  0
LINE
  5
48D
100
AcDbEntity
  8
0
100
AcDbLine
 62
7
  6
CONTINUOUS
 10
7.571051262
 20
3.7342178482
 11
7.571051262
 21
3.7842178482
  0
LINE
  5
48E
100
AcDbEntity
  8
0
100
AcDbLine
 62
7
  6
CONTINUOUS
 10
7.5734207117
 20
3.7342178482
 11
7.5734207117
 21
3.7842178482
  0
LINE
  5
48F
100
AcDbEntity
  8
0
100
AcDbLine
 62
7
  6
CONTINUOUS
 10
7.5792188797
 20
3.7342178482
 11
7.5792188797
 21
3.7842178482
  0
LINE
  5
490
100
AcDbEntity
  8
0
100
AcDbLine
 62
7
  6
CONTINUOUS
 10
7.5801616638
 20
3.0442178482
 11
7.5801616638
 21
3.0842178482
  0
LINE
  5
491
100
AcDbEntity
  8
0
100
AcDbLine
 62
7
  6
CONTINUOUS
 10
7.5811516459
 20
3.7342178482
 11
7.5811516459
 21
3.7842178482
  0
LINE
  5
492
100
AcDbEntity
  8
0
100
AcDbLine
 62
7
  6
CONTINUOUS
 10
7.5848905254
 20
3.0442178482
 11
7.5848905254
 21
3.0842178482
  0
LINE
  5
493
100
AcDbEntity
  8
0
100
AcDbLine
 62
7
  6
CONTINUOUS
 10
7.5857603495
 20
3.7342178482
 11
7.5857603495
 21
3.7842178482
  0
LINE
  5
494
100
AcDbEntity
  8
0
100
AcDbLine
 62
7
  6
CONTINUOUS
 10
7.5857740556
 20
3.0842178482
 11
7.5857740556
 21
3.0442178482
  0
LINE
  5
495
100
AcDbEntity
  8
0
100
AcDbLine
 62
7
  6
CONTINUOUS
 10
7.5872472218
 20
3.7342178482
 11
7.5872472218
 21
3.7842178482
  0
LINE
  5
496
100
AcDbEntity
  8
0
100
AcDbLine
 62
7
  6
CONTINUOUS
 10
7.5904822773
 20
4.4117178482
 11
7.5904822773
 21
4.1777178482
  0
LINE
  5
497
100
AcDbEntity
  8
0
100
AcDbLine
 62
7
  6
CONTINUOUS
 10
7.5906444985
 20
3.7342178482
 11
7.5906444985
 21
3.7842178482
  0
LINE
  5
498
100
AcDbEntity
  8
0
100
AcDbLine
 62
7
  6
CONTINUOUS
 10
7.5916783911
 20
3.7342178482
 11
7.5916783911
 21
3.7842178482
  0
LINE
  5
499
100
AcDbEntity
  8
0
100
AcDbLine
 62
7
  6
CONTINUOUS
 10
7.5938480514
 20
3.7342178482
 11
7.5938480514
 21
3.7842178482
  0
LINE
  5
49A
100
AcDbEntity
  8
0
100
AcDbLine
 62
7
  6
CONTINUOUS
 10
7.5944240374
 20
3.7342178482
 11
7.5944240374
 21
3.7842178482
  0
LINE
  5
49B
100
AcDbEntity
  8
0
100
AcDbLine
 62
7
  6
CONTINUOUS
 10
7.5953557417
 20
3.7342178482
 11
7.5953557417
 21
3.7842178482
  0
LINE
  5
49C
100
AcDbEntity
  8
0
100
AcDbLine
 62
7
  6
CONTINUOUS
 10
7.5954710764
 20
3.7342178482
 11
7.5954710764
 21
3.7842178482
  0
LINE
  5
49D
100
AcDbEntity
  8
0
100
AcDbLine
 62
7
  6
CONTINUOUS
 10
7.5969348763
 20
3.0442178482
 11
7.5969348763
 21
3.0842178482
  0
LINE
  5
49E
100
AcDbEntity
  8
0
100
AcDbLine
 62
7
  6
CONTINUOUS
 10
7.6013964576
 20
3.0442178482
 11
7.6013964576
 21
3.0842178482
  0
LINE
  5
49F
100
AcDbEntity
  8
0
100
AcDbLine
 62
7
  6
CONTINUOUS
 10
7.6016865873
 20
3.0842178482
 11
7.6016865873
 21
3.0442178482
  0
LINE
  5
4A0
100
AcDbEntity
  8
0
100
AcDbLine
 62
7
  6
CONTINUOUS
 10
7.6127242246
 20
3.0442178482
 11
7.6127242246
 21
3.0842178482
  0
LINE
  5
4A1
100
AcDbEntity
  8
0
100
AcDbLine
 62
7
  6
CONTINUOUS
 10
7.6169062968
 20
3.0442178482
 11
7.6169062968
 21
3.0842178482
  0
LINE
  5
4A2
100
AcDbEntity
  8
0
100
AcDbLine
 62
7
  6
CONTINUOUS
 10
7.6274864314
 20
3.0442178482
 11
7.6274864314
 21
3.0842178482
  0
LINE
  5
4A3
100
AcDbEntity
  8
0
100
AcDbLine
 62
7
  6
CONTINUOUS
 10
7.6279822773
 20
4.4447178482
 11
7.6279822773
 21
4.1447178482
  0
LINE
  5
4A4
100
AcDbEntity
  8
0
100
AcDbLine
 62
7
  6
CONTINUOUS
 10
7.6313775316
 20
3.0442178482
 11
7.6313775316
 21
3.0842178482
  0
LINE
  5
4A5
100
AcDbEntity
  8
0
100
AcDbLine
 62
7
  6
CONTINUOUS
 10
7.6411810343
 20
3.0442178482
 11
7.6411810343
 21
3.0842178482
  0
LINE
  5
4A6
100
AcDbEntity
  8
0
100
AcDbLine
 62
7
  6
CONTINUOUS
 10
7.6447704974
 20
3.0442178482
 11
7.6447704974
 21
3.0842178482
  0
LINE
  5
4A7
100
AcDbEntity
  8
0
100
AcDbLine
 62
7
  6
CONTINUOUS
 10
7.6537704974
 20
3.0442178482
 11
7.6537704974
 21
3.0842178482
  0
LINE
  5
4A8
100
AcDbEntity
  8
0
100
AcDbLine
 62
7
  6
CONTINUOUS
 10
7.6570484849
 20
3.0442178482
 11
7.6570484849
 21
3.0842178482
  0
LINE
  5
4A9
100
AcDbEntity
  8
0
100
AcDbLine
 62
7
  6
CONTINUOUS
 10
7.6652203139
 20
3.0442178482
 11
7.6652203139
 21
3.0842178482
  0
LINE
  5
4AA
100
AcDbEntity
  8
0
100
AcDbLine
 62
7
  6
CONTINUOUS
 10
7.6681778411
 20
3.0442178482
 11
7.6681778411
 21
3.0842178482
  0
LINE
  5
4AB
100
AcDbEntity
  8
0
100
AcDbLine
 62
7
  6
CONTINUOUS
 10
7.6754991007
 20
3.0442178482
 11
7.6754991007
 21
3.0842178482
  0
LINE
  5
4AC
100
AcDbEntity
  8
0
100
AcDbLine
 62
7
  6
CONTINUOUS
 10
7.6781280612
 20
3.0442178482
 11
7.6781280612
 21
3.0842178482
  0
LINE
  5
4AD
100
AcDbEntity
  8
0
100
AcDbLine
 62
7
  6
CONTINUOUS
 10
7.6845786843
 20
3.0442178482
 11
7.6845786843
 21
3.0842178482
  0
LINE
  5
4AE
100
AcDbEntity
  8
0
100
AcDbLine
 62
7
  6
CONTINUOUS
 10
7.6868718722
 20
3.0442178482
 11
7.6868718722
 21
3.0842178482
  0
LINE
  5
4AF
100
AcDbEntity
  8
0
100
AcDbLine
 62
7
  6
CONTINUOUS
 10
7.6879822773
 20
3.0442178482
 11
7.6879822773
 21
2.9942178482
  0
LINE
  5
4B0
100
AcDbEntity
  8
0
100
AcDbLine
 62
7
  6
CONTINUOUS
 10
7.6904822773
 20
4.4447178482
 11
7.6904822773
 21
4.1447178482
  0
LINE
  5
4B1
100
AcDbEntity
  8
0
100
AcDbLine
 62
7
  6
CONTINUOUS
 10
7.6924341781
 20
3.0442178482
 11
7.6924341781
 21
3.0842178482
  0
LINE
  5
4B2
100
AcDbEntity
  8
0
100
AcDbLine
 62
7
  6
CONTINUOUS
 10
7.6943853081
 20
3.0442178482
 11
7.6943853081
 21
3.0842178482
  0
LINE
  5
4B3
100
AcDbEntity
  8
0
100
AcDbLine
 62
7
  6
CONTINUOUS
 10
7.6990440509
 20
3.0442178482
 11
7.6990440509
 21
3.0842178482
  0
LINE
  5
4B4
100
AcDbEntity
  8
0
100
AcDbLine
 62
7
  6
CONTINUOUS
 10
7.700647775
 20
3.0442178482
 11
7.700647775
 21
3.0842178482
  0
LINE
  5
4B5
100
AcDbEntity
  8
0
100
AcDbLine
 62
7
  6
CONTINUOUS
 10
7.7043901854
 20
3.0442178482
 11
7.7043901854
 21
3.0842178482
  0
LINE
  5
4B6
100
AcDbEntity
  8
0
100
AcDbLine
 62
7
  6
CONTINUOUS
 10
7.7056421079
 20
3.0442178482
 11
7.7056421079
 21
3.0842178482
  0
LINE
  5
4B7
100
AcDbEntity
  8
0
100
AcDbLine
 62
7
  6
CONTINUOUS
 10
7.7084579283
 20
3.0442178482
 11
7.7084579283
 21
3.0842178482
  0
LINE
  5
4B8
100
AcDbEntity
  8
0
100
AcDbLine
 62
7
  6
CONTINUOUS
 10
7.7093546177
 20
3.0442178482
 11
7.7093546177
 21
3.0842178482
  0
LINE
  5
4B9
100
AcDbEntity
  8
0
100
AcDbLine
 62
7
  6
CONTINUOUS
 10
7.7112361301
 20
3.0442178482
 11
7.7112361301
 21
3.0842178482
  0
LINE
  5
4BA
100
AcDbEntity
  8
0
100
AcDbLine
 62
7
  6
CONTINUOUS
 10
7.7117751287
 20
3.0442178482
 11
7.7117751287
 21
3.0842178482
  0
LINE
  5
4BB
100
AcDbEntity
  8
0
100
AcDbLine
 62
7
  6
CONTINUOUS
 10
7.712717176
 20
3.0442178482
 11
7.712717176
 21
3.0842178482
  0
LINE
  5
4BC
100
AcDbEntity
  8
0
100
AcDbLine
 62
7
  6
CONTINUOUS
 10
7.7128970065
 20
3.0442178482
 11
7.7128970065
 21
3.0842178482
  0
LINE
  5
4BD
100
AcDbEntity
  8
0
100
AcDbLine
 62
7
  6
CONTINUOUS
 10
7.7129822773
 20
2.9692178482
 11
7.7129822773
 21
2.9292178482
  0
LINE
  5
4BE
100
AcDbEntity
  8
0
100
AcDbLine
 62
7
  6
CONTINUOUS
 10
8.9804822773
 20
4.4559678482
 11
8.9804822773
 21
4.1334678482
  0
LINE
  5
4BF
100
AcDbEntity
  8
0
100
AcDbLine
 62
7
  6
CONTINUOUS
 10
9.0404822773
 20
4.4559678482
 11
9.0404822773
 21
4.1334678482
  0
ARC
  5
4C0
100
AcDbEntity
  8
0
100
AcDbCircle
 62
7
  6
CONTINUOUS
 10
5.0759722733
 20
3.1144518468
 40
0.65
100
AcDbArc
 50
357.7751307226
 51
37.4382101818
  0
ARC
  5
4C1
100
AcDbEntity
  8
0
100
AcDbCircle
 62
7
  6
CONTINUOUS
 10
5.1923720741
 20
2.8377703283
 40
0.45
100
AcDbArc
 50
11.7251268757
 51
49.3560828237
  0
ARC
  5
4C2
100
AcDbEntity
  8
0
100
AcDbCircle
 62
7
  6
CONTINUOUS
 10
5.2067322773
 20
3.2192178482
 40
0.2
100
AcDbArc
 50
155.779056891
 51
180.0
  0
ARC
  5
4C3
100
AcDbEntity
  8
0
100
AcDbCircle
 62
7
  6
CONTINUOUS
 10
4.7846350049
 20
3.5855786051
 40
0.125
100
AcDbArc
 50
322.5617898181
 51
357.849587733
  0
ARC
  5
4C4
100
AcDbEntity
  8
0
100
AcDbCircle
 62
7
  6
CONTINUOUS
 10
2.8922291018
 20
3.9092178482
 40
0.125
100
AcDbArc
 50
271.8514983983
 51
326.3876254015
  0
ARC
  5
4C5
100
AcDbEntity
  8
0
100
AcDbCircle
 62
7
  6
CONTINUOUS
 10
3.5837354528
 20
3.9092178482
 40
0.125
100
AcDbArc
 50
213.6123745985
 51
268.1485016017
  0
ARC
  5
4C6
100
AcDbEntity
  8
0
100
AcDbCircle
 62
7
  6
CONTINUOUS
 10
4.7747447483
 20
3.053701582
 40
0.043012471
100
AcDbArc
 50
124.338423378
 51
180.0
  0
ARC
  5
4C7
100
AcDbEntity
  8
0
100
AcDbCircle
 62
7
  6
CONTINUOUS
 10
2.8217322773
 20
3.1192178482
 40
0.035
100
AcDbArc
 50
271.8600614584
 51
342.5423968763
  0
ARC
  5
4C8
100
AcDbEntity
  8
0
100
AcDbCircle
 62
7
  6
CONTINUOUS
 10
3.6542322773
 20
3.1192178482
 40
0.035
100
AcDbArc
 50
197.4576031237
 51
268.1399385416
  0
ARC
  5
4C9
100
AcDbEntity
  8
0
100
AcDbCircle
 62
7
  6
CONTINUOUS
 10
4.9829822773
 20
3.2692178482
 40
0.02
100
AcDbArc
 50
180.0
 51
270.0
  0
ARC
  5
4CA
100
AcDbEntity
  8
0
100
AcDbCircle
 62
7
  6
CONTINUOUS
 10
4.9829822773
 20
3.3492178482
 40
0.02
100
AcDbArc
 50
90.0
 51
180.0
  0
ARC
  5
4CB
100
AcDbEntity
  8
0
100
AcDbCircle
 62
7
  6
CONTINUOUS
 10
3.4671432146
 20
3.8317178482
 40
0.015
100
AcDbArc
 50
33.6123745985
 51
90.0
  0
ARC
  5
4CC
100
AcDbEntity
  8
0
100
AcDbCircle
 62
7
  6
CONTINUOUS
 10
3.00882134
 20
3.8317178482
 40
0.015
100
AcDbArc
 50
90.0
 51
146.3876254015
  0
ARC
  5
4CD
100
AcDbEntity
  8
0
100
AcDbCircle
 62
7
  6
CONTINUOUS
 10
3.0229822773
 20
3.8617178482
 40
0.015
100
AcDbArc
 50
270.0
 51
360.0
  0
ARC
  5
4CE
100
AcDbEntity
  8
0
100
AcDbCircle
 62
7
  6
CONTINUOUS
 10
3.4529822773
 20
3.8617178482
 40
0.015
100
AcDbArc
 50
180.0
 51
270.0
  0
ARC
  5
4CF
100
AcDbEntity
  8
0
100
AcDbCircle
 62
7
  6
CONTINUOUS
 10
3.4229822773
 20
3.9067178482
 40
0.015
100
AcDbArc
 50
0.0
 51
90.0
  0
ARC
  5
4D0
100
AcDbEntity
  8
0
100
AcDbCircle
 62
7
  6
CONTINUOUS
 10
3.0529822773
 20
3.9067178482
 40
0.015
100
AcDbArc
 50
90.0
 51
180.0
  0
ARC
  5
4D1
100
AcDbEntity
  8
0
100
AcDbCircle
 62
7
  6
CONTINUOUS
 10
2.8694292374
 20
3.1042178482
 40
0.015
100
AcDbArc
 50
90.0
 51
162.5423968763
  0
ARC
  5
4D2
100
AcDbEntity
  8
0
100
AcDbCircle
 62
7
  6
CONTINUOUS
 10
3.6065353172
 20
3.1042178482
 40
0.015
100
AcDbArc
 50
17.4576031237
 51
90.0
  0
ARC
  5
4D3
100
AcDbEntity
  8
0
100
AcDbCircle
 62
7
  6
CONTINUOUS
 10
5.0288980849
 20
3.2992178482
 40
0.005
100
AcDbArc
 50
90.0
 51
155.7790568905
  0
ARC
  5
4D4
100
AcDbEntity
  8
0
100
AcDbCircle
 62
7
  6
CONTINUOUS
 10
3.6573168694
 20
4.2430124659
 40
1.3946443675
100
AcDbArc
 50
38.880828358
 51
41.2856617784
  0
ARC
  5
4D5
100
AcDbEntity
  8
0
100
AcDbCircle
 62
7
  6
CONTINUOUS
 10
3.0629822773
 20
4.1197178482
 40
0.2725
100
AcDbArc
 50
0.0
 51
90.0
  0
ARC
  5
4D6
100
AcDbEntity
  8
0
100
AcDbCircle
 62
7
  6
CONTINUOUS
 10
3.0629822773
 20
4.1197178482
 40
0.0775
100
AcDbArc
 50
0.0
 51
90.0
  0
ARC
  5
4D7
100
AcDbEntity
  8
0
100
AcDbCircle
 62
7
  6
CONTINUOUS
 10
4.7742322773
 20
5.4682178482
 40
0.075
100
AcDbArc
 50
90.0
 51
114.6243183522
  0
ARC
  5
4D8
100
AcDbEntity
  8
0
100
AcDbCircle
 62
7
  6
CONTINUOUS
 10
4.9329822773
 20
4.700634422
 40
0.075
100
AcDbArc
 50
180.0
 51
209.9264348666
  0
ARC
  5
4D9
100
AcDbEntity
  8
0
100
AcDbCircle
 62
7
  6
CONTINUOUS
 10
4.8079822773
 20
4.9803482326
 40
0.05
100
AcDbArc
 50
0.0
 51
44.3312080471
  0
ARC
  5
4DA
100
AcDbEntity
  8
0
100
AcDbCircle
 62
7
  6
CONTINUOUS
 10
2.8854822773
 20
4.13991103
 40
0.0378068182
100
AcDbArc
 50
90.0
 51
172.6955544394
  0
ARC
  5
4DB
100
AcDbEntity
  8
0
100
AcDbCircle
 62
7
  6
CONTINUOUS
 10
2.8854822773
 20
4.4495246664
 40
0.0378068182
100
AcDbArc
 50
187.3044455606
 51
270.0
  0
ARC
  5
4DC
100
AcDbEntity
  8
0
100
AcDbCircle
 62
7
  6
CONTINUOUS
 10
2.8167322773
 20
4.1447178482
 40
0.03125
100
AcDbArc
 50
180.0
 51
360.0
  0
ARC
  5
4DD
100
AcDbEntity
  8
0
100
AcDbCircle
 62
7
  6
CONTINUOUS
 10
2.8167322773
 20
4.4447178482
 40
0.03125
100
AcDbArc
 50
0.0
 51
180.0
  0
ARC
  5
4DE
100
AcDbEntity
  8
0
100
AcDbCircle
 62
7
  6
CONTINUOUS
 10
1.4654822773
 20
4.1334678482
 40
0.03
100
AcDbArc
 50
180.0
 51
360.0
  0
ARC
  5
4DF
100
AcDbEntity
  8
0
100
AcDbCircle
 62
7
  6
CONTINUOUS
 10
1.4654822773
 20
4.4559678482
 40
0.03
100
AcDbArc
 50
0.0
 51
180.0
  0
ARC
  5
4E0
100
AcDbEntity
  8
0
100
AcDbCircle
 62
7
  6
CONTINUOUS
 10
3.0842322773
 20
4.0672178482
 40
0.03
100
AcDbArc
 50
90.0
 51
262.8192442185
  0
ARC
  5
4E1
100
AcDbEntity
  8
0
100
AcDbCircle
 62
7
  6
CONTINUOUS
 10
3.3917322773
 20
4.0672178482
 40
0.03
100
AcDbArc
 50
277.1807557815
 51
90.0
  0
ARC
  5
4E2
100
AcDbEntity
  8
0
100
AcDbCircle
 62
7
  6
CONTINUOUS
 10
4.7855589534
 20
5.5582945243
 40
0.0150766761
100
AcDbArc
 50
98.178968898
 51
270.0
  0
ARC
  5
4E3
100
AcDbEntity
  8
0
100
AcDbCircle
 62
7
  6
CONTINUOUS
 10
3.3454822773
 20
4.1072178482
 40
0.01
100
AcDbArc
 50
180.0
 51
270.0
  0
ARC
  5
4E4
100
AcDbEntity
  8
0
100
AcDbCircle
 62
7
  6
CONTINUOUS
 10
3.1304822773
 20
4.1072178482
 40
0.01
100
AcDbArc
 50
270.0
 51
360.0
  0
ARC
  5
4E5
100
AcDbEntity
  8
0
100
AcDbCircle
 62
7
  6
CONTINUOUS
 10
3.0792322773
 20
4.0275315785
 40
0.01
100
AcDbArc
 50
0.0
 51
82.8192442186
  0
ARC
  5
4E6
100
AcDbEntity
  8
0
100
AcDbCircle
 62
7
  6
CONTINUOUS
 10
3.3967322773
 20
4.0275315785
 40
0.01
100
AcDbArc
 50
97.1807557814
 51
180.0
  0
ARC
  5
4E7
100
AcDbEntity
  8
0
100
AcDbCircle
 62
7
  6
CONTINUOUS
 10
5.2379822773
 20
2.4105099486
 40
3.1952078996
100
AcDbArc
 50
81.821031102
 51
98.178968898
  0
ARC
  5
4E8
100
AcDbEntity
  8
0
100
AcDbCircle
 62
7
  6
CONTINUOUS
 10
5.3999922813
 20
3.1144518468
 40
0.65
100
AcDbArc
 50
142.5617898182
 51
182.2248692774
  0
ARC
  5
4E9
100
AcDbEntity
  8
0
100
AcDbCircle
 62
7
  6
CONTINUOUS
 10
5.2835924804
 20
2.8377703283
 40
0.45
100
AcDbArc
 50
130.6439171763
 51
168.2748731243
  0
ARC
  5
4EA
100
AcDbEntity
  8
0
100
AcDbCircle
 62
7
  6
CONTINUOUS
 10
5.2692322773
 20
3.2192178482
 40
0.2
100
AcDbArc
 50
0.0
 51
24.220943109
  0
ARC
  5
4EB
100
AcDbEntity
  8
0
100
AcDbCircle
 62
7
  6
CONTINUOUS
 10
5.6913295497
 20
3.5855786051
 40
0.125
100
AcDbArc
 50
182.150412267
 51
217.4382101819
  0
ARC
  5
4EC
100
AcDbEntity
  8
0
100
AcDbCircle
 62
7
  6
CONTINUOUS
 10
6.8922291018
 20
3.9092178482
 40
0.125
100
AcDbArc
 50
271.4458365488
 51
326.3876254015
  0
ARC
  5
4ED
100
AcDbEntity
  8
0
100
AcDbCircle
 62
7
  6
CONTINUOUS
 10
7.5837354528
 20
3.9092178482
 40
0.125
100
AcDbArc
 50
213.6123745985
 51
268.5541634512
  0
ARC
  5
4EE
100
AcDbEntity
  8
0
100
AcDbCircle
 62
7
  6
CONTINUOUS
 10
5.7012198063
 20
3.053701582
 40
0.043012471
100
AcDbArc
 50
0.0
 51
55.661576622
  0
ARC
  5
4EF
100
AcDbEntity
  8
0
100
AcDbCircle
 62
7
  6
CONTINUOUS
 10
7.6542322773
 20
3.1192178482
 40
0.035
100
AcDbArc
 50
197.4576031237
 51
268.1399385416
  0
ARC
  5
4F0
100
AcDbEntity
  8
0
100
AcDbCircle
 62
7
  6
CONTINUOUS
 10
6.8217322773
 20
3.1192178482
 40
0.035
100
AcDbArc
 50
271.8600614584
 51
342.5423968763
  0
ARC
  5
4F1
100
AcDbEntity
  8
0
100
AcDbCircle
 62
7
  6
CONTINUOUS
 10
5.4929822773
 20
3.2692178482
 40
0.02
100
AcDbArc
 50
270.0
 51
360.0
  0
ARC
  5
4F2
100
AcDbEntity
  8
0
100
AcDbCircle
 62
7
  6
CONTINUOUS
 10
5.4929822773
 20
3.3492178482
 40
0.02
100
AcDbArc
 50
0.0
 51
90.0
  0
ARC
  5
4F3
100
AcDbEntity
  8
0
100
AcDbCircle
 62
7
  6
CONTINUOUS
 10
7.6065353172
 20
3.1042178482
 40
0.015
100
AcDbArc
 50
17.4576031237
 51
90.0
  0
ARC
  5
4F4
100
AcDbEntity
  8
0
100
AcDbCircle
 62
7
  6
CONTINUOUS
 10
6.8694292374
 20
3.1042178482
 40
0.015
100
AcDbArc
 50
90.0
 51
162.5423968763
  0
ARC
  5
4F5
100
AcDbEntity
  8
0
100
AcDbCircle
 62
7
  6
CONTINUOUS
 10
7.4229822773
 20
3.9067178482
 40
0.015
100
AcDbArc
 50
0.0
 51
90.0
  0
ARC
  5
4F6
100
AcDbEntity
  8
0
100
AcDbCircle
 62
7
  6
CONTINUOUS
 10
7.0529822773
 20
3.9067178482
 40
0.015
100
AcDbArc
 50
90.0
 51
180.0
  0
ARC
  5
4F7
100
AcDbEntity
  8
0
100
AcDbCircle
 62
7
  6
CONTINUOUS
 10
7.0229822773
 20
3.8617178482
 40
0.015
100
AcDbArc
 50
270.0
 51
360.0
  0
ARC
  5
4F8
100
AcDbEntity
  8
0
100
AcDbCircle
 62
7
  6
CONTINUOUS
 10
7.4529822773
 20
3.8617178482
 40
0.015
100
AcDbArc
 50
180.0
 51
270.0
  0
ARC
  5
4F9
100
AcDbEntity
  8
0
100
AcDbCircle
 62
7
  6
CONTINUOUS
 10
7.4671432146
 20
3.8317178482
 40
0.015
100
AcDbArc
 50
33.6123745985
 51
90.0
  0
ARC
  5
4FA
100
AcDbEntity
  8
0
100
AcDbCircle
 62
7
  6
CONTINUOUS
 10
7.00882134
 20
3.8317178482
 40
0.015
100
AcDbArc
 50
90.0
 51
146.3876254015
  0
ARC
  5
4FB
100
AcDbEntity
  8
0
100
AcDbCircle
 62
7
  6
CONTINUOUS
 10
5.4470664697
 20
3.2992178482
 40
0.005
100
AcDbArc
 50
24.2209431095
 51
90.0
  0
ARC
  5
4FC
100
AcDbEntity
  8
0
100
AcDbCircle
 62
7
  6
CONTINUOUS
 10
6.818647628
 20
4.243012514
 40
1.3946442929
100
AcDbArc
 50
138.7143381572
 51
141.1191717064
  0
ARC
  5
4FD
100
AcDbEntity
  8
0
100
AcDbCircle
 62
7
  6
CONTINUOUS
 10
7.4129822773
 20
4.1197178482
 40
0.2725
100
AcDbArc
 50
90.0
 51
180.0
  0
ARC
  5
4FE
100
AcDbEntity
  8
0
100
AcDbCircle
 62
7
  6
CONTINUOUS
 10
7.4129822773
 20
4.1197178482
 40
0.0775
100
AcDbArc
 50
90.0
 51
180.0
  0
ARC
  5
4FF
100
AcDbEntity
  8
0
100
AcDbCircle
 62
7
  6
CONTINUOUS
 10
5.7017322773
 20
5.4682178482
 40
0.075
100
AcDbArc
 50
65.3756816478
 51
90.0
  0
ARC
  5
500
100
AcDbEntity
  8
0
100
AcDbCircle
 62
7
  6
CONTINUOUS
 10
5.5429822773
 20
4.700634422
 40
0.075
100
AcDbArc
 50
330.0735651334
 51
360.0
  0
ARC
  5
501
100
AcDbEntity
  8
0
100
AcDbCircle
 62
7
  6
CONTINUOUS
 10
5.6679822773
 20
4.9803482326
 40
0.05
100
AcDbArc
 50
135.6687919529
 51
180.0
  0
ARC
  5
502
100
AcDbEntity
  8
0
100
AcDbCircle
 62
7
  6
CONTINUOUS
 10
7.5904822773
 20
4.4495246664
 40
0.0378068182
100
AcDbArc
 50
270.0
 51
352.6955544394
  0
ARC
  5
503
100
AcDbEntity
  8
0
100
AcDbCircle
 62
7
  6
CONTINUOUS
 10
7.5904822773
 20
4.13991103
 40
0.0378068182
100
AcDbArc
 50
7.3044455606
 51
90.0
  0
ARC
  5
504
100
AcDbEntity
  8
0
100
AcDbCircle
 62
7
  6
CONTINUOUS
 10
7.6592322773
 20
4.4447178482
 40
0.03125
100
AcDbArc
 50
0.0
 51
180.0
  0
ARC
  5
505
100
AcDbEntity
  8
0
100
AcDbCircle
 62
7
  6
CONTINUOUS
 10
7.6592322773
 20
4.1447178482
 40
0.03125
100
AcDbArc
 50
180.0
 51
360.0
  0
ARC
  5
506
100
AcDbEntity
  8
0
100
AcDbCircle
 62
7
  6
CONTINUOUS
 10
7.0842322773
 20
4.0672178482
 40
0.03
100
AcDbArc
 50
90.0
 51
262.8192442185
  0
ARC
  5
507
100
AcDbEntity
  8
0
100
AcDbCircle
 62
7
  6
CONTINUOUS
 10
7.3917322773
 20
4.0672178482
 40
0.03
100
AcDbArc
 50
277.1807557815
 51
90.0
  0
ARC
  5
508
100
AcDbEntity
  8
0
100
AcDbCircle
 62
7
  6
CONTINUOUS
 10
9.0104822773
 20
4.4559678482
 40
0.03
100
AcDbArc
 50
0.0
 51
180.0
  0
ARC
  5
509
100
AcDbEntity
  8
0
100
AcDbCircle
 62
7
  6
CONTINUOUS
 10
9.0104822773
 20
4.1334678482
 40
0.03
100
AcDbArc
 50
180.0
 51
360.0
  0
ARC
  5
50A
100
AcDbEntity
  8
0
100
AcDbCircle
 62
7
  6
CONTINUOUS
 10
5.6904056012
 20
5.5582945243
 40
0.0150766761
100
AcDbArc
 50
270.0
 51
81.821031102
  0
ARC
  5
50B
100
AcDbEntity
  8
0
100
AcDbCircle
 62
7
  6
CONTINUOUS
 10
7.0792322773
 20
4.0275315785
 40
0.01
100
AcDbArc
 50
0.0
 51
82.8192442186
  0
ARC
  5
50C
100
AcDbEntity
  8
0
100
AcDbCircle
 62
7
  6
CONTINUOUS
 10
7.3967322773
 20
4.0275315785
 40
0.01
100
AcDbArc
 50
97.1807557814
 51
180.0
  0
ARC
  5
50D
100
AcDbEntity
  8
0
100
AcDbCircle
 62
7
  6
CONTINUOUS
 10
7.3454822773
 20
4.1072178482
 40
0.01
100
AcDbArc
 50
180.0
 51
270.0
  0
ARC
  5
50E
100
AcDbEntity
  8
0
100
AcDbCircle
 62
7
  6
CONTINUOUS
 10
7.1304822773
 20
4.1072178482
 40
0.01
100
AcDbArc
 50
270.0
 51
360.0
  0
SPLINE
  5
50F
100
AcDbEntity
  8
0
100
AcDbSpline
 62
7
  6
CONTINUOUS
 70
0
 71
3
 72
18
 73
14
 74
0
 42
0.0000001
 43
0.0000001
 44
0.0000000001
 40
0.0
 40
0.0
 40
0.0
 40
0.0
 40
0.0696429106
 40
0.1577161853
 40
0.2810396597
 40
0.3548724046
 40
0.4356059081
 40
0.5220594446
 40
0.6129821114
 40
0.707190239
 40
0.8036504004
 40
0.901495885
 40
1.0
 40
1.0
 40
1.0
 40
1.0
 10
4.7429822773
 20
5.5363972989
 30
0.0
 10
4.741326721
 20
5.5354772502
 30
0.0
 10
4.7376772022
 20
5.5332201071
 30
0.0
 10
4.7316022482
 20
5.5285663879
 30
0.0
 10
4.7260637096
 20
5.5231023328
 30
0.0
 10
4.7212878691
 20
5.5172434204
 30
0.0
 10
4.7175751792
 20
5.5118369591
 30
0.0
 10
4.7141139552
 20
5.5057252047
 30
0.0
 10
4.711062774
 20
5.4989931214
 30
0.0
 10
4.7085554188
 20
5.491750889
 30
0.0
 10
4.7066943288
 20
5.4841216345
 30
0.0
 10
4.7055503937
 20
5.4762347786
 30
0.0
 10
4.7052934752
 20
5.4708949344
 30
0.0
 10
4.7052934752
 20
5.4682178482
 30
0.0
  0
LINE
  5
510
100
AcDbEntity
  8
0
100
AcDbLine
 62
7
  6
CONTINUOUS
 10
4.9187182087
 20
5.501480743
 11
4.9182977555
 21
5.4682178482
  0
SPLINE
  5
511
100
AcDbEntity
  8
0
100
AcDbSpline
 62
7
  6
CONTINUOUS
 70
0
 71
3
 72
9
 73
5
 74
0
 42
0.0000001
 43
0.0000001
 44
0.0000000001
 40
0.0
 40
0.0
 40
0.0
 40
0.0
 40
0.2458700544
 40
1.0
 40
1.0
 40
1.0
 40
1.0
 10
5.5572463366
 20
5.1552544533
 30
0.0
 10
5.5572463439
 20
5.1559081783
 30
0.0
 10
5.5572834738
 20
5.1585669432
 30
0.0
 10
5.557462979
 20
5.1612231362
 30
0.0
 10
5.557666799
 20
5.1632178482
 30
0.0
  0
SPLINE
  5
512
100
AcDbEntity
  8
0
100
AcDbSpline
 62
7
  6
CONTINUOUS
 70
0
 71
3
 72
18
 73
14
 74
0
 42
0.0000001
 43
0.0000001
 44
0.0000000001
 40
0.0
 40
0.0
 40
0.0
 40
0.0
 40
0.0985042217
 40
0.1963497937
 40
0.2928100512
 40
0.3870182681
 40
0.477941016
 40
0.5643946005
 40
0.6451281685
 40
0.7189609019
 40
0.8422843426
 40
0.9303573907
 40
1.0
 40
1.0
 40
1.0
 40
1.0
 10
5.7706710794
 20
5.4682178482
 30
0.0
 10
5.7706710794
 20
5.4708949373
 30
0.0
 10
5.7704141605
 20
5.4762347869
 30
0.0
 10
5.7692702222
 20
5.4841216501
 30
0.0
 10
5.7674091303
 20
5.4917509119
 30
0.0
 10
5.7649017678
 20
5.4989931494
 30
0.0
 10
5.7618505848
 20
5.5057252385
 30
0.0
 10
5.7583893513
 20
5.5118369935
 30
0.0
 10
5.7546766602
 20
5.5172434573
 30
0.0
 10
5.7499008131
 20
5.5231023652
 30
0.0
 10
5.7443622784
 20
5.5285664135
 30
0.0
 10
5.7382873326
 20
5.5332201181
 30
0.0
 10
5.7346378258
 20
5.5354772532
 30
0.0
 10
5.7329822773
 20
5.5363972989
 30
0.0
  0
LINE
  5
513
100
AcDbEntity
  8
0
100
AcDbLine
 62
7
  6
CONTINUOUS
 10
5.557666799
 20
5.4682178482
 11
5.5572463458
 21
5.501480743
  0
SPLINE
  5
514
100
AcDbEntity
  8
0
100
AcDbSpline
 62
7
  6
CONTINUOUS
 70
0
 71
3
 72
9
 73
5
 74
0
 42
0.0000001
 43
0.0000001
 44
0.0000000001
 40
0.0
 40
0.0
 40
0.0
 40
0.0
 40
0.2541833194
 40
1.0
 40
1.0
 40
1.0
 40
1.0
 10
4.9182977555
 20
5.1632178482
 30
0.0
 10
4.9183664533
 20
5.1625455285
 30
0.0
 10
4.9186059712
 20
5.1598975344
 30
0.0
 10
4.9187181959
 20
5.1572374241
 30
0.0
 10
4.918718218
 20
5.1552544533
 30
0.0
  0
SPLINE
  5
515
100
AcDbEntity
  8
0
100
AcDbSpline
 62
7
  6
CONTINUOUS
 70
0
 71
3
 72
37
 73
33
 74
0
 42
0.0000001
 43
0.0000001
 44
0.0000000001
 40
0.0
 40
0.0
 40
0.0
 40
0.0
 40
0.0254762568
 40
0.0503657052
 40
0.0746793001
 40
0.098440881
 40
0.1216928561
 40
0.144502872
 40
0.1669724014
 40
0.1892449606
 40
0.2115125593
 40
0.2340170871
 40
0.2570425942
 40
0.2808962463
 40
0.3058789024
 40
0.332250878
 40
0.3602018127
 40
0.3898319716
 40
0.4211493207
 40
0.4540810842
 40
0.4884945069
 40
0.5242208749
 40
0.5610767714
 40
0.5988801956
 40
0.6374609433
 40
0.6766657968
 40
0.7163603511
 40
0.7564284492
 40
0.7967703728
 40
0.8373013063
 40
0.9186456607
 40
1.0
 40
1.0
 40
1.0
 40
1.0
 10
4.918718218
 20
5.1552544533
 30
0.0
 10
4.9187182322
 20
5.1539728866
 30
0.0
 10
4.9186489678
 20
5.1514385649
 30
0.0
 10
4.9183183736
 20
5.1476939881
 30
0.0
 10
4.9177506154
 20
5.1440646183
 30
0.0
 10
4.9169329637
 20
5.1405671834
 30
0.0
 10
4.9158514281
 20
5.1372207066
 30
0.0
 10
4.9144909463
 20
5.1340471514
 30
0.0
 10
4.9128357604
 20
5.1310718019
 30
0.0
 10
4.9108701014
 20
5.1283236973
 30
0.0
 10
4.9085795008
 20
5.1258357947
 30
0.0
 10
4.9059527693
 20
5.1236444458
 30
0.0
 10
4.9029843415
 20
5.1217877511
 30
0.0
 10
4.8996763412
 20
5.1203027096
 30
0.0
 10
4.8960397185
 20
5.1192217248
 30
0.0
 10
4.8920942939
 20
5.1185693925
 30
0.0
 10
4.8878679824
 20
5.1183602124
 30
0.0
 10
4.8833953786
 20
5.118597418
 30
0.0
 10
4.8787157339
 20
5.1192729757
 30
0.0
 10
4.8738704417
 20
5.120368709
 30
0.0
 10
4.8689004006
 20
5.1218584033
 30
0.0
 10
4.8638437557
 20
5.1237104546
 30
0.0
 10
4.8587343433
 20
5.1258905493
 30
0.0
 10
4.8536009422
 20
5.128363958
 30
0.0
 10
4.8484672033
 20
5.1310972256
 30
0.0
 10
4.843352041
 20
5.1340592433
 30
0.0
 10
4.8382702775
 20
5.1372217945
 30
0.0
 10
4.8332333798
 20
5.1405597143
 30
0.0
 10
4.8282500605
 20
5.1440507736
 30
0.0
 10
4.8216784067
 20
5.1488894663
 30
0.0
 10
4.8136444146
 20
5.1552165649
 30
0.0
 10
4.8074057028
 20
5.1605169206
 30
0.0
 10
4.8043310706
 20
5.1632178482
 30
0.0
  0
SPLINE
  5
516
100
AcDbEntity
  8
0
100
AcDbSpline
 62
7
  6
CONTINUOUS
 70
0
 71
3
 72
37
 73
33
 74
0
 42
0.0000001
 43
0.0000001
 44
0.0000000001
 40
0.0
 40
0.0
 40
0.0
 40
0.0
 40
0.0813543392
 40
0.1626986937
 40
0.2032296273
 40
0.2435715508
 40
0.2836396491
 40
0.3233342032
 40
0.3625390566
 40
0.4011198042
 40
0.4389232281
 40
0.4757791243
 40
0.5115054922
 40
0.5459189147
 40
0.5788506781
 40
0.6101680273
 40
0.6397981861
 40
0.6677491215
 40
0.694121097
 40
0.7191037532
 40
0.7429574055
 40
0.7659829122
 40
0.7884874401
 40
0.8107550387
 40
0.8330275975
 40
0.855497127
 40
0.8783071431
 40
0.901559118
 40
0.9253206991
 40
0.9496342942
 40
0.9745237428
 40
1.0
 40
1.0
 40
1.0
 40
1.0
 10
5.671633484
 20
5.1632178482
 30
0.0
 10
5.6685588518
 20
5.1605169206
 30
0.0
 10
5.66232014
 20
5.1552165649
 30
0.0
 10
5.6542861479
 20
5.1488894663
 30
0.0
 10
5.647714494
 20
5.1440507736
 30
0.0
 10
5.6427311748
 20
5.1405597143
 30
0.0
 10
5.6376942771
 20
5.1372217945
 30
0.0
 10
5.6326125136
 20
5.1340592433
 30
0.0
 10
5.6274973513
 20
5.1310972256
 30
0.0
 10
5.6223636124
 20
5.128363958
 30
0.0
 10
5.6172302113
 20
5.1258905493
 30
0.0
 10
5.612120799
 20
5.1237104546
 30
0.0
 10
5.6070641541
 20
5.1218584034
 30
0.0
 10
5.602094113
 20
5.1203687091
 30
0.0
 10
5.5972488209
 20
5.1192729757
 30
0.0
 10
5.5925691762
 20
5.118597418
 30
0.0
 10
5.5880965723
 20
5.1183602124
 30
0.0
 10
5.5838702608
 20
5.1185693925
 30
0.0
 10
5.5799248361
 20
5.1192217248
 30
0.0
 10
5.5762882135
 20
5.1203027096
 30
0.0
 10
5.5729802132
 20
5.121787751
 30
0.0
 10
5.5700117854
 20
5.1236444457
 30
0.0
 10
5.5673850538
 20
5.1258357946
 30
0.0
 10
5.5650944532
 20
5.1283236972
 30
0.0
 10
5.5631287942
 20
5.1310718018
 30
0.0
 10
5.5614736083
 20
5.1340471513
 30
0.0
 10
5.5601131265
 20
5.1372207064
 30
0.0
 10
5.5590315909
 20
5.1405671833
 30
0.0
 10
5.5582139393
 20
5.1440646182
 30
0.0
 10
5.557646181
 20
5.147693988
 30
0.0
 10
5.5573155868
 20
5.1514385649
 30
0.0
 10
5.5572463223
 20
5.1539728866
 30
0.0
 10
5.5572463366
 20
5.1552544533
 30
0.0
  0
SPLINE
  5
517
100
AcDbEntity
  8
0
100
AcDbSpline
 62
7
  6
CONTINUOUS
 70
0
 71
3
 72
54
 73
50
 74
0
 42
0.0000001
 43
0.0000001
 44
0.0000000001
 40
0.0
 40
0.0
 40
0.0
 40
0.0
 40
0.0394371268
 40
0.0591614821
 40
0.0788848063
 40
0.1183153699
 40
0.1577460855
 40
0.177470604
 40
0.1971961219
 40
0.2169217613
 40
0.2366450953
 40
0.2760516763
 40
0.3153715171
 40
0.3545026671
 40
0.393301929
 40
0.4315945786
 40
0.4691892963
 40
0.5058923687
 40
0.541517524
 40
0.5758912507
 40
0.608854173
 40
0.6402613574
 40
0.6699831324
 40
0.697908646
 40
0.7239543174
 40
0.7362592612
 40
0.7480845525
 40
0.7594367634
 40
0.7703301912
 40
0.7807881785
 40
0.7908459703
 40
0.8005526111
 40
0.8099733468
 40
0.8191907682
 40
0.8283042458
 40
0.8374276093
 40
0.8466836467
 40
0.8561973647
 40
0.8660883077
 40
0.8764637141
 40
0.8874134049
 40
0.8990076956
 40
0.9112951456
 40
0.9243048255
 40
0.938046414
 40
0.9525130358
 40
0.9676841448
 40
0.9835269364
 40
1.0
 40
1.0
 40
1.0
 40
1.0
 10
4.8043310706
 20
5.4682178482
 30
0.0
 10
4.8043310706
 20
5.4705330169
 30
0.0
 10
4.8045188258
 20
5.4740099526
 30
0.0
 10
4.8051431955
 20
5.4786002673
 30
0.0
 10
4.8060160059
 20
5.4831499594
 30
0.0
 10
4.8075713693
 20
5.488737268
 30
0.0
 10
4.8097348703
 20
5.4941189871
 30
0.0
 10
4.8118168701
 20
5.498257545
 30
0.0
 10
4.8135503068
 20
5.501270255
 30
0.0
 10
4.8154499297
 20
5.5041809541
 30
0.0
 10
4.8181936597
 20
5.5079119433
 30
0.0
 10
4.8220016502
 20
5.5122765286
 30
0.0
 10
4.8270957008
 20
5.5169771565
 30
0.0
 10
4.832616481
 20
5.5211073183
 30
0.0
 10
4.838454522
 20
5.5246570391
 30
0.0
 10
4.8444983629
 20
5.5276413653
 30
0.0
 10
4.8506422923
 20
5.5300949161
 30
0.0
 10
4.8567920703
 20
5.5320652114
 30
0.0
 10
4.8628674055
 20
5.5336052711
 30
0.0
 10
4.8688018446
 20
5.5347672377
 30
0.0
 10
4.874541093
 20
5.53559751
 30
0.0
 10
4.8800406564
 20
5.536133403
 30
0.0
 10
4.8852637113
 20
5.5364010854
 30
0.0
 10
4.8901789063
 20
5.5364142112
 30
0.0
 10
4.8940670435
 20
5.5362101336
 30
0.0
 10
4.8969973437
 20
5.5359047112
 30
0.0
 10
4.8990599378
 20
5.5356096912
 30
0.0
 10
4.9010265501
 20
5.535241128
 30
0.0
 10
4.9028946403
 20
5.5347943734
 30
0.0
 10
4.9046619182
 20
5.5342644791
 30
0.0
 10
4.9063261537
 20
5.533645481
 30
0.0
 10
4.9078853287
 20
5.5329310457
 30
0.0
 10
4.9093374404
 20
5.5321142037
 30
0.0
 10
4.9106806632
 20
5.5311879475
 30
0.0
 10
4.9119132076
 20
5.5301452149
 30
0.0
 10
4.9130338763
 20
5.5289797065
 30
0.0
 10
4.9140419377
 20
5.5276856316
 30
0.0
 10
4.914938118
 20
5.5262584204
 30
0.0
 10
4.9157241493
 20
5.5246941446
 30
0.0
 10
4.9164032966
 20
5.5229899123
 30
0.0
 10
4.9169800436
 20
5.5211437294
 30
0.0
 10
4.9174596896
 20
5.5191546916
 30
0.0
 10
4.9178488462
 20
5.5170232601
 30
0.0
 10
4.9181545297
 20
5.5147512653
 30
0.0
 10
4.9183847337
 20
5.5123420488
 30
0.0
 10
4.9185478619
 20
5.5098003556
 30
0.0
 10
4.9186526911
 20
5.5071322532
 30
0.0
 10
4.9187082513
 20
5.504344942
 30
0.0
 10
4.9187182108
 20
5.5024477993
 30
0.0
 10
4.9187182087
 20
5.501480743
 30
0.0
  0
SPLINE
  5
518
100
AcDbEntity
  8
0
100
AcDbSpline
 62
7
  6
CONTINUOUS
 70
0
 71
3
 72
54
 73
50
 74
0
 42
0.0000001
 43
0.0000001
 44
0.0000000001
 40
0.0
 40
0.0
 40
0.0
 40
0.0
 40
0.0164730636
 40
0.032315855
 40
0.0474869639
 40
0.0619535858
 40
0.0756951744
 40
0.0887048544
 40
0.1009923045
 40
0.1125865954
 40
0.1235362863
 40
0.1339116928
 40
0.1438026358
 40
0.153316354
 40
0.1625723916
 40
0.1716957552
 40
0.1808092327
 40
0.1900266541
 40
0.1994473897
 40
0.2091540305
 40
0.2192118222
 40
0.2296698095
 40
0.2405632372
 40
0.2519154481
 40
0.2637407395
 40
0.2760456834
 40
0.3020913548
 40
0.3300168686
 40
0.3597386437
 40
0.3911458277
 40
0.4241087504
 40
0.4584824772
 40
0.4941076331
 40
0.5308107061
 40
0.5684054233
 40
0.6066980723
 40
0.6454973339
 40
0.6846284835
 40
0.7239483241
 40
0.7633549051
 40
0.7830782391
 40
0.8028038785
 40
0.8225293964
 40
0.8422539148
 40
0.8816846303
 40
0.9211151939
 40
0.9408385181
 40
0.9605628733
 40
1.0
 40
1.0
 40
1.0
 40
1.0
 10
5.5572463458
 20
5.501480743
 30
0.0
 10
5.5572463438
 20
5.5024477993
 30
0.0
 10
5.5572563033
 20
5.504344942
 30
0.0
 10
5.5573118635
 20
5.5071322532
 30
0.0
 10
5.5574166927
 20
5.5098003555
 30
0.0
 10
5.5575798209
 20
5.5123420488
 30
0.0
 10
5.5578100249
 20
5.5147512653
 30
0.0
 10
5.5581157084
 20
5.5170232601
 30
0.0
 10
5.558504865
 20
5.5191546917
 30
0.0
 10
5.558984511
 20
5.5211437295
 30
0.0
 10
5.559561258
 20
5.5229899123
 30
0.0
 10
5.5602404053
 20
5.5246941447
 30
0.0
 10
5.5610264367
 20
5.5262584204
 30
0.0
 10
5.5619226169
 20
5.5276856317
 30
0.0
 10
5.5629306783
 20
5.5289797066
 30
0.0
 10
5.5640513471
 20
5.530145215
 30
0.0
 10
5.5652838915
 20
5.5311879476
 30
0.0
 10
5.5666271143
 20
5.5321142038
 30
0.0
 10
5.568079226
 20
5.5329310457
 30
0.0
 10
5.569638401
 20
5.5336454811
 30
0.0
 10
5.5713026365
 20
5.5342644792
 30
0.0
 10
5.5730699144
 20
5.5347943734
 30
0.0
 10
5.5749380046
 20
5.535241128
 30
0.0
 10
5.5769046169
 20
5.5356096912
 30
0.0
 10
5.578967211
 20
5.5359047112
 30
0.0
 10
5.5818975112
 20
5.5362101336
 30
0.0
 10
5.5857856484
 20
5.5364142112
 30
0.0
 10
5.5907008435
 20
5.5364010854
 30
0.0
 10
5.5959238983
 20
5.5361334029
 30
0.0
 10
5.6014234617
 20
5.53559751
 30
0.0
 10
5.6071627102
 20
5.5347672377
 30
0.0
 10
5.6130971493
 20
5.533605271
 30
0.0
 10
5.6191724845
 20
5.5320652113
 30
0.0
 10
5.6253222627
 20
5.530094916
 30
0.0
 10
5.6314661919
 20
5.5276413651
 30
0.0
 10
5.6375100328
 20
5.524657039
 30
0.0
 10
5.6433480737
 20
5.5211073182
 30
0.0
 10
5.6488688538
 20
5.5169771564
 30
0.0
 10
5.6539629045
 20
5.5122765285
 30
0.0
 10
5.6577708949
 20
5.5079119432
 30
0.0
 10
5.6605146249
 20
5.504180954
 30
0.0
 10
5.6624142478
 20
5.5012702549
 30
0.0
 10
5.6641476845
 20
5.4982575449
 30
0.0
 10
5.6662296843
 20
5.494118987
 30
0.0
 10
5.6683931853
 20
5.488737268
 30
0.0
 10
5.6699485487
 20
5.4831499594
 30
0.0
 10
5.6708213591
 20
5.4786002673
 30
0.0
 10
5.6714457288
 20
5.4740099526
 30
0.0
 10
5.671633484
 20
5.4705330169
 30
0.0
 10
5.671633484
 20
5.4682178482
 30
0.0
  0
SPLINE
  5
519
100
AcDbEntity
  8
0
100
AcDbSpline
 62
7
  6
CONTINUOUS
 70
0
 71
3
 72
31
 73
27
 74
0
 42
0.0000001
 43
0.0000001
 44
0.0000000001
 40
0.0
 40
0.0
 40
0.0
 40
0.0
 40
0.0564411323
 40
0.1144464282
 40
0.1741672494
 40
0.2357471009
 40
0.2672817575
 40
0.2993113247
 40
0.3318265876
 40
0.3648018144
 40
0.3981900811
 40
0.4319201199
 40
0.4658957189
 40
0.5000000031
 40
0.5341043102
 40
0.5680798851
 40
0.6018099189
 40
0.6351981845
 40
0.6681733874
 40
0.7006886567
 40
0.7327182177
 40
0.7642528694
 40
0.8258327307
 40
0.8855535561
 40
0.9435588596
 40
1.0
 40
1.0
 40
1.0
 40
1.0
 10
5.1573956616
 20
5.1632178482
 30
0.0
 10
5.1595226467
 20
5.1603148709
 30
0.0
 10
5.1640859787
 20
5.1546071405
 30
0.0
 10
5.1717663584
 20
5.1465654954
 30
0.0
 10
5.1804224278
 20
5.1390690016
 30
0.0
 10
5.188426611
 20
5.1334730242
 30
0.0
 10
5.1953354858
 20
5.1294727967
 30
0.0
 10
5.200816567
 20
5.1267272233
 30
0.0
 10
5.206546267
 20
5.1243003728
 30
0.0
 10
5.2125080203
 20
5.1222341249
 30
0.0
 10
5.2186752472
 20
5.1205706825
 30
0.0
 10
5.2250104395
 20
5.1193492202
 30
0.0
 10
5.2314652073
 20
5.1186020112
 30
0.0
 10
5.2379822793
 20
5.1183504417
 30
0.0
 10
5.2444993498
 20
5.118602012
 30
0.0
 10
5.2509541172
 20
5.1193492203
 30
0.0
 10
5.2572893075
 20
5.1205706827
 30
0.0
 10
5.2634565327
 20
5.1222341243
 30
0.0
 10
5.2694182848
 20
5.124300372
 30
0.0
 10
5.2751479837
 20
5.1267272214
 30
0.0
 10
5.2806290647
 20
5.1294727946
 30
0.0
 10
5.2875379396
 20
5.1334730215
 30
0.0
 10
5.2955421235
 20
5.1390689991
 30
0.0
 10
5.3041981943
 20
5.1465654933
 30
0.0
 10
5.3118785749
 20
5.1546071394
 30
0.0
 10
5.3164419076
 20
5.1603148704
 30
0.0
 10
5.318568893
 20
5.1632178482
 30
0.0
  0
SPLINE
  5
51A
100
AcDbEntity
  8
0
100
AcDbSpline
 62
7
  6
CONTINUOUS
 70
0
 71
3
 72
49
 73
45
 74
0
 42
0.0000001
 43
0.0000001
 44
0.0000000001
 40
0.0
 40
0.0
 40
0.0
 40
0.0
 40
0.0330602445
 40
0.0658198454
 40
0.0980143513
 40
0.1294503404
 40
0.1600510033
 40
0.1750638705
 40
0.1899102506
 40
0.204624847
 40
0.2192499327
 40
0.2338326359
 40
0.2484217198
 40
0.2630640012
 40
0.2778012643
 40
0.2926682659
 40
0.3076912766
 40
0.3382566376
 40
0.3695529964
 40
0.4015200562
 40
0.4340305288
 40
0.46691883
 40
0.4999999924
 40
0.5330811547
 40
0.5659694566
 40
0.598479929
 40
0.6304469888
 40
0.6617433484
 40
0.6923087133
 40
0.7073317255
 40
0.7221987285
 40
0.7369359934
 40
0.7515782764
 40
0.7661673609
 40
0.7807500644
 40
0.7953751509
 40
0.8100897481
 40
0.8249361286
 40
0.839948996
 40
0.8705496599
 40
0.901985649
 40
0.9341801549
 40
0.9669397557
 40
1.0
 40
1.0
 40
1.0
 40
1.0
 10
5.1573956616
 20
5.4682178482
 30
0.0
 10
5.1573956616
 20
5.4708940344
 30
0.0
 10
5.1576085201
 20
5.4762246518
 30
0.0
 10
5.158576476
 20
5.4841086961
 30
0.0
 10
5.1602169015
 20
5.4917490936
 30
0.0
 10
5.1625646839
 20
5.4990215467
 30
0.0
 10
5.1651607305
 20
5.5047121544
 30
0.0
 10
5.1676241181
 20
5.5089449483
 30
0.0
 10
5.1696513491
 20
5.5119335232
 30
0.0
 10
5.1718680497
 20
5.5147446079
 30
0.0
 10
5.1742706615
 20
5.5173698406
 30
0.0
 10
5.1768533803
 20
5.5198032677
 30
0.0
 10
5.1796081773
 20
5.5220420432
 30
0.0
 10
5.1825253778
 20
5.5240861847
 30
0.0
 10
5.1855940019
 20
5.5259384314
 30
0.0
 10
5.1888021294
 20
5.5276043396
 30
0.0
 10
5.1932740425
 20
5.5295980387
 30
0.0
 10
5.1991589136
 20
5.5316590488
 30
0.0
 10
5.2065313743
 20
5.5335174411
 30
0.0
 10
5.2141724108
 20
5.5348618026
 30
0.0
 10
5.2220058562
 20
5.5357655462
 30
0.0
 10
5.2299636185
 20
5.5362846829
 30
0.0
 10
5.2379822754
 20
5.5364538179
 30
0.0
 10
5.2460009324
 20
5.536284683
 30
0.0
 10
5.2539586947
 20
5.5357655465
 30
0.0
 10
5.2617921402
 20
5.5348618032
 30
0.0
 10
5.2694331769
 20
5.5335174418
 30
0.0
 10
5.276805638
 20
5.5316590498
 30
0.0
 10
5.2826905096
 20
5.5295980397
 30
0.0
 10
5.2871624234
 20
5.5276043406
 30
0.0
 10
5.2903705511
 20
5.5259384322
 30
0.0
 10
5.2934391757
 20
5.5240861854
 30
0.0
 10
5.2963563765
 20
5.5220420438
 30
0.0
 10
5.2991111737
 20
5.5198032682
 30
0.0
 10
5.3016938926
 20
5.5173698411
 30
0.0
 10
5.3040965046
 20
5.5147446083
 30
0.0
 10
5.3063132053
 20
5.5119335235
 30
0.0
 10
5.3083404364
 20
5.5089449485
 30
0.0
 10
5.310803824
 20
5.5047121545
 30
0.0
 10
5.3133998706
 20
5.4990215467
 30
0.0
 10
5.3157476531
 20
5.4917490935
 30
0.0
 10
5.3173880786
 20
5.484108696
 30
0.0
 10
5.3183560345
 20
5.4762246518
 30
0.0
 10
5.318568893
 20
5.4708940343
 30
0.0
 10
5.318568893
 20
5.4682178482
 30
0.0
  0
ENDSEC
  0
SECTION
  2
OBJECTS
  0
DICTIONARY
  5
C
100
AcDbDictionary
280
0
281
1
  3
ACAD_GROUP
350
D
  3
ACAD_MLINESTYLE
350
17
  3
ACAD_LAYOUT
350
1A
  3
ACAD_PLOTSETTINGS
350
19
  3
ACAD_PLOTSTYLENAME
350
E
  0
DICTIONARY
  5
D
102
{ACAD_REACTORS
330
C
102
}
100
AcDbDictionary
280
0
281
1
  0
ACDBDICTIONARYWDFLT
  5
E
102
{ACAD_REACTORS
330
C
102
}
100
AcDbDictionary
281
1
  3
Normal
350
F
100
AcDbDictionaryWithDefault
340
F
  0
DICTIONARY
  5
17
102
{ACAD_REACTORS
330
C
102
}
100
AcDbDictionary
280
0
281
1
  3
Standard
350
18
  0
DICTIONARY
  5
19
102
{ACAD_REACTORS
330
C
102
}
100
AcDbDictionary
281
1
  0
DICTIONARY
  5
1A
102
{ACAD_REACTORS
330
C
102
}
100
AcDbDictionary
281
1
  3
Model
350
51B
  3
Layout1
350
51C
  0
ACDBPLACEHOLDER
  5
F
102
{ACAD_REACTORS
330
E
102
}
  0
MLINESTYLE
  5
18
102
{ACAD_REACTORS
330
17
102
}
100
AcDbMlineStyle
  2
STANDARD
 70
0
  3

 62
256
 51
90.0
 52
90.0
 71
2
 49
0.5
 62
256
  6
BYLAYER
 49
-0.5
 62
256
  6
BYLAYER
  0
LAYOUT
  5
51B
102
{ACAD_REACTORS
330
1A
102
}
100
AcDbPlotSettings
  1

  2
none_device
  4
ANSI_A_(11.00_x_8.50_Inches)
  6

 40
0.0
 41
0.0
 42
0.0
 43
0.0
 44
279.4
 45
215.9
 46
0.0
 47
0.0
 48
0.0
 49
0.0
140
0.0
141
0.0
142
1.0
143
1.0
 70
1024
 72
0
 73
0
 74
0
  7

 75
0
147
1.0
148
0.0
149
0.0
100
AcDbLayout
  1
Model
 70
0
 71
0
 10
0.0
 20
0.0
 11
11.0
 21
8.5
 12
0.0
 22
0.0
 32
0.0
 14
0.0
 24
0.0
 34
0.0
 15
0.0
 25
0.0
 35
0.0
146
0.0
 13
0.0
 23
0.0
 33
0.0
 16
1.0
 26
0.0
 36
0.0
 17
0.0
 27
1.0
 37
0.0
 76
0
330
202
345
0
346
0
  0
LAYOUT
  5
51C
102
{ACAD_REACTORS
330
1A
102
}
100
AcDbPlotSettings
  1

  2
none_device
  4
ANSI_A_(11.00_x_8.50_Inches)
  6

 40
0.0
 41
0.0
 42
0.0
 43
0.0
 44
279.4
 45
215.9
 46
0.0
 47
0.0
 48
0.0
 49
0.0
140
0.0
141
0.0
142
1.0
143
1.0
 70
0
 72
0
 73
0
 74
0
  7

 75
0
147
1.0
148
0.0
149
0.0
100
AcDbLayout
  1
Layout1
 70
0
 71
1
 10
0.0
 20
0.0
 11
11.0
 21
8.5
 12
0.0
 22
0.0
 32
0.0
 14
0.0
 24
0.0
 34
0.0
 15
0.0
 25
0.0
 35
0.0
146
0.0
 13
0.0
 23
0.0
 33
0.0
 16
1.0
 26
0.0
 36
0.0
 17
0.0
 27
1.0
 37
0.0
 76
0
330
203
345
0
346
0
  0
ENDSEC
  0
EOF
