  0
SECTION
  2
HEADER
  9
$ACADVER
  1
AC1015
  9
$DWGCODEPAGE
  3
ANSI_1252
  9
$EXTMAX
 10
46.811023622
 20
33.1102362205
 30
0.0
  9
$EXTMIN
 10
0.0
 20
0.0
 30
0.0
  9
$LIMMIN
 10
0.0
 20
0.0
  9
$LIMMAX
 10
46.811023622
 20
33.1102362205
  9
$VIEWCTR
 10
23.405511811
 20
16.5551181102
  9
$VIEWSIZE
 40
33.1102362205
  9
$CLAYER
  8
0
  9
$LTSCALE
 40
2.5746062992
  9
$CELTYPE
  6
BYLAYER
  9
$DIMSCALE
 40
1.0
  9
$DIMASZ
 40
0.1875
  9
$DIMEXO
 40
0.2925688976
  9
$DIMDLI
 40
1.7788188976
  9
$DIMEXE
 40
0.8425984252
  9
$DIMCEN
 40
0.4212992126
  9
$DIMLFAC
 40
1.0
  9
$DIMBLK
  1
_CLOSED
  9
$DIMTXT
 40
0.15625
  9
$DIMTOL
 70
0
  9
$DIMLIM
 70
0
  9
$DIMTFAC
 40
1.0
  9
$PDMODE
 70
3
  9
$PDSIZE
 40
0.3125
  9
$HANDSEED
  5
347
  9
$TILEMODE
 70
1
  9
$MEASUREMENT
 70
0
  9
$INSUNITS
 70
1
  0
ENDSEC
  0
SECTION
  2
CLASSES
  0
CLASS
  1
ACDBDICTIONARYWDFLT
  2
AcDbDictionaryWithDefault
  3
AutoCAD 2000
 90
0
280
0
281
0
  0
CLASS
  1
ACDBPLACEHOLDER
  2
AcDbPlaceHolder
  3
AutoCAD 2000
 90
0
280
0
281
0
  0
CLASS
  1
LAYOUT
  2
AcDbLayout
  3
AutoCAD 2000
 90
0
280
0
281
0
  0
ENDSEC
  0
SECTION
  2
TABLES
  0
TABLE
  2
VPORT
  5
8
100
AcDbSymbolTable
 70
2
  0
VPORT
  5
1F4
100
AcDbSymbolTableRecord
100
AcDbViewportTableRecord
  2
*ACTIVE
 70
0
 10
0.0
 20
0.0
 11
1.0
 21
1.0
 12
23.405511811
 22
16.5551181102
 13
0.0
 23
0.0
 14
1.0
 24
1.0
 15
0.0
 25
0.0
 16
0.0
 26
0.0
 36
1.0
 17
0.0
 27
0.0
 37
0.0
 40
33.1102362205
 41
1.4137931034
 42
50.0
 43
0.0
 44
0.0
 50
0.0
 51
0.0
 71
0
 72
100
 73
1
 74
1
 75
0
 76
0
 77
0
 78
0
  0
ENDTAB
  0
TABLE
  2
LTYPE
  5
5
100
AcDbSymbolTable
 70
6
  0
LTYPE
  5
14
100
AcDbSymbolTableRecord
100
AcDbLinetypeTableRecord
  2
BYBLOCK
 70
0
  3

 72
65
 73
0
 40
0.0
  0
LTYPE
  5
15
100
AcDbSymbolTableRecord
100
AcDbLinetypeTableRecord
  2
BYLAYER
 70
0
  3

 72
65
 73
0
 40
0.0
  0
LTYPE
  5
16
100
AcDbSymbolTableRecord
100
AcDbLinetypeTableRecord
  2
CONTINUOUS
 70
64
  3
Solid line
 72
65
 73
0
 40
0.0
  0
LTYPE
  5
1F5
100
AcDbSymbolTableRecord
100
AcDbLinetypeTableRecord
  2
CENTER
 70
64
  3
____ _ ____ _ ____ _ ____ _ ____ _ ____ _ ____
 72
65
 73
4
 40
0.6
 49
0.375
 74
0
 49
-0.075
 74
0
 49
0.075
 74
0
 49
-0.075
 74
0
  0
LTYPE
  5
1F6
100
AcDbSymbolTableRecord
100
AcDbLinetypeTableRecord
  2
HIDDEN
 70
64
  3
- - - - - - - - - - - - - - - - - - - -
 72
65
 73
2
 40
0.2
 49
0.1
 74
0
 49
-0.1
 74
0
  0
LTYPE
  5
1F7
100
AcDbSymbolTableRecord
100
AcDbLinetypeTableRecord
  2
PHANTOM
 70
64
  3
_____ _ _ _____ _ _ _____ _ _ _____
 72
65
 73
6
 40
0.8
 49
0.45
 74
0
 49
-0.05
 74
0
 49
0.1
 74
0
 49
-0.05
 74
0
 49
0.1
 74
0
 49
-0.05
 74
0
  0
LTYPE
  5
1F8
100
AcDbSymbolTableRecord
100
AcDbLinetypeTableRecord
  2
DOT
 70
64
  3
. . . . . . . . . . . . . . . . . . . .
 72
65
 73
2
 40
0.2
 49
0.1
 74
0
 49
-0.1
 74
0
  0
LTYPE
  5
1F9
100
AcDbSymbolTableRecord
100
AcDbLinetypeTableRecord
  2
DASHED
 70
64
  3
- - - - - - - - - - - - - - - - - - - -
 72
65
 73
2
 40
0.2
 49
0.1
 74
0
 49
-0.1
 74
0
  0
ENDTAB
  0
TABLE
  2
LAYER
  5
2
100
AcDbSymbolTable
 70
36
  0
LAYER
  5
10
100
AcDbSymbolTableRecord
100
AcDbLayerTableRecord
  2
0
 70
0
 62
7
  6
CONTINUOUS
370
-3
390
F
  0
LAYER
  5
1FA
100
AcDbSymbolTableRecord
100
AcDbLayerTableRecord
  2
DEFAULT_1
 70
0
 62
7
  6
CENTER
370
-3
390
F
  0
LAYER
  5
1FB
100
AcDbSymbolTableRecord
100
AcDbLayerTableRecord
  2
DEFAULT_2
 70
0
 62
8
  6
HIDDEN
370
-3
390
F
  0
LAYER
  5
1FC
100
AcDbSymbolTableRecord
100
AcDbLayerTableRecord
  2
DEFAULT_3
 70
0
 62
7
  6
PHANTOM
370
-3
390
F
  0
LAYER
  5
1FD
100
AcDbSymbolTableRecord
100
AcDbLayerTableRecord
  2
_  SHELL
 70
0
 62
7
  6
CONTINUOUS
370
-3
390
F
  0
LAYER
  5
1FE
100
AcDbSymbolTableRecord
100
AcDbLayerTableRecord
  2
06___PRT_ALL_SURFS
 70
0
 62
7
  6
CONTINUOUS
370
-3
390
F
  0
LAYER
  5
1FF
100
AcDbSymbolTableRecord
100
AcDbLayerTableRecord
  2
06___PRT_ALL_SURFS_6
 70
0
 62
7
  6
CONTINUOUS
370
-3
390
F
  0
LAYER
  5
200
100
AcDbSymbolTableRecord
100
AcDbLayerTableRecord
  2
10136
 70
0
 62
7
  6
CONTINUOUS
370
-3
390
F
  0
LAYER
  5
201
100
AcDbSymbolTableRecord
100
AcDbLayerTableRecord
  2
10136_1
 70
0
 62
7
  6
CONTINUOUS
370
-3
390
F
  0
LAYER
  5
202
100
AcDbSymbolTableRecord
100
AcDbLayerTableRecord
  2
10136_2
 70
0
 62
7
  6
CONTINUOUS
370
-3
390
F
  0
LAYER
  5
203
100
AcDbSymbolTableRecord
100
AcDbLayerTableRecord
  2
10136_3
 70
0
 62
7
  6
CONTINUOUS
370
-3
390
F
  0
LAYER
  5
204
100
AcDbSymbolTableRecord
100
AcDbLayerTableRecord
  2
11353
 70
0
 62
7
  6
CONTINUOUS
370
-3
390
F
  0
LAYER
  5
205
100
AcDbSymbolTableRecord
100
AcDbLayerTableRecord
  2
11376
 70
0
 62
7
  6
CONTINUOUS
370
-3
390
F
  0
LAYER
  5
206
100
AcDbSymbolTableRecord
100
AcDbLayerTableRecord
  2
11376_1
 70
0
 62
7
  6
CONTINUOUS
370
-3
390
F
  0
LAYER
  5
207
100
AcDbSymbolTableRecord
100
AcDbLayerTableRecord
  2
11385
 70
0
 62
7
  6
CONTINUOUS
370
-3
390
F
  0
LAYER
  5
208
100
AcDbSymbolTableRecord
100
AcDbLayerTableRecord
  2
11385_1
 70
0
 62
7
  6
CONTINUOUS
370
-3
390
F
  0
LAYER
  5
209
100
AcDbSymbolTableRecord
100
AcDbLayerTableRecord
  2
11639
 70
0
 62
7
  6
CONTINUOUS
370
-3
390
F
  0
LAYER
  5
20A
100
AcDbSymbolTableRecord
100
AcDbLayerTableRecord
  2
11640
 70
0
 62
7
  6
CONTINUOUS
370
-3
390
F
  0
LAYER
  5
20B
100
AcDbSymbolTableRecord
100
AcDbLayerTableRecord
  2
11641
 70
0
 62
7
  6
CONTINUOUS
370
-3
390
F
  0
LAYER
  5
20C
100
AcDbSymbolTableRecord
100
AcDbLayerTableRecord
  2
11641_1
 70
0
 62
7
  6
CONTINUOUS
370
-3
390
F
  0
LAYER
  5
20D
100
AcDbSymbolTableRecord
100
AcDbLayerTableRecord
  2
11642
 70
0
 62
7
  6
CONTINUOUS
370
-3
390
F
  0
LAYER
  5
20E
100
AcDbSymbolTableRecord
100
AcDbLayerTableRecord
  2
11643
 70
0
 62
7
  6
CONTINUOUS
370
-3
390
F
  0
LAYER
  5
20F
100
AcDbSymbolTableRecord
100
AcDbLayerTableRecord
  2
11644
 70
0
 62
7
  6
CONTINUOUS
370
-3
390
F
  0
LAYER
  5
210
100
AcDbSymbolTableRecord
100
AcDbLayerTableRecord
  2
11656
 70
0
 62
7
  6
CONTINUOUS
370
-3
390
F
  0
LAYER
  5
211
100
AcDbSymbolTableRecord
100
AcDbLayerTableRecord
  2
2-679
 70
0
 62
7
  6
CONTINUOUS
370
-3
390
F
  0
LAYER
  5
212
100
AcDbSymbolTableRecord
100
AcDbLayerTableRecord
  2
3-375
 70
0
 62
7
  6
CONTINUOUS
370
-3
390
F
  0
LAYER
  5
213
100
AcDbSymbolTableRecord
100
AcDbLayerTableRecord
  2
3_ALL_SYMBOLS
 70
0
 62
7
  6
CONTINUOUS
370
-3
390
F
  0
LAYER
  5
214
100
AcDbSymbolTableRecord
100
AcDbLayerTableRecord
  2
80186
 70
0
 62
7
  6
CONTINUOUS
370
-3
390
F
  0
LAYER
  5
215
100
AcDbSymbolTableRecord
100
AcDbLayerTableRecord
  2
80186_1
 70
0
 62
7
  6
CONTINUOUS
370
-3
390
F
  0
LAYER
  5
216
100
AcDbSymbolTableRecord
100
AcDbLayerTableRecord
  2
80190
 70
0
 62
7
  6
CONTINUOUS
370
-3
390
F
  0
LAYER
  5
217
100
AcDbSymbolTableRecord
100
AcDbLayerTableRecord
  2
80192
 70
0
 62
7
  6
CONTINUOUS
370
-3
390
F
  0
LAYER
  5
218
100
AcDbSymbolTableRecord
100
AcDbLayerTableRecord
  2
80192_1
 70
0
 62
7
  6
CONTINUOUS
370
-3
390
F
  0
LAYER
  5
219
100
AcDbSymbolTableRecord
100
AcDbLayerTableRecord
  2
91255
 70
0
 62
7
  6
CONTINUOUS
370
-3
390
F
  0
LAYER
  5
21A
100
AcDbSymbolTableRecord
100
AcDbLayerTableRecord
  2
91366
 70
0
 62
7
  6
CONTINUOUS
370
-3
390
F
  0
LAYER
  5
21B
100
AcDbSymbolTableRecord
100
AcDbLayerTableRecord
  2
91366_1
 70
0
 62
7
  6
CONTINUOUS
370
-3
390
F
  0
LAYER
  5
21C
100
AcDbSymbolTableRecord
100
AcDbLayerTableRecord
  2
91409
 70
0
 62
7
  6
CONTINUOUS
370
-3
390
F
  0
LAYER
  5
21D
100
AcDbSymbolTableRecord
100
AcDbLayerTableRecord
  2
92081
 70
0
 62
7
  6
CONTINUOUS
370
-3
390
F
  0
LAYER
  5
21E
100
AcDbSymbolTableRecord
100
AcDbLayerTableRecord
  2
92233
 70
0
 62
7
  6
CONTINUOUS
370
-3
390
F
  0
LAYER
  5
21F
100
AcDbSymbolTableRecord
100
AcDbLayerTableRecord
  2
92233_1
 70
0
 62
7
  6
CONTINUOUS
370
-3
390
F
  0
LAYER
  5
220
100
AcDbSymbolTableRecord
100
AcDbLayerTableRecord
  2
92234
 70
0
 62
7
  6
CONTINUOUS
370
-3
390
F
  0
LAYER
  5
221
100
AcDbSymbolTableRecord
100
AcDbLayerTableRecord
  2
92255
 70
0
 62
7
  6
CONTINUOUS
370
-3
390
F
  0
LAYER
  5
222
100
AcDbSymbolTableRecord
100
AcDbLayerTableRecord
  2
92255_1
 70
0
 62
7
  6
CONTINUOUS
370
-3
390
F
  0
LAYER
  5
223
100
AcDbSymbolTableRecord
100
AcDbLayerTableRecord
  2
92259
 70
0
 62
7
  6
CONTINUOUS
370
-3
390
F
  0
LAYER
  5
224
100
AcDbSymbolTableRecord
100
AcDbLayerTableRecord
  2
92259_1
 70
0
 62
7
  6
CONTINUOUS
370
-3
390
F
  0
LAYER
  5
225
100
AcDbSymbolTableRecord
100
AcDbLayerTableRecord
  2
92259_2
 70
0
 62
7
  6
CONTINUOUS
370
-3
390
F
  0
LAYER
  5
226
100
AcDbSymbolTableRecord
100
AcDbLayerTableRecord
  2
92259_3
 70
0
 62
7
  6
CONTINUOUS
370
-3
390
F
  0
LAYER
  5
227
100
AcDbSymbolTableRecord
100
AcDbLayerTableRecord
  2
92259_4
 70
0
 62
7
  6
CONTINUOUS
370
-3
390
F
  0
LAYER
  5
228
100
AcDbSymbolTableRecord
100
AcDbLayerTableRecord
  2
92259_5
 70
0
 62
7
  6
CONTINUOUS
370
-3
390
F
  0
LAYER
  5
229
100
AcDbSymbolTableRecord
100
AcDbLayerTableRecord
  2
COLOR4
 70
0
 62
7
  6
CONTINUOUS
370
-3
390
F
  0
LAYER
  5
22A
100
AcDbSymbolTableRecord
100
AcDbLayerTableRecord
  2
DEFAULT_COORDINATE_SYSTEM
 70
0
 62
7
  6
CONTINUOUS
370
-3
390
F
  0
LAYER
  5
22B
100
AcDbSymbolTableRecord
100
AcDbLayerTableRecord
  2
DEFAULT_DATUM_AXES
 70
0
 62
7
  6
CONTINUOUS
370
-3
390
F
  0
LAYER
  5
22C
100
AcDbSymbolTableRecord
100
AcDbLayerTableRecord
  2
DEFAULT_DATUM_CURVES
 70
0
 62
7
  6
CONTINUOUS
370
-3
390
F
  0
LAYER
  5
22D
100
AcDbSymbolTableRecord
100
AcDbLayerTableRecord
  2
DEFAULT_DATUM_PLANES
 70
0
 62
7
  6
CONTINUOUS
370
-3
390
F
  0
LAYER
  5
22E
100
AcDbSymbolTableRecord
100
AcDbLayerTableRecord
  2
DEFAULT_SURFACES
 70
0
 62
7
  6
CONTINUOUS
370
-3
390
F
  0
LAYER
  5
22F
100
AcDbSymbolTableRecord
100
AcDbLayerTableRecord
  2
DEFAULT_SURFACES_2
 70
0
 62
7
  6
CONTINUOUS
370
-3
390
F
  0
LAYER
  5
230
100
AcDbSymbolTableRecord
100
AcDbLayerTableRecord
  2
DEFAULT_SURFACES_3
 70
0
 62
7
  6
CONTINUOUS
370
-3
390
F
  0
LAYER
  5
231
100
AcDbSymbolTableRecord
100
AcDbLayerTableRecord
  2
DEFAULT_SURFACES_4
 70
0
 62
7
  6
CONTINUOUS
370
-3
390
F
  0
LAYER
  5
232
100
AcDbSymbolTableRecord
100
AcDbLayerTableRecord
  2
DEFAULT_SURFACES_6
 70
0
 62
7
  6
CONTINUOUS
370
-3
390
F
  0
LAYER
  5
233
100
AcDbSymbolTableRecord
100
AcDbLayerTableRecord
  2
INTF_10136
 70
0
 62
7
  6
CONTINUOUS
370
-3
390
F
  0
LAYER
  5
234
100
AcDbSymbolTableRecord
100
AcDbLayerTableRecord
  2
INTF_11353
 70
0
 62
7
  6
CONTINUOUS
370
-3
390
F
  0
LAYER
  5
235
100
AcDbSymbolTableRecord
100
AcDbLayerTableRecord
  2
INTF_11376
 70
0
 62
7
  6
CONTINUOUS
370
-3
390
F
  0
LAYER
  5
236
100
AcDbSymbolTableRecord
100
AcDbLayerTableRecord
  2
INTF_11385
 70
0
 62
7
  6
CONTINUOUS
370
-3
390
F
  0
LAYER
  5
237
100
AcDbSymbolTableRecord
100
AcDbLayerTableRecord
  2
INTF_11639
 70
0
 62
7
  6
CONTINUOUS
370
-3
390
F
  0
LAYER
  5
238
100
AcDbSymbolTableRecord
100
AcDbLayerTableRecord
  2
INTF_11640
 70
0
 62
7
  6
CONTINUOUS
370
-3
390
F
  0
LAYER
  5
239
100
AcDbSymbolTableRecord
100
AcDbLayerTableRecord
  2
INTF_11642
 70
0
 62
7
  6
CONTINUOUS
370
-3
390
F
  0
LAYER
  5
23A
100
AcDbSymbolTableRecord
100
AcDbLayerTableRecord
  2
INTF_11643
 70
0
 62
7
  6
CONTINUOUS
370
-3
390
F
  0
LAYER
  5
23B
100
AcDbSymbolTableRecord
100
AcDbLayerTableRecord
  2
INTF_11644
 70
0
 62
7
  6
CONTINUOUS
370
-3
390
F
  0
LAYER
  5
23C
100
AcDbSymbolTableRecord
100
AcDbLayerTableRecord
  2
INTF_11656
 70
0
 62
7
  6
CONTINUOUS
370
-3
390
F
  0
LAYER
  5
23D
100
AcDbSymbolTableRecord
100
AcDbLayerTableRecord
  2
INTF_80186
 70
0
 62
7
  6
CONTINUOUS
370
-3
390
F
  0
LAYER
  5
23E
100
AcDbSymbolTableRecord
100
AcDbLayerTableRecord
  2
INTF_80190
 70
0
 62
7
  6
CONTINUOUS
370
-3
390
F
  0
LAYER
  5
23F
100
AcDbSymbolTableRecord
100
AcDbLayerTableRecord
  2
INTF_80192
 70
0
 62
7
  6
CONTINUOUS
370
-3
390
F
  0
LAYER
  5
240
100
AcDbSymbolTableRecord
100
AcDbLayerTableRecord
  2
INTF_91255
 70
0
 62
7
  6
CONTINUOUS
370
-3
390
F
  0
LAYER
  5
241
100
AcDbSymbolTableRecord
100
AcDbLayerTableRecord
  2
INTF_91366
 70
0
 62
7
  6
CONTINUOUS
370
-3
390
F
  0
LAYER
  5
242
100
AcDbSymbolTableRecord
100
AcDbLayerTableRecord
  2
INTF_91409
 70
0
 62
7
  6
CONTINUOUS
370
-3
390
F
  0
LAYER
  5
243
100
AcDbSymbolTableRecord
100
AcDbLayerTableRecord
  2
INTF_92081
 70
0
 62
7
  6
CONTINUOUS
370
-3
390
F
  0
LAYER
  5
244
100
AcDbSymbolTableRecord
100
AcDbLayerTableRecord
  2
INTF_92233
 70
0
 62
7
  6
CONTINUOUS
370
-3
390
F
  0
LAYER
  5
245
100
AcDbSymbolTableRecord
100
AcDbLayerTableRecord
  2
INTF_92234
 70
0
 62
7
  6
CONTINUOUS
370
-3
390
F
  0
LAYER
  5
246
100
AcDbSymbolTableRecord
100
AcDbLayerTableRecord
  2
INTF_92255
 70
0
 62
7
  6
CONTINUOUS
370
-3
390
F
  0
LAYER
  5
247
100
AcDbSymbolTableRecord
100
AcDbLayerTableRecord
  2
INTF_92259
 70
0
 62
7
  6
CONTINUOUS
370
-3
390
F
  0
LAYER
  5
248
100
AcDbSymbolTableRecord
100
AcDbLayerTableRecord
  2
INTF_BLANK
 70
0
 62
7
  6
CONTINUOUS
370
-3
390
F
  0
LAYER
  5
249
100
AcDbSymbolTableRecord
100
AcDbLayerTableRecord
  2
INTF_YELLOW
 70
0
 62
7
  6
CONTINUOUS
370
-3
390
F
  0
LAYER
  5
24A
100
AcDbSymbolTableRecord
100
AcDbLayerTableRecord
  2
PLATED_SURFACES
 70
0
 62
7
  6
CONTINUOUS
370
-3
390
F
  0
LAYER
  5
24B
100
AcDbSymbolTableRecord
100
AcDbLayerTableRecord
  2
PLATED_SURFACES_1
 70
0
 62
7
  6
CONTINUOUS
370
-3
390
F
  0
LAYER
  5
24C
100
AcDbSymbolTableRecord
100
AcDbLayerTableRecord
  2
PLATED_SURFACE_AREA_1
 70
0
 62
7
  6
CONTINUOUS
370
-3
390
F
  0
LAYER
  5
24D
100
AcDbSymbolTableRecord
100
AcDbLayerTableRecord
  2
PLATED_SURFACE_AREA_2
 70
0
 62
7
  6
CONTINUOUS
370
-3
390
F
  0
LAYER
  5
24E
100
AcDbSymbolTableRecord
100
AcDbLayerTableRecord
  2
QUILT
 70
0
 62
7
  6
CONTINUOUS
370
-3
390
F
  0
LAYER
  5
24F
100
AcDbSymbolTableRecord
100
AcDbLayerTableRecord
  2
_BLACK_HOLE
 70
0
 62
7
  6
CONTINUOUS
370
-3
390
F
  0
LAYER
  5
250
100
AcDbSymbolTableRecord
100
AcDbLayerTableRecord
  2
___SHELL
 70
0
 62
7
  6
CONTINUOUS
370
-3
390
F
  0
ENDTAB
  0
TABLE
  2
STYLE
  5
3
100
AcDbSymbolTable
 70
1
  0
STYLE
  5
11
100
AcDbSymbolTableRecord
100
AcDbTextStyleTableRecord
  2
STANDARD
 70
0
 40
0.0
 41
0.8
 50
0.0
 71
0
 42
0.2
  3
txt
  4

  0
STYLE
  5
251
100
AcDbSymbolTableRecord
100
AcDbTextStyleTableRecord
  2
TEXTSTYLE_1
 70
0
 40
0.0
 41
0.8
 50
0.0
 71
0
 42
0.2
  3
gdt
  4

  0
ENDTAB
  0
TABLE
  2
VIEW
  5
6
100
AcDbSymbolTable
 70
0
  0
ENDTAB
  0
TABLE
  2
UCS
  5
7
100
AcDbSymbolTable
 70
0
  0
ENDTAB
  0
TABLE
  2
APPID
  5
9
100
AcDbSymbolTable
 70
1
  0
APPID
  5
252
100
AcDbSymbolTableRecord
100
AcDbRegAppTableRecord
  2
ACAD
 70
0
  0
ENDTAB
  0
TABLE
  2
BLOCK_RECORD
  5
1
100
AcDbSymbolTable
 70
0
  0
BLOCK_RECORD
  5
253
100
AcDbSymbolTableRecord
100
AcDbBlockTableRecord
  2
*Model_Space
  0
BLOCK_RECORD
  5
254
100
AcDbSymbolTableRecord
100
AcDbBlockTableRecord
  2
*Paper_Space
  0
ENDTAB
  0
TABLE
  2
DIMSTYLE
  5
A
100
AcDbSymbolTable
 70
1
100
AcDbDimStyleTable
 71
0
  0
DIMSTYLE
105
255
100
AcDbSymbolTableRecord
100
AcDbDimStyleTableRecord
  2
STANDARD
 70
0
  3

  4

 40
1.0
 41
0.1875
 42
0.0625
 43
0.38
 44
0.18
 45
0.0
 46
0.0
 47
0.01
 48
0.01
140
0.15625
141
0.09
142
0.0
143
25.4
144
1.0
145
0.0
146
1.0
147
0.09
 71
0.0
 72
0.0
 73
1
 74
1
 75
0
 76
0
 77
0
 78
4
170
0
171
2
172
0
173
0
174
0
175
0
176
0
177
0
178
0
270
2
271
2
272
2
273
2
274
2
275
0
280
0
281
0
282
0
283
1
284
4
285
0
286
0
287
3
288
0
340
11
  0
ENDTAB
  0
ENDSEC
  0
SECTION
  2
BLOCKS
  0
BLOCK
  5
20
100
AcDbEntity
  8
0
100
AcDbBlockBegin
  2
*Model_Space
 70
0
 10
0.0
 20
0.0
 30
0.0
  3
*Model_Space
  1

  0
ENDBLK
  5
21
100
AcDbEntity
  8
0
100
AcDbBlockEnd
  0
BLOCK
  5
1C
100
AcDbEntity
  8
0
100
AcDbBlockBegin
  2
*Paper_Space
 70
0
 10
0.0
 20
0.0
 30
0.0
  3
*Paper_Space
  1

  0
ENDBLK
  5
1D
100
AcDbEntity
  8
0
100
AcDbBlockEnd
  0
ENDSEC
  0
SECTION
  2
ENTITIES
  0
LINE
  5
256
100
AcDbEntity
  8
0
100
AcDbLine
 62
6
  6
CONTINUOUS
 10
24.3279784519
 20
-2.6696263358
 11
24.3049784519
 21
-2.6696263358
  0
LINE
  5
257
100
AcDbEntity
  8
0
100
AcDbLine
 62
6
  6
CONTINUOUS
 10
24.0779784519
 20
-2.4696263358
 11
24.1049784519
 21
-2.4696263358
  0
LINE
  5
258
100
AcDbEntity
  8
0
100
AcDbLine
 62
7
  6
CONTINUOUS
 10
23.8569784519
 20
-2.1271263358
 11
23.8779784519
 21
-2.1271263358
  0
LINE
  5
259
100
AcDbEntity
  8
0
100
AcDbLine
 62
7
  6
CONTINUOUS
 10
23.4677540702
 20
-1.9721263358
 11
23.8219784519
 21
-1.9721263358
  0
LINE
  5
25A
100
AcDbEntity
  8
0
100
AcDbLine
 62
7
  6
CONTINUOUS
 10
23.8219784519
 20
-1.2471263358
 11
23.5707621219
 21
-1.2471263358
  0
LINE
  5
25B
100
AcDbEntity
  8
0
100
AcDbLine
 62
7
  6
CONTINUOUS
 10
21.6719784519
 20
-0.6307660515
 11
22.6919784519
 21
-0.6307660515
  0
LINE
  5
25C
100
AcDbEntity
  8
0
100
AcDbLine
 62
7
  6
CONTINUOUS
 10
23.8219784519
 20
-0.5221263358
 11
23.4677540702
 21
-0.5221263358
  0
LINE
  5
25D
100
AcDbEntity
  8
0
100
AcDbLine
 62
7
  6
CONTINUOUS
 10
23.8569784519
 20
-0.3671263358
 11
23.8779784519
 21
-0.3671263358
  0
LINE
  5
25E
100
AcDbEntity
  8
0
100
AcDbLine
 62
6
  6
CONTINUOUS
 10
24.0779784519
 20
-0.0246263358
 11
24.1049784519
 21
-0.0246263358
  0
LINE
  5
25F
100
AcDbEntity
  8
0
100
AcDbLine
 62
6
  6
CONTINUOUS
 10
24.3279784519
 20
0.1753736642
 11
24.3049784519
 21
0.1753736642
  0
LINE
  5
260
100
AcDbEntity
  8
0
100
AcDbLine
 62
7
  6
CONTINUOUS
 10
22.795457396
 20
33.739411314
 11
22.6919784519
 21
33.63651338
  0
LINE
  5
261
100
AcDbEntity
  8
0
100
AcDbLine
 62
7
  6
CONTINUOUS
 10
22.795457396
 20
-0.7336639855
 11
22.6919784519
 21
-0.6307660515
  0
LINE
  5
262
100
AcDbEntity
  8
0
100
AcDbLine
 62
9
  6
CONTINUOUS
 10
21.1932855483
 20
16.2767877
 11
21.1932855483
 21
16.7289596285
  0
LINE
  5
263
100
AcDbEntity
  8
0
100
AcDbLine
 62
9
  6
CONTINUOUS
 10
21.2738012289
 20
16.3331653865
 11
21.2738012289
 21
16.672581942
  0
LINE
  5
264
100
AcDbEntity
  8
0
100
AcDbLine
 62
7
  6
CONTINUOUS
 10
21.2989784519
 20
16.6919593579
 11
21.2989784519
 21
16.3137879705
  0
LINE
  5
265
100
AcDbEntity
  8
0
100
AcDbLine
 62
9
  6
CONTINUOUS
 10
21.3238416105
 20
16.311956371
 11
21.3238416105
 21
16.6937909575
  0
LINE
  5
266
100
AcDbEntity
  8
0
100
AcDbLine
 62
6
  6
CONTINUOUS
 10
21.8695817588
 20
16.1537398106
 11
21.8453150922
 21
16.8537398106
  0
LINE
  5
267
100
AcDbEntity
  8
0
100
AcDbLine
 62
9
  6
CONTINUOUS
 10
21.8076860655
 20
16.8523097545
 11
21.8319136065
 21
16.1534376019
  0
LINE
  5
268
100
AcDbEntity
  8
0
100
AcDbLine
 62
7
  6
CONTINUOUS
 10
21.493002074
 20
17.4904615729
 11
21.493002074
 21
17.4457870501
  0
LINE
  5
269
100
AcDbEntity
  8
0
100
AcDbLine
 62
7
  6
CONTINUOUS
 10
21.493002074
 20
17.3158736642
 11
21.493002074
 21
17.2705901992
  0
LINE
  5
26A
100
AcDbEntity
  8
0
100
AcDbLine
 62
7
  6
CONTINUOUS
 10
21.493002074
 20
15.5152857556
 11
21.493002074
 21
15.5599602784
  0
LINE
  5
26B
100
AcDbEntity
  8
0
100
AcDbLine
 62
7
  6
CONTINUOUS
 10
21.493002074
 20
15.6898736642
 11
21.493002074
 21
15.7351571292
  0
LINE
  5
26C
100
AcDbEntity
  8
0
100
AcDbLine
 62
7
  6
CONTINUOUS
 10
21.5319784519
 20
17.2528736642
 11
21.5319784519
 21
16.7899305153
  0
LINE
  5
26D
100
AcDbEntity
  8
0
100
AcDbLine
 62
7
  6
CONTINUOUS
 10
21.5319784519
 20
16.216176489
 11
21.5319784519
 21
15.7528736642
  0
LINE
  5
26E
100
AcDbEntity
  8
0
100
AcDbLine
 62
7
  6
CONTINUOUS
 10
21.6819784519
 20
33.63651338
 11
21.6819784519
 21
17.5974786856
  0
LINE
  5
26F
100
AcDbEntity
  8
0
100
AcDbLine
 62
7
  6
CONTINUOUS
 10
21.6819784519
 20
15.4082686428
 11
21.6819784519
 21
-0.6307660515
  0
LINE
  5
270
100
AcDbEntity
  8
0
100
AcDbLine
 62
6
  6
CONTINUOUS
 10
22.0819784519
 20
16.4778736642
 11
22.0819784519
 21
16.5278736642
  0
LINE
  5
271
100
AcDbEntity
  8
0
100
AcDbLine
 62
6
  6
CONTINUOUS
 10
22.1569784519
 20
16.4028736642
 11
22.1569784519
 21
16.6028736642
  0
LINE
  5
272
100
AcDbEntity
  8
0
100
AcDbLine
 62
6
  6
CONTINUOUS
 10
22.2069784519
 20
16.4028736642
 11
22.2069784519
 21
16.6028736642
  0
LINE
  5
273
100
AcDbEntity
  8
0
100
AcDbLine
 62
6
  6
CONTINUOUS
 10
22.2819784519
 20
16.5278736642
 11
22.2819784519
 21
16.4778736642
  0
LINE
  5
274
100
AcDbEntity
  8
0
100
AcDbLine
 62
7
  6
CONTINUOUS
 10
22.6819784519
 20
33.63651338
 11
22.6819784519
 21
17.5974786856
  0
LINE
  5
275
100
AcDbEntity
  8
0
100
AcDbLine
 62
7
  6
CONTINUOUS
 10
22.6819784519
 20
15.4082686428
 11
22.6819784519
 21
-0.6307660515
  0
LINE
  5
276
100
AcDbEntity
  8
0
100
AcDbLine
 62
6
  6
CONTINUOUS
 10
22.5186418117
 20
16.8537398106
 11
22.5181987039
 21
16.8409578557
  0
LINE
  5
277
100
AcDbEntity
  8
0
100
AcDbLine
 62
9
  6
CONTINUOUS
 10
22.5181987039
 20
16.8409578557
 11
22.4948182528
 21
16.1665217655
  0
LINE
  5
278
100
AcDbEntity
  8
0
100
AcDbLine
 62
6
  6
CONTINUOUS
 10
22.4948182528
 20
16.1665217655
 11
22.4944098951
 21
16.1547422191
  0
LINE
  5
279
100
AcDbEntity
  8
0
100
AcDbLine
 62
9
  6
CONTINUOUS
 10
22.5320432738
 20
16.1534375953
 11
22.5562708384
 21
16.8523097545
  0
LINE
  5
27A
100
AcDbEntity
  8
0
100
AcDbLine
 62
7
  6
CONTINUOUS
 10
21.2738012289
 20
16.3331653865
 11
21.1932855483
 21
16.2767877
  0
LINE
  5
27B
100
AcDbEntity
  8
0
100
AcDbLine
 62
9
  6
CONTINUOUS
 10
22.8058616332
 20
16.153596761
 11
22.8055209541
 21
16.1535722545
  0
LINE
  5
27C
100
AcDbEntity
  8
0
100
AcDbLine
 62
7
  6
CONTINUOUS
 10
22.7630604606
 20
15.4082686428
 11
21.6008964432
 21
15.4082686428
  0
LINE
  5
27D
100
AcDbEntity
  8
0
100
AcDbLine
 62
9
  6
CONTINUOUS
 10
21.5910857014
 20
15.4163322351
 11
22.179033478
 21
15.4163322351
  0
LINE
  5
27E
100
AcDbEntity
  8
0
100
AcDbLine
 62
9
  6
CONTINUOUS
 10
22.1819784519
 20
15.4163322351
 11
22.7728712024
 21
15.4163322351
  0
LINE
  5
27F
100
AcDbEntity
  8
0
100
AcDbLine
 62
9
  6
CONTINUOUS
 10
21.5096648061
 20
15.4955661551
 11
22.8542920977
 21
15.4955661551
  0
LINE
  5
280
100
AcDbEntity
  8
0
100
AcDbLine
 62
9
  6
CONTINUOUS
 10
21.493002074
 20
15.5152857556
 11
22.8709548299
 21
15.5152857556
  0
LINE
  5
281
100
AcDbEntity
  8
0
100
AcDbLine
 62
7
  6
CONTINUOUS
 10
21.493002074
 20
15.5599602784
 11
22.8709548299
 21
15.5599602784
  0
LINE
  5
282
100
AcDbEntity
  8
0
100
AcDbLine
 62
7
  6
CONTINUOUS
 10
21.493002074
 20
15.6898736642
 11
22.8709548299
 21
15.6898736642
  0
LINE
  5
283
100
AcDbEntity
  8
0
100
AcDbLine
 62
9
  6
CONTINUOUS
 10
21.493002074
 20
15.7351571292
 11
22.8709548299
 21
15.7351571292
  0
LINE
  5
284
100
AcDbEntity
  8
0
100
AcDbLine
 62
7
  6
CONTINUOUS
 10
22.8532382793
 20
15.7528736642
 11
21.5107186245
 21
15.7528736642
  0
LINE
  5
285
100
AcDbEntity
  8
0
100
AcDbLine
 62
9
  6
CONTINUOUS
 10
21.601805743
 20
16.1278736642
 11
22.762116775
 21
16.1278736642
  0
LINE
  5
286
100
AcDbEntity
  8
0
100
AcDbLine
 62
9
  6
CONTINUOUS
 10
22.494375145
 20
16.1537398106
 11
21.8695817588
 21
16.1537398106
  0
LINE
  5
287
100
AcDbEntity
  8
0
100
AcDbLine
 62
6
  6
CONTINUOUS
 10
22.2069784519
 20
16.4028736642
 11
22.1569784519
 21
16.4028736642
  0
LINE
  5
288
100
AcDbEntity
  8
0
100
AcDbLine
 62
6
  6
CONTINUOUS
 10
22.0819784519
 20
16.4778736642
 11
22.2819784519
 21
16.4778736642
  0
LINE
  5
289
100
AcDbEntity
  8
0
100
AcDbLine
 62
6
  6
CONTINUOUS
 10
22.0819784519
 20
16.5278736642
 11
22.2819784519
 21
16.5278736642
  0
LINE
  5
28A
100
AcDbEntity
  8
0
100
AcDbLine
 62
6
  6
CONTINUOUS
 10
22.1569784519
 20
16.6028736642
 11
22.2069784519
 21
16.6028736642
  0
LINE
  5
28B
100
AcDbEntity
  8
0
100
AcDbLine
 62
9
  6
CONTINUOUS
 10
22.8055209541
 20
16.1535722545
 11
22.5320432738
 21
16.1534375953
  0
LINE
  5
28C
100
AcDbEntity
  8
0
100
AcDbLine
 62
9
  6
CONTINUOUS
 10
21.8319136065
 20
16.1534376019
 11
21.5584485156
 21
16.1535529249
  0
LINE
  5
28D
100
AcDbEntity
  8
0
100
AcDbLine
 62
9
  6
CONTINUOUS
 10
21.5584485156
 20
16.1535529249
 11
21.5581075629
 21
16.1535745795
  0
LINE
  5
28E
100
AcDbEntity
  8
0
100
AcDbLine
 62
7
  6
CONTINUOUS
 10
21.2738012289
 20
16.672581942
 11
21.1932855483
 21
16.7289596285
  0
LINE
  5
28F
100
AcDbEntity
  8
0
100
AcDbLine
 62
9
  6
CONTINUOUS
 10
22.0601348811
 20
16.8778736642
 11
21.9811176387
 21
17.1210596824
  0
LINE
  5
290
100
AcDbEntity
  8
0
100
AcDbLine
 62
9
  6
CONTINUOUS
 10
22.3038255901
 20
16.1278736642
 11
22.3828392726
 21
15.8846876232
  0
LINE
  5
291
100
AcDbEntity
  8
0
100
AcDbLine
 62
7
  6
CONTINUOUS
 10
22.795457396
 20
-1.760588686
 11
22.795457396
 21
-0.7336639855
  0
LINE
  5
292
100
AcDbEntity
  8
0
100
AcDbLine
 62
7
  6
CONTINUOUS
 10
22.795457396
 20
33.739411314
 11
22.795457396
 21
34.7663360145
  0
LINE
  5
293
100
AcDbEntity
  8
0
100
AcDbLine
 62
7
  6
CONTINUOUS
 10
22.8319784519
 20
17.2528736642
 11
22.8319784519
 21
16.7899325738
  0
LINE
  5
294
100
AcDbEntity
  8
0
100
AcDbLine
 62
7
  6
CONTINUOUS
 10
22.8319784519
 20
16.2161704926
 11
22.8319784519
 21
15.7528736642
  0
LINE
  5
295
100
AcDbEntity
  8
0
100
AcDbLine
 62
7
  6
CONTINUOUS
 10
22.8709548299
 20
17.4904615729
 11
22.8709548299
 21
17.4457870501
  0
LINE
  5
296
100
AcDbEntity
  8
0
100
AcDbLine
 62
7
  6
CONTINUOUS
 10
22.8709548299
 20
17.3158736642
 11
22.8709548299
 21
17.2705901992
  0
LINE
  5
297
100
AcDbEntity
  8
0
100
AcDbLine
 62
7
  6
CONTINUOUS
 10
22.8709548299
 20
15.5152857556
 11
22.8709548299
 21
15.5599602784
  0
LINE
  5
298
100
AcDbEntity
  8
0
100
AcDbLine
 62
7
  6
CONTINUOUS
 10
22.8709548299
 20
15.6898736642
 11
22.8709548299
 21
15.7351571292
  0
LINE
  5
299
100
AcDbEntity
  8
0
100
AcDbLine
 62
9
  6
CONTINUOUS
 10
23.0401152933
 20
16.6937909575
 11
23.0401152933
 21
16.311956371
  0
LINE
  5
29A
100
AcDbEntity
  8
0
100
AcDbLine
 62
7
  6
CONTINUOUS
 10
23.0649784519
 20
16.3137879705
 11
23.0649784519
 21
16.6919593579
  0
LINE
  5
29B
100
AcDbEntity
  8
0
100
AcDbLine
 62
9
  6
CONTINUOUS
 10
23.0901556749
 20
16.672581942
 11
23.0901556749
 21
16.3331653865
  0
LINE
  5
29C
100
AcDbEntity
  8
0
100
AcDbLine
 62
9
  6
CONTINUOUS
 10
23.1706713555
 20
16.7289596285
 11
23.1706713555
 21
16.2767877
  0
LINE
  5
29D
100
AcDbEntity
  8
0
100
AcDbLine
 62
9
  6
CONTINUOUS
 10
23.4643192211
 20
34.9717846917
 11
23.4643192211
 21
33.5339626368
  0
LINE
  5
29E
100
AcDbEntity
  8
0
100
AcDbLine
 62
9
  6
CONTINUOUS
 10
23.4643192211
 20
-0.5282153083
 11
23.4643192215
 21
-1.9660373639
  0
LINE
  5
29F
100
AcDbEntity
  8
0
100
AcDbLine
 62
7
  6
CONTINUOUS
 10
23.8219784519
 20
35.0978736642
 11
23.8219784519
 21
33.4078785104
  0
LINE
  5
2A0
100
AcDbEntity
  8
0
100
AcDbLine
 62
7
  6
CONTINUOUS
 10
23.8219784519
 20
-0.4021263358
 11
23.8219784519
 21
-2.0921214896
  0
LINE
  5
2A1
100
AcDbEntity
  8
0
100
AcDbLine
 62
9
  6
CONTINUOUS
 10
23.8569784519
 20
-2.1271263358
 11
23.8569784519
 21
-0.3671263358
  0
LINE
  5
2A2
100
AcDbEntity
  8
0
100
AcDbLine
 62
9
  6
CONTINUOUS
 10
23.8569784519
 20
33.3728736642
 11
23.8569784519
 21
35.1328736642
  0
LINE
  5
2A3
100
AcDbEntity
  8
0
100
AcDbLine
 62
9
  6
CONTINUOUS
 10
23.8779784519
 20
35.2753678059
 11
23.8779784519
 21
33.2303795226
  0
LINE
  5
2A4
100
AcDbEntity
  8
0
100
AcDbLine
 62
9
  6
CONTINUOUS
 10
23.8779784519
 20
-0.2246321941
 11
23.8779784519
 21
-2.2696204774
  0
LINE
  5
2A5
100
AcDbEntity
  8
0
100
AcDbLine
 62
7
  6
CONTINUOUS
 10
23.0901556749
 20
16.672581942
 11
23.1706713555
 21
16.7289596285
  0
LINE
  5
2A6
100
AcDbEntity
  8
0
100
AcDbLine
 62
9
  6
CONTINUOUS
 10
22.5186418117
 20
16.8537398106
 11
21.8453150922
 21
16.8537398106
  0
LINE
  5
2A7
100
AcDbEntity
  8
0
100
AcDbLine
 62
9
  6
CONTINUOUS
 10
22.76215368
 20
16.8778736642
 11
21.6018202021
 21
16.8778736642
  0
LINE
  5
2A8
100
AcDbEntity
  8
0
100
AcDbLine
 62
7
  6
CONTINUOUS
 10
22.8532382793
 20
17.2528736642
 11
21.5107186245
 21
17.2528736642
  0
LINE
  5
2A9
100
AcDbEntity
  8
0
100
AcDbLine
 62
9
  6
CONTINUOUS
 10
21.493002074
 20
17.2705901992
 11
22.8709548299
 21
17.2705901992
  0
LINE
  5
2AA
100
AcDbEntity
  8
0
100
AcDbLine
 62
7
  6
CONTINUOUS
 10
22.8709548299
 20
17.3158736642
 11
21.493002074
 21
17.3158736642
  0
LINE
  5
2AB
100
AcDbEntity
  8
0
100
AcDbLine
 62
7
  6
CONTINUOUS
 10
22.8709548299
 20
17.4457870501
 11
21.493002074
 21
17.4457870501
  0
LINE
  5
2AC
100
AcDbEntity
  8
0
100
AcDbLine
 62
9
  6
CONTINUOUS
 10
21.493002074
 20
17.4904615729
 11
22.8709548299
 21
17.4904615729
  0
LINE
  5
2AD
100
AcDbEntity
  8
0
100
AcDbLine
 62
9
  6
CONTINUOUS
 10
22.8542920977
 20
17.5101811734
 11
21.5096648061
 21
17.5101811734
  0
LINE
  5
2AE
100
AcDbEntity
  8
0
100
AcDbLine
 62
9
  6
CONTINUOUS
 10
22.7728712024
 20
17.5894150934
 11
22.1849234258
 21
17.5894150934
  0
LINE
  5
2AF
100
AcDbEntity
  8
0
100
AcDbLine
 62
9
  6
CONTINUOUS
 10
22.1819784519
 20
17.5894150934
 11
21.5910857014
 21
17.5894150934
  0
LINE
  5
2B0
100
AcDbEntity
  8
0
100
AcDbLine
 62
7
  6
CONTINUOUS
 10
22.7630604606
 20
17.5974786856
 11
21.6008964432
 21
17.5974786856
  0
LINE
  5
2B1
100
AcDbEntity
  8
0
100
AcDbLine
 62
9
  6
CONTINUOUS
 10
21.5581698425
 20
16.8522843229
 11
21.8076860655
 21
16.8523097545
  0
LINE
  5
2B2
100
AcDbEntity
  8
0
100
AcDbLine
 62
9
  6
CONTINUOUS
 10
22.5562708384
 20
16.8523097545
 11
22.8057860781
 21
16.8522860814
  0
LINE
  5
2B3
100
AcDbEntity
  8
0
100
AcDbLine
 62
7
  6
CONTINUOUS
 10
23.0901556749
 20
16.3331653865
 11
23.1706713555
 21
16.2767877
  0
LINE
  5
2B4
100
AcDbEntity
  8
0
100
AcDbLine
 62
9
  6
CONTINUOUS
 10
24.0779784519
 20
-2.4696263358
 11
24.0779784519
 21
-0.0246263361
  0
LINE
  5
2B5
100
AcDbEntity
  8
0
100
AcDbLine
 62
9
  6
CONTINUOUS
 10
24.0779784519
 20
33.0303736642
 11
24.0779784519
 21
35.4753736639
  0
LINE
  5
2B6
100
AcDbEntity
  8
0
100
AcDbLine
 62
6
  6
CONTINUOUS
 10
24.1049784519
 20
35.4753736642
 11
24.1049784519
 21
33.0303736642
  0
LINE
  5
2B7
100
AcDbEntity
  8
0
100
AcDbLine
 62
6
  6
CONTINUOUS
 10
24.1049784519
 20
-0.0246263358
 11
24.1049784519
 21
-2.4696263358
  0
LINE
  5
2B8
100
AcDbEntity
  8
0
100
AcDbLine
 62
9
  6
CONTINUOUS
 10
24.3049784519
 20
35.6753736637
 11
24.3049784519
 21
32.8303736648
  0
LINE
  5
2B9
100
AcDbEntity
  8
0
100
AcDbLine
 62
9
  6
CONTINUOUS
 10
24.3049784519
 20
0.1753736637
 11
24.3049784519
 21
-2.6696263352
  0
LINE
  5
2BA
100
AcDbEntity
  8
0
100
AcDbLine
 62
6
  6
CONTINUOUS
 10
24.3279784519
 20
-2.6695281278
 11
24.3279784519
 21
0.1752754563
  0
LINE
  5
2BB
100
AcDbEntity
  8
0
100
AcDbLine
 62
6
  6
CONTINUOUS
 10
24.3279784519
 20
32.8304718722
 11
24.3279784519
 21
35.6752754563
  0
LINE
  5
2BC
100
AcDbEntity
  8
0
100
AcDbLine
 62
6
  6
CONTINUOUS
 10
24.3279784519
 20
32.8303736642
 11
24.3049784519
 21
32.8303736642
  0
LINE
  5
2BD
100
AcDbEntity
  8
0
100
AcDbLine
 62
6
  6
CONTINUOUS
 10
24.0779784519
 20
33.0303736642
 11
24.1049784519
 21
33.0303736642
  0
LINE
  5
2BE
100
AcDbEntity
  8
0
100
AcDbLine
 62
7
  6
CONTINUOUS
 10
23.8569784519
 20
33.3728736642
 11
23.8779784519
 21
33.3728736642
  0
LINE
  5
2BF
100
AcDbEntity
  8
0
100
AcDbLine
 62
7
  6
CONTINUOUS
 10
23.8219784519
 20
33.5278736642
 11
23.4677540702
 21
33.5278736642
  0
LINE
  5
2C0
100
AcDbEntity
  8
0
100
AcDbLine
 62
7
  6
CONTINUOUS
 10
22.6919784519
 20
33.63651338
 11
21.6719784519
 21
33.63651338
  0
LINE
  5
2C1
100
AcDbEntity
  8
0
100
AcDbLine
 62
7
  6
CONTINUOUS
 10
23.5707621219
 20
34.2528736642
 11
23.8219784519
 21
34.2528736642
  0
LINE
  5
2C2
100
AcDbEntity
  8
0
100
AcDbLine
 62
7
  6
CONTINUOUS
 10
23.4677540702
 20
34.9778736642
 11
23.8219784519
 21
34.9778736642
  0
LINE
  5
2C3
100
AcDbEntity
  8
0
100
AcDbLine
 62
7
  6
CONTINUOUS
 10
23.8569784519
 20
35.1328736642
 11
23.8779784519
 21
35.1328736642
  0
LINE
  5
2C4
100
AcDbEntity
  8
0
100
AcDbLine
 62
6
  6
CONTINUOUS
 10
24.0779784519
 20
35.4753736642
 11
24.1049784519
 21
35.4753736642
  0
LINE
  5
2C5
100
AcDbEntity
  8
0
100
AcDbLine
 62
6
  6
CONTINUOUS
 10
24.3279784519
 20
35.6753736642
 11
24.3049784519
 21
35.6753736642
  0
ARC
  5
2C6
100
AcDbEntity
  8
0
100
AcDbCircle
 62
7
  6
CONTINUOUS
 10
21.5066024929
 20
16.1413736642
 40
0.25
100
AcDbArc
 50
95.3206398267
 51
136.9739483152
  0
ARC
  5
2C7
100
AcDbEntity
  8
0
100
AcDbCircle
 62
7
  6
CONTINUOUS
 10
21.4929784519
 20
15.3969681552
 40
0.1
100
AcDbArc
 50
11.1653337536
 51
80.3944914397
  0
ARC
  5
2C8
100
AcDbEntity
  8
0
100
AcDbCircle
 62
7
  6
CONTINUOUS
 10
21.5209784519
 20
15.6249169713
 40
0.07072517
100
AcDbArc
 50
113.3011952091
 51
246.6988047909
  0
ARC
  5
2C9
100
AcDbEntity
  8
0
100
AcDbCircle
 62
6
  6
CONTINUOUS
 10
21.6018060637
 20
16.1778736642
 40
0.05
100
AcDbArc
 50
209.2566040674
 51
270.0000000004
  0
ARC
  5
2CA
100
AcDbEntity
  8
0
100
AcDbCircle
 62
6
  6
CONTINUOUS
 10
21.8445967675
 20
16.1528736642
 40
0.025
100
AcDbArc
 50
270.0
 51
1.9854585845
  0
ARC
  5
2CB
100
AcDbEntity
  8
0
100
AcDbCircle
 62
7
  6
CONTINUOUS
 10
21.513002074
 20
15.5152857556
 40
0.02
100
AcDbArc
 50
180.0
 51
260.3945001638
  0
ARC
  5
2CC
100
AcDbEntity
  8
0
100
AcDbCircle
 62
7
  6
CONTINUOUS
 10
21.510718609
 20
15.7351571292
 40
0.017716535
100
AcDbArc
 50
89.9999742572
 51
180.0
  0
ARC
  5
2CD
100
AcDbEntity
  8
0
100
AcDbCircle
 62
7
  6
CONTINUOUS
 10
21.2829784519
 20
16.3200589538
 40
0.016
100
AcDbArc
 50
0.0
 51
125.0000000017
  0
ARC
  5
2CE
100
AcDbEntity
  8
0
100
AcDbCircle
 62
7
  6
CONTINUOUS
 10
21.312144914
 20
16.3228736642
 40
0.016
100
AcDbArc
 50
214.6234511004
 51
316.9739483164
  0
ARC
  5
2CF
100
AcDbEntity
  8
0
100
AcDbCircle
 62
7
  6
CONTINUOUS
 10
21.6008964264
 20
15.4182686428
 40
0.01
100
AcDbArc
 50
191.1653325348
 51
269.999993577
  0
ARC
  5
2D0
100
AcDbEntity
  8
0
100
AcDbCircle
 62
7
  6
CONTINUOUS
 10
22.1819784519
 20
-1.2471263358
 40
0.8
100
AcDbArc
 50
39.9282596552
 51
50.3943476062
  0
ARC
  5
2D1
100
AcDbEntity
  8
0
100
AcDbCircle
 62
7
  6
CONTINUOUS
 10
22.1819784519
 20
-1.2471263358
 40
0.8
100
AcDbArc
 50
129.6056523938
 51
320.0717403448
  0
ARC
  5
2D2
100
AcDbEntity
  8
0
100
AcDbCircle
 62
6
  6
CONTINUOUS
 10
22.1819779866
 20
16.5028735004
 40
0.6499992576
100
AcDbArc
 50
215.6326651889
 51
288.0000434713
  0
ARC
  5
2D3
100
AcDbEntity
  8
0
100
AcDbCircle
 62
6
  6
CONTINUOUS
 10
22.1819779866
 20
16.5028735004
 40
0.6499992576
100
AcDbArc
 50
107.9999565288
 51
144.4920387553
  0
ARC
  5
2D4
100
AcDbEntity
  8
0
100
AcDbCircle
 62
9
  6
CONTINUOUS
 10
22.1819780265
 20
16.502873526
 40
0.6293136102
100
AcDbArc
 50
36.954134365
 51
107.999948094
  0
ARC
  5
2D5
100
AcDbEntity
  8
0
100
AcDbCircle
 62
9
  6
CONTINUOUS
 10
22.1819780265
 20
16.502873526
 40
0.6293136102
100
AcDbArc
 50
288.0000819143
 51
323.2175153692
  0
ARC
  5
2D6
100
AcDbEntity
  8
0
100
AcDbCircle
 62
7
  6
CONTINUOUS
 10
22.1819391615
 20
16.5028721145
 40
0.159960789
100
AcDbArc
 50
158.1721765407
 51
202.3996272455
  0
ARC
  5
2D7
100
AcDbEntity
  8
0
100
AcDbCircle
 62
6
  6
CONTINUOUS
 10
22.5193601363
 20
16.1528736642
 40
0.025
100
AcDbArc
 50
178.0145414155
 51
270.0
  0
ARC
  5
2D8
100
AcDbEntity
  8
0
100
AcDbCircle
 62
7
  6
CONTINUOUS
 10
21.0349784519
 20
16.5028736642
 40
0.276
100
AcDbArc
 50
55.0
 51
305.0
  0
ARC
  5
2D9
100
AcDbEntity
  8
0
100
AcDbCircle
 62
7
  6
CONTINUOUS
 10
21.5066024929
 20
16.8643736642
 40
0.25
100
AcDbArc
 50
223.0260516848
 51
264.6793601225
  0
ARC
  5
2DA
100
AcDbEntity
  8
0
100
AcDbCircle
 62
7
  6
CONTINUOUS
 10
21.4929784519
 20
17.6087791733
 40
0.1
100
AcDbArc
 50
279.6055085603
 51
348.8346662464
  0
ARC
  5
2DB
100
AcDbEntity
  8
0
100
AcDbCircle
 62
7
  6
CONTINUOUS
 10
21.5209784519
 20
17.3808303571
 40
0.07072517
100
AcDbArc
 50
113.3011952091
 51
246.6988047909
  0
ARC
  5
2DC
100
AcDbEntity
  8
0
100
AcDbCircle
 62
6
  6
CONTINUOUS
 10
21.6018060637
 20
16.8278736642
 40
0.05
100
AcDbArc
 50
90.0000000006
 51
150.743395933
  0
ARC
  5
2DD
100
AcDbEntity
  8
0
100
AcDbCircle
 62
7
  6
CONTINUOUS
 10
21.513002074
 20
17.4904615729
 40
0.02
100
AcDbArc
 50
99.6054998362
 51
180.0
  0
ARC
  5
2DE
100
AcDbEntity
  8
0
100
AcDbCircle
 62
7
  6
CONTINUOUS
 10
21.510718609
 20
17.2705901992
 40
0.017716535
100
AcDbArc
 50
180.0
 51
270.0000257428
  0
ARC
  5
2DF
100
AcDbEntity
  8
0
100
AcDbCircle
 62
7
  6
CONTINUOUS
 10
21.2829784519
 20
16.6856883747
 40
0.016
100
AcDbArc
 50
234.9999999983
 51
360.0
  0
ARC
  5
2E0
100
AcDbEntity
  8
0
100
AcDbCircle
 62
7
  6
CONTINUOUS
 10
21.312144914
 20
16.6828736642
 40
0.016
100
AcDbArc
 50
43.0260516836
 51
145.3765488996
  0
ARC
  5
2E1
100
AcDbEntity
  8
0
100
AcDbCircle
 62
7
  6
CONTINUOUS
 10
21.6008964264
 20
17.5874786856
 40
0.01
100
AcDbArc
 50
90.000006423
 51
168.8346674652
  0
ARC
  5
2E2
100
AcDbEntity
  8
0
100
AcDbCircle
 62
6
  6
CONTINUOUS
 10
21.8203301009
 20
16.8528736642
 40
0.025
100
AcDbArc
 50
1.9854585845
 51
90.0
  0
ARC
  5
2E3
100
AcDbEntity
  8
0
100
AcDbCircle
 62
6
  6
CONTINUOUS
 10
22.1819784519
 20
16.5028736642
 40
0.715
100
AcDbArc
 50
330.5403887911
 51
29.2887724669
  0
ARC
  5
2E4
100
AcDbEntity
  8
0
100
AcDbCircle
 62
6
  6
CONTINUOUS
 10
22.1819784519
 20
16.5028736642
 40
0.715
100
AcDbArc
 50
150.7102426077
 51
209.462501316
  0
ARC
  5
2E5
100
AcDbEntity
  8
0
100
AcDbCircle
 62
6
  6
CONTINUOUS
 10
22.1819784519
 20
16.5028736642
 40
0.6928608635
100
AcDbArc
 50
32.8763697355
 51
147.1225020394
  0
ARC
  5
2E6
100
AcDbEntity
  8
0
100
AcDbCircle
 62
6
  6
CONTINUOUS
 10
22.1819784519
 20
16.5028736642
 40
0.6928608635
100
AcDbArc
 50
212.8764877238
 51
327.1225020394
  0
ARC
  5
2E7
100
AcDbEntity
  8
0
100
AcDbCircle
 62
6
  6
CONTINUOUS
 10
22.1819789172
 20
16.5028738281
 40
0.6499992576
100
AcDbArc
 50
35.6326651879
 51
108.0000434713
  0
ARC
  5
2E8
100
AcDbEntity
  8
0
100
AcDbCircle
 62
6
  6
CONTINUOUS
 10
22.1819789172
 20
16.5028738281
 40
0.6499992576
100
AcDbArc
 50
287.9999565288
 51
324.492038757
  0
ARC
  5
2E9
100
AcDbEntity
  8
0
100
AcDbCircle
 62
9
  6
CONTINUOUS
 10
22.1819788771
 20
16.5028738025
 40
0.62931361
100
AcDbArc
 50
216.9541342426
 51
287.9999903184
  0
ARC
  5
2EA
100
AcDbEntity
  8
0
100
AcDbCircle
 62
9
  6
CONTINUOUS
 10
22.1819788771
 20
16.5028738025
 40
0.62931361
100
AcDbArc
 50
108.0000607646
 51
143.2175166162
  0
CIRCLE
  5
2EB
100
AcDbEntity
  8
0
100
AcDbCircle
 62
7
  6
CONTINUOUS
 10
22.1819784519
 20
16.5028736642
 40
0.16
  0
CIRCLE
  5
2EC
100
AcDbEntity
  8
0
100
AcDbCircle
 62
6
  6
CONTINUOUS
 10
22.1819784519
 20
16.5028736642
 40
0.155
  0
CIRCLE
  5
2ED
100
AcDbEntity
  8
0
100
AcDbCircle
 62
9
  6
CONTINUOUS
 10
22.1819784519
 20
16.5028736642
 40
0.1525470958
  0
CIRCLE
  5
2EE
100
AcDbEntity
  8
0
100
AcDbCircle
 62
9
  6
CONTINUOUS
 10
22.1819784519
 20
16.5028736642
 40
0.145
  0
ARC
  5
2EF
100
AcDbEntity
  8
0
100
AcDbCircle
 62
6
  6
CONTINUOUS
 10
22.543626803
 20
16.8528736642
 40
0.025
100
AcDbArc
 50
90.0
 51
178.0145414155
  0
ARC
  5
2F0
100
AcDbEntity
  8
0
100
AcDbCircle
 62
7
  6
CONTINUOUS
 10
22.1819784519
 20
34.2528736642
 40
0.8
100
AcDbArc
 50
309.6056523938
 51
320.0717403448
  0
ARC
  5
2F1
100
AcDbEntity
  8
0
100
AcDbCircle
 62
7
  6
CONTINUOUS
 10
22.1819784519
 20
34.2528736642
 40
0.8
100
AcDbArc
 50
39.9282596552
 51
230.3943476062
  0
ARC
  5
2F2
100
AcDbEntity
  8
0
100
AcDbCircle
 62
7
  6
CONTINUOUS
 10
23.0237720751
 20
-0.28546603
 40
0.503
100
AcDbArc
 50
243.0054385683
 51
331.1444574926
  0
ARC
  5
2F3
100
AcDbEntity
  8
0
100
AcDbCircle
 62
7
  6
CONTINUOUS
 10
23.0237720751
 20
-2.2087866416
 40
0.503
100
AcDbArc
 50
28.8555425074
 51
116.9945614317
  0
ARC
  5
2F4
100
AcDbEntity
  8
0
100
AcDbCircle
 62
7
  6
CONTINUOUS
 10
22.8573544109
 20
16.1413736642
 40
0.25
100
AcDbArc
 50
43.0260516848
 51
84.6793601733
  0
ARC
  5
2F5
100
AcDbEntity
  8
0
100
AcDbCircle
 62
7
  6
CONTINUOUS
 10
22.8709784519
 20
15.3969681552
 40
0.1
100
AcDbArc
 50
99.6055085603
 51
168.8346662464
  0
ARC
  5
2F6
100
AcDbEntity
  8
0
100
AcDbCircle
 62
7
  6
CONTINUOUS
 10
22.8429784519
 20
15.6249169713
 40
0.07072517
100
AcDbArc
 50
293.3011952091
 51
66.6988047909
  0
ARC
  5
2F7
100
AcDbEntity
  8
0
100
AcDbCircle
 62
6
  6
CONTINUOUS
 10
22.7621508401
 20
16.1778736642
 40
0.05
100
AcDbArc
 50
269.9999999996
 51
330.7433959326
  0
ARC
  5
2F8
100
AcDbEntity
  8
0
100
AcDbCircle
 62
7
  6
CONTINUOUS
 10
22.8509548299
 20
15.5152857556
 40
0.02
100
AcDbArc
 50
279.6054998362
 51
360.0
  0
ARC
  5
2F9
100
AcDbEntity
  8
0
100
AcDbCircle
 62
7
  6
CONTINUOUS
 10
22.8532382949
 20
15.7351571292
 40
0.017716535
100
AcDbArc
 50
0.0
 51
90.0000257428
  0
ARC
  5
2FA
100
AcDbEntity
  8
0
100
AcDbCircle
 62
7
  6
CONTINUOUS
 10
23.0809784519
 20
16.3200589538
 40
0.016
100
AcDbArc
 50
54.9999999983
 51
180.000000001
  0
ARC
  5
2FB
100
AcDbEntity
  8
0
100
AcDbCircle
 62
7
  6
CONTINUOUS
 10
23.0518119898
 20
16.3228736642
 40
0.016
100
AcDbArc
 50
223.0260516838
 51
325.3765488994
  0
ARC
  5
2FC
100
AcDbEntity
  8
0
100
AcDbCircle
 62
7
  6
CONTINUOUS
 10
22.7630604774
 20
15.4182686428
 40
0.01
100
AcDbArc
 50
270.000006423
 51
348.8346674652
  0
ARC
  5
2FD
100
AcDbEntity
  8
0
100
AcDbCircle
 62
7
  6
CONTINUOUS
 10
23.7708629615
 20
-0.6971263358
 40
0.35
100
AcDbArc
 50
149.9999999995
 51
151.1444575817
  0
ARC
  5
2FE
100
AcDbEntity
  8
0
100
AcDbCircle
 62
7
  6
CONTINUOUS
 10
23.7708629615
 20
-1.7971263358
 40
0.35
100
AcDbArc
 50
208.8555422896
 51
210.0000000005
  0
ARC
  5
2FF
100
AcDbEntity
  8
0
100
AcDbCircle
 62
6
  6
CONTINUOUS
 10
24.0779784519
 20
-2.2696263358
 40
0.2
100
AcDbArc
 50
179.9999997699
 51
270.0
  0
ARC
  5
300
100
AcDbEntity
  8
0
100
AcDbCircle
 62
6
  6
CONTINUOUS
 10
24.0779784519
 20
-0.2246263358
 40
0.2
100
AcDbArc
 50
90.0
 51
180.0000002301
  0
ARC
  5
301
100
AcDbEntity
  8
0
100
AcDbCircle
 62
6
  6
CONTINUOUS
 10
24.3049784519
 20
-0.0246263358
 40
0.2
100
AcDbArc
 50
90.0
 51
179.9999999999
  0
ARC
  5
302
100
AcDbEntity
  8
0
100
AcDbCircle
 62
6
  6
CONTINUOUS
 10
24.3049784519
 20
-2.4696263358
 40
0.2
100
AcDbArc
 50
180.0000000001
 51
270.0
  0
ARC
  5
303
100
AcDbEntity
  8
0
100
AcDbCircle
 62
7
  6
CONTINUOUS
 10
23.8569784519
 20
-0.4021263358
 40
0.035
100
AcDbArc
 50
90.0
 51
180.0000088743
  0
ARC
  5
304
100
AcDbEntity
  8
0
100
AcDbCircle
 62
7
  6
CONTINUOUS
 10
23.8569784519
 20
-2.0921263358
 40
0.035
100
AcDbArc
 50
179.9999911257
 51
270.0
  0
ARC
  5
305
100
AcDbEntity
  8
0
100
AcDbCircle
 62
7
  6
CONTINUOUS
 10
23.3289784519
 20
16.5028736642
 40
0.276
100
AcDbArc
 50
235.0
 51
125.0
  0
ARC
  5
306
100
AcDbEntity
  8
0
100
AcDbCircle
 62
7
  6
CONTINUOUS
 10
22.8573544109
 20
16.8643736642
 40
0.25
100
AcDbArc
 50
275.3206398216
 51
316.9739483152
  0
ARC
  5
307
100
AcDbEntity
  8
0
100
AcDbCircle
 62
7
  6
CONTINUOUS
 10
22.8709784519
 20
17.6087791733
 40
0.1
100
AcDbArc
 50
191.1653337536
 51
260.3944914397
  0
ARC
  5
308
100
AcDbEntity
  8
0
100
AcDbCircle
 62
7
  6
CONTINUOUS
 10
22.8429784519
 20
17.3808303571
 40
0.07072517
100
AcDbArc
 50
293.3011952091
 51
66.6988047909
  0
ARC
  5
309
100
AcDbEntity
  8
0
100
AcDbCircle
 62
6
  6
CONTINUOUS
 10
22.7621508401
 20
16.8278736642
 40
0.05
100
AcDbArc
 50
29.256604067
 51
89.9999999994
  0
ARC
  5
30A
100
AcDbEntity
  8
0
100
AcDbCircle
 62
7
  6
CONTINUOUS
 10
22.8509548299
 20
17.4904615729
 40
0.02
100
AcDbArc
 50
0.0
 51
80.3945001638
  0
ARC
  5
30B
100
AcDbEntity
  8
0
100
AcDbCircle
 62
7
  6
CONTINUOUS
 10
22.8532382949
 20
17.2705901992
 40
0.017716535
100
AcDbArc
 50
269.9999742572
 51
360.0
  0
ARC
  5
30C
100
AcDbEntity
  8
0
100
AcDbCircle
 62
7
  6
CONTINUOUS
 10
23.0809784519
 20
16.6856883747
 40
0.016
100
AcDbArc
 50
179.999999999
 51
305.0000000017
  0
ARC
  5
30D
100
AcDbEntity
  8
0
100
AcDbCircle
 62
7
  6
CONTINUOUS
 10
23.0518119898
 20
16.6828736642
 40
0.016
100
AcDbArc
 50
34.6234511006
 51
136.9739483162
  0
ARC
  5
30E
100
AcDbEntity
  8
0
100
AcDbCircle
 62
7
  6
CONTINUOUS
 10
22.7630604774
 20
17.5874786856
 40
0.01
100
AcDbArc
 50
11.1653325348
 51
89.999993577
  0
ARC
  5
30F
100
AcDbEntity
  8
0
100
AcDbCircle
 62
7
  6
CONTINUOUS
 10
23.0237720751
 20
33.2912133584
 40
0.503
100
AcDbArc
 50
28.8555425074
 51
116.9945614317
  0
ARC
  5
310
100
AcDbEntity
  8
0
100
AcDbCircle
 62
7
  6
CONTINUOUS
 10
23.0237720751
 20
35.21453397
 40
0.503
100
AcDbArc
 50
243.0054385683
 51
331.1444574926
  0
ARC
  5
311
100
AcDbEntity
  8
0
100
AcDbCircle
 62
7
  6
CONTINUOUS
 10
23.7708629615
 20
33.7028736642
 40
0.35
100
AcDbArc
 50
208.8555424183
 51
210.0000000005
  0
ARC
  5
312
100
AcDbEntity
  8
0
100
AcDbCircle
 62
7
  6
CONTINUOUS
 10
23.7708629615
 20
34.8028736642
 40
0.35
100
AcDbArc
 50
149.9999999995
 51
151.1444577104
  0
ARC
  5
313
100
AcDbEntity
  8
0
100
AcDbCircle
 62
6
  6
CONTINUOUS
 10
24.0779784519
 20
33.2303736642
 40
0.2
100
AcDbArc
 50
179.9999997699
 51
270.0
  0
ARC
  5
314
100
AcDbEntity
  8
0
100
AcDbCircle
 62
6
  6
CONTINUOUS
 10
24.0779784519
 20
35.2753736642
 40
0.2
100
AcDbArc
 50
90.0
 51
180.0000002301
  0
ARC
  5
315
100
AcDbEntity
  8
0
100
AcDbCircle
 62
6
  6
CONTINUOUS
 10
24.3049784519
 20
35.4753736642
 40
0.2
100
AcDbArc
 50
90.0
 51
179.9999999999
  0
ARC
  5
316
100
AcDbEntity
  8
0
100
AcDbCircle
 62
6
  6
CONTINUOUS
 10
24.3049784519
 20
33.0303736642
 40
0.2
100
AcDbArc
 50
180.0000000001
 51
270.0
  0
ARC
  5
317
100
AcDbEntity
  8
0
100
AcDbCircle
 62
7
  6
CONTINUOUS
 10
23.8569784519
 20
33.4078736642
 40
0.035
100
AcDbArc
 50
179.9999911257
 51
270.0
  0
ARC
  5
318
100
AcDbEntity
  8
0
100
AcDbCircle
 62
7
  6
CONTINUOUS
 10
23.8569784519
 20
35.0978736642
 40
0.035
100
AcDbArc
 50
90.0
 51
180.0000088743
  0
SPLINE
  5
319
100
AcDbEntity
  8
0
100
AcDbSpline
 62
7
  6
CONTINUOUS
 70
0
 71
3
 72
9
 73
5
 74
3
 42
0.0000001
 43
0.0000001
 44
0.0000000001
 12
-0.0338209864
 22
-0.0408201931
 32
0.0
 13
-0.0271793891
 23
-0.0455129443
 33
0.0
 40
0.0
 40
0.0
 40
0.0
 40
0.0
 40
0.2516549592
 40
1.0
 40
1.0
 40
1.0
 40
1.0
 10
23.5707621219
 20
-0.5221263358
 30
0.0
 10
23.5679250489
 20
-0.5255505371
 30
0.0
 10
23.5569333533
 20
-0.5393896512
 30
0.0
 10
23.547051997
 20
-0.554101135
 30
0.0
 10
23.5402721433
 20
-0.5654542637
 30
0.0
 11
23.5707621219
 21
-0.5221263358
 31
0.0
 11
23.5624631375
 21
-0.5325711479
 31
0.0
 11
23.5402721433
 21
-0.5654542637
 31
0.0
  0
SPLINE
  5
31A
100
AcDbEntity
  8
0
100
AcDbSpline
 62
7
  6
CONTINUOUS
 70
0
 71
3
 72
19
 73
15
 74
13
 42
0.0000001
 43
0.0000001
 44
0.0000000001
 12
-0.3664856979
 22
-0.6136945573
 32
0.0
 13
0.4560407073
 23
-0.5504177047
 33
0.0
 40
0.0
 40
0.0
 40
0.0
 40
0.0
 40
0.1265394954
 40
0.2510226213
 40
0.3747562317
 40
0.436556022
 40
0.4983524475
 40
0.560154469
 40
0.6220002823
 40
0.6839717379
 40
0.7461463783
 40
0.8716116063
 40
0.9354295763
 40
1.0
 40
1.0
 40
1.0
 40
1.0
 10
23.5402721433
 20
-0.5654542637
 30
0.0
 10
23.5248138382
 20
-0.5913397969
 30
0.0
 10
23.5002569903
 20
-0.6464636991
 30
0.0
 10
23.4788559657
 20
-0.733428142
 30
0.0
 10
23.4700965247
 20
-0.8069353909
 30
0.0
 10
23.4675977643
 20
-0.8658283255
 30
0.0
 10
23.4677432321
 20
-0.9100180239
 30
0.0
 10
23.4699363643
 20
-0.9541662499
 30
0.0
 10
23.4744255155
 20
-0.9981846388
 30
0.0
 10
23.4813776033
 20
-1.0419822106
 30
0.0
 10
23.4943816252
 20
-1.1000365624
 30
0.0
 10
23.5143554973
 20
-1.156948964
 30
0.0
 10
23.5431035964
 20
-1.2102903655
 30
0.0
 10
23.5609465413
 20
-1.2352794343
 30
0.0
 10
23.5707621219
 20
-1.2471263358
 30
0.0
 11
23.5402721433
 21
-0.5654542637
 31
0.0
 11
23.5026533161
 21
-0.6477099873
 31
0.0
 11
23.480614365
 21
-0.7339174335
 31
0.0
 11
23.4698444664
 21
-0.8217034992
 31
0.0
 11
23.4679341643
 21
-0.865836394
 31
0.0
 11
23.4680843825
 21
-0.9100079527
 31
0.0
 11
23.4703175968
 21
-0.9541272831
 31
0.0
 11
23.474830051
 21
-0.9981034914
 31
0.0
 11
23.4818253299
 21
-1.0418445892
 31
0.0
 11
23.4916475198
 21
-1.0851877572
 31
0.0
 11
23.522064422
 21
-1.1695540558
 31
0.0
 11
23.5438345757
 21
-1.2096408783
 31
0.0
 11
23.5707621219
 21
-1.2471263358
 31
0.0
  0
SPLINE
  5
31B
100
AcDbEntity
  8
0
100
AcDbSpline
 62
7
  6
CONTINUOUS
 70
0
 71
3
 72
19
 73
15
 74
13
 42
0.0000001
 43
0.0000001
 44
0.0000000001
 12
-0.4560406055
 22
-0.5504175817
 32
0.0
 13
0.3664853567
 23
-0.6136945751
 33
0.0
 40
0.0
 40
0.0
 40
0.0
 40
0.0
 40
0.0645704242
 40
0.1283883963
 40
0.2538536333
 40
0.3160282777
 40
0.3779997399
 40
0.439845556
 40
0.5016475772
 40
0.5634440034
 40
0.6252437962
 40
0.748977402
 40
0.8734605242
 40
1.0
 40
1.0
 40
1.0
 40
1.0
 10
23.5707621219
 20
-1.2471263358
 30
0.0
 10
23.5609465434
 20
-1.2589732347
 30
0.0
 10
23.5431036017
 20
-1.283962298
 30
0.0
 10
23.5143555066
 20
-1.3373036894
 30
0.0
 10
23.494381632
 20
-1.3942160795
 30
0.0
 10
23.4813776089
 20
-1.4522704224
 30
0.0
 10
23.4744255231
 20
-1.4960679877
 30
0.0
 10
23.4699363608
 20
-1.5400863674
 30
0.0
 10
23.4677432218
 20
-1.5842345844
 30
0.0
 10
23.4675977738
 20
-1.6284242737
 30
0.0
 10
23.470096523
 20
-1.6873171948
 30
0.0
 10
23.4788559493
 20
-1.7608244276
 30
0.0
 10
23.5002569501
 20
-1.8477888487
 30
0.0
 10
23.5248137729
 20
-1.9029127403
 30
0.0
 10
23.5402720612
 20
-1.9287982702
 30
0.0
 11
23.5707621219
 21
-1.2471263358
 31
0.0
 11
23.543834581
 21
-1.2846117848
 31
0.0
 11
23.5220644303
 21
-1.324698599
 31
0.0
 11
23.4916475265
 21
-1.4090648826
 31
0.0
 11
23.4818253362
 21
-1.4524080433
 31
0.0
 11
23.4748300563
 21
-1.4961491357
 31
0.0
 11
23.4703175939
 21
-1.5401253352
 31
0.0
 11
23.4680843766
 21
-1.5842446553
 31
0.0
 11
23.4679341691
 21
-1.6284162048
 31
0.0
 11
23.4698444675
 21
-1.6725490916
 31
0.0
 11
23.4806143478
 21
-1.7603351363
 31
0.0
 11
23.5026532751
 21
-1.8465425654
 31
0.0
 11
23.5402720612
 21
-1.9287982702
 31
0.0
  0
SPLINE
  5
31C
100
AcDbEntity
  8
0
100
AcDbSpline
 62
7
  6
CONTINUOUS
 70
0
 71
3
 72
9
 73
5
 74
3
 42
0.0000001
 43
0.0000001
 44
0.0000000001
 12
0.0271785805
 22
-0.0455116341
 32
0.0
 13
0.0338200043
 23
-0.0408190077
 33
0.0
 40
0.0
 40
0.0
 40
0.0
 40
0.0
 40
0.2486805219
 40
1.0
 40
1.0
 40
1.0
 40
1.0
 10
23.5402720612
 20
-1.9287982702
 30
0.0
 10
23.5425249891
 20
-1.9325708892
 30
0.0
 10
23.5518500753
 20
-1.9475802714
 30
0.0
 10
23.5622922459
 20
-1.9619036306
 30
0.0
 10
23.5707621219
 20
-1.9721263358
 30
0.0
 11
23.5402720612
 21
-1.9287982702
 31
0.0
 11
23.5472320065
 21
-1.9399935461
 31
0.0
 11
23.5707621219
 21
-1.9721263358
 31
0.0
  0
SPLINE
  5
31D
100
AcDbEntity
  8
0
100
AcDbSpline
 62
7
  6
CONTINUOUS
 70
0
 71
3
 72
9
 73
5
 74
3
 42
0.0000001
 43
0.0000001
 44
0.0000000001
 12
-0.0338209864
 22
-0.0408201931
 32
0.0
 13
-0.0271793891
 23
-0.0455129443
 33
0.0
 40
0.0
 40
0.0
 40
0.0
 40
0.0
 40
0.2516549592
 40
1.0
 40
1.0
 40
1.0
 40
1.0
 10
23.5707621219
 20
34.9778736642
 30
0.0
 10
23.5679250489
 20
34.9744494629
 30
0.0
 10
23.5569333533
 20
34.9606103488
 30
0.0
 10
23.547051997
 20
34.945898865
 30
0.0
 10
23.5402721433
 20
34.9345457363
 30
0.0
 11
23.5707621219
 21
34.9778736642
 31
0.0
 11
23.5624631375
 21
34.9674288521
 31
0.0
 11
23.5402721433
 21
34.9345457363
 31
0.0
  0
SPLINE
  5
31E
100
AcDbEntity
  8
0
100
AcDbSpline
 62
7
  6
CONTINUOUS
 70
0
 71
3
 72
19
 73
15
 74
13
 42
0.0000001
 43
0.0000001
 44
0.0000000001
 12
-0.3664856979
 22
-0.6136945573
 32
0.0
 13
0.4560407073
 23
-0.5504177047
 33
0.0
 40
0.0
 40
0.0
 40
0.0
 40
0.0
 40
0.1265394954
 40
0.2510226213
 40
0.3747562317
 40
0.436556022
 40
0.4983524475
 40
0.560154469
 40
0.6220002823
 40
0.6839717379
 40
0.7461463783
 40
0.8716116063
 40
0.9354295763
 40
1.0
 40
1.0
 40
1.0
 40
1.0
 10
23.5402721433
 20
34.9345457363
 30
0.0
 10
23.5248138382
 20
34.9086602031
 30
0.0
 10
23.5002569903
 20
34.8535363009
 30
0.0
 10
23.4788559657
 20
34.766571858
 30
0.0
 10
23.4700965247
 20
34.6930646091
 30
0.0
 10
23.4675977643
 20
34.6341716745
 30
0.0
 10
23.4677432321
 20
34.5899819761
 30
0.0
 10
23.4699363643
 20
34.5458337501
 30
0.0
 10
23.4744255155
 20
34.5018153612
 30
0.0
 10
23.4813776033
 20
34.4580177894
 30
0.0
 10
23.4943816252
 20
34.3999634376
 30
0.0
 10
23.5143554973
 20
34.343051036
 30
0.0
 10
23.5431035964
 20
34.2897096345
 30
0.0
 10
23.5609465413
 20
34.2647205657
 30
0.0
 10
23.5707621219
 20
34.2528736642
 30
0.0
 11
23.5402721433
 21
34.9345457363
 31
0.0
 11
23.5026533161
 21
34.8522900127
 31
0.0
 11
23.480614365
 21
34.7660825665
 31
0.0
 11
23.4698444664
 21
34.6782965008
 31
0.0
 11
23.4679341643
 21
34.634163606
 31
0.0
 11
23.4680843825
 21
34.5899920473
 31
0.0
 11
23.4703175968
 21
34.5458727169
 31
0.0
 11
23.474830051
 21
34.5018965086
 31
0.0
 11
23.4818253299
 21
34.4581554108
 31
0.0
 11
23.4916475198
 21
34.4148122428
 31
0.0
 11
23.522064422
 21
34.3304459442
 31
0.0
 11
23.5438345757
 21
34.2903591217
 31
0.0
 11
23.5707621219
 21
34.2528736642
 31
0.0
  0
SPLINE
  5
31F
100
AcDbEntity
  8
0
100
AcDbSpline
 62
7
  6
CONTINUOUS
 70
0
 71
3
 72
19
 73
15
 74
13
 42
0.0000001
 43
0.0000001
 44
0.0000000001
 12
-0.4560406055
 22
-0.5504175817
 32
0.0
 13
0.3664853567
 23
-0.6136945751
 33
0.0
 40
0.0
 40
0.0
 40
0.0
 40
0.0
 40
0.0645704242
 40
0.1283883963
 40
0.2538536333
 40
0.3160282777
 40
0.3779997399
 40
0.439845556
 40
0.5016475772
 40
0.5634440034
 40
0.6252437962
 40
0.748977402
 40
0.8734605242
 40
1.0
 40
1.0
 40
1.0
 40
1.0
 10
23.5707621219
 20
34.2528736642
 30
0.0
 10
23.5609465434
 20
34.2410267653
 30
0.0
 10
23.5431036017
 20
34.216037702
 30
0.0
 10
23.5143555066
 20
34.1626963106
 30
0.0
 10
23.494381632
 20
34.1057839205
 30
0.0
 10
23.4813776089
 20
34.0477295776
 30
0.0
 10
23.4744255231
 20
34.0039320123
 30
0.0
 10
23.4699363608
 20
33.9599136326
 30
0.0
 10
23.4677432218
 20
33.9157654156
 30
0.0
 10
23.4675977738
 20
33.8715757263
 30
0.0
 10
23.470096523
 20
33.8126828052
 30
0.0
 10
23.4788559493
 20
33.7391755724
 30
0.0
 10
23.5002569501
 20
33.6522111513
 30
0.0
 10
23.5248137729
 20
33.5970872597
 30
0.0
 10
23.5402720612
 20
33.5712017298
 30
0.0
 11
23.5707621219
 21
34.2528736642
 31
0.0
 11
23.543834581
 21
34.2153882152
 31
0.0
 11
23.5220644303
 21
34.175301401
 31
0.0
 11
23.4916475265
 21
34.0909351174
 31
0.0
 11
23.4818253362
 21
34.0475919567
 31
0.0
 11
23.4748300563
 21
34.0038508643
 31
0.0
 11
23.4703175939
 21
33.9598746648
 31
0.0
 11
23.4680843766
 21
33.9157553447
 31
0.0
 11
23.4679341691
 21
33.8715837952
 31
0.0
 11
23.4698444675
 21
33.8274509084
 31
0.0
 11
23.4806143478
 21
33.7396648637
 31
0.0
 11
23.5026532751
 21
33.6534574346
 31
0.0
 11
23.5402720612
 21
33.5712017298
 31
0.0
  0
SPLINE
  5
320
100
AcDbEntity
  8
0
100
AcDbSpline
 62
7
  6
CONTINUOUS
 70
0
 71
3
 72
9
 73
5
 74
3
 42
0.0000001
 43
0.0000001
 44
0.0000000001
 12
0.0271785805
 22
-0.0455116341
 32
0.0
 13
0.0338200043
 23
-0.0408190077
 33
0.0
 40
0.0
 40
0.0
 40
0.0
 40
0.0
 40
0.2486805219
 40
1.0
 40
1.0
 40
1.0
 40
1.0
 10
23.5402720612
 20
33.5712017298
 30
0.0
 10
23.5425249891
 20
33.5674291108
 30
0.0
 10
23.5518500753
 20
33.5524197286
 30
0.0
 10
23.5622922459
 20
33.5380963694
 30
0.0
 10
23.5707621219
 20
33.5278736642
 30
0.0
 11
23.5402720612
 21
33.5712017298
 31
0.0
 11
23.5472320065
 21
33.5600064539
 31
0.0
 11
23.5707621219
 21
33.5278736642
 31
0.0
  0
SPLINE
  5
321
100
AcDbEntity
  8
0
100
AcDbSpline
 62
7
  6
CONTINUOUS
 70
0
 71
3
 72
8
 73
4
 74
2
 42
0.0000001
 43
0.0000001
 44
0.0000000001
 12
0.0621914053
 22
0.0003764236
 32
0.0
 13
0.057558862
 23
0.0235561033
 33
0.0
 40
0.0
 40
0.0
 40
0.0
 40
0.0
 40
1.0
 40
1.0
 40
1.0
 40
1.0
 10
22.1819784519
 20
16.3428736642
 30
0.0
 10
22.2027089204
 20
16.3429991388
 30
0.0
 10
22.2237987987
 20
16.3471089452
 30
0.0
 10
22.242985086
 20
16.3549609796
 30
0.0
 11
22.1819784519
 21
16.3428736642
 31
0.0
 11
22.242985086
 21
16.3549609796
 31
0.0
  0
SPLINE
  5
322
100
AcDbEntity
  8
0
100
AcDbSpline
 62
7
  6
CONTINUOUS
 70
0
 71
3
 72
9
 73
5
 74
3
 42
0.0000001
 43
0.0000001
 44
0.0000000001
 12
0.1177936279
 22
0.0482073266
 32
0.0
 13
0.0470061004
 23
0.1182781114
 33
0.0
 40
0.0
 40
0.0
 40
0.0
 40
0.0
 40
0.4996977249
 40
1.0
 40
1.0
 40
1.0
 40
1.0
 10
22.242985086
 20
16.3549609796
 30
0.0
 10
22.2626054886
 20
16.3629906767
 30
0.0
 10
22.2989111167
 20
16.3873754903
 30
0.0
 10
22.3227945988
 20
16.4239839465
 30
0.0
 10
22.3306336851
 20
16.4437088825
 30
0.0
 11
22.242985086
 21
16.3549609796
 31
0.0
 11
22.2957873854
 21
16.3904129653
 31
0.0
 11
22.3306336851
 21
16.4437088825
 31
0.0
  0
SPLINE
  5
323
100
AcDbEntity
  8
0
100
AcDbSpline
 62
7
  6
CONTINUOUS
 70
0
 71
3
 72
12
 73
8
 74
6
 42
0.0000001
 43
0.0000001
 44
0.0000000001
 12
-0.0713474807
 22
0.1746010379
 32
0.0
 13
-0.1886145212
 23
0.0007401501
 33
0.0
 40
0.0
 40
0.0
 40
0.0
 40
0.0
 40
0.2483663205
 40
0.4963479864
 40
0.6213689035
 40
0.74735926
 40
1.0
 40
1.0
 40
1.0
 40
1.0
 10
22.3300570469
 20
16.563469666
 30
0.0
 10
22.3241502765
 20
16.5779246718
 30
0.0
 10
22.3079617721
 20
16.6052150488
 30
0.0
 10
22.2787348549
 20
16.6319993303
 30
0.0
 10
22.2514406876
 20
16.6476897462
 30
0.0
 10
22.2218411855
 20
16.6591827667
 30
0.0
 10
22.1978623537
 20
16.6628113405
 30
0.0
 10
22.1819784496
 20
16.6628736712
 30
0.0
 11
22.3300570469
 21
16.563469666
 31
0.0
 11
22.3061569802
 21
16.6037601235
 31
0.0
 11
22.2716880119
 21
16.635377083
 31
0.0
 11
22.251240202
 21
16.6471222053
 31
0.0
 11
22.2290932008
 21
16.655737786
 31
0.0
 11
22.1819784496
 21
16.6628736712
 31
0.0
  0
SPLINE
  5
324
100
AcDbEntity
  8
0
100
AcDbSpline
 62
7
  6
CONTINUOUS
 70
0
 71
3
 72
12
 73
8
 74
6
 42
0.0000001
 43
0.0000001
 44
0.0000000001
 12
-0.1898122678
 22
-0.0008479102
 32
0.0
 13
-0.0704593363
 23
-0.1762523699
 33
0.0
 40
0.0
 40
0.0
 40
0.0
 40
0.0
 40
0.2526189998
 40
0.3785719709
 40
0.5035596501
 40
0.751535666
 40
1.0
 40
1.0
 40
1.0
 40
1.0
 10
22.1819784496
 20
16.6628736712
 30
0.0
 10
22.1659950545
 20
16.6628022718
 30
0.0
 10
22.141866471
 20
16.6591340465
 30
0.0
 10
22.1121082897
 20
16.6475040186
 30
0.0
 10
22.0846952444
 20
16.6316261775
 30
0.0
 10
22.0554020143
 20
16.6045261258
 30
0.0
 10
22.0392822449
 20
16.5769459989
 30
0.0
 10
22.0334467009
 20
16.562348523
 30
0.0
 11
22.1819784496
 21
16.6628736712
 31
0.0
 11
22.1345755071
 21
16.6556468332
 31
0.0
 11
22.1123136348
 21
16.646929888
 31
0.0
 11
22.0917798406
 21
16.6350466245
 31
0.0
 11
22.0572418834
 21
16.6030676608
 31
0.0
 11
22.0334467009
 21
16.562348523
 31
0.0
  0
SPLINE
  5
325
100
AcDbEntity
  8
0
100
AcDbSpline
 62
7
  6
CONTINUOUS
 70
0
 71
3
 72
9
 73
5
 74
3
 42
0.0000001
 43
0.0000001
 44
0.0000000001
 12
0.0477195531
 22
-0.1159627322
 32
0.0
 13
0.1160845143
 23
-0.047422532
 33
0.0
 40
0.0
 40
0.0
 40
0.0
 40
0.0
 40
0.5001829757
 40
1.0
 40
1.0
 40
1.0
 40
1.0
 10
22.0340476519
 20
16.4419167586
 30
0.0
 10
22.0420038213
 20
16.4225825637
 30
0.0
 10
22.0658430882
 20
16.3867685054
 30
0.0
 10
22.101646224
 20
16.3628558484
 30
0.0
 10
22.1209865628
 20
16.3549549855
 30
0.0
 11
22.0340476519
 21
16.4419167586
 31
0.0
 11
22.0688449689
 21
16.3897329276
 31
0.0
 11
22.1209865628
 21
16.3549549855
 31
0.0
  0
SPLINE
  5
326
100
AcDbEntity
  8
0
100
AcDbSpline
 62
7
  6
CONTINUOUS
 70
0
 71
3
 72
8
 73
4
 74
2
 42
0.0000001
 43
0.0000001
 44
0.0000000001
 12
0.0575592186
 22
-0.0235139364
 32
0.0
 13
0.0621747922
 23
-0.0005138807
 33
0.0
 40
0.0
 40
0.0
 40
0.0
 40
0.0
 40
1.0
 40
1.0
 40
1.0
 40
1.0
 10
22.1209865628
 20
16.3549549855
 30
0.0
 10
22.1401729691
 20
16.3471170067
 30
0.0
 10
22.1612535212
 20
16.3430449578
 30
0.0
 10
22.1819784519
 20
16.3428736642
 30
0.0
 11
22.1209865628
 21
16.3549549855
 31
0.0
 11
22.1819784519
 21
16.3428736642
 31
0.0
  0
SPLINE
  5
327
100
AcDbEntity
  8
0
100
AcDbSpline
 62
9
  6
CONTINUOUS
 70
0
 71
3
 72
11
 73
7
 74
5
 42
0.0000001
 43
0.0000001
 44
0.0000000001
 12
0.0344992332
 22
-0.0097669535
 32
0.0
 13
0.025263803
 23
0.025442695
 33
0.0
 40
0.0
 40
0.0
 40
0.0
 40
0.0
 40
0.2617672147
 40
0.5342946374
 40
0.7876014781
 40
1.0
 40
1.0
 40
1.0
 40
1.0
 10
21.8319136065
 20
16.1534376019
 30
0.0
 10
21.8349238625
 20
16.1525853791
 30
0.0
 10
21.8413118063
 20
16.1516739178
 30
0.0
 10
21.850772045
 20
16.1522892978
 30
0.0
 10
21.8593108469
 20
16.1547382295
 30
0.0
 10
21.8641822035
 20
16.1577170868
 30
0.0
 10
21.8659708683
 20
16.1595184171
 30
0.0
 11
21.8319136065
 21
16.1534376019
 31
0.0
 11
21.8411902906
 21
16.1520112579
 31
0.0
 11
21.8509400711
 21
16.1526625052
 31
0.0
 11
21.8596315796
 21
16.1552981764
 31
0.0
 11
21.8659708683
 21
16.1595184171
 31
0.0
  0
SPLINE
  5
328
100
AcDbEntity
  8
0
100
AcDbSpline
 62
9
  6
CONTINUOUS
 70
0
 71
3
 72
9
 73
5
 74
3
 42
0.0000001
 43
0.0000001
 44
0.0000000001
 12
0.0055310374
 22
0.0055702025
 32
0.0
 13
-0.0002719634
 23
0.0078450982
 33
0.0
 40
0.0
 40
0.0
 40
0.0
 40
0.0
 40
0.5336744785
 40
1.0
 40
1.0
 40
1.0
 40
1.0
 10
21.8659708683
 20
16.1595184171
 30
0.0
 10
21.8669547928
 20
16.1605093087
 30
0.0
 10
21.8685645264
 20
16.1626473472
 30
0.0
 10
21.8691809256
 20
16.165302309
 30
0.0
 10
21.8691386511
 20
16.1665217655
 30
0.0
 11
21.8659708683
 21
16.1595184171
 31
0.0
 11
21.8683900303
 21
16.162938566
 31
0.0
 11
21.8691386511
 21
16.1665217655
 31
0.0
  0
SPLINE
  5
329
100
AcDbEntity
  8
0
100
AcDbSpline
 62
9
  6
CONTINUOUS
 70
0
 71
3
 72
11
 73
7
 74
5
 42
0.0000001
 43
0.0000001
 44
0.0000000001
 12
-0.0207337319
 22
0.0000004091
 32
0.0
 13
-0.0052836632
 23
0.020049203
 33
0.0
 40
0.0
 40
0.0
 40
0.0
 40
0.0
 40
0.3508114021
 40
0.4831381798
 40
0.6354192866
 40
1.0
 40
1.0
 40
1.0
 40
1.0
 10
21.844596726
 20
16.1278736642
 30
0.0
 10
21.8421721828
 20
16.1278737121
 30
0.0
 10
21.839337964
 20
16.130887754
 30
0.0
 10
21.837277498
 20
16.134640169
 30
0.0
 10
21.8354581245
 20
16.1387810678
 30
0.0
 10
21.8344081232
 20
16.1421942313
 30
0.0
 10
21.833766016
 20
16.1446307489
 30
0.0
 11
21.844596726
 21
16.1278736642
 31
0.0
 11
21.8387245732
 21
16.1321659257
 31
0.0
 11
21.8373692839
 21
16.1345514414
 31
0.0
 11
21.8360876951
 21
16.1374369959
 31
0.0
 11
21.833766016
 21
16.1446307489
 31
0.0
  0
SPLINE
  5
32A
100
AcDbEntity
  8
0
100
AcDbSpline
 62
9
  6
CONTINUOUS
 70
0
 71
3
 72
9
 73
5
 74
3
 42
0.0000001
 43
0.0000001
 44
0.0000000001
 12
-0.0022938884
 22
0.0087043084
 32
0.0
 13
-0.0014413612
 23
0.0088853467
 33
0.0
 40
0.0
 40
0.0
 40
0.0
 40
0.0
 40
0.2368454316
 40
1.0
 40
1.0
 40
1.0
 40
1.0
 10
21.833766016
 20
16.1446307489
 30
0.0
 10
21.833584917
 20
16.1453179408
 30
0.0
 10
21.832858681
 20
16.1482294181
 30
0.0
 10
21.8322802962
 20
16.1511772764
 30
0.0
 10
21.8319136357
 20
16.153437574
 30
0.0
 11
21.833766016
 21
16.1446307489
 31
0.0
 11
21.8332491995
 21
16.1466991218
 31
0.0
 11
21.8319136357
 21
16.153437574
 31
0.0
  0
LINE
  5
32B
100
AcDbEntity
  8
0
100
AcDbLine
 62
9
  6
CONTINUOUS
 10
21.869586424
 20
16.1537399723
 11
21.8633542728
 21
16.1537392979
  0
SPLINE
  5
32C
100
AcDbEntity
  8
0
100
AcDbSpline
 62
9
  6
CONTINUOUS
 70
0
 71
3
 72
9
 73
5
 74
3
 42
0.0000001
 43
0.0000001
 44
0.0000000001
 12
-0.0077512653
 22
-0.0055164142
 32
0.0
 13
-0.0095138288
 23
-0.0
 33
0.0
 40
0.0
 40
0.0
 40
0.0
 40
0.0
 40
0.2629246801
 40
1.0
 40
1.0
 40
1.0
 40
1.0
 10
21.8535354817
 20
16.1308831218
 30
0.0
 10
21.8528561487
 20
16.1303996547
 30
0.0
 10
21.8501478789
 20
16.1287491517
 30
0.0
 10
21.846934237
 20
16.1278736642
 30
0.0
 10
21.8445967675
 20
16.1278736642
 30
0.0
 11
21.8535354817
 21
16.1308831218
 31
0.0
 11
21.8513970707
 21
16.1295853151
 31
0.0
 11
21.8445967675
 21
16.1278736642
 31
0.0
  0
SPLINE
  5
32D
100
AcDbEntity
  8
0
100
AcDbSpline
 62
9
  6
CONTINUOUS
 70
0
 71
3
 72
9
 73
5
 74
3
 42
0.0000001
 43
0.0000001
 44
0.0000000001
 12
-0.0066858725
 22
0.0053593484
 32
0.0
 13
-0.0084659918
 23
0.0013230599
 33
0.0
 40
0.0
 40
0.0
 40
0.0
 40
0.0
 40
0.2603256805
 40
1.0
 40
1.0
 40
1.0
 40
1.0
 10
21.8303452368
 20
16.8741648315
 30
0.0
 10
21.8297650687
 20
16.8746298901
 30
0.0
 10
21.8274363199
 20
16.8762840382
 30
0.0
 10
21.824683896
 20
16.8773709817
 30
0.0
 10
21.8225965371
 20
16.8776971929
 30
0.0
 11
21.8303452368
 21
16.8741648315
 31
0.0
 11
21.8285238902
 21
16.8754526854
 31
0.0
 11
21.8225965371
 21
16.8776971929
 31
0.0
  0
SPLINE
  5
32E
100
AcDbEntity
  8
0
100
AcDbSpline
 62
9
  6
CONTINUOUS
 70
0
 71
3
 72
10
 73
6
 74
4
 42
0.0000001
 43
0.0000001
 44
0.0000000001
 12
-0.008110577
 22
0.0239367659
 32
0.0
 13
-0.02524604
 23
0.0011780004
 33
0.0
 40
0.0
 40
0.0
 40
0.0
 40
0.0
 40
0.4263824848
 40
0.6997212304
 40
1.0
 40
1.0
 40
1.0
 40
1.0
 10
21.8452890903
 20
16.8434967379
 30
0.0
 10
21.8441363544
 20
16.8468988105
 30
0.0
 10
21.8390663282
 20
16.8511722802
 30
0.0
 10
21.8311793133
 20
16.8539288243
 30
0.0
 10
21.8263355597
 20
16.8546242
 30
0.0
 10
21.8238086098
 20
16.8547421095
 30
0.0
 11
21.8452890903
 21
16.8434967379
 31
0.0
 11
21.8377908009
 21
16.8512363591
 31
0.0
 11
21.8313192131
 21
16.8536534193
 31
0.0
 11
21.8238086098
 21
16.8547421095
 31
0.0
  0
SPLINE
  5
32F
100
AcDbEntity
  8
0
100
AcDbSpline
 62
9
  6
CONTINUOUS
 70
0
 71
3
 72
9
 73
5
 74
3
 42
0.0000001
 43
0.0000001
 44
0.0000000001
 12
-0.0163682359
 22
0.000763755
 32
0.0
 13
-0.0152968244
 23
-0.0058744899
 33
0.0
 40
0.0
 40
0.0
 40
0.0
 40
0.0
 40
0.513007582
 40
1.0
 40
1.0
 40
1.0
 40
1.0
 10
21.8238086098
 20
16.8547421095
 30
0.0
 10
21.8210096001
 20
16.8548727135
 30
0.0
 10
21.8155209186
 20
16.8545707569
 30
0.0
 10
21.8101691765
 20
16.853263342
 30
0.0
 10
21.8076860307
 20
16.8523097314
 30
0.0
 11
21.8238086098
 21
16.8547421095
 31
0.0
 11
21.8154141689
 21
16.8542982882
 31
0.0
 11
21.8076860307
 21
16.8523097314
 31
0.0
  0
LINE
  5
330
100
AcDbEntity
  8
0
100
AcDbLine
 62
9
  6
CONTINUOUS
 10
21.8457581952
 20
16.8409579926
 11
21.8452890903
 21
16.8434967379
  0
SPLINE
  5
331
100
AcDbEntity
  8
0
100
AcDbSpline
 62
9
  6
CONTINUOUS
 70
0
 71
3
 72
11
 73
7
 74
5
 42
0.0000001
 43
0.0000001
 44
0.0000000001
 12
0.0039758119
 22
0.0294179211
 32
0.0
 13
0.0296853695
 23
0.0
 33
0.0
 40
0.0
 40
0.0
 40
0.0
 40
0.0
 40
0.3707891414
 40
0.5273598575
 40
0.6619904489
 40
1.0
 40
1.0
 40
1.0
 40
1.0
 10
21.807686062
 20
16.8523097516
 30
0.0
 10
21.808177458
 20
16.8559457002
 30
0.0
 10
21.8091566618
 20
16.8610664899
 30
0.0
 10
21.8111513886
 20
16.8673781994
 30
0.0
 10
21.8134096911
 20
16.8729452707
 30
0.0
 10
21.8169861581
 20
16.8778736642
 30
0.0
 10
21.8203308043
 20
16.8778736642
 30
0.0
 11
21.807686062
 21
16.8523097516
 31
0.0
 11
21.8098559067
 21
16.8631007711
 31
0.0
 11
21.8112659786
 21
16.8675295741
 31
0.0
 11
21.8128322924
 21
16.8712064129
 31
0.0
 11
21.8203308043
 21
16.8778736642
 31
0.0
  0
SPLINE
  5
332
100
AcDbEntity
  8
0
100
AcDbSpline
 62
9
  6
CONTINUOUS
 70
0
 71
3
 72
11
 73
7
 74
5
 42
0.0000001
 43
0.0000001
 44
0.0000000001
 12
-0.0163731817
 22
-0.0164012587
 32
0.0
 13
-0.023188095
 23
-0.0007188571
 33
0.0
 40
0.0
 40
0.0
 40
0.0
 40
0.0
 40
0.0477934493
 40
0.2097440217
 40
0.5833871949
 40
1.0
 40
1.0
 40
1.0
 40
1.0
 10
21.8659729267
 20
16.1595163623
 30
0.0
 10
21.8657120831
 20
16.1592550713
 30
0.0
 10
21.8645240939
 20
16.158153409
 30
0.0
 10
21.8607973164
 20
16.1555551745
 30
0.0
 10
21.8538161295
 20
16.1529242585
 30
0.0
 10
21.8477120346
 20
16.1520917933
 30
0.0
 10
21.8444918821
 20
16.151991965
 30
0.0
 11
21.8659729267
 21
16.1595163623
 31
0.0
 11
21.8651627927
 21
16.1587617078
 31
0.0
 11
21.862103446
 21
16.1565807862
 31
0.0
 11
21.8540618052
 21
16.153344998
 31
0.0
 11
21.8444918821
 21
16.151991965
 31
0.0
  0
SPLINE
  5
333
100
AcDbEntity
  8
0
100
AcDbSpline
 62
9
  6
CONTINUOUS
 70
0
 71
3
 72
9
 73
5
 74
3
 42
0.0000001
 43
0.0000001
 44
0.0000000001
 12
-0.0126811983
 22
-0.0003931314
 32
0.0
 13
-0.0122075076
 23
0.0034560238
 33
0.0
 40
0.0
 40
0.0
 40
0.0
 40
0.0
 40
0.2589290798
 40
1.0
 40
1.0
 40
1.0
 40
1.0
 10
21.8444918821
 20
16.151991965
 30
0.0
 10
21.8433973718
 20
16.1519580339
 30
0.0
 10
21.8391687905
 20
16.1519849563
 30
0.0
 10
21.8349291494
 20
16.1525838823
 30
0.0
 10
21.8319136065
 20
16.1534376019
 30
0.0
 11
21.8444918821
 21
16.151991965
 31
0.0
 11
21.841206825
 21
16.1520103254
 31
0.0
 11
21.8319136065
 21
16.1534376019
 31
0.0
  0
SPLINE
  5
334
100
AcDbEntity
  8
0
100
AcDbSpline
 62
9
  6
CONTINUOUS
 70
0
 71
3
 72
11
 73
7
 74
5
 42
0.0000001
 43
0.0000001
 44
0.0000000001
 12
-0.033688072
 22
0.0129385198
 32
0.0
 13
-0.026269229
 23
-0.0247430615
 33
0.0
 40
0.0
 40
0.0
 40
0.0
 40
0.0
 40
0.2607756923
 40
0.5315691412
 40
0.7845239368
 40
1.0
 40
1.0
 40
1.0
 40
1.0
 10
22.5562708417
 20
16.8523097545
 30
0.0
 10
22.5533424983
 20
16.8534344383
 30
0.0
 10
22.5470340935
 20
16.8548762395
 30
0.0
 10
22.5375202042
 20
16.8548943205
 30
0.0
 10
22.5287864726
 20
16.8528654473
 30
0.0
 10
22.523748593
 20
16.8500149411
 30
0.0
 10
22.5218617964
 20
16.848237762
 30
0.0
 11
22.5562708417
 21
16.8523097545
 31
0.0
 11
22.5471197886
 21
16.8545050238
 31
0.0
 11
22.5373475909
 21
16.8545072385
 31
0.0
 11
22.5284884541
 21
16.8523062647
 31
0.0
 11
22.5218617964
 21
16.848237762
 31
0.0
  0
SPLINE
  5
335
100
AcDbEntity
  8
0
100
AcDbSpline
 62
9
  6
CONTINUOUS
 70
0
 71
3
 72
9
 73
5
 74
3
 42
0.0000001
 43
0.0000001
 44
0.0000000001
 12
-0.0060474901
 22
-0.0056961481
 32
0.0
 13
-0.0002878281
 23
-0.0083027341
 33
0.0
 40
0.0
 40
0.0
 40
0.0
 40
0.0
 40
0.5283650079
 40
1.0
 40
1.0
 40
1.0
 40
1.0
 10
22.5218617964
 20
16.848237762
 30
0.0
 10
22.5207967023
 20
16.8472345469
 30
0.0
 10
22.5190286642
 20
16.8450244818
 30
0.0
 10
22.5182439538
 20
16.8422631424
 30
0.0
 10
22.5181987039
 20
16.8409578557
 30
0.0
 11
22.5218617964
 21
16.848237762
 31
0.0
 11
22.5192028785
 21
16.8447452058
 31
0.0
 11
22.5181987039
 21
16.8409578557
 31
0.0
  0
SPLINE
  5
336
100
AcDbEntity
  8
0
100
AcDbSpline
 62
9
  6
CONTINUOUS
 70
0
 71
3
 72
11
 73
7
 74
5
 42
0.0000001
 43
0.0000001
 44
0.0000000001
 12
0.0201528422
 22
-0.0
 32
0.0
 13
0.0050702773
 23
-0.0195045979
 33
0.0
 40
0.0
 40
0.0
 40
0.0
 40
0.0
 40
0.1595282062
 40
0.3680139191
 40
0.6454726765
 40
1.0
 40
1.0
 40
1.0
 40
1.0
 10
22.543626094
 20
16.8778736642
 30
0.0
 10
22.5446977429
 20
16.8778736642
 30
0.0
 10
22.5471554759
 20
16.8769022027
 30
0.0
 10
22.5500383558
 20
16.8735558967
 30
0.0
 10
22.5525166757
 20
16.8684467234
 30
0.0
 10
22.5537767386
 20
16.8643802
 30
0.0
 10
22.5543759225
 20
16.8620752291
 30
0.0
 11
22.543626094
 21
16.8778736642
 31
0.0
 11
22.546675549
 21
16.876855476
 31
0.0
 11
22.5495945576
 21
16.8738334468
 31
0.0
 11
22.5521731024
 21
16.8688719045
 31
0.0
 11
22.5543759225
 21
16.8620752291
 31
0.0
  0
SPLINE
  5
337
100
AcDbEntity
  8
0
100
AcDbSpline
 62
9
  6
CONTINUOUS
 70
0
 71
3
 72
9
 73
5
 74
3
 42
0.0000001
 43
0.0000001
 44
0.0000000001
 12
0.0025035703
 22
-0.0096308602
 32
0.0
 13
0.0013331806
 23
-0.0098612353
 33
0.0
 40
0.0
 40
0.0
 40
0.0
 40
0.0
 40
0.2345254827
 40
1.0
 40
1.0
 40
1.0
 40
1.0
 10
22.5543759225
 20
16.8620752291
 30
0.0
 10
22.5545716395
 20
16.861322335
 30
0.0
 10
22.5553530252
 20
16.8580983618
 30
0.0
 10
22.5559306665
 20
16.8548259292
 30
0.0
 10
22.5562708384
 20
16.8523097545
 30
0.0
 11
22.5543759225
 21
16.8620752291
 31
0.0
 11
22.5549269429
 21
16.8598074619
 31
0.0
 11
22.5562708384
 21
16.8523097545
 31
0.0
  0
SPLINE
  5
338
100
AcDbEntity
  8
0
100
AcDbSpline
 62
9
  6
CONTINUOUS
 70
0
 71
3
 72
11
 73
7
 74
5
 42
0.0000001
 43
0.0000001
 44
0.0000000001
 12
-0.0345470233
 22
-0.0097784993
 32
0.0
 13
-0.0252157307
 23
0.0255593972
 33
0.0
 40
0.0
 40
0.0
 40
0.0
 40
0.0
 40
0.2618656352
 40
0.5344910912
 40
0.7877981189
 40
1.0
 40
1.0
 40
1.0
 40
1.0
 10
22.5320432738
 20
16.1534375953
 30
0.0
 10
22.5290277144
 20
16.1525840443
 30
0.0
 10
22.5226282975
 20
16.1516720496
 30
0.0
 10
22.5131528684
 20
16.1522944712
 30
0.0
 10
22.5046055457
 20
16.1547541685
 30
0.0
 10
22.4997343149
 20
16.1577462124
 30
0.0
 10
22.4979507064
 20
16.1595541298
 30
0.0
 11
22.5320432738
 21
16.1534375953
 31
0.0
 11
22.5227500905
 21
16.152010685
 31
0.0
 11
22.5129838379
 21
16.1526690028
 31
0.0
 11
22.5042832955
 21
16.155317771
 31
0.0
 11
22.4979507064
 21
16.1595541298
 31
0.0
  0
SPLINE
  5
339
100
AcDbEntity
  8
0
100
AcDbSpline
 62
9
  6
CONTINUOUS
 70
0
 71
3
 72
9
 73
5
 74
3
 42
0.0000001
 43
0.0000001
 44
0.0000000001
 12
-0.0054783364
 22
0.0055530009
 32
0.0
 13
0.0002702554
 23
0.0077958291
 33
0.0
 40
0.0
 40
0.0
 40
0.0
 40
0.0
 40
0.5334000993
 40
1.0
 40
1.0
 40
1.0
 40
1.0
 10
22.4979507064
 20
16.1595541298
 30
0.0
 10
22.496976658
 20
16.1605414535
 30
0.0
 10
22.4953839192
 20
16.1626709593
 30
0.0
 10
22.494776219
 20
16.1653092545
 30
0.0
 10
22.4948182528
 20
16.1665217655
 30
0.0
 11
22.4979507064
 21
16.1595541298
 31
0.0
 11
22.4955577828
 21
16.1629579692
 31
0.0
 11
22.4948182528
 21
16.1665217655
 31
0.0
  0
SPLINE
  5
33A
100
AcDbEntity
  8
0
100
AcDbSpline
 62
9
  6
CONTINUOUS
 70
0
 71
3
 72
12
 73
8
 74
6
 42
0.0000001
 43
0.0000001
 44
0.0000000001
 12
-0.004789098
 22
-0.0295288788
 32
0.0
 13
-0.0299147145
 23
-0.0000005781
 33
0.0
 40
0.0
 40
0.0
 40
0.0
 40
0.0
 40
0.3687427561
 40
0.6586772866
 40
0.7712258032
 40
0.8636892494
 40
1.0
 40
1.0
 40
1.0
 40
1.0
 10
22.5320432734
 20
16.1534375795
 30
0.0
 10
22.531454625
 20
16.1498080594
 30
0.0
 10
22.5300514405
 20
16.1433788131
 30
0.0
 10
22.5275242174
 20
16.1360774691
 30
0.0
 10
22.5250631486
 20
16.1317608173
 30
0.0
 10
22.5229242141
 20
16.1291447557
 30
0.0
 10
22.5207194093
 20
16.1278736905
 30
0.0
 10
22.5193601769
 20
16.1278736642
 30
0.0
 11
22.5320432734
 21
16.1534375795
 31
0.0
 11
22.5296468645
 21
16.1426701968
 31
0.0
 11
22.5265888225
 21
16.134553876
 31
0.0
 11
22.5248833117
 21
16.1316509538
 31
0.0
 11
22.5230730156
 21
16.129559619
 31
0.0
 11
22.5193601769
 21
16.1278736642
 31
0.0
  0
SPLINE
  5
33B
100
AcDbEntity
  8
0
100
AcDbSpline
 62
9
  6
CONTINUOUS
 70
0
 71
3
 72
9
 73
5
 74
3
 42
0.0000001
 43
0.0000001
 44
0.0000000001
 12
0.0067689549
 22
-0.0058152664
 32
0.0
 13
0.0088132947
 23
-0.0014006819
 33
0.0
 40
0.0
 40
0.0
 40
0.0
 40
0.0
 40
0.2619513972
 40
1.0
 40
1.0
 40
1.0
 40
1.0
 10
22.5091448983
 20
16.1318908529
 30
0.0
 10
22.509735944
 20
16.1313830805
 30
0.0
 10
22.5121057751
 20
16.1295853735
 30
0.0
 10
22.5149632623
 20
16.128394726
 30
0.0
 10
22.5171314755
 20
16.1280501356
 30
0.0
 11
22.5091448983
 21
16.1318908529
 31
0.0
 11
22.5110109674
 21
16.1304829123
 31
0.0
 11
22.5171314755
 21
16.1280501356
 31
0.0
  0
SPLINE
  5
33C
100
AcDbEntity
  8
0
100
AcDbSpline
 62
9
  6
CONTINUOUS
 70
0
 71
3
 72
9
 73
5
 74
3
 42
0.0000001
 43
0.0000001
 44
0.0000000001
 12
0.0086408533
 22
0.0077443168
 32
0.0
 13
0.0116033955
 23
0.0
 33
0.0
 40
0.0
 40
0.0
 40
0.0
 40
0.0
 40
0.2620596744
 40
1.0
 40
1.0
 40
1.0
 40
1.0
 10
22.5329770524
 20
16.8736309643
 30
0.0
 10
22.5337318588
 20
16.8743074554
 30
0.0
 10
22.536832889
 20
16.8766247703
 30
0.0
 10
22.5407725985
 20
16.8778736642
 30
0.0
 10
22.543626803
 20
16.8778736642
 30
0.0
 11
22.5329770524
 21
16.8736309643
 31
0.0
 11
22.5354147653
 21
16.8754486309
 31
0.0
 11
22.543626803
 21
16.8778736642
 31
0.0
  0
SPLINE
  5
33D
100
AcDbEntity
  8
0
100
AcDbSpline
 62
6
  6
CONTINUOUS
 70
0
 71
3
 72
9
 73
5
 74
3
 42
0.0000001
 43
0.0000001
 44
0.0000000001
 12
-0.0338211016
 22
-0.0408203321
 32
0.0
 13
-0.0271927186
 23
-0.0455053688
 33
0.0
 40
0.0
 40
0.0
 40
0.0
 40
0.0
 40
0.252007897
 40
1.0
 40
1.0
 40
1.0
 40
1.0
 10
23.5707621219
 20
-0.5221263358
 30
0.0
 10
23.5679210603
 20
-0.5255553511
 30
0.0
 10
23.556930505
 20
-0.5393954946
 30
0.0
 10
23.54704841
 20
-0.5541061594
 30
0.0
 10
23.5402684304
 20
-0.5654520449
 30
0.0
 11
23.5707621219
 21
-0.5221263358
 31
0.0
 11
23.5624520429
 21
-0.5325862871
 31
0.0
 11
23.5402684304
 21
-0.5654520449
 31
0.0
  0
SPLINE
  5
33E
100
AcDbEntity
  8
0
100
AcDbSpline
 62
6
  6
CONTINUOUS
 70
0
 71
3
 72
11
 73
7
 74
5
 42
0.0000001
 43
0.0000001
 44
0.0000000001
 12
-0.1696634458
 22
-0.2839866096
 32
0.0
 13
-0.0000038429
 23
-0.3308082213
 33
0.0
 40
0.0
 40
0.0
 40
0.0
 40
0.0
 40
0.2534590737
 40
0.5035063673
 40
0.7520275735
 40
1.0
 40
1.0
 40
1.0
 40
1.0
 10
23.5402490678
 20
-0.5654844507
 30
0.0
 10
23.5259148212
 20
-0.5894774451
 30
0.0
 10
23.5027620098
 20
-0.6404181564
 30
0.0
 10
23.4814174138
 20
-0.7207979048
 30
0.0
 10
23.4700990392
 20
-0.8024925131
 30
0.0
 10
23.4677544665
 20
-0.8572716226
 30
0.0
 10
23.4677541489
 20
-0.8846153951
 30
0.0
 11
23.5402490678
 21
-0.5654844507
 31
0.0
 11
23.504850733
 21
-0.6414921314
 31
0.0
 11
23.4830321767
 21
-0.7212804048
 31
0.0
 11
23.4713892881
 21
-0.8026646612
 31
0.0
 11
23.4677541489
 21
-0.8846153951
 31
0.0
  0
SPLINE
  5
33F
100
AcDbEntity
  8
0
100
AcDbSpline
 62
6
  6
CONTINUOUS
 70
0
 71
3
 72
11
 73
7
 74
5
 42
0.0000001
 43
0.0000001
 44
0.0000000001
 12
-0.0000037512
 22
-0.3308278974
 32
0.0
 13
0.1696720884
 23
-0.2840043664
 33
0.0
 40
0.0
 40
0.0
 40
0.0
 40
0.0
 40
0.2479725485
 40
0.4964937745
 40
0.7465410025
 40
1.0
 40
1.0
 40
1.0
 40
1.0
 10
23.4677538859
 20
-1.609615657
 30
0.0
 10
23.4677535758
 20
-1.6369610692
 30
0.0
 10
23.4700975875
 20
-1.6917434869
 30
0.0
 10
23.4814148947
 20
-1.7734431935
 30
0.0
 10
23.5027594949
 20
-1.853828065
 30
0.0
 10
23.5259131113
 20
-1.9047720861
 30
0.0
 10
23.5402480838
 20
-1.9287665735
 30
0.0
 11
23.4677538859
 21
-1.609615657
 31
0.0
 11
23.4713878012
 21
-1.6915713695
 31
0.0
 11
23.4830298401
 21
-1.7729606938
 31
0.0
 11
23.5048484167
 21
-1.8527540397
 31
0.0
 11
23.5402480838
 21
-1.9287665735
 31
0.0
  0
SPLINE
  5
340
100
AcDbEntity
  8
0
100
AcDbSpline
 62
6
  6
CONTINUOUS
 70
0
 71
3
 72
9
 73
5
 74
3
 42
0.0000001
 43
0.0000001
 44
0.0000000001
 12
0.0271917449
 22
-0.0455038334
 32
0.0
 13
0.0338200647
 23
-0.0408190805
 33
0.0
 40
0.0
 40
0.0
 40
0.0
 40
0.0
 40
0.2478348235
 40
1.0
 40
1.0
 40
1.0
 40
1.0
 10
23.5402683483
 20
-1.9288004889
 30
0.0
 10
23.542514702
 20
-1.9325596338
 30
0.0
 10
23.5518426511
 20
-1.9475672181
 30
0.0
 10
23.5622826969
 20
-1.9618921055
 30
0.0
 10
23.5707621219
 20
-1.9721263358
 30
0.0
 11
23.5402683483
 21
-1.9288004889
 31
0.0
 11
23.5472065906
 21
-1.9399565051
 31
0.0
 11
23.5707621219
 21
-1.9721263358
 31
0.0
  0
SPLINE
  5
341
100
AcDbEntity
  8
0
100
AcDbSpline
 62
6
  6
CONTINUOUS
 70
0
 71
3
 72
9
 73
5
 74
3
 42
0.0000001
 43
0.0000001
 44
0.0000000001
 12
-0.0338211016
 22
-0.0408203321
 32
0.0
 13
-0.0271927186
 23
-0.0455053688
 33
0.0
 40
0.0
 40
0.0
 40
0.0
 40
0.0
 40
0.252007897
 40
1.0
 40
1.0
 40
1.0
 40
1.0
 10
23.5707621219
 20
34.9778736642
 30
0.0
 10
23.5679210603
 20
34.9744446489
 30
0.0
 10
23.556930505
 20
34.9606045054
 30
0.0
 10
23.54704841
 20
34.9458938406
 30
0.0
 10
23.5402684304
 20
34.9345479551
 30
0.0
 11
23.5707621219
 21
34.9778736642
 31
0.0
 11
23.5624520429
 21
34.9674137129
 31
0.0
 11
23.5402684304
 21
34.9345479551
 31
0.0
  0
SPLINE
  5
342
100
AcDbEntity
  8
0
100
AcDbSpline
 62
6
  6
CONTINUOUS
 70
0
 71
3
 72
11
 73
7
 74
5
 42
0.0000001
 43
0.0000001
 44
0.0000000001
 12
-0.1696634458
 22
-0.2839866096
 32
0.0
 13
-0.0000038429
 23
-0.3308082213
 33
0.0
 40
0.0
 40
0.0
 40
0.0
 40
0.0
 40
0.2534590737
 40
0.5035063673
 40
0.7520275735
 40
1.0
 40
1.0
 40
1.0
 40
1.0
 10
23.5402490678
 20
34.9345155493
 30
0.0
 10
23.5259148212
 20
34.9105225549
 30
0.0
 10
23.5027620098
 20
34.8595818436
 30
0.0
 10
23.4814174138
 20
34.7792020952
 30
0.0
 10
23.4700990392
 20
34.6975074869
 30
0.0
 10
23.4677544665
 20
34.6427283774
 30
0.0
 10
23.4677541489
 20
34.6153846049
 30
0.0
 11
23.5402490678
 21
34.9345155493
 31
0.0
 11
23.504850733
 21
34.8585078686
 31
0.0
 11
23.4830321767
 21
34.7787195952
 31
0.0
 11
23.4713892881
 21
34.6973353388
 31
0.0
 11
23.4677541489
 21
34.6153846049
 31
0.0
  0
SPLINE
  5
343
100
AcDbEntity
  8
0
100
AcDbSpline
 62
6
  6
CONTINUOUS
 70
0
 71
3
 72
11
 73
7
 74
5
 42
0.0000001
 43
0.0000001
 44
0.0000000001
 12
-0.0000037512
 22
-0.3308278974
 32
0.0
 13
0.1696720884
 23
-0.2840043664
 33
0.0
 40
0.0
 40
0.0
 40
0.0
 40
0.0
 40
0.2479725485
 40
0.4964937745
 40
0.7465410025
 40
1.0
 40
1.0
 40
1.0
 40
1.0
 10
23.4677538859
 20
33.890384343
 30
0.0
 10
23.4677535758
 20
33.8630389308
 30
0.0
 10
23.4700975875
 20
33.8082565131
 30
0.0
 10
23.4814148947
 20
33.7265568065
 30
0.0
 10
23.5027594949
 20
33.646171935
 30
0.0
 10
23.5259131113
 20
33.5952279139
 30
0.0
 10
23.5402480838
 20
33.5712334265
 30
0.0
 11
23.4677538859
 21
33.890384343
 31
0.0
 11
23.4713878012
 21
33.8084286305
 31
0.0
 11
23.4830298401
 21
33.7270393062
 31
0.0
 11
23.5048484167
 21
33.6472459603
 31
0.0
 11
23.5402480838
 21
33.5712334265
 31
0.0
  0
SPLINE
  5
344
100
AcDbEntity
  8
0
100
AcDbSpline
 62
6
  6
CONTINUOUS
 70
0
 71
3
 72
9
 73
5
 74
3
 42
0.0000001
 43
0.0000001
 44
0.0000000001
 12
0.0271917449
 22
-0.0455038334
 32
0.0
 13
0.0338200647
 23
-0.0408190805
 33
0.0
 40
0.0
 40
0.0
 40
0.0
 40
0.0
 40
0.2478348235
 40
1.0
 40
1.0
 40
1.0
 40
1.0
 10
23.5402683483
 20
33.5711995111
 30
0.0
 10
23.542514702
 20
33.5674403662
 30
0.0
 10
23.5518426511
 20
33.5524327819
 30
0.0
 10
23.5622826969
 20
33.5381078945
 30
0.0
 10
23.5707621219
 20
33.5278736642
 30
0.0
 11
23.5402683483
 21
33.5711995111
 31
0.0
 11
23.5472065906
 21
33.5600434949
 31
0.0
 11
23.5707621219
 21
33.5278736642
 31
0.0
  0
ENDSEC
  0
SECTION
  2
OBJECTS
  0
DICTIONARY
  5
C
100
AcDbDictionary
280
0
281
1
  3
ACAD_GROUP
350
D
  3
ACAD_MLINESTYLE
350
17
  3
ACAD_LAYOUT
350
1A
  3
ACAD_PLOTSETTINGS
350
19
  3
ACAD_PLOTSTYLENAME
350
E
  0
DICTIONARY
  5
D
102
{ACAD_REACTORS
330
C
102
}
100
AcDbDictionary
280
0
281
1
  0
ACDBDICTIONARYWDFLT
  5
E
102
{ACAD_REACTORS
330
C
102
}
100
AcDbDictionary
281
1
  3
Normal
350
F
100
AcDbDictionaryWithDefault
340
F
  0
DICTIONARY
  5
17
102
{ACAD_REACTORS
330
C
102
}
100
AcDbDictionary
280
0
281
1
  3
Standard
350
18
  0
DICTIONARY
  5
19
102
{ACAD_REACTORS
330
C
102
}
100
AcDbDictionary
281
1
  0
DICTIONARY
  5
1A
102
{ACAD_REACTORS
330
C
102
}
100
AcDbDictionary
281
1
  3
Model
350
345
  3
Layout1
350
346
  0
ACDBPLACEHOLDER
  5
F
102
{ACAD_REACTORS
330
E
102
}
  0
MLINESTYLE
  5
18
102
{ACAD_REACTORS
330
17
102
}
100
AcDbMlineStyle
  2
STANDARD
 70
0
  3

 62
256
 51
90.0
 52
90.0
 71
2
 49
0.5
 62
256
  6
BYLAYER
 49
-0.5
 62
256
  6
BYLAYER
  0
LAYOUT
  5
345
102
{ACAD_REACTORS
330
1A
102
}
100
AcDbPlotSettings
  1

  2
none_device
  4
ISO_A0_(1189.00_x_841.00_MM)
  6

 40
0.0
 41
0.0
 42
0.0
 43
0.0
 44
1189.0
 45
841.0
 46
0.0
 47
0.0
 48
0.0
 49
0.0
140
0.0
141
0.0
142
1.0
143
1.0
 70
1024
 72
0
 73
0
 74
0
  7

 75
0
147
1.0
148
0.0
149
0.0
100
AcDbLayout
  1
Model
 70
0
 71
0
 10
0.0
 20
0.0
 11
46.811023622
 21
33.1102362205
 12
0.0
 22
0.0
 32
0.0
 14
0.0
 24
0.0
 34
0.0
 15
0.0
 25
0.0
 35
0.0
146
0.0
 13
0.0
 23
0.0
 33
0.0
 16
1.0
 26
0.0
 36
0.0
 17
0.0
 27
1.0
 37
0.0
 76
0
330
253
345
0
346
0
  0
LAYOUT
  5
346
102
{ACAD_REACTORS
330
1A
102
}
100
AcDbPlotSettings
  1

  2
none_device
  4
ISO_A0_(1189.00_x_841.00_MM)
  6

 40
0.0
 41
0.0
 42
0.0
 43
0.0
 44
1189.0
 45
841.0
 46
0.0
 47
0.0
 48
0.0
 49
0.0
140
0.0
141
0.0
142
1.0
143
1.0
 70
0
 72
0
 73
0
 74
0
  7

 75
0
147
1.0
148
0.0
149
0.0
100
AcDbLayout
  1
Layout1
 70
0
 71
1
 10
0.0
 20
0.0
 11
46.811023622
 21
33.1102362205
 12
0.0
 22
0.0
 32
0.0
 14
0.0
 24
0.0
 34
0.0
 15
0.0
 25
0.0
 35
0.0
146
0.0
 13
0.0
 23
0.0
 33
0.0
 16
1.0
 26
0.0
 36
0.0
 17
0.0
 27
1.0
 37
0.0
 76
0
330
254
345
0
346
0
  0
ENDSEC
  0
EOF
