999
DXF file: E:\BT Custom\CADOUTPUT\_FRONT.dxf
999
Pro/ENGINEER 2018400 by Parametric Technology Corporation
  0
SECTION
  2
HEADER
  9
$ACADVER
  1
AC1018
  9
$DWGCODEPAGE
  3
ANSI_1252
  9
$EXTMAX
 10
22.0
 20
17.0
 30
0.0
  9
$EXTMIN
 10
0.0
 20
0.0
 30
0.0
  9
$LIMMIN
 10
0.0
 20
0.0
  9
$LIMMAX
 10
22.0
 20
17.0
  9
$VIEWCTR
 10
11.0
 20
8.5
  9
$VIEWSIZE
 40
17.0
  9
$CLAYER
  8
0
  9
$LTSCALE
 40
1.21
  9
$CELTYPE
  6
BYLAYER
  9
$DIMSCALE
 40
1.0
  9
$DIMASZ
 40
0.1
  9
$DIMEXO
 40
0.0625
  9
$DIMDLI
 40
0.836
  9
$DIMEXE
 40
0.125
  9
$DIMCEN
 40
0.198
  9
$DIMLFAC
 40
1.0
  9
$DIMBLK
  1
_FILLED
  9
$DIMALT
 70
1
  9
$DIMALTD
 70
2
  9
$DIMALTTD
 70
2
  9
$DIMALTF
 40
25.4
  9
$DIMTXT
 40
0.08
  9
$DIMTOL
 70
1
  9
$DIMLIM
 70
0
  9
$DIMTFAC
 40
1.0
  9
$DIMTP
 40
0.001
  9
$DIMTM
 40
0.001
  9
$DIMGAP
 40
0.09
  9
$DIMDSEP
 70
46
  9
$AUNITS
 70
0
  9
$PDMODE
 70
3
  9
$PDSIZE
 40
0.06
  9
$HANDSEED
  5
2D1
  9
$TILEMODE
 70
1
  9
$MEASUREMENT
 70
0
  9
$INSUNITS
 70
1
  0
ENDSEC
  0
SECTION
  2
CLASSES
  0
CLASS
  1
ACDBDICTIONARYWDFLT
  2
AcDbDictionaryWithDefault
  3
AutoCAD 2000
 90
0
 91
1
280
0
281
0
  0
CLASS
  1
ACDBPLACEHOLDER
  2
AcDbPlaceHolder
  3
AutoCAD 2000
 90
0
 91
1
280
0
281
0
  0
CLASS
  1
LAYOUT
  2
AcDbLayout
  3
AutoCAD 2000
 90
0
 91
0
280
0
281
0
  0
ENDSEC
  0
SECTION
  2
TABLES
  0
TABLE
  2
VPORT
  5
8
100
AcDbSymbolTable
 70
2
  0
VPORT
  5
1F4
100
AcDbSymbolTableRecord
100
AcDbViewportTableRecord
  2
*ACTIVE
 70
0
 10
0.0
 20
0.0
 11
1.0
 21
1.0
 12
11.0
 22
8.5
 13
0.0
 23
0.0
 14
1.0
 24
1.0
 15
0.0
 25
0.0
 16
0.0
 26
0.0
 36
1.0
 17
0.0
 27
0.0
 37
0.0
 40
17.0
 41
1.2941176471
 42
50.0
 43
0.0
 44
0.0
 50
0.0
 51
0.0
 71
0
 72
100
 73
1
 74
1
 75
0
 76
0
 77
0
 78
0
  0
ENDTAB
  0
TABLE
  2
LTYPE
  5
5
100
AcDbSymbolTable
 70
6
  0
LTYPE
  5
14
100
AcDbSymbolTableRecord
100
AcDbLinetypeTableRecord
  2
BYBLOCK
 70
0
  3

 72
65
 73
0
 40
0.0
  0
LTYPE
  5
15
100
AcDbSymbolTableRecord
100
AcDbLinetypeTableRecord
  2
BYLAYER
 70
0
  3

 72
65
 73
0
 40
0.0
  0
LTYPE
  5
16
100
AcDbSymbolTableRecord
100
AcDbLinetypeTableRecord
  2
CONTINUOUS
 70
64
  3
Solid line
 72
65
 73
0
 40
0.0
  0
LTYPE
  5
1F5
100
AcDbSymbolTableRecord
100
AcDbLinetypeTableRecord
  2
CENTER
 70
64
  3
____ _ ____ _ ____ _ ____ _ ____ _ ____ _ ____
 72
65
 73
4
 40
0.6
 49
0.375
 74
0
 49
-0.075
 74
0
 49
0.075
 74
0
 49
-0.075
 74
0
  0
LTYPE
  5
1F6
100
AcDbSymbolTableRecord
100
AcDbLinetypeTableRecord
  2
HIDDEN
 70
64
  3
- - - - - - - - - - - - - - - - - - - -
 72
65
 73
2
 40
0.2
 49
0.1
 74
0
 49
-0.1
 74
0
  0
LTYPE
  5
1F7
100
AcDbSymbolTableRecord
100
AcDbLinetypeTableRecord
  2
PHANTOM
 70
64
  3
_____ _ _ _____ _ _ _____ _ _ _____
 72
65
 73
6
 40
0.8
 49
0.45
 74
0
 49
-0.05
 74
0
 49
0.1
 74
0
 49
-0.05
 74
0
 49
0.1
 74
0
 49
-0.05
 74
0
  0
LTYPE
  5
1F8
100
AcDbSymbolTableRecord
100
AcDbLinetypeTableRecord
  2
DOT
 70
64
  3
. . . . . . . . . . . . . . . . . . . .
 72
65
 73
2
 40
0.2
 49
0.1
 74
0
 49
-0.1
 74
0
  0
LTYPE
  5
1F9
100
AcDbSymbolTableRecord
100
AcDbLinetypeTableRecord
  2
DASHED
 70
64
  3
- - - - - - - - - - - - - - - - - - - -
 72
65
 73
2
 40
0.2
 49
0.1
 74
0
 49
-0.1
 74
0
  0
ENDTAB
  0
TABLE
  2
LAYER
  5
2
100
AcDbSymbolTable
 70
36
  0
LAYER
  5
10
100
AcDbSymbolTableRecord
100
AcDbLayerTableRecord
  2
0
 70
0
 62
7
  6
CONTINUOUS
370
-3
390
F
  0
LAYER
  5
1FA
100
AcDbSymbolTableRecord
100
AcDbLayerTableRecord
  2
DEFAULT_1
 70
0
 62
7
  6
CENTER
370
-3
390
F
  0
LAYER
  5
1FB
100
AcDbSymbolTableRecord
100
AcDbLayerTableRecord
  2
DEFAULT_2
 70
0
 62
8
  6
HIDDEN
370
-3
390
F
  0
LAYER
  5
1FC
100
AcDbSymbolTableRecord
100
AcDbLayerTableRecord
  2
DEFAULT_3
 70
0
 62
7
  6
PHANTOM
370
-3
390
F
  0
LAYER
  5
1FD
100
AcDbSymbolTableRecord
100
AcDbLayerTableRecord
  2
ALL_FEATURES
 70
0
 62
7
  6
CONTINUOUS
370
-3
390
F
  0
LAYER
  5
1FE
100
AcDbSymbolTableRecord
100
AcDbLayerTableRecord
  2
AXES_FEATURES
 70
0
 62
7
  6
CONTINUOUS
370
-3
390
F
  0
LAYER
  5
1FF
100
AcDbSymbolTableRecord
100
AcDbLayerTableRecord
  2
DIMENSIONS
 70
0
 62
7
  6
CONTINUOUS
370
-3
390
F
  0
ENDTAB
  0
TABLE
  2
STYLE
  5
3
100
AcDbSymbolTable
 70
1
  0
STYLE
  5
11
100
AcDbSymbolTableRecord
100
AcDbTextStyleTableRecord
  2
STANDARD
 70
0
 40
0.0
 41
0.8
 50
0.0
 71
0
 42
0.2
  3
txt
  4

  0
STYLE
  5
200
100
AcDbSymbolTableRecord
100
AcDbTextStyleTableRecord
  2
TEXTSTYLE_1
 70
0
 40
0.0
 41
0.8
 50
0.0
 71
0
 42
0.2
  3
gdt
  4

  0
ENDTAB
  0
TABLE
  2
VIEW
  5
6
100
AcDbSymbolTable
 70
0
  0
ENDTAB
  0
TABLE
  2
UCS
  5
7
100
AcDbSymbolTable
 70
0
  0
ENDTAB
  0
TABLE
  2
APPID
  5
9
100
AcDbSymbolTable
 70
1
  0
APPID
  5
201
100
AcDbSymbolTableRecord
100
AcDbRegAppTableRecord
  2
ACAD
 70
0
  0
ENDTAB
  0
TABLE
  2
BLOCK_RECORD
  5
1
100
AcDbSymbolTable
 70
0
  0
BLOCK_RECORD
  5
202
100
AcDbSymbolTableRecord
100
AcDbBlockTableRecord
  2
*Model_Space
  0
BLOCK_RECORD
  5
203
100
AcDbSymbolTableRecord
100
AcDbBlockTableRecord
  2
*Paper_Space
  0
BLOCK_RECORD
  5
204
100
AcDbSymbolTableRecord
100
AcDbBlockTableRecord
  2
_FILLED
  0
ENDTAB
  0
TABLE
  2
DIMSTYLE
  5
A
100
AcDbSymbolTable
 70
1
100
AcDbDimStyleTable
 71
0
  0
DIMSTYLE
105
205
100
AcDbSymbolTableRecord
100
AcDbDimStyleTableRecord
  2
STANDARD
 70
0
  3

  4

 40
1.0
 41
0.1
 42
0.0625
 43
0.38
 44
0.125
 45
0.0
 46
0.0
 47
0.001
 48
0.001
140
0.08
141
0.09
142
0.0
143
25.4
144
1.0
145
0.0
146
1.0
147
0.09
 71
1.0
 72
0.0
 73
1
 74
1
 75
0
 76
0
 77
0
 78
4
 79
1
170
1
171
2
172
0
173
0
174
0
175
0
176
0
177
0
178
0
270
2
179
3
271
3
272
3
273
2
274
2
275
0
280
0
281
0
282
0
283
1
284
4
285
0
286
0
287
3
288
0
340
11
278
46
341
204
342
204
343
204
344
204
  0
ENDTAB
  0
ENDSEC
  0
SECTION
  2
BLOCKS
  0
BLOCK
  5
20
100
AcDbEntity
  8
0
100
AcDbBlockBegin
  2
*Model_Space
 70
0
 10
0.0
 20
0.0
 30
0.0
  3
*Model_Space
  1

  0
ENDBLK
  5
21
100
AcDbEntity
  8
0
100
AcDbBlockEnd
  0
BLOCK
  5
1C
100
AcDbEntity
  8
0
100
AcDbBlockBegin
  2
*Paper_Space
 70
0
 10
0.0
 20
0.0
 30
0.0
  3
*Paper_Space
  1

  0
ENDBLK
  5
1D
100
AcDbEntity
  8
0
100
AcDbBlockEnd
  0
BLOCK
  5
206
100
AcDbEntity
  8
0
100
AcDbBlockBegin
  2
_FILLED
 70
64
 10
0.0
 20
0.0
  3
_FILLED
  1

  0
SOLID
  5
207
100
AcDbEntity
  8
0
  6
BYBLOCK
 62
0
100
AcDbTrace
 10
0.0
 20
0.0
 11
-1.0
 21
0.2
 12
-1.0
 22
-0.2
 13
-1.0
 23
-0.2
  0
ENDBLK
  5
208
100
AcDbEntity
  8
0
  6
BYBLOCK
 62
0
100
AcDbBlockEnd
  0
ENDSEC
  0
SECTION
  2
ENTITIES
  0
LINE
  5
209
100
AcDbEntity
  8
0
100
AcDbLine
 62
7
  6
CONTINUOUS
 10
5.7501923427
 20
4.8941695021
 11
5.7501923427
 21
4.5191695021
  0
LINE
  5
20A
100
AcDbEntity
  8
0
100
AcDbLine
 62
7
  6
CONTINUOUS
 10
5.7501920847
 20
4.5191695021
 11
8.1251926008
 21
4.5191695021
  0
LINE
  5
20B
100
AcDbEntity
  8
0
100
AcDbLine
 62
7
  6
CONTINUOUS
 10
9.7502021789
 20
4.5191695021
 11
12.1251825066
 21
4.5191695021
  0
LINE
  5
20C
100
AcDbEntity
  8
0
100
AcDbLine
 62
7
  6
CONTINUOUS
 10
13.7501920847
 20
4.5191695021
 11
16.1251926008
 21
4.5191695021
  0
LWPOLYLINE
  5
20D
100
AcDbEntity
  8
0
100
AcDbPolyline
 62
7
  6
CONTINUOUS
 90
3
 70
0
 10
6.553232844
 20
6.753681163
 10
6.5613420733
 20
6.7466827105
 10
6.5626923427
 20
6.744793354
  0
LINE
  5
20E
100
AcDbEntity
  8
0
100
AcDbLine
 62
7
  6
CONTINUOUS
 10
6.2814423427
 20
6.0021695021
 11
6.2814423427
 21
4.8941695021
  0
LINE
  5
20F
100
AcDbEntity
  8
0
100
AcDbLine
 62
7
  6
CONTINUOUS
 10
6.5626923497
 20
6.7932292996
 11
6.5626923427
 21
6.7933729491
  0
LINE
  5
210
100
AcDbEntity
  8
0
100
AcDbLine
 62
7
  6
CONTINUOUS
 10
6.5626923427
 20
7.2221695021
 11
6.5626923427
 21
7.0870260877
  0
LINE
  5
211
100
AcDbEntity
  8
0
100
AcDbLine
 62
7
  6
CONTINUOUS
 10
6.5626923427
 20
6.7933744993
 11
6.5626923427
 21
6.6221695021
  0
LINE
  5
212
100
AcDbEntity
  8
0
100
AcDbLine
 62
7
  6
CONTINUOUS
 10
6.6226923427
 20
6.6221695021
 11
6.6226923427
 21
6.0221695021
  0
LINE
  5
213
100
AcDbEntity
  8
0
100
AcDbLine
 62
7
  6
CONTINUOUS
 10
16.1251943398
 20
4.8941695021
 11
13.7501903457
 21
4.8941695021
  0
LINE
  5
214
100
AcDbEntity
  8
0
100
AcDbLine
 62
7
  6
CONTINUOUS
 10
12.1251825066
 20
4.8941695021
 11
9.7502021789
 21
4.8941695021
  0
LINE
  5
215
100
AcDbEntity
  8
0
100
AcDbLine
 62
7
  6
CONTINUOUS
 10
8.1251943398
 20
4.8941695021
 11
5.7501903457
 21
4.8941695021
  0
LINE
  5
216
100
AcDbEntity
  8
0
100
AcDbLine
 62
7
  6
CONTINUOUS
 10
5.8729500466
 20
7.2072029171
 11
6.553226796
 21
6.7536850841
  0
LINE
  5
217
100
AcDbEntity
  8
0
100
AcDbLine
 62
7
  6
CONTINUOUS
 10
6.55322742
 20
6.7536846681
 11
6.5532327144
 21
6.7536811393
  0
LINE
  5
218
100
AcDbEntity
  8
0
100
AcDbLine
 62
7
  6
CONTINUOUS
 10
6.7539432158
 20
6.0021695021
 11
6.7539432158
 21
6.0221695021
  0
LINE
  5
219
100
AcDbEntity
  8
0
100
AcDbLine
 62
7
  6
CONTINUOUS
 10
6.7597114215
 20
6.0221695021
 11
6.7597114215
 21
6.0021695021
  0
LINE
  5
21A
100
AcDbEntity
  8
0
100
AcDbLine
 62
7
  6
CONTINUOUS
 10
6.7626923427
 20
7.2221695021
 11
6.7626923427
 21
6.9283037946
  0
LINE
  5
21B
100
AcDbEntity
  8
0
100
AcDbLine
 62
7
  6
CONTINUOUS
 10
6.7626923428
 20
6.9283030103
 11
6.7626923438
 21
6.9283320979
  0
LINE
  5
21C
100
AcDbEntity
  8
0
100
AcDbLine
 62
7
  6
CONTINUOUS
 10
6.776149149
 20
6.0021695021
 11
6.776149149
 21
6.0221695021
  0
LINE
  5
21D
100
AcDbEntity
  8
0
100
AcDbLine
 62
7
  6
CONTINUOUS
 10
6.7925756091
 20
6.0221695021
 11
6.7925756091
 21
6.0021695021
  0
LINE
  5
21E
100
AcDbEntity
  8
0
100
AcDbLine
 62
7
  6
CONTINUOUS
 10
6.8154766683
 20
6.0021695021
 11
6.8154766683
 21
6.0221695021
  0
LINE
  5
21F
100
AcDbEntity
  8
0
100
AcDbLine
 62
7
  6
CONTINUOUS
 10
6.822948569
 20
6.0021695021
 11
6.822948569
 21
6.0221695021
  0
LINE
  5
220
100
AcDbEntity
  8
0
100
AcDbLine
 62
7
  6
CONTINUOUS
 10
6.8475325038
 20
6.0221695021
 11
6.8475325038
 21
6.0021695021
  0
LINE
  5
221
100
AcDbEntity
  8
0
100
AcDbLine
 62
7
  6
CONTINUOUS
 10
6.8663420556
 20
6.0021695021
 11
6.8663420556
 21
6.0221695021
  0
LINE
  5
222
100
AcDbEntity
  8
0
100
AcDbLine
 62
7
  6
CONTINUOUS
 10
6.8841220533
 20
6.0221695021
 11
6.8841220533
 21
6.0021695021
  0
LINE
  5
223
100
AcDbEntity
  8
0
100
AcDbLine
 62
7
  6
CONTINUOUS
 10
6.8872166885
 20
6.0021695021
 11
6.8872166885
 21
6.0221695021
  0
LINE
  5
224
100
AcDbEntity
  8
0
100
AcDbLine
 62
7
  6
CONTINUOUS
 10
6.9162154168
 20
6.0221695021
 11
6.9162154168
 21
6.0021695021
  0
LINE
  5
225
100
AcDbEntity
  8
0
100
AcDbLine
 62
7
  6
CONTINUOUS
 10
6.9280698774
 20
6.0021695021
 11
6.9280698774
 21
6.0221695021
  0
LINE
  5
226
100
AcDbEntity
  8
0
100
AcDbLine
 62
9
  6
CONTINUOUS
 10
6.9376923154
 20
7.2117189615
 11
6.9376923017
 21
7.2232778971
  0
LINE
  5
227
100
AcDbEntity
  8
0
100
AcDbLine
 62
9
  6
CONTINUOUS
 10
6.9376923424
 20
6.7481130629
 11
6.9376923423
 21
6.6701707765
  0
LINE
  5
228
100
AcDbEntity
  8
0
100
AcDbLine
 62
7
  6
CONTINUOUS
 10
6.9473148081
 20
6.0221695021
 11
6.9473148081
 21
6.0021695021
  0
LINE
  5
229
100
AcDbEntity
  8
0
100
AcDbLine
 62
7
  6
CONTINUOUS
 10
6.9591692687
 20
6.0021695021
 11
6.9591692687
 21
6.0221695021
  0
LINE
  5
22A
100
AcDbEntity
  8
0
100
AcDbLine
 62
7
  6
CONTINUOUS
 10
6.988167997
 20
6.0221695021
 11
6.988167997
 21
6.0021695021
  0
LINE
  5
22B
100
AcDbEntity
  8
0
100
AcDbLine
 62
7
  6
CONTINUOUS
 10
6.9912626322
 20
6.0021695021
 11
6.9912626322
 21
6.0221695021
  0
LINE
  5
22C
100
AcDbEntity
  8
0
100
AcDbLine
 62
7
  6
CONTINUOUS
 10
7.0090426298
 20
6.0221695021
 11
7.0090426298
 21
6.0021695021
  0
LINE
  5
22D
100
AcDbEntity
  8
0
100
AcDbLine
 62
7
  6
CONTINUOUS
 10
7.0278521816
 20
6.0021695021
 11
7.0278521816
 21
6.0221695021
  0
LINE
  5
22E
100
AcDbEntity
  8
0
100
AcDbLine
 62
7
  6
CONTINUOUS
 10
7.0524361165
 20
6.0221695021
 11
7.0524361165
 21
6.0021695021
  0
LINE
  5
22F
100
AcDbEntity
  8
0
100
AcDbLine
 62
7
  6
CONTINUOUS
 10
7.0599080171
 20
6.0221695021
 11
7.0599080171
 21
6.0021695021
  0
LINE
  5
230
100
AcDbEntity
  8
0
100
AcDbLine
 62
7
  6
CONTINUOUS
 10
7.0828090764
 20
6.0021695021
 11
7.0828090764
 21
6.0221695021
  0
LINE
  5
231
100
AcDbEntity
  8
0
100
AcDbLine
 62
7
  6
CONTINUOUS
 10
7.0992355365
 20
6.0221695021
 11
7.0992355365
 21
6.0021695021
  0
LINE
  5
232
100
AcDbEntity
  8
0
100
AcDbLine
 62
7
  6
CONTINUOUS
 10
7.115673264
 20
6.0021695021
 11
7.115673264
 21
6.0221695021
  0
LINE
  5
233
100
AcDbEntity
  8
0
100
AcDbLine
 62
7
  6
CONTINUOUS
 10
7.1214414697
 20
6.0221695021
 11
7.1214414697
 21
6.0021695021
  0
LINE
  5
234
100
AcDbEntity
  8
0
100
AcDbLine
 62
7
  6
CONTINUOUS
 10
7.1126923427
 20
7.2221695021
 11
7.1126922849
 21
6.9281222305
  0
LINE
  5
235
100
AcDbEntity
  8
0
100
AcDbLine
 62
7
  6
CONTINUOUS
 10
6.4814716422
 20
7.2221695021
 11
6.5247164019
 21
7.1933396623
  0
LINE
  5
236
100
AcDbEntity
  8
0
100
AcDbLine
 62
7
  6
CONTINUOUS
 10
7.2526923427
 20
6.6221695021
 11
7.2526923427
 21
6.0221695021
  0
LINE
  5
237
100
AcDbEntity
  8
0
100
AcDbLine
 62
7
  6
CONTINUOUS
 10
7.3126923426
 20
7.0870170204
 11
7.3126922951
 21
7.0874806851
  0
LINE
  5
238
100
AcDbEntity
  8
0
100
AcDbLine
 62
7
  6
CONTINUOUS
 10
7.3126923427
 20
7.2221695021
 11
7.3126923427
 21
7.0870214712
  0
LINE
  5
239
100
AcDbEntity
  8
0
100
AcDbLine
 62
7
  6
CONTINUOUS
 10
7.3126923427
 20
6.7933820268
 11
7.3126923427
 21
6.6221695021
  0
LINE
  5
23A
100
AcDbEntity
  8
0
100
AcDbLine
 62
7
  6
CONTINUOUS
 10
7.3126923382
 20
6.793258776
 11
7.3126923427
 21
6.7933794291
  0
LINE
  5
23B
100
AcDbEntity
  8
0
100
AcDbLine
 62
7
  6
CONTINUOUS
 10
7.5939423427
 20
6.0021695021
 11
7.5939423427
 21
4.8941695021
  0
LWPOLYLINE
  5
23C
100
AcDbEntity
  8
0
100
AcDbPolyline
 62
7
  6
CONTINUOUS
 90
3
 70
0
 10
5.8489928816
 20
7.2184748391
 10
5.862642498
 20
7.2131281245
 10
5.8729435639
 20
7.2072071839
  0
LINE
  5
23D
100
AcDbEntity
  8
0
100
AcDbLine
 62
7
  6
CONTINUOUS
 10
15.593943329
 20
6.0021695021
 11
14.2814413565
 21
6.0021695021
  0
LINE
  5
23E
100
AcDbEntity
  8
0
100
AcDbLine
 62
7
  6
CONTINUOUS
 10
7.593943329
 20
6.0021695021
 11
6.2814413565
 21
6.0021695021
  0
LINE
  5
23F
100
AcDbEntity
  8
0
100
AcDbLine
 62
7
  6
CONTINUOUS
 10
6.6227106512
 20
6.0221695021
 11
7.2526740343
 21
6.0221695021
  0
LINE
  5
240
100
AcDbEntity
  8
0
100
AcDbLine
 62
7
  6
CONTINUOUS
 10
14.6227106512
 20
6.0221695021
 11
15.2526740343
 21
6.0221695021
  0
LINE
  5
241
100
AcDbEntity
  8
0
100
AcDbLine
 62
7
  6
CONTINUOUS
 10
6.5285478673
 20
7.192650382
 11
6.5248092697
 21
7.1934789641
  0
LINE
  5
242
100
AcDbEntity
  8
0
100
AcDbLine
 62
7
  6
CONTINUOUS
 10
8.1251923427
 20
4.8941695021
 11
8.1251923427
 21
4.5191695021
  0
LINE
  5
243
100
AcDbEntity
  8
0
100
AcDbLine
 62
7
  6
CONTINUOUS
 10
15.3467447645
 20
7.1926368145
 11
15.3404815329
 21
7.1921621183
  0
LINE
  5
244
100
AcDbEntity
  8
0
100
AcDbLine
 62
7
  6
CONTINUOUS
 10
6.562711239
 20
6.6221695021
 11
7.3126734465
 21
6.6221695021
  0
LINE
  5
245
100
AcDbEntity
  8
0
100
AcDbLine
 62
7
  6
CONTINUOUS
 10
14.562711239
 20
6.6221695021
 11
15.3126734465
 21
6.6221695021
  0
LINE
  5
246
100
AcDbEntity
  8
0
100
AcDbLine
 62
7
  6
CONTINUOUS
 10
6.5348790532
 20
7.1921621538
 11
6.5285478673
 21
7.192650382
  0
LWPOLYLINE
  5
247
100
AcDbEntity
  8
0
100
AcDbPolyline
 62
7
  6
CONTINUOUS
 90
4
 70
0
 10
7.340177666
 20
7.1921624092
 10
7.3284453534
 20
7.1936660817
 10
7.314267718
 20
7.1995447941
 10
7.3126923427
 20
7.2007899445
  0
LINE
  5
248
100
AcDbEntity
  8
0
100
AcDbLine
 62
7
  6
CONTINUOUS
 10
14.5348790533
 20
7.1921621537
 11
14.535210074
 21
7.1921624192
  0
LINE
  5
249
100
AcDbEntity
  8
0
100
AcDbLine
 62
7
  6
CONTINUOUS
 10
6.5348790533
 20
7.1921621537
 11
6.535210074
 21
7.1921624192
  0
LINE
  5
24A
100
AcDbEntity
  8
0
100
AcDbLine
 62
7
  6
CONTINUOUS
 10
14.8486029902
 20
7.2221695072
 11
14.8484866572
 21
7.2221695022
  0
LINE
  5
24B
100
AcDbEntity
  8
0
100
AcDbLine
 62
7
  6
CONTINUOUS
 10
7.0267901008
 20
7.2221695065
 11
7.0268963455
 21
7.2221695022
  0
LINE
  5
24C
100
AcDbEntity
  8
0
100
AcDbLine
 62
7
  6
CONTINUOUS
 10
5.7015940105
 20
7.2221695021
 11
6.848483815
 21
7.2221695021
  0
LINE
  5
24D
100
AcDbEntity
  8
0
100
AcDbLine
 62
7
  6
CONTINUOUS
 10
7.0268984777
 20
7.2221695021
 11
8.173790675
 21
7.2221695021
  0
LINE
  5
24E
100
AcDbEntity
  8
0
100
AcDbLine
 62
7
  6
CONTINUOUS
 10
13.7015940105
 20
7.2221695021
 11
14.848483815
 21
7.2221695021
  0
LINE
  5
24F
100
AcDbEntity
  8
0
100
AcDbLine
 62
7
  6
CONTINUOUS
 10
15.0268984777
 20
7.2221695021
 11
16.173790675
 21
7.2221695021
  0
LINE
  5
250
100
AcDbEntity
  8
0
100
AcDbLine
 62
7
  6
CONTINUOUS
 10
15.0267901008
 20
7.2221695065
 11
15.0268963455
 21
7.2221695022
  0
LINE
  5
251
100
AcDbEntity
  8
0
100
AcDbLine
 62
7
  6
CONTINUOUS
 10
6.8486029902
 20
7.2221695072
 11
6.8484866572
 21
7.2221695022
  0
LINE
  5
252
100
AcDbEntity
  8
0
100
AcDbLine
 62
7
  6
CONTINUOUS
 10
7.3404815329
 20
7.1921621183
 11
7.340177666
 21
7.1921624092
  0
LINE
  5
253
100
AcDbEntity
  8
0
100
AcDbLine
 62
7
  6
CONTINUOUS
 10
15.3404815329
 20
7.1921621183
 11
15.340177666
 21
7.1921624092
  0
LWPOLYLINE
  5
254
100
AcDbEntity
  8
0
100
AcDbPolyline
 62
7
  6
CONTINUOUS
 90
4
 70
0
 10
5.8241735426
 20
7.2221697087
 10
5.8253822773
 20
7.222160602
 10
5.8362360675
 20
7.2212925723
 10
5.8489928816
 20
7.2184748391
  0
LWPOLYLINE
  5
255
100
AcDbEntity
  8
0
100
AcDbPolyline
 62
7
  6
CONTINUOUS
 90
4
 70
0
 10
13.8241735426
 20
7.2221697087
 10
13.8253822773
 20
7.222160602
 10
13.8362360675
 20
7.2212925723
 10
13.8489928816
 20
7.2184748391
  0
LWPOLYLINE
  5
256
100
AcDbEntity
  8
0
100
AcDbPolyline
 62
7
  6
CONTINUOUS
 90
3
 70
0
 10
7.3126923427
 20
6.7448851773
 10
7.3134348383
 20
6.745989033
 10
7.3221383434
 20
6.7536723998
  0
LINE
  5
257
100
AcDbEntity
  8
0
100
AcDbLine
 62
7
  6
CONTINUOUS
 10
7.3467447645
 20
7.1926368145
 11
7.3404815329
 21
7.1921621183
  0
LINE
  5
258
100
AcDbEntity
  8
0
100
AcDbLine
 62
7
  6
CONTINUOUS
 10
5.7015940105
 20
7.6221695021
 11
8.173790675
 21
7.6221695021
  0
LINE
  5
259
100
AcDbEntity
  8
0
100
AcDbLine
 62
7
  6
CONTINUOUS
 10
13.7015940105
 20
7.6221695021
 11
16.173790675
 21
7.6221695021
  0
LINE
  5
25A
100
AcDbEntity
  8
0
100
AcDbLine
 62
9
  6
CONTINUOUS
 10
11.6176923427
 20
7.6741695021
 11
10.2576923427
 21
7.6741695021
  0
LINE
  5
25B
100
AcDbEntity
  8
0
100
AcDbLine
 62
7
  6
CONTINUOUS
 10
11.5876923427
 20
7.7041695021
 11
10.2876923427
 21
7.7041695021
  0
LINE
  5
25C
100
AcDbEntity
  8
0
100
AcDbLine
 62
7
  6
CONTINUOUS
 10
14.5348790532
 20
7.1921621538
 11
14.5285478673
 21
7.192650382
  0
LWPOLYLINE
  5
25D
100
AcDbEntity
  8
0
100
AcDbPolyline
 62
7
  6
CONTINUOUS
 90
4
 70
0
 10
15.340177666
 20
7.1921624092
 10
15.3284453534
 20
7.1936660817
 10
15.314267718
 20
7.1995447941
 10
15.3126923427
 20
7.2007899445
  0
LINE
  5
25E
100
AcDbEntity
  8
0
100
AcDbLine
 62
7
  6
CONTINUOUS
 10
9.7501923427
 20
4.8941695021
 11
9.7501923427
 21
4.5191695021
  0
LWPOLYLINE
  5
25F
100
AcDbEntity
  8
0
100
AcDbPolyline
 62
7
  6
CONTINUOUS
 90
4
 70
0
 10
6.5626923427
 20
7.2007034593
 10
6.5616975287
 20
7.1999000119
 10
6.5473967817
 20
7.1937827909
 10
6.535210074
 20
7.1921624192
  0
LINE
  5
260
100
AcDbEntity
  8
0
100
AcDbLine
 62
7
  6
CONTINUOUS
 10
14.5285478673
 20
7.192650382
 11
14.5248092697
 21
7.1934789641
  0
LINE
  5
261
100
AcDbEntity
  8
0
100
AcDbLine
 62
7
  6
CONTINUOUS
 10
10.2576923427
 20
7.6741695021
 11
10.2576923427
 21
4.8941695021
  0
LINE
  5
262
100
AcDbEntity
  8
0
100
AcDbLine
 62
7
  6
CONTINUOUS
 10
10.5001923427
 20
7.7041695021
 11
10.5001923427
 21
13.5786695021
  0
LWPOLYLINE
  5
263
100
AcDbEntity
  8
0
100
AcDbPolyline
 62
7
  6
CONTINUOUS
 90
3
 70
0
 10
13.8489928816
 20
7.2184748391
 10
13.862642498
 20
7.2131281245
 10
13.8729435639
 20
7.2072071839
  0
LINE
  5
264
100
AcDbEntity
  8
0
100
AcDbLine
 62
7
  6
CONTINUOUS
 10
7.3939130433
 20
7.2221695021
 11
7.3512921048
 21
7.1937555431
  0
LINE
  5
265
100
AcDbEntity
  8
0
100
AcDbLine
 62
7
  6
CONTINUOUS
 10
14.55322742
 20
6.7536846681
 11
14.5532327144
 21
6.7536811393
  0
LINE
  5
266
100
AcDbEntity
  8
0
100
AcDbLine
 62
7
  6
CONTINUOUS
 10
13.8729500466
 20
7.2072029171
 11
14.553226796
 21
6.7536850841
  0
LINE
  5
267
100
AcDbEntity
  8
0
100
AcDbLine
 62
7
  6
CONTINUOUS
 10
11.3751923427
 20
7.7041695021
 11
11.3751923427
 21
13.5786695021
  0
LINE
  5
268
100
AcDbEntity
  8
0
100
AcDbLine
 62
7
  6
CONTINUOUS
 10
8.0024409929
 20
7.2072071547
 11
7.3221583199
 21
6.753685371
  0
LINE
  5
269
100
AcDbEntity
  8
0
100
AcDbLine
 62
7
  6
CONTINUOUS
 10
7.3221393822
 20
6.7536727556
 11
7.3221574018
 21
6.753684759
  0
LWPOLYLINE
  5
26A
100
AcDbEntity
  8
0
100
AcDbPolyline
 62
7
  6
CONTINUOUS
 90
6
 70
0
 10
8.0024411837
 20
7.2072071479
 10
8.012236855
 20
7.212878601
 10
8.0253913316
 20
7.2181685953
 10
8.0378032836
 20
7.221087962
 10
8.0487378112
 20
7.2221318028
 10
8.0512136732
 20
7.2221696513
  0
LINE
  5
26B
100
AcDbEntity
  8
0
100
AcDbLine
 62
7
  6
CONTINUOUS
 10
14.4814716422
 20
7.2221695021
 11
14.5247164019
 21
7.1933396623
  0
LWPOLYLINE
  5
26C
100
AcDbEntity
  8
0
100
AcDbPolyline
 62
7
  6
CONTINUOUS
 90
3
 70
0
 10
14.553232844
 20
6.753681163
 10
14.5613420733
 20
6.7466827105
 10
14.5626923427
 20
6.744793354
  0
LINE
  5
26D
100
AcDbEntity
  8
0
100
AcDbLine
 62
7
  6
CONTINUOUS
 10
11.6176923427
 20
7.6741695021
 11
11.6176923427
 21
4.8941695021
  0
LWPOLYLINE
  5
26E
100
AcDbEntity
  8
0
100
AcDbPolyline
 62
7
  6
CONTINUOUS
 90
3
 70
0
 10
7.3519865059
 20
7.1939630999
 10
7.3517336326
 20
7.193864167
 10
7.3467447645
 20
7.1926368145
  0
LINE
  5
26F
100
AcDbEntity
  8
0
100
AcDbLine
 62
7
  6
CONTINUOUS
 10
12.1251923427
 20
4.8941695021
 11
12.1251923427
 21
4.5191695021
  0
LINE
  5
270
100
AcDbEntity
  8
0
100
AcDbLine
 62
7
  6
CONTINUOUS
 10
10.5001923427
 20
10.5171695021
 11
11.3751923427
 21
10.5171695021
  0
LINE
  5
271
100
AcDbEntity
  8
0
100
AcDbLine
 62
7
  6
CONTINUOUS
 10
11.3751923427
 20
11.3271695021
 11
10.5001923427
 21
11.3271695021
  0
LINE
  5
272
100
AcDbEntity
  8
0
100
AcDbLine
 62
7
  6
CONTINUOUS
 10
13.7501923427
 20
4.8941695021
 11
13.7501923427
 21
4.5191695021
  0
LINE
  5
273
100
AcDbEntity
  8
0
100
AcDbLine
 62
9
  6
CONTINUOUS
 10
11.3751923427
 20
12.0786695021
 11
10.5001923427
 21
12.0786695021
  0
LINE
  5
274
100
AcDbEntity
  8
0
100
AcDbLine
 62
7
  6
CONTINUOUS
 10
14.2814423427
 20
6.0021695021
 11
14.2814423427
 21
4.8941695021
  0
LINE
  5
275
100
AcDbEntity
  8
0
100
AcDbLine
 62
7
  6
CONTINUOUS
 10
14.5626923497
 20
6.7932292996
 11
14.5626923427
 21
6.7933729491
  0
LINE
  5
276
100
AcDbEntity
  8
0
100
AcDbLine
 62
7
  6
CONTINUOUS
 10
14.5626923427
 20
7.2221695021
 11
14.5626923427
 21
7.0870260877
  0
LINE
  5
277
100
AcDbEntity
  8
0
100
AcDbLine
 62
7
  6
CONTINUOUS
 10
14.5626923427
 20
6.7933744993
 11
14.5626923427
 21
6.6221695021
  0
LINE
  5
278
100
AcDbEntity
  8
0
100
AcDbLine
 62
7
  6
CONTINUOUS
 10
14.6226923427
 20
6.6221695021
 11
14.6226923427
 21
6.0221695021
  0
LINE
  5
279
100
AcDbEntity
  8
0
100
AcDbLine
 62
7
  6
CONTINUOUS
 10
14.7539432158
 20
6.0021695021
 11
14.7539432158
 21
6.0221695021
  0
LINE
  5
27A
100
AcDbEntity
  8
0
100
AcDbLine
 62
7
  6
CONTINUOUS
 10
14.7597114215
 20
6.0221695021
 11
14.7597114215
 21
6.0021695021
  0
LINE
  5
27B
100
AcDbEntity
  8
0
100
AcDbLine
 62
7
  6
CONTINUOUS
 10
14.7626923427
 20
7.2221695021
 11
14.7626923427
 21
6.9283037946
  0
LINE
  5
27C
100
AcDbEntity
  8
0
100
AcDbLine
 62
7
  6
CONTINUOUS
 10
14.7626923428
 20
6.9283030103
 11
14.7626923438
 21
6.9283320979
  0
LINE
  5
27D
100
AcDbEntity
  8
0
100
AcDbLine
 62
7
  6
CONTINUOUS
 10
14.776149149
 20
6.0021695021
 11
14.776149149
 21
6.0221695021
  0
LINE
  5
27E
100
AcDbEntity
  8
0
100
AcDbLine
 62
7
  6
CONTINUOUS
 10
14.7925756091
 20
6.0221695021
 11
14.7925756091
 21
6.0021695021
  0
LINE
  5
27F
100
AcDbEntity
  8
0
100
AcDbLine
 62
7
  6
CONTINUOUS
 10
14.8154766683
 20
6.0021695021
 11
14.8154766683
 21
6.0221695021
  0
LINE
  5
280
100
AcDbEntity
  8
0
100
AcDbLine
 62
7
  6
CONTINUOUS
 10
14.822948569
 20
6.0021695021
 11
14.822948569
 21
6.0221695021
  0
LINE
  5
281
100
AcDbEntity
  8
0
100
AcDbLine
 62
7
  6
CONTINUOUS
 10
14.8475325038
 20
6.0221695021
 11
14.8475325038
 21
6.0021695021
  0
LWPOLYLINE
  5
282
100
AcDbEntity
  8
0
100
AcDbPolyline
 62
7
  6
CONTINUOUS
 90
4
 70
0
 10
14.5626923427
 20
7.2007034593
 10
14.5616975287
 20
7.1999000119
 10
14.5473967817
 20
7.1937827909
 10
14.535210074
 20
7.1921624192
  0
LWPOLYLINE
  5
283
100
AcDbEntity
  8
0
100
AcDbPolyline
 62
7
  6
CONTINUOUS
 90
3
 70
0
 10
15.3519865059
 20
7.1939630999
 10
15.3517336326
 20
7.193864167
 10
15.3467447645
 20
7.1926368145
  0
LINE
  5
284
100
AcDbEntity
  8
0
100
AcDbLine
 62
7
  6
CONTINUOUS
 10
14.8663420556
 20
6.0021695021
 11
14.8663420556
 21
6.0221695021
  0
LINE
  5
285
100
AcDbEntity
  8
0
100
AcDbLine
 62
7
  6
CONTINUOUS
 10
14.8841220533
 20
6.0221695021
 11
14.8841220533
 21
6.0021695021
  0
LINE
  5
286
100
AcDbEntity
  8
0
100
AcDbLine
 62
7
  6
CONTINUOUS
 10
14.8872166885
 20
6.0021695021
 11
14.8872166885
 21
6.0221695021
  0
LINE
  5
287
100
AcDbEntity
  8
0
100
AcDbLine
 62
7
  6
CONTINUOUS
 10
14.9162154168
 20
6.0221695021
 11
14.9162154168
 21
6.0021695021
  0
LINE
  5
288
100
AcDbEntity
  8
0
100
AcDbLine
 62
7
  6
CONTINUOUS
 10
14.9280698774
 20
6.0021695021
 11
14.9280698774
 21
6.0221695021
  0
LINE
  5
289
100
AcDbEntity
  8
0
100
AcDbLine
 62
9
  6
CONTINUOUS
 10
14.9376923154
 20
7.2117189615
 11
14.9376923017
 21
7.2232778971
  0
LINE
  5
28A
100
AcDbEntity
  8
0
100
AcDbLine
 62
9
  6
CONTINUOUS
 10
14.9376923424
 20
6.7481130629
 11
14.9376923423
 21
6.6701707765
  0
LINE
  5
28B
100
AcDbEntity
  8
0
100
AcDbLine
 62
7
  6
CONTINUOUS
 10
14.9473148081
 20
6.0221695021
 11
14.9473148081
 21
6.0021695021
  0
LINE
  5
28C
100
AcDbEntity
  8
0
100
AcDbLine
 62
7
  6
CONTINUOUS
 10
14.9591692687
 20
6.0021695021
 11
14.9591692687
 21
6.0221695021
  0
LINE
  5
28D
100
AcDbEntity
  8
0
100
AcDbLine
 62
7
  6
CONTINUOUS
 10
14.988167997
 20
6.0221695021
 11
14.988167997
 21
6.0021695021
  0
LINE
  5
28E
100
AcDbEntity
  8
0
100
AcDbLine
 62
7
  6
CONTINUOUS
 10
14.9912626322
 20
6.0021695021
 11
14.9912626322
 21
6.0221695021
  0
LINE
  5
28F
100
AcDbEntity
  8
0
100
AcDbLine
 62
7
  6
CONTINUOUS
 10
15.0090426298
 20
6.0221695021
 11
15.0090426298
 21
6.0021695021
  0
LINE
  5
290
100
AcDbEntity
  8
0
100
AcDbLine
 62
7
  6
CONTINUOUS
 10
15.0278521816
 20
6.0021695021
 11
15.0278521816
 21
6.0221695021
  0
LINE
  5
291
100
AcDbEntity
  8
0
100
AcDbLine
 62
7
  6
CONTINUOUS
 10
15.0524361165
 20
6.0221695021
 11
15.0524361165
 21
6.0021695021
  0
LINE
  5
292
100
AcDbEntity
  8
0
100
AcDbLine
 62
7
  6
CONTINUOUS
 10
15.0599080171
 20
6.0221695021
 11
15.0599080171
 21
6.0021695021
  0
LINE
  5
293
100
AcDbEntity
  8
0
100
AcDbLine
 62
7
  6
CONTINUOUS
 10
15.0828090764
 20
6.0021695021
 11
15.0828090764
 21
6.0221695021
  0
LINE
  5
294
100
AcDbEntity
  8
0
100
AcDbLine
 62
7
  6
CONTINUOUS
 10
15.0992355365
 20
6.0221695021
 11
15.0992355365
 21
6.0021695021
  0
LINE
  5
295
100
AcDbEntity
  8
0
100
AcDbLine
 62
7
  6
CONTINUOUS
 10
15.115673264
 20
6.0021695021
 11
15.115673264
 21
6.0221695021
  0
LINE
  5
296
100
AcDbEntity
  8
0
100
AcDbLine
 62
7
  6
CONTINUOUS
 10
15.1214414697
 20
6.0221695021
 11
15.1214414697
 21
6.0021695021
  0
LINE
  5
297
100
AcDbEntity
  8
0
100
AcDbLine
 62
7
  6
CONTINUOUS
 10
15.2526923427
 20
6.6221695021
 11
15.2526923427
 21
6.0221695021
  0
LINE
  5
298
100
AcDbEntity
  8
0
100
AcDbLine
 62
7
  6
CONTINUOUS
 10
15.3126923426
 20
7.0870170204
 11
15.3126922951
 21
7.0874806851
  0
LINE
  5
299
100
AcDbEntity
  8
0
100
AcDbLine
 62
7
  6
CONTINUOUS
 10
15.3126923427
 20
7.2221695021
 11
15.3126923427
 21
7.0870214712
  0
LINE
  5
29A
100
AcDbEntity
  8
0
100
AcDbLine
 62
7
  6
CONTINUOUS
 10
15.3126923427
 20
6.7933820268
 11
15.3126923427
 21
6.6221695021
  0
LINE
  5
29B
100
AcDbEntity
  8
0
100
AcDbLine
 62
7
  6
CONTINUOUS
 10
15.3126923382
 20
6.793258776
 11
15.3126923427
 21
6.7933794291
  0
LINE
  5
29C
100
AcDbEntity
  8
0
100
AcDbLine
 62
7
  6
CONTINUOUS
 10
15.1126923427
 20
7.2221695021
 11
15.1126922849
 21
6.9281222305
  0
LINE
  5
29D
100
AcDbEntity
  8
0
100
AcDbLine
 62
7
  6
CONTINUOUS
 10
15.3939130433
 20
7.2221695021
 11
15.3512921048
 21
7.1937555431
  0
LWPOLYLINE
  5
29E
100
AcDbEntity
  8
0
100
AcDbPolyline
 62
7
  6
CONTINUOUS
 90
6
 70
0
 10
16.0024411837
 20
7.2072071479
 10
16.012236855
 20
7.212878601
 10
16.0253913316
 20
7.2181685953
 10
16.0378032836
 20
7.221087962
 10
16.0487378112
 20
7.2221318028
 10
16.0512136732
 20
7.2221696513
  0
LINE
  5
29F
100
AcDbEntity
  8
0
100
AcDbLine
 62
7
  6
CONTINUOUS
 10
15.5939423427
 20
6.0021695021
 11
15.5939423427
 21
4.8941695021
  0
LINE
  5
2A0
100
AcDbEntity
  8
0
100
AcDbLine
 62
7
  6
CONTINUOUS
 10
16.0024409929
 20
7.2072071547
 11
15.3221583199
 21
6.753685371
  0
LINE
  5
2A1
100
AcDbEntity
  8
0
100
AcDbLine
 62
7
  6
CONTINUOUS
 10
15.3221393822
 20
6.7536727556
 11
15.3221574018
 21
6.753684759
  0
LINE
  5
2A2
100
AcDbEntity
  8
0
100
AcDbLine
 62
7
  6
CONTINUOUS
 10
16.1251923427
 20
4.8941695021
 11
16.1251923427
 21
4.5191695021
  0
LWPOLYLINE
  5
2A3
100
AcDbEntity
  8
0
100
AcDbPolyline
 62
7
  6
CONTINUOUS
 90
3
 70
0
 10
15.3126923427
 20
6.7448851773
 10
15.3134348383
 20
6.745989033
 10
15.3221383434
 20
6.7536723998
  0
ARC
  5
2A4
100
AcDbEntity
  8
0
100
AcDbCircle
 62
7
  6
CONTINUOUS
 10
10.9376923427
 20
13.5786695021
 40
0.4375
100
AcDbArc
 50
0.0
 51
180.0
  0
ARC
  5
2A5
100
AcDbEntity
  8
0
100
AcDbCircle
 62
7
  6
CONTINUOUS
 10
16.1751923427
 20
7.4221695021
 40
0.2
100
AcDbArc
 50
270.0
 51
90.0
  0
ARC
  5
2A6
100
AcDbEntity
  8
0
100
AcDbCircle
 62
7
  6
CONTINUOUS
 10
13.7001923427
 20
7.4221695021
 40
0.2
100
AcDbArc
 50
90.0
 51
270.0
  0
ARC
  5
2A7
100
AcDbEntity
  8
0
100
AcDbCircle
 62
7
  6
CONTINUOUS
 10
8.1751923427
 20
7.4221695021
 40
0.2
100
AcDbArc
 50
270.0
 51
90.0
  0
ARC
  5
2A8
100
AcDbEntity
  8
0
100
AcDbCircle
 62
7
  6
CONTINUOUS
 10
5.7001923427
 20
7.4221695021
 40
0.2
100
AcDbArc
 50
90.0
 51
270.0
  0
ARC
  5
2A9
100
AcDbEntity
  8
0
100
AcDbCircle
 62
7
  6
CONTINUOUS
 10
10.2876923427
 20
7.6741695021
 40
0.03
100
AcDbArc
 50
90.0
 51
180.0
  0
ARC
  5
2AA
100
AcDbEntity
  8
0
100
AcDbCircle
 62
7
  6
CONTINUOUS
 10
11.5876923427
 20
7.6741695021
 40
0.03
100
AcDbArc
 50
0.0
 51
90.0
  0
SPLINE
  5
2AB
100
AcDbEntity
  8
0
100
AcDbSpline
 62
7
  6
CONTINUOUS
 70
0
 71
3
 72
17
 73
13
 74
0
 42
0.0000001
 43
0.0000001
 44
0.0000000001
 40
0.0
 40
0.0
 40
0.0
 40
0.0
 40
0.0580961837
 40
0.1180841971
 40
0.1795728776
 40
0.2422128262
 40
0.3696758437
 40
0.4983101419
 40
0.6265833836
 40
0.7534359188
 40
0.8781132816
 40
1.0
 40
1.0
 40
1.0
 40
1.0
 10
15.3126923939
 20
6.7933804818
 30
0.0
 10
15.3126923282
 20
6.7990672319
 30
0.0
 10
15.3126216179
 20
6.8106259074
 30
0.0
 10
15.3123984873
 20
6.8282020183
 30
0.0
 10
15.3121257572
 20
6.8462222362
 30
0.0
 10
15.3117651349
 20
6.8708466557
 30
0.0
 10
15.3114327598
 20
6.9020448175
 30
0.0
 10
15.3113703117
 20
6.9396694577
 30
0.0
 10
15.3116235967
 20
6.9772332987
 30
0.0
 10
15.3120708121
 20
7.0144077291
 30
0.0
 10
15.3125281758
 20
7.0509567138
 30
0.0
 10
15.3126923881
 20
7.0750915746
 30
0.0
 10
15.3126925617
 20
7.0870224669
 30
0.0
  0
SPLINE
  5
2AC
100
AcDbEntity
  8
0
100
AcDbSpline
 62
9
  6
CONTINUOUS
 70
0
 71
3
 72
32
 73
28
 74
0
 42
0.0000001
 43
0.0000001
 44
0.0000000001
 40
0.0
 40
0.0
 40
0.0
 40
0.0
 40
0.0317376999
 40
0.0634049621
 40
0.0949343153
 40
0.1262806681
 40
0.1574173798
 40
0.1883424477
 40
0.2190772851
 40
0.2496633879
 40
0.2801570316
 40
0.3106224207
 40
0.3411239594
 40
0.3717197279
 40
0.402455598
 40
0.433360984
 40
0.4956798194
 40
0.5271027027
 40
0.5586567822
 40
0.590310108
 40
0.6220267035
 40
0.6855111895
 40
0.7489163637
 40
0.8121061583
 40
0.8750173702
 40
0.9376396299
 40
1.0
 40
1.0
 40
1.0
 40
1.0
 10
14.9376923427
 20
6.6701707765
 30
0.0
 10
14.9316319128
 20
6.6701710592
 30
0.0
 10
14.9195178353
 20
6.6706984136
 30
0.0
 10
14.9015228836
 20
6.6730657193
 30
0.0
 10
14.8838746746
 20
6.6769784863
 30
0.0
 10
14.8667355402
 20
6.6823972027
 30
0.0
 10
14.8502492519
 20
6.6892661292
 30
0.0
 10
14.8345397536
 20
6.6975143878
 30
0.0
 10
14.8197150589
 20
6.7070709286
 30
0.0
 10
14.8058611494
 20
6.717853054
 30
0.0
 10
14.7930467823
 20
6.7297758236
 30
0.0
 10
14.7813227867
 20
6.7427492359
 30
0.0
 10
14.7707226291
 20
6.7566790585
 30
0.0
 10
14.7612647247
 20
6.7714676182
 30
0.0
 10
14.7529485055
 20
6.7870134743
 30
0.0
 10
14.7433427994
 20
6.8086661327
 30
0.0
 10
14.7359836476
 20
6.8313853385
 30
0.0
 10
14.7306727457
 20
6.8547225013
 30
0.0
 10
14.7276526724
 20
6.8725481691
 30
0.0
 10
14.7255468075
 20
6.8905588212
 30
0.0
 10
14.723880074
 20
6.9147323622
 30
0.0
 10
14.7238223888
 20
6.9450579186
 30
0.0
 10
14.7265925805
 20
6.9812804612
 30
0.0
 10
14.7319281958
 20
7.0171013765
 30
0.0
 10
14.7396514195
 20
7.052329513
 30
0.0
 10
14.7496802993
 20
7.0868054598
 30
0.0
 10
14.7579364046
 20
7.1092242542
 30
0.0
 10
14.7624691317
 20
7.1202357681
 30
0.0
  0
SPLINE
  5
2AD
100
AcDbEntity
  8
0
100
AcDbSpline
 62
9
  6
CONTINUOUS
 70
0
 71
3
 72
23
 73
19
 74
0
 42
0.0000001
 43
0.0000001
 44
0.0000000001
 40
0.0
 40
0.0
 40
0.0
 40
0.0
 40
0.0881116189
 40
0.1733733881
 40
0.2540492361
 40
0.2926366849
 40
0.3300744812
 40
0.4017096524
 40
0.4693747575
 40
0.5940813662
 40
0.6516088186
 40
0.7062270879
 40
0.7582849828
 40
0.808108094
 40
0.8562079386
 40
0.903406128
 40
0.9508266956
 40
1.0
 40
1.0
 40
1.0
 40
1.0
 10
14.9376923427
 20
7.2117188185
 30
0.0
 10
14.9427226172
 20
7.2117189325
 30
0.0
 10
14.9526224783
 20
7.2113540165
 30
0.0
 10
14.9670670735
 20
7.2099862855
 30
0.0
 10
14.9786345555
 20
7.2083801877
 30
0.0
 10
14.9874756359
 20
7.2070143314
 30
0.0
 10
14.9958013686
 20
7.2056933951
 30
0.0
 10
15.0057647777
 20
7.2040973901
 30
0.0
 10
15.02067918
 20
7.2019314024
 30
0.0
 10
15.0348880658
 20
7.200447032
 30
0.0
 10
15.0484143677
 20
7.2001373369
 30
0.0
 10
15.0577880904
 20
7.2005510468
 30
0.0
 10
15.0666637413
 20
7.2016768828
 30
0.0
 10
15.0750221137
 20
7.2036172403
 30
0.0
 10
15.0828204125
 20
7.2064875371
 30
0.0
 10
15.0900084083
 20
7.2103945748
 30
0.0
 10
15.0965003605
 20
7.2154850553
 30
0.0
 10
15.1001644688
 20
7.2196579505
 30
0.0
 10
15.1018147163
 20
7.2219289816
 30
0.0
  0
SPLINE
  5
2AE
100
AcDbEntity
  8
0
100
AcDbSpline
 62
9
  6
CONTINUOUS
 70
0
 71
3
 72
11
 73
7
 74
0
 42
0.0000001
 43
0.0000001
 44
0.0000000001
 40
0.0
 40
0.0
 40
0.0
 40
0.0
 40
0.260536459
 40
0.5157215292
 40
0.7624655886
 40
1.0
 40
1.0
 40
1.0
 40
1.0
 10
14.9376923433
 20
7.2232778973
 30
0.0
 10
14.9299546069
 20
7.2232784688
 30
0.0
 10
14.9146379421
 20
7.2231626965
 30
0.0
 10
14.8919969541
 20
7.2227495863
 30
0.0
 10
14.8700397996
 20
7.222316331
 30
0.0
 10
14.855657167
 20
7.2221701169
 30
0.0
 10
14.8486025741
 20
7.2221696387
 30
0.0
  0
SPLINE
  5
2AF
100
AcDbEntity
  8
0
100
AcDbSpline
 62
9
  6
CONTINUOUS
 70
0
 71
3
 72
11
 73
7
 74
0
 42
0.0000001
 43
0.0000001
 44
0.0000000001
 40
0.0
 40
0.0
 40
0.0
 40
0.0
 40
0.2605366993
 40
0.5157196704
 40
0.7624640697
 40
1.0
 40
1.0
 40
1.0
 40
1.0
 10
14.9376923433
 20
7.2232778973
 30
0.0
 10
14.9454308241
 20
7.2232785023
 30
0.0
 10
14.9607488938
 20
7.2231627101
 30
0.0
 10
14.9833919916
 20
7.2227494419
 30
0.0
 10
15.0053512325
 20
7.2223162095
 30
0.0
 10
15.0197352919
 20
7.2221700755
 30
0.0
 10
15.0267906021
 20
7.2221696473
 30
0.0
  0
SPLINE
  5
2B0
100
AcDbEntity
  8
0
100
AcDbSpline
 62
9
  6
CONTINUOUS
 70
0
 71
3
 72
23
 73
19
 74
0
 42
0.0000001
 43
0.0000001
 44
0.0000000001
 40
0.0
 40
0.0
 40
0.0
 40
0.0
 40
0.0645587795
 40
0.1288465704
 40
0.1924987805
 40
0.2553186205
 40
0.3172287975
 40
0.3782782771
 40
0.4386456501
 40
0.4986293063
 40
0.5586217785
 40
0.6190410837
 40
0.6802135907
 40
0.7423709356
 40
0.8055652795
 40
0.8696857013
 40
0.9345766696
 40
1.0
 40
1.0
 40
1.0
 40
1.0
 10
14.9376923427
 20
6.74811294
 30
0.0
 10
14.9315779945
 20
6.7481131943
 30
0.0
 10
14.9193687202
 20
6.7486292586
 30
0.0
 10
14.9012629944
 20
6.7509430394
 30
0.0
 10
14.8835876539
 20
6.7548002213
 30
0.0
 10
14.8665535486
 20
6.7601954328
 30
0.0
 10
14.8503482473
 20
6.7671248615
 30
0.0
 10
14.8351459547
 20
6.7755812763
 30
0.0
 10
14.8211144693
 20
6.7855591618
 30
0.0
 10
14.8084074256
 20
6.7970319504
 30
0.0
 10
14.7971548354
 20
6.8099436872
 30
0.0
 10
14.7874794527
 20
6.8242104035
 30
0.0
 10
14.7794180041
 20
6.8396756885
 30
0.0
 10
14.7730224721
 20
6.8561782148
 30
0.0
 10
14.7682188842
 20
6.8734955903
 30
0.0
 10
14.7649411965
 20
6.8914241743
 30
0.0
 10
14.7630770935
 20
6.9097609552
 30
0.0
 10
14.7626924089
 20
6.9221075044
 30
0.0
 10
14.7626930803
 20
6.9283037341
 30
0.0
  0
SPLINE
  5
2B1
100
AcDbEntity
  8
0
100
AcDbSpline
 62
9
  6
CONTINUOUS
 70
0
 71
3
 72
52
 73
48
 74
0
 42
0.0000001
 43
0.0000001
 44
0.0000000001
 40
0.0
 40
0.0
 40
0.0
 40
0.0
 40
0.0093833637
 40
0.0181047125
 40
0.0266055457
 40
0.0352931512
 40
0.0444917384
 40
0.0544246528
 40
0.0651983894
 40
0.0768269238
 40
0.0892640169
 40
0.1024520836
 40
0.1163521664
 40
0.1309137959
 40
0.1460757299
 40
0.161775215
 40
0.1946135361
 40
0.2290887272
 40
0.2649179834
 40
0.3019341116
 40
0.3399715359
 40
0.3788589378
 40
0.4184283049
 40
0.4990399554
 40
0.5398099898
 40
0.5807058366
 40
0.6215053335
 40
0.6619333774
 40
0.7016542644
 40
0.7211257077
 40
0.7402705497
 40
0.7773617244
 40
0.8124743698
 40
0.8451947358
 40
0.8752268632
 40
0.889156991
 40
0.9023474791
 40
0.9148004577
 40
0.9265251328
 40
0.9375409695
 40
0.9478834554
 40
0.9576044602
 40
0.9667736989
 40
0.9754822739
 40
0.9838395123
 40
0.9919669028
 40
1.0
 40
1.0
 40
1.0
 40
1.0
 10
14.4960193962
 20
7.2042197693
 30
0.0
 10
14.4945414277
 20
7.2042195587
 30
0.0
 10
14.4916766255
 20
7.2039440618
 30
0.0
 10
14.4876728758
 20
7.2025786249
 30
0.0
 10
14.4842126165
 20
7.2003400826
 30
0.0
 10
14.4813172718
 20
7.1973113448
 30
0.0
 10
14.4789865306
 20
7.1935712372
 30
0.0
 10
14.4771777032
 20
7.1892046749
 30
0.0
 10
14.4758310843
 20
7.184282341
 30
0.0
 10
14.4748999779
 20
7.1788677768
 30
0.0
 10
14.47433978
 20
7.17302252
 30
0.0
 10
14.4741143354
 20
7.1667980525
 30
0.0
 10
14.4741955406
 20
7.1602362296
 30
0.0
 10
14.4745526083
 20
7.1533729242
 30
0.0
 10
14.4751554076
 20
7.146242786
 30
0.0
 10
14.4762648136
 20
7.1362700581
 30
0.0
 10
14.4781506645
 20
7.1233278133
 30
0.0
 10
14.4809895492
 20
7.1073302824
 30
0.0
 10
14.4843016885
 20
7.0907529378
 30
0.0
 10
14.4879890181
 20
7.0736810816
 30
0.0
 10
14.491950599
 20
7.0561768608
 30
0.0
 10
14.4960876721
 20
7.0383003619
 30
0.0
 10
14.5017421856
 20
7.013892113
 30
0.0
 10
14.5073380578
 20
6.9891650906
 30
0.0
 10
14.512597428
 20
6.9641511324
 30
0.0
 10
14.5163049831
 20
6.9452205968
 30
0.0
 10
14.5196907548
 20
6.9262842571
 30
0.0
 10
14.522677409
 20
6.9074679845
 30
0.0
 10
14.524814374
 20
6.8919217989
 30
0.0
 10
14.5263061826
 20
6.879673279
 30
0.0
 10
14.5276222341
 20
6.8678212749
 30
0.0
 10
14.5290086221
 20
6.8534992479
 30
0.0
 10
14.530386958
 20
6.8370300168
 30
0.0
 10
14.5315852501
 20
6.8216621891
 30
0.0
 10
14.5326371651
 20
6.8096289018
 30
0.0
 10
14.5336221377
 20
6.8006803651
 30
0.0
 10
14.5344351346
 20
6.7944997744
 30
0.0
 10
14.5353681746
 20
6.7886873352
 30
0.0
 10
14.5364490235
 20
6.7832487682
 30
0.0
 10
14.5377069991
 20
6.778189524
 30
0.0
 10
14.5391645319
 20
6.7735127596
 30
0.0
 10
14.5408417167
 20
6.769219826
 30
0.0
 10
14.5427597869
 20
6.765312107
 30
0.0
 10
14.5449408365
 20
6.761793322
 30
0.0
 10
14.5474010541
 20
6.7586681046
 30
0.0
 10
14.5501474304
 20
6.7559394912
 30
0.0
 10
14.5521752249
 20
6.7543869189
 30
0.0
 10
14.5532278375
 20
6.7536848063
 30
0.0
  0
SPLINE
  5
2B2
100
AcDbEntity
  8
0
100
AcDbSpline
 62
9
  6
CONTINUOUS
 70
0
 71
3
 72
11
 73
7
 74
0
 42
0.0000001
 43
0.0000001
 44
0.0000000001
 40
0.0
 40
0.0
 40
0.0
 40
0.0
 40
0.2333528164
 40
0.4779408879
 40
0.7336669732
 40
1.0
 40
1.0
 40
1.0
 40
1.0
 10
14.4960192575
 20
7.2042197756
 30
0.0
 10
14.4986884821
 20
7.2024402946
 30
0.0
 10
14.5043929849
 20
7.1991373228
 30
0.0
 10
14.5137561362
 20
7.1952991032
 30
0.0
 10
14.5240279712
 20
7.1927701704
 30
0.0
 10
14.5312176549
 20
7.1921674427
 30
0.0
 10
14.5348790544
 20
7.1921635217
 30
0.0
  0
SPLINE
  5
2B3
100
AcDbEntity
  8
0
100
AcDbSpline
 62
9
  6
CONTINUOUS
 70
0
 71
3
 72
12
 73
8
 74
0
 42
0.0000001
 43
0.0000001
 44
0.0000000001
 40
0.0
 40
0.0
 40
0.0
 40
0.0
 40
0.2059340142
 40
0.3199136707
 40
0.4414213736
 40
0.7066317757
 40
1.0
 40
1.0
 40
1.0
 40
1.0
 10
15.3793650548
 20
7.204219613
 30
0.0
 10
15.3773425295
 20
7.2042195816
 30
0.0
 10
15.3741970718
 20
7.2038155305
 30
0.0
 10
15.3699984656
 20
7.2027330604
 30
0.0
 10
15.3653359841
 20
7.2011551052
 30
0.0
 10
15.3592324918
 20
7.1984061637
 30
0.0
 10
15.3544626328
 20
7.1956820737
 30
0.0
 10
15.352014172
 20
7.1941633355
 30
0.0
  0
SPLINE
  5
2B4
100
AcDbEntity
  8
0
100
AcDbSpline
 62
9
  6
CONTINUOUS
 70
0
 71
3
 72
22
 73
18
 74
0
 42
0.0000001
 43
0.0000001
 44
0.0000000001
 40
0.0
 40
0.0
 40
0.0
 40
0.0
 40
0.1737805772
 40
0.2549428719
 40
0.3326183908
 40
0.4070214662
 40
0.4783277991
 40
0.612022886
 40
0.7336529736
 40
0.7894931193
 40
0.8416815786
 40
0.8897714211
 40
0.9329433827
 40
0.9523956964
 40
0.9701809033
 40
0.9861055781
 40
1.0
 40
1.0
 40
1.0
 40
1.0
 10
15.8963048624
 20
7.2219269501
 30
0.0
 10
15.9017142625
 20
7.2184089898
 30
0.0
 10
15.9100386145
 20
7.2138113526
 30
0.0
 10
15.9214200594
 20
7.2090011696
 30
0.0
 10
15.9296033399
 20
7.2061465188
 30
0.0
 10
15.9375964094
 20
7.2039100882
 30
0.0
 10
15.9477461579
 20
7.2017351406
 30
0.0
 10
15.9598114827
 20
7.2002443678
 30
0.0
 10
15.9713920901
 20
7.2001332385
 30
0.0
 10
15.9798968343
 20
7.2008144428
 30
0.0
 10
15.9856404118
 20
7.2016274731
 30
0.0
 10
15.9908592086
 20
7.2027111767
 30
0.0
 10
15.9948200751
 20
7.2038296276
 30
0.0
 10
15.9976339926
 20
7.2048306933
 30
0.0
 10
15.9994593657
 20
7.205584898
 30
0.0
 10
16.00105026
 20
7.2063578233
 30
0.0
 10
16.0020074722
 20
7.2069182059
 30
0.0
 10
16.0024368337
 20
7.2072042515
 30
0.0
  0
SPLINE
  5
2B5
100
AcDbEntity
  8
0
100
AcDbSpline
 62
9
  6
CONTINUOUS
 70
0
 71
3
 72
18
 73
14
 74
0
 42
0.0000001
 43
0.0000001
 44
0.0000000001
 40
0.0
 40
0.0
 40
0.0
 40
0.0
 40
0.0580949913
 40
0.118079034
 40
0.1795715499
 40
0.242213158
 40
0.3056773599
 40
0.3696730813
 40
0.4983091871
 40
0.6265818816
 40
0.7534346517
 40
0.8781137876
 40
1.0
 40
1.0
 40
1.0
 40
1.0
 10
14.5626922547
 20
6.7933738981
 30
0.0
 10
14.5626923181
 20
6.7990607337
 30
0.0
 10
14.5627630928
 20
6.8106193147
 30
0.0
 10
14.5629863927
 20
6.8281959189
 30
0.0
 10
14.5632588452
 20
6.8462169279
 30
0.0
 10
14.5635273053
 20
6.8645787007
 30
0.0
 10
14.5637527632
 20
6.8831861376
 30
0.0
 10
14.5639614202
 20
6.9082542017
 30
0.0
 10
14.5640146495
 20
6.9396675023
 30
0.0
 10
14.5637609271
 20
6.9772328238
 30
0.0
 10
14.5633136539
 20
7.0144087176
 30
0.0
 10
14.5628564782
 20
7.0509591514
 30
0.0
 10
14.5626922805
 20
7.0750949944
 30
0.0
 10
14.5626921463
 20
7.0870262614
 30
0.0
  0
SPLINE
  5
2B6
100
AcDbEntity
  8
0
100
AcDbSpline
 62
9
  6
CONTINUOUS
 70
0
 71
3
 72
23
 73
19
 74
0
 42
0.0000001
 43
0.0000001
 44
0.0000000001
 40
0.0
 40
0.0
 40
0.0
 40
0.0
 40
0.0654418455
 40
0.1303449506
 40
0.1944709621
 40
0.257664477
 40
0.3198156906
 40
0.3809785686
 40
0.441388241
 40
0.5013743253
 40
0.5613558892
 40
0.6217254727
 40
0.6827792105
 40
0.7446919775
 40
0.8075111945
 40
0.8711607637
 40
0.9354449631
 40
1.0
 40
1.0
 40
1.0
 40
1.0
 10
15.1126912297
 20
6.9281230772
 30
0.0
 10
15.1126879786
 20
6.9219290343
 30
0.0
 10
15.1122954499
 20
6.9095876731
 30
0.0
 10
15.1104197242
 20
6.8912603833
 30
0.0
 10
15.1071306876
 20
6.873343999
 30
0.0
 10
15.1023166482
 20
6.8560414914
 30
0.0
 10
15.0959123242
 20
6.839556122
 30
0.0
 10
15.087844659
 20
6.8241093172
 30
0.0
 10
15.0781657994
 20
6.8098611865
 30
0.0
 10
15.0669125041
 20
6.7969668767
 30
0.0
 10
15.0542072071
 20
6.7855093842
 30
0.0
 10
15.0401793622
 20
6.7755446643
 30
0.0
 10
15.0249827415
 20
6.7670991695
 30
0.0
 10
15.0087851725
 20
6.7601787676
 30
0.0
 10
14.9917607596
 20
6.7547909058
 30
0.0
 10
14.9740967126
 20
6.7509391395
 30
0.0
 10
14.9560032622
 20
6.7486285458
 30
0.0
 10
14.9438024504
 20
6.7481131932
 30
0.0
 10
14.9376923427
 20
6.7481129472
 30
0.0
  0
SPLINE
  5
2B7
100
AcDbEntity
  8
0
100
AcDbSpline
 62
9
  6
CONTINUOUS
 70
0
 71
3
 72
31
 73
27
 74
0
 42
0.0000001
 43
0.0000001
 44
0.0000000001
 40
0.0
 40
0.0
 40
0.0
 40
0.0
 40
0.0317405644
 40
0.0634106973
 40
0.1262312359
 40
0.1882376153
 40
0.2189752987
 40
0.2495642317
 40
0.2800606639
 40
0.3105287857
 40
0.3410329705
 40
0.3716313154
 40
0.4023697604
 40
0.4332777615
 40
0.46436763
 40
0.4956345627
 40
0.5270600968
 40
0.5586168993
 40
0.5902728567
 40
0.6219921492
 40
0.68548252
 40
0.7488932277
 40
0.812089163
 40
0.8750062267
 40
0.9376341503
 40
1.0
 40
1.0
 40
1.0
 40
1.0
 10
14.9376923427
 20
6.6701707765
 30
0.0
 10
14.9437523981
 20
6.6701710485
 30
0.0
 10
14.9558665907
 20
6.6706986897
 30
0.0
 10
14.9797851672
 20
6.673843741
 30
0.0
 10
15.0088086689
 20
6.6816077344
 30
0.0
 10
15.0358492791
 20
6.694293598
 30
0.0
 10
15.0556626418
 20
6.7070662139
 30
0.0
 10
15.0695170981
 20
6.7178474922
 30
0.0
 10
15.0823309448
 20
6.7297688879
 30
0.0
 10
15.0940548598
 20
6.7427409902
 30
0.0
 10
15.1046550928
 20
6.7566692402
 30
0.0
 10
15.1141133998
 20
6.7714563397
 30
0.0
 10
15.1224300322
 20
6.786999896
 30
0.0
 10
15.1296171174
 20
6.803197836
 30
0.0
 10
15.1356956023
 20
6.819948944
 30
0.0
 10
15.140710973
 20
6.8371494644
 30
0.0
 10
15.1447074675
 20
6.8547048999
 30
0.0
 10
15.1477281599
 20
6.8725281484
 30
0.0
 10
15.1498346941
 20
6.8905378059
 30
0.0
 10
15.1515013246
 20
6.9147096465
 30
0.0
 10
15.1515675151
 20
6.9450333273
 30
0.0
 10
15.1487954353
 20
6.9812537372
 30
0.0
 10
15.1434622749
 20
7.0170726696
 30
0.0
 10
15.1357434191
 20
7.0522996578
 30
0.0
 10
15.1257158879
 20
7.0867737391
 30
0.0
 10
15.1174611526
 20
7.1091914024
 30
0.0
 10
15.1129293887
 20
7.1202024863
 30
0.0
  0
SPLINE
  5
2B8
100
AcDbEntity
  8
0
100
AcDbSpline
 62
9
  6
CONTINUOUS
 70
0
 71
3
 72
23
 73
19
 74
0
 42
0.0000001
 43
0.0000001
 44
0.0000000001
 40
0.0
 40
0.0
 40
0.0
 40
0.0
 40
0.0491642074
 40
0.0965788178
 40
0.1437729341
 40
0.1918701643
 40
0.2416914914
 40
0.2937477042
 40
0.3483638556
 40
0.4058886415
 40
0.5305883722
 40
0.5982521807
 40
0.6698912354
 40
0.707332759
 40
0.7459248783
 40
0.8266116295
 40
0.9118837459
 40
1.0
 40
1.0
 40
1.0
 40
1.0
 10
14.7735717348
 20
7.2219267509
 30
0.0
 10
14.7752218417
 20
7.2196563177
 30
0.0
 10
14.7788855761
 20
7.2154844107
 30
0.0
 10
14.7853764468
 20
7.2103945946
 30
0.0
 10
14.7925635778
 20
7.2064877562
 30
0.0
 10
14.8003612588
 20
7.2036175793
 30
0.0
 10
14.8087191208
 20
7.2016772069
 30
0.0
 10
14.8175942839
 20
7.20055126
 30
0.0
 10
14.8269674715
 20
7.2001373702
 30
0.0
 10
14.8404928868
 20
7.2004467654
 30
0.0
 10
14.8547009532
 20
7.2019307527
 30
0.0
 10
14.8696148698
 20
7.204096638
 30
0.0
 10
14.8795784359
 20
7.2056928748
 30
0.0
 10
14.8879047083
 20
7.2070139827
 30
0.0
 10
14.8967467347
 20
7.2083799533
 30
0.0
 10
14.9083155172
 20
7.2099860262
 30
0.0
 10
14.9227613412
 20
7.2113538302
 30
0.0
 10
14.932661888
 20
7.2117188769
 30
0.0
 10
14.9376923427
 20
7.2117187795
 30
0.0
  0
SPLINE
  5
2B9
100
AcDbEntity
  8
0
100
AcDbSpline
 62
9
  6
CONTINUOUS
 70
0
 71
3
 72
11
 73
7
 74
0
 42
0.0000001
 43
0.0000001
 44
0.0000000001
 40
0.0
 40
0.0
 40
0.0
 40
0.0
 40
0.2333452011
 40
0.4779310335
 40
0.7336594854
 40
1.0
 40
1.0
 40
1.0
 40
1.0
 10
15.3793653809
 20
7.2042197755
 30
0.0
 10
15.3766946915
 20
7.2024393173
 30
0.0
 10
15.3709868552
 20
7.1991346751
 30
0.0
 10
15.3616178748
 20
7.1952953296
 30
0.0
 10
15.3513394011
 20
7.1927669761
 30
0.0
 10
15.344145165
 20
7.1921661159
 30
0.0
 10
15.3404815322
 20
7.1921635002
 30
0.0
  0
SPLINE
  5
2BA
100
AcDbEntity
  8
0
100
AcDbSpline
 62
9
  6
CONTINUOUS
 70
0
 71
3
 72
22
 73
18
 74
0
 42
0.0000001
 43
0.0000001
 44
0.0000000001
 40
0.0
 40
0.0
 40
0.0
 40
0.0
 40
0.0138940513
 40
0.0298176665
 40
0.0476016447
 40
0.0670530984
 40
0.110225755
 40
0.1583185527
 40
0.2105105896
 40
0.2663541018
 40
0.3879899034
 40
0.5216885135
 40
0.5929950103
 40
0.6673966423
 40
0.7450686408
 40
0.8262258279
 40
1.0
 40
1.0
 40
1.0
 40
1.0
 10
13.8729480097
 20
7.2072042341
 30
0.0
 10
13.8733773404
 20
7.2069182086
 30
0.0
 10
13.8743344528
 20
7.2063578605
 30
0.0
 10
13.8759251709
 20
7.2055849788
 30
0.0
 10
13.8777503415
 20
7.2048308212
 30
0.0
 10
13.8805640732
 20
7.2038297851
 30
0.0
 10
13.8845248555
 20
7.2027113309
 30
0.0
 10
13.8897436707
 20
7.2016275691
 30
0.0
 10
13.8954873484
 20
7.2008144691
 30
0.0
 10
13.9039921767
 20
7.200133201
 30
0.0
 10
13.9155727395
 20
7.2002442886
 30
0.0
 10
13.9276378667
 20
7.2017350819
 30
0.0
 10
13.9377872477
 20
7.2039099188
 30
0.0
 10
13.9457798117
 20
7.2061461137
 30
0.0
 10
13.9539624254
 20
7.2090003534
 30
0.0
 10
13.9653430003
 20
7.2138097538
 30
0.0
 10
13.9736666103
 20
7.2184069625
 30
0.0
 10
13.9790756823
 20
7.2219244619
 30
0.0
  0
SPLINE
  5
2BB
100
AcDbEntity
  8
0
100
AcDbSpline
 62
9
  6
CONTINUOUS
 70
0
 71
3
 72
13
 73
9
 74
0
 42
0.0000001
 43
0.0000001
 44
0.0000000001
 40
0.0
 40
0.0
 40
0.0
 40
0.0
 40
0.294483243
 40
0.4311789867
 40
0.5603760709
 40
0.6818561491
 40
0.7955426193
 40
1.0
 40
1.0
 40
1.0
 40
1.0
 10
14.5246322501
 20
7.1933693723
 30
0.0
 10
14.5220697166
 20
7.1950022833
 30
0.0
 10
14.5182276155
 20
7.19726069
 30
0.0
 10
14.5130346858
 20
7.1998089867
 30
0.0
 10
14.5093518219
 20
7.2013678238
 30
0.0
 10
14.5057986635
 20
7.2026089461
 30
0.0
 10
14.5014154406
 20
7.2037785359
 30
0.0
 10
14.4981293119
 20
7.2042193626
 30
0.0
 10
14.496019649
 20
7.2042196007
 30
0.0
  0
SPLINE
  5
2BC
100
AcDbEntity
  8
0
100
AcDbSpline
 62
9
  6
CONTINUOUS
 70
0
 71
3
 72
52
 73
48
 74
0
 42
0.0000001
 43
0.0000001
 44
0.0000000001
 40
0.0
 40
0.0
 40
0.0
 40
0.0
 40
0.0080372092
 40
0.0161686769
 40
0.0245304508
 40
0.0332442934
 40
0.0424196346
 40
0.0521476965
 40
0.0624983442
 40
0.073523617
 40
0.0852590855
 40
0.097724093
 40
0.1109276788
 40
0.1248717943
 40
0.1549333109
 40
0.1876808232
 40
0.2228136278
 40
0.2599165484
 40
0.2790640804
 40
0.2985361945
 40
0.3382536074
 40
0.3786738413
 40
0.4194632877
 40
0.4603487003
 40
0.5011089973
 40
0.5817028764
 40
0.6212638891
 40
0.6601431006
 40
0.6981723947
 40
0.735180354
 40
0.771001308
 40
0.805468029
 40
0.8382982292
 40
0.8539940607
 40
0.8691527011
 40
0.8837111139
 40
0.8976076824
 40
0.9107915719
 40
0.9232235198
 40
0.9348460832
 40
0.9456133965
 40
0.9555397436
 40
0.9647318082
 40
0.9734131054
 40
0.9819079732
 40
0.9906233739
 40
1.0
 40
1.0
 40
1.0
 40
1.0
 10
15.3221563667
 20
6.7536842027
 30
0.0
 10
15.3232095147
 20
6.7543866807
 30
0.0
 10
15.3252382125
 20
6.7559402367
 30
0.0
 10
15.3279854259
 20
6.7586708808
 30
0.0
 10
15.330446131
 20
6.761798507
 30
0.0
 10
15.3326276219
 20
6.7653199648
 30
0.0
 10
15.3345461518
 20
6.7692306932
 30
0.0
 10
15.3362237453
 20
6.7735270761
 30
0.0
 10
15.3376815967
 20
6.7782078128
 30
0.0
 10
15.3389397426
 20
6.7832716271
 30
0.0
 10
15.3400205862
 20
6.7887153786
 30
0.0
 10
15.3409535559
 20
6.7945335606
 30
0.0
 10
15.3417664961
 20
6.8007203739
 30
0.0
 10
15.3427515142
 20
6.809677856
 30
0.0
 10
15.3438039128
 20
6.8217222502
 30
0.0
 10
15.3450032469
 20
6.8371021197
 30
0.0
 10
15.346382872
 20
6.8535805836
 30
0.0
 10
15.3477706838
 20
6.867907956
 30
0.0
 10
15.3490881045
 20
6.8797622071
 30
0.0
 10
15.3505813254
 20
6.8920105423
 30
0.0
 10
15.352720108
 20
6.9075547957
 30
0.0
 10
15.3557081694
 20
6.9263674432
 30
0.0
 10
15.3590943505
 20
6.9452991855
 30
0.0
 10
15.3628018932
 20
6.9642248789
 30
0.0
 10
15.3680610521
 20
6.9892327826
 30
0.0
 10
15.3736563331
 20
7.0139541531
 30
0.0
 10
15.3793098367
 20
7.0383570969
 30
0.0
 10
15.3834459535
 20
7.0562298346
 30
0.0
 10
15.3874063933
 20
7.0737303658
 30
0.0
 10
15.3910924284
 20
7.0907985444
 30
0.0
 10
15.3944031397
 20
7.1073721751
 30
0.0
 10
15.3972405523
 20
7.1233659918
 30
0.0
 10
15.3991249746
 20
7.136305234
 30
0.0
 10
15.4002329506
 20
7.1462757389
 30
0.0
 10
15.4008345327
 20
7.153404378
 30
0.0
 10
15.4011902529
 20
7.1602661771
 30
0.0
 10
15.4012700016
 20
7.1668263047
 30
0.0
 10
15.4010430214
 20
7.1730486997
 30
0.0
 10
15.4004812014
 20
7.1788913895
 30
0.0
 10
15.3995485101
 20
7.1843028854
 30
0.0
 10
15.3982005488
 20
7.1892217608
 30
0.0
 10
15.3963908096
 20
7.1935846178
 30
0.0
 10
15.3940597858
 20
7.1973209379
 30
0.0
 10
15.3911649278
 20
7.2003460084
 30
0.0
 10
15.3877060764
 20
7.2025813329
 30
0.0
 10
15.3837047431
 20
7.2039444887
 30
0.0
 10
15.3808419653
 20
7.2042194446
 30
0.0
 10
15.3793650576
 20
7.2042196148
 30
0.0
  0
SPLINE
  5
2BD
100
AcDbEntity
  8
0
100
AcDbSpline
 62
7
  6
CONTINUOUS
 70
0
 71
3
 72
17
 73
13
 74
0
 42
0.0000001
 43
0.0000001
 44
0.0000000001
 40
0.0
 40
0.0
 40
0.0
 40
0.0
 40
0.0580961837
 40
0.1180841971
 40
0.1795728776
 40
0.2422128262
 40
0.3696758437
 40
0.4983101419
 40
0.6265833836
 40
0.7534359188
 40
0.8781132816
 40
1.0
 40
1.0
 40
1.0
 40
1.0
 10
7.3126923939
 20
6.7933804818
 30
0.0
 10
7.3126923282
 20
6.7990672319
 30
0.0
 10
7.3126216179
 20
6.8106259074
 30
0.0
 10
7.3123984873
 20
6.8282020183
 30
0.0
 10
7.3121257572
 20
6.8462222362
 30
0.0
 10
7.3117651349
 20
6.8708466557
 30
0.0
 10
7.3114327598
 20
6.9020448175
 30
0.0
 10
7.3113703117
 20
6.9396694577
 30
0.0
 10
7.3116235967
 20
6.9772332987
 30
0.0
 10
7.3120708121
 20
7.0144077291
 30
0.0
 10
7.3125281758
 20
7.0509567138
 30
0.0
 10
7.3126923881
 20
7.0750915746
 30
0.0
 10
7.3126925617
 20
7.0870224669
 30
0.0
  0
SPLINE
  5
2BE
100
AcDbEntity
  8
0
100
AcDbSpline
 62
9
  6
CONTINUOUS
 70
0
 71
3
 72
32
 73
28
 74
0
 42
0.0000001
 43
0.0000001
 44
0.0000000001
 40
0.0
 40
0.0
 40
0.0
 40
0.0
 40
0.0317376999
 40
0.0634049621
 40
0.0949343153
 40
0.1262806681
 40
0.1574173798
 40
0.1883424477
 40
0.2190772851
 40
0.2496633879
 40
0.2801570316
 40
0.3106224207
 40
0.3411239594
 40
0.3717197279
 40
0.402455598
 40
0.433360984
 40
0.4956798194
 40
0.5271027027
 40
0.5586567822
 40
0.590310108
 40
0.6220267035
 40
0.6855111895
 40
0.7489163637
 40
0.8121061583
 40
0.8750173702
 40
0.9376396299
 40
1.0
 40
1.0
 40
1.0
 40
1.0
 10
6.9376923427
 20
6.6701707765
 30
0.0
 10
6.9316319128
 20
6.6701710592
 30
0.0
 10
6.9195178353
 20
6.6706984136
 30
0.0
 10
6.9015228836
 20
6.6730657193
 30
0.0
 10
6.8838746746
 20
6.6769784863
 30
0.0
 10
6.8667355402
 20
6.6823972027
 30
0.0
 10
6.8502492519
 20
6.6892661292
 30
0.0
 10
6.8345397536
 20
6.6975143878
 30
0.0
 10
6.8197150589
 20
6.7070709286
 30
0.0
 10
6.8058611494
 20
6.717853054
 30
0.0
 10
6.7930467823
 20
6.7297758236
 30
0.0
 10
6.7813227867
 20
6.7427492359
 30
0.0
 10
6.7707226291
 20
6.7566790585
 30
0.0
 10
6.7612647247
 20
6.7714676182
 30
0.0
 10
6.7529485055
 20
6.7870134743
 30
0.0
 10
6.7433427994
 20
6.8086661327
 30
0.0
 10
6.7359836476
 20
6.8313853385
 30
0.0
 10
6.7306727457
 20
6.8547225013
 30
0.0
 10
6.7276526724
 20
6.8725481691
 30
0.0
 10
6.7255468075
 20
6.8905588212
 30
0.0
 10
6.723880074
 20
6.9147323622
 30
0.0
 10
6.7238223888
 20
6.9450579186
 30
0.0
 10
6.7265925805
 20
6.9812804612
 30
0.0
 10
6.7319281958
 20
7.0171013765
 30
0.0
 10
6.7396514195
 20
7.052329513
 30
0.0
 10
6.7496802993
 20
7.0868054598
 30
0.0
 10
6.7579364046
 20
7.1092242542
 30
0.0
 10
6.7624691317
 20
7.1202357681
 30
0.0
  0
SPLINE
  5
2BF
100
AcDbEntity
  8
0
100
AcDbSpline
 62
9
  6
CONTINUOUS
 70
0
 71
3
 72
23
 73
19
 74
0
 42
0.0000001
 43
0.0000001
 44
0.0000000001
 40
0.0
 40
0.0
 40
0.0
 40
0.0
 40
0.0881116189
 40
0.1733733881
 40
0.2540492361
 40
0.2926366849
 40
0.3300744812
 40
0.4017096524
 40
0.4693747575
 40
0.5940813662
 40
0.6516088186
 40
0.7062270879
 40
0.7582849828
 40
0.808108094
 40
0.8562079386
 40
0.903406128
 40
0.9508266956
 40
1.0
 40
1.0
 40
1.0
 40
1.0
 10
6.9376923427
 20
7.2117188185
 30
0.0
 10
6.9427226172
 20
7.2117189325
 30
0.0
 10
6.9526224783
 20
7.2113540165
 30
0.0
 10
6.9670670735
 20
7.2099862855
 30
0.0
 10
6.9786345555
 20
7.2083801877
 30
0.0
 10
6.9874756359
 20
7.2070143314
 30
0.0
 10
6.9958013686
 20
7.2056933951
 30
0.0
 10
7.0057647777
 20
7.2040973901
 30
0.0
 10
7.02067918
 20
7.2019314024
 30
0.0
 10
7.0348880658
 20
7.200447032
 30
0.0
 10
7.0484143677
 20
7.2001373369
 30
0.0
 10
7.0577880904
 20
7.2005510468
 30
0.0
 10
7.0666637413
 20
7.2016768828
 30
0.0
 10
7.0750221137
 20
7.2036172403
 30
0.0
 10
7.0828204125
 20
7.2064875371
 30
0.0
 10
7.0900084083
 20
7.2103945748
 30
0.0
 10
7.0965003605
 20
7.2154850553
 30
0.0
 10
7.1001644688
 20
7.2196579505
 30
0.0
 10
7.1018147163
 20
7.2219289816
 30
0.0
  0
SPLINE
  5
2C0
100
AcDbEntity
  8
0
100
AcDbSpline
 62
9
  6
CONTINUOUS
 70
0
 71
3
 72
11
 73
7
 74
0
 42
0.0000001
 43
0.0000001
 44
0.0000000001
 40
0.0
 40
0.0
 40
0.0
 40
0.0
 40
0.260536459
 40
0.5157215292
 40
0.7624655886
 40
1.0
 40
1.0
 40
1.0
 40
1.0
 10
6.9376923433
 20
7.2232778973
 30
0.0
 10
6.9299546069
 20
7.2232784688
 30
0.0
 10
6.9146379421
 20
7.2231626965
 30
0.0
 10
6.8919969541
 20
7.2227495863
 30
0.0
 10
6.8700397996
 20
7.222316331
 30
0.0
 10
6.855657167
 20
7.2221701169
 30
0.0
 10
6.8486025741
 20
7.2221696387
 30
0.0
  0
SPLINE
  5
2C1
100
AcDbEntity
  8
0
100
AcDbSpline
 62
9
  6
CONTINUOUS
 70
0
 71
3
 72
11
 73
7
 74
0
 42
0.0000001
 43
0.0000001
 44
0.0000000001
 40
0.0
 40
0.0
 40
0.0
 40
0.0
 40
0.2605366993
 40
0.5157196704
 40
0.7624640697
 40
1.0
 40
1.0
 40
1.0
 40
1.0
 10
6.9376923433
 20
7.2232778973
 30
0.0
 10
6.9454308241
 20
7.2232785023
 30
0.0
 10
6.9607488938
 20
7.2231627101
 30
0.0
 10
6.9833919916
 20
7.2227494419
 30
0.0
 10
7.0053512325
 20
7.2223162095
 30
0.0
 10
7.0197352919
 20
7.2221700755
 30
0.0
 10
7.0267906021
 20
7.2221696473
 30
0.0
  0
SPLINE
  5
2C2
100
AcDbEntity
  8
0
100
AcDbSpline
 62
9
  6
CONTINUOUS
 70
0
 71
3
 72
23
 73
19
 74
0
 42
0.0000001
 43
0.0000001
 44
0.0000000001
 40
0.0
 40
0.0
 40
0.0
 40
0.0
 40
0.0645587795
 40
0.1288465704
 40
0.1924987805
 40
0.2553186205
 40
0.3172287975
 40
0.3782782771
 40
0.4386456501
 40
0.4986293063
 40
0.5586217785
 40
0.6190410837
 40
0.6802135907
 40
0.7423709356
 40
0.8055652795
 40
0.8696857013
 40
0.9345766696
 40
1.0
 40
1.0
 40
1.0
 40
1.0
 10
6.9376923427
 20
6.74811294
 30
0.0
 10
6.9315779945
 20
6.7481131943
 30
0.0
 10
6.9193687202
 20
6.7486292586
 30
0.0
 10
6.9012629944
 20
6.7509430394
 30
0.0
 10
6.8835876539
 20
6.7548002213
 30
0.0
 10
6.8665535486
 20
6.7601954328
 30
0.0
 10
6.8503482473
 20
6.7671248615
 30
0.0
 10
6.8351459547
 20
6.7755812763
 30
0.0
 10
6.8211144693
 20
6.7855591618
 30
0.0
 10
6.8084074256
 20
6.7970319504
 30
0.0
 10
6.7971548354
 20
6.8099436872
 30
0.0
 10
6.7874794527
 20
6.8242104035
 30
0.0
 10
6.7794180041
 20
6.8396756885
 30
0.0
 10
6.7730224721
 20
6.8561782148
 30
0.0
 10
6.7682188842
 20
6.8734955903
 30
0.0
 10
6.7649411965
 20
6.8914241743
 30
0.0
 10
6.7630770935
 20
6.9097609552
 30
0.0
 10
6.7626924089
 20
6.9221075044
 30
0.0
 10
6.7626930803
 20
6.9283037341
 30
0.0
  0
SPLINE
  5
2C3
100
AcDbEntity
  8
0
100
AcDbSpline
 62
9
  6
CONTINUOUS
 70
0
 71
3
 72
52
 73
48
 74
0
 42
0.0000001
 43
0.0000001
 44
0.0000000001
 40
0.0
 40
0.0
 40
0.0
 40
0.0
 40
0.0093833637
 40
0.0181047125
 40
0.0266055457
 40
0.0352931512
 40
0.0444917384
 40
0.0544246528
 40
0.0651983894
 40
0.0768269238
 40
0.0892640169
 40
0.1024520836
 40
0.1163521664
 40
0.1309137959
 40
0.1460757299
 40
0.161775215
 40
0.1946135361
 40
0.2290887272
 40
0.2649179834
 40
0.3019341116
 40
0.3399715359
 40
0.3788589378
 40
0.4184283049
 40
0.4990399554
 40
0.5398099898
 40
0.5807058366
 40
0.6215053335
 40
0.6619333774
 40
0.7016542644
 40
0.7211257077
 40
0.7402705497
 40
0.7773617244
 40
0.8124743698
 40
0.8451947358
 40
0.8752268632
 40
0.889156991
 40
0.9023474791
 40
0.9148004577
 40
0.9265251328
 40
0.9375409695
 40
0.9478834554
 40
0.9576044602
 40
0.9667736989
 40
0.9754822739
 40
0.9838395123
 40
0.9919669028
 40
1.0
 40
1.0
 40
1.0
 40
1.0
 10
6.4960193962
 20
7.2042197693
 30
0.0
 10
6.4945414277
 20
7.2042195587
 30
0.0
 10
6.4916766255
 20
7.2039440618
 30
0.0
 10
6.4876728758
 20
7.2025786249
 30
0.0
 10
6.4842126165
 20
7.2003400826
 30
0.0
 10
6.4813172718
 20
7.1973113448
 30
0.0
 10
6.4789865306
 20
7.1935712372
 30
0.0
 10
6.4771777032
 20
7.1892046749
 30
0.0
 10
6.4758310843
 20
7.184282341
 30
0.0
 10
6.4748999779
 20
7.1788677768
 30
0.0
 10
6.47433978
 20
7.17302252
 30
0.0
 10
6.4741143354
 20
7.1667980525
 30
0.0
 10
6.4741955406
 20
7.1602362296
 30
0.0
 10
6.4745526083
 20
7.1533729242
 30
0.0
 10
6.4751554076
 20
7.146242786
 30
0.0
 10
6.4762648136
 20
7.1362700581
 30
0.0
 10
6.4781506645
 20
7.1233278133
 30
0.0
 10
6.4809895492
 20
7.1073302824
 30
0.0
 10
6.4843016885
 20
7.0907529378
 30
0.0
 10
6.4879890181
 20
7.0736810816
 30
0.0
 10
6.491950599
 20
7.0561768608
 30
0.0
 10
6.4960876721
 20
7.0383003619
 30
0.0
 10
6.5017421856
 20
7.013892113
 30
0.0
 10
6.5073380578
 20
6.9891650906
 30
0.0
 10
6.512597428
 20
6.9641511324
 30
0.0
 10
6.5163049831
 20
6.9452205968
 30
0.0
 10
6.5196907548
 20
6.9262842571
 30
0.0
 10
6.522677409
 20
6.9074679845
 30
0.0
 10
6.524814374
 20
6.8919217989
 30
0.0
 10
6.5263061826
 20
6.879673279
 30
0.0
 10
6.5276222341
 20
6.8678212749
 30
0.0
 10
6.5290086221
 20
6.8534992479
 30
0.0
 10
6.530386958
 20
6.8370300168
 30
0.0
 10
6.5315852501
 20
6.8216621891
 30
0.0
 10
6.5326371651
 20
6.8096289018
 30
0.0
 10
6.5336221377
 20
6.8006803651
 30
0.0
 10
6.5344351346
 20
6.7944997744
 30
0.0
 10
6.5353681746
 20
6.7886873352
 30
0.0
 10
6.5364490235
 20
6.7832487682
 30
0.0
 10
6.5377069991
 20
6.778189524
 30
0.0
 10
6.5391645319
 20
6.7735127596
 30
0.0
 10
6.5408417167
 20
6.769219826
 30
0.0
 10
6.5427597869
 20
6.765312107
 30
0.0
 10
6.5449408365
 20
6.761793322
 30
0.0
 10
6.5474010541
 20
6.7586681046
 30
0.0
 10
6.5501474304
 20
6.7559394912
 30
0.0
 10
6.5521752249
 20
6.7543869189
 30
0.0
 10
6.5532278375
 20
6.7536848063
 30
0.0
  0
SPLINE
  5
2C4
100
AcDbEntity
  8
0
100
AcDbSpline
 62
9
  6
CONTINUOUS
 70
0
 71
3
 72
11
 73
7
 74
0
 42
0.0000001
 43
0.0000001
 44
0.0000000001
 40
0.0
 40
0.0
 40
0.0
 40
0.0
 40
0.2333528164
 40
0.4779408879
 40
0.7336669732
 40
1.0
 40
1.0
 40
1.0
 40
1.0
 10
6.4960192575
 20
7.2042197756
 30
0.0
 10
6.4986884821
 20
7.2024402946
 30
0.0
 10
6.5043929849
 20
7.1991373228
 30
0.0
 10
6.5137561362
 20
7.1952991032
 30
0.0
 10
6.5240279712
 20
7.1927701704
 30
0.0
 10
6.5312176549
 20
7.1921674427
 30
0.0
 10
6.5348790544
 20
7.1921635217
 30
0.0
  0
SPLINE
  5
2C5
100
AcDbEntity
  8
0
100
AcDbSpline
 62
9
  6
CONTINUOUS
 70
0
 71
3
 72
12
 73
8
 74
0
 42
0.0000001
 43
0.0000001
 44
0.0000000001
 40
0.0
 40
0.0
 40
0.0
 40
0.0
 40
0.2059340142
 40
0.3199136707
 40
0.4414213736
 40
0.7066317757
 40
1.0
 40
1.0
 40
1.0
 40
1.0
 10
7.3793650548
 20
7.204219613
 30
0.0
 10
7.3773425295
 20
7.2042195816
 30
0.0
 10
7.3741970718
 20
7.2038155305
 30
0.0
 10
7.3699984656
 20
7.2027330604
 30
0.0
 10
7.3653359841
 20
7.2011551052
 30
0.0
 10
7.3592324918
 20
7.1984061637
 30
0.0
 10
7.3544626328
 20
7.1956820737
 30
0.0
 10
7.352014172
 20
7.1941633355
 30
0.0
  0
SPLINE
  5
2C6
100
AcDbEntity
  8
0
100
AcDbSpline
 62
9
  6
CONTINUOUS
 70
0
 71
3
 72
22
 73
18
 74
0
 42
0.0000001
 43
0.0000001
 44
0.0000000001
 40
0.0
 40
0.0
 40
0.0
 40
0.0
 40
0.1737805772
 40
0.2549428719
 40
0.3326183908
 40
0.4070214662
 40
0.4783277991
 40
0.612022886
 40
0.7336529736
 40
0.7894931193
 40
0.8416815786
 40
0.8897714211
 40
0.9329433827
 40
0.9523956964
 40
0.9701809033
 40
0.9861055781
 40
1.0
 40
1.0
 40
1.0
 40
1.0
 10
7.8963048624
 20
7.2219269501
 30
0.0
 10
7.9017142625
 20
7.2184089898
 30
0.0
 10
7.9100386145
 20
7.2138113526
 30
0.0
 10
7.9214200594
 20
7.2090011696
 30
0.0
 10
7.9296033399
 20
7.2061465188
 30
0.0
 10
7.9375964094
 20
7.2039100882
 30
0.0
 10
7.9477461579
 20
7.2017351406
 30
0.0
 10
7.9598114827
 20
7.2002443678
 30
0.0
 10
7.9713920901
 20
7.2001332385
 30
0.0
 10
7.9798968343
 20
7.2008144428
 30
0.0
 10
7.9856404118
 20
7.2016274731
 30
0.0
 10
7.9908592086
 20
7.2027111767
 30
0.0
 10
7.9948200751
 20
7.2038296276
 30
0.0
 10
7.9976339926
 20
7.2048306933
 30
0.0
 10
7.9994593657
 20
7.205584898
 30
0.0
 10
8.00105026
 20
7.2063578233
 30
0.0
 10
8.0020074722
 20
7.2069182059
 30
0.0
 10
8.0024368337
 20
7.2072042515
 30
0.0
  0
SPLINE
  5
2C7
100
AcDbEntity
  8
0
100
AcDbSpline
 62
9
  6
CONTINUOUS
 70
0
 71
3
 72
18
 73
14
 74
0
 42
0.0000001
 43
0.0000001
 44
0.0000000001
 40
0.0
 40
0.0
 40
0.0
 40
0.0
 40
0.0580949913
 40
0.118079034
 40
0.1795715499
 40
0.242213158
 40
0.3056773599
 40
0.3696730813
 40
0.4983091871
 40
0.6265818816
 40
0.7534346517
 40
0.8781137876
 40
1.0
 40
1.0
 40
1.0
 40
1.0
 10
6.5626922547
 20
6.7933738981
 30
0.0
 10
6.5626923181
 20
6.7990607337
 30
0.0
 10
6.5627630928
 20
6.8106193147
 30
0.0
 10
6.5629863927
 20
6.8281959189
 30
0.0
 10
6.5632588452
 20
6.8462169279
 30
0.0
 10
6.5635273053
 20
6.8645787007
 30
0.0
 10
6.5637527632
 20
6.8831861376
 30
0.0
 10
6.5639614202
 20
6.9082542017
 30
0.0
 10
6.5640146495
 20
6.9396675023
 30
0.0
 10
6.5637609271
 20
6.9772328238
 30
0.0
 10
6.5633136539
 20
7.0144087176
 30
0.0
 10
6.5628564782
 20
7.0509591514
 30
0.0
 10
6.5626922805
 20
7.0750949944
 30
0.0
 10
6.5626921463
 20
7.0870262614
 30
0.0
  0
SPLINE
  5
2C8
100
AcDbEntity
  8
0
100
AcDbSpline
 62
9
  6
CONTINUOUS
 70
0
 71
3
 72
23
 73
19
 74
0
 42
0.0000001
 43
0.0000001
 44
0.0000000001
 40
0.0
 40
0.0
 40
0.0
 40
0.0
 40
0.0654418455
 40
0.1303449506
 40
0.1944709621
 40
0.257664477
 40
0.3198156906
 40
0.3809785686
 40
0.441388241
 40
0.5013743253
 40
0.5613558892
 40
0.6217254727
 40
0.6827792105
 40
0.7446919775
 40
0.8075111945
 40
0.8711607637
 40
0.9354449631
 40
1.0
 40
1.0
 40
1.0
 40
1.0
 10
7.1126912297
 20
6.9281230772
 30
0.0
 10
7.1126879786
 20
6.9219290343
 30
0.0
 10
7.1122954499
 20
6.9095876731
 30
0.0
 10
7.1104197242
 20
6.8912603833
 30
0.0
 10
7.1071306876
 20
6.873343999
 30
0.0
 10
7.1023166482
 20
6.8560414914
 30
0.0
 10
7.0959123242
 20
6.839556122
 30
0.0
 10
7.087844659
 20
6.8241093172
 30
0.0
 10
7.0781657994
 20
6.8098611865
 30
0.0
 10
7.0669125041
 20
6.7969668767
 30
0.0
 10
7.0542072071
 20
6.7855093842
 30
0.0
 10
7.0401793622
 20
6.7755446643
 30
0.0
 10
7.0249827415
 20
6.7670991695
 30
0.0
 10
7.0087851725
 20
6.7601787676
 30
0.0
 10
6.9917607596
 20
6.7547909058
 30
0.0
 10
6.9740967126
 20
6.7509391395
 30
0.0
 10
6.9560032622
 20
6.7486285458
 30
0.0
 10
6.9438024504
 20
6.7481131932
 30
0.0
 10
6.9376923427
 20
6.7481129472
 30
0.0
  0
SPLINE
  5
2C9
100
AcDbEntity
  8
0
100
AcDbSpline
 62
9
  6
CONTINUOUS
 70
0
 71
3
 72
31
 73
27
 74
0
 42
0.0000001
 43
0.0000001
 44
0.0000000001
 40
0.0
 40
0.0
 40
0.0
 40
0.0
 40
0.0317405644
 40
0.0634106973
 40
0.1262312359
 40
0.1882376153
 40
0.2189752987
 40
0.2495642317
 40
0.2800606639
 40
0.3105287857
 40
0.3410329705
 40
0.3716313154
 40
0.4023697604
 40
0.4332777615
 40
0.46436763
 40
0.4956345627
 40
0.5270600968
 40
0.5586168993
 40
0.5902728567
 40
0.6219921492
 40
0.68548252
 40
0.7488932277
 40
0.812089163
 40
0.8750062267
 40
0.9376341503
 40
1.0
 40
1.0
 40
1.0
 40
1.0
 10
6.9376923427
 20
6.6701707765
 30
0.0
 10
6.9437523981
 20
6.6701710485
 30
0.0
 10
6.9558665907
 20
6.6706986897
 30
0.0
 10
6.9797851672
 20
6.673843741
 30
0.0
 10
7.0088086689
 20
6.6816077344
 30
0.0
 10
7.0358492791
 20
6.694293598
 30
0.0
 10
7.0556626418
 20
6.7070662139
 30
0.0
 10
7.0695170981
 20
6.7178474922
 30
0.0
 10
7.0823309448
 20
6.7297688879
 30
0.0
 10
7.0940548598
 20
6.7427409902
 30
0.0
 10
7.1046550928
 20
6.7566692402
 30
0.0
 10
7.1141133998
 20
6.7714563397
 30
0.0
 10
7.1224300322
 20
6.786999896
 30
0.0
 10
7.1296171174
 20
6.803197836
 30
0.0
 10
7.1356956023
 20
6.819948944
 30
0.0
 10
7.140710973
 20
6.8371494644
 30
0.0
 10
7.1447074675
 20
6.8547048999
 30
0.0
 10
7.1477281599
 20
6.8725281484
 30
0.0
 10
7.1498346941
 20
6.8905378059
 30
0.0
 10
7.1515013246
 20
6.9147096465
 30
0.0
 10
7.1515675151
 20
6.9450333273
 30
0.0
 10
7.1487954353
 20
6.9812537372
 30
0.0
 10
7.1434622749
 20
7.0170726696
 30
0.0
 10
7.1357434191
 20
7.0522996578
 30
0.0
 10
7.1257158879
 20
7.0867737391
 30
0.0
 10
7.1174611526
 20
7.1091914024
 30
0.0
 10
7.1129293887
 20
7.1202024863
 30
0.0
  0
SPLINE
  5
2CA
100
AcDbEntity
  8
0
100
AcDbSpline
 62
9
  6
CONTINUOUS
 70
0
 71
3
 72
23
 73
19
 74
0
 42
0.0000001
 43
0.0000001
 44
0.0000000001
 40
0.0
 40
0.0
 40
0.0
 40
0.0
 40
0.0491642074
 40
0.0965788178
 40
0.1437729341
 40
0.1918701643
 40
0.2416914914
 40
0.2937477042
 40
0.3483638556
 40
0.4058886415
 40
0.5305883722
 40
0.5982521807
 40
0.6698912354
 40
0.707332759
 40
0.7459248783
 40
0.8266116295
 40
0.9118837459
 40
1.0
 40
1.0
 40
1.0
 40
1.0
 10
6.7735717348
 20
7.2219267509
 30
0.0
 10
6.7752218417
 20
7.2196563177
 30
0.0
 10
6.7788855761
 20
7.2154844107
 30
0.0
 10
6.7853764468
 20
7.2103945946
 30
0.0
 10
6.7925635778
 20
7.2064877562
 30
0.0
 10
6.8003612588
 20
7.2036175793
 30
0.0
 10
6.8087191208
 20
7.2016772069
 30
0.0
 10
6.8175942839
 20
7.20055126
 30
0.0
 10
6.8269674715
 20
7.2001373702
 30
0.0
 10
6.8404928868
 20
7.2004467654
 30
0.0
 10
6.8547009532
 20
7.2019307527
 30
0.0
 10
6.8696148698
 20
7.204096638
 30
0.0
 10
6.8795784359
 20
7.2056928748
 30
0.0
 10
6.8879047083
 20
7.2070139827
 30
0.0
 10
6.8967467347
 20
7.2083799533
 30
0.0
 10
6.9083155172
 20
7.2099860262
 30
0.0
 10
6.9227613412
 20
7.2113538302
 30
0.0
 10
6.932661888
 20
7.2117188769
 30
0.0
 10
6.9376923427
 20
7.2117187795
 30
0.0
  0
SPLINE
  5
2CB
100
AcDbEntity
  8
0
100
AcDbSpline
 62
9
  6
CONTINUOUS
 70
0
 71
3
 72
11
 73
7
 74
0
 42
0.0000001
 43
0.0000001
 44
0.0000000001
 40
0.0
 40
0.0
 40
0.0
 40
0.0
 40
0.2333452011
 40
0.4779310335
 40
0.7336594854
 40
1.0
 40
1.0
 40
1.0
 40
1.0
 10
7.3793653809
 20
7.2042197755
 30
0.0
 10
7.3766946915
 20
7.2024393173
 30
0.0
 10
7.3709868552
 20
7.1991346751
 30
0.0
 10
7.3616178748
 20
7.1952953296
 30
0.0
 10
7.3513394011
 20
7.1927669761
 30
0.0
 10
7.344145165
 20
7.1921661159
 30
0.0
 10
7.3404815322
 20
7.1921635002
 30
0.0
  0
SPLINE
  5
2CC
100
AcDbEntity
  8
0
100
AcDbSpline
 62
9
  6
CONTINUOUS
 70
0
 71
3
 72
22
 73
18
 74
0
 42
0.0000001
 43
0.0000001
 44
0.0000000001
 40
0.0
 40
0.0
 40
0.0
 40
0.0
 40
0.0138940513
 40
0.0298176665
 40
0.0476016447
 40
0.0670530984
 40
0.110225755
 40
0.1583185527
 40
0.2105105896
 40
0.2663541018
 40
0.3879899034
 40
0.5216885135
 40
0.5929950103
 40
0.6673966423
 40
0.7450686408
 40
0.8262258279
 40
1.0
 40
1.0
 40
1.0
 40
1.0
 10
5.8729480097
 20
7.2072042341
 30
0.0
 10
5.8733773404
 20
7.2069182086
 30
0.0
 10
5.8743344528
 20
7.2063578605
 30
0.0
 10
5.8759251709
 20
7.2055849788
 30
0.0
 10
5.8777503415
 20
7.2048308212
 30
0.0
 10
5.8805640732
 20
7.2038297851
 30
0.0
 10
5.8845248555
 20
7.2027113309
 30
0.0
 10
5.8897436707
 20
7.2016275691
 30
0.0
 10
5.8954873484
 20
7.2008144691
 30
0.0
 10
5.9039921767
 20
7.200133201
 30
0.0
 10
5.9155727395
 20
7.2002442886
 30
0.0
 10
5.9276378667
 20
7.2017350819
 30
0.0
 10
5.9377872477
 20
7.2039099188
 30
0.0
 10
5.9457798117
 20
7.2061461137
 30
0.0
 10
5.9539624254
 20
7.2090003534
 30
0.0
 10
5.9653430003
 20
7.2138097538
 30
0.0
 10
5.9736666103
 20
7.2184069625
 30
0.0
 10
5.9790756823
 20
7.2219244619
 30
0.0
  0
SPLINE
  5
2CD
100
AcDbEntity
  8
0
100
AcDbSpline
 62
9
  6
CONTINUOUS
 70
0
 71
3
 72
13
 73
9
 74
0
 42
0.0000001
 43
0.0000001
 44
0.0000000001
 40
0.0
 40
0.0
 40
0.0
 40
0.0
 40
0.294483243
 40
0.4311789867
 40
0.5603760709
 40
0.6818561491
 40
0.7955426193
 40
1.0
 40
1.0
 40
1.0
 40
1.0
 10
6.5246322501
 20
7.1933693723
 30
0.0
 10
6.5220697166
 20
7.1950022833
 30
0.0
 10
6.5182276155
 20
7.19726069
 30
0.0
 10
6.5130346858
 20
7.1998089867
 30
0.0
 10
6.5093518219
 20
7.2013678238
 30
0.0
 10
6.5057986635
 20
7.2026089461
 30
0.0
 10
6.5014154406
 20
7.2037785359
 30
0.0
 10
6.4981293119
 20
7.2042193626
 30
0.0
 10
6.496019649
 20
7.2042196007
 30
0.0
  0
SPLINE
  5
2CE
100
AcDbEntity
  8
0
100
AcDbSpline
 62
9
  6
CONTINUOUS
 70
0
 71
3
 72
52
 73
48
 74
0
 42
0.0000001
 43
0.0000001
 44
0.0000000001
 40
0.0
 40
0.0
 40
0.0
 40
0.0
 40
0.0080372092
 40
0.0161686769
 40
0.0245304508
 40
0.0332442934
 40
0.0424196346
 40
0.0521476965
 40
0.0624983442
 40
0.073523617
 40
0.0852590855
 40
0.097724093
 40
0.1109276788
 40
0.1248717943
 40
0.1549333109
 40
0.1876808232
 40
0.2228136278
 40
0.2599165484
 40
0.2790640804
 40
0.2985361945
 40
0.3382536074
 40
0.3786738413
 40
0.4194632877
 40
0.4603487003
 40
0.5011089973
 40
0.5817028764
 40
0.6212638891
 40
0.6601431006
 40
0.6981723947
 40
0.735180354
 40
0.771001308
 40
0.805468029
 40
0.8382982292
 40
0.8539940607
 40
0.8691527011
 40
0.8837111139
 40
0.8976076824
 40
0.9107915719
 40
0.9232235198
 40
0.9348460832
 40
0.9456133965
 40
0.9555397436
 40
0.9647318082
 40
0.9734131054
 40
0.9819079732
 40
0.9906233739
 40
1.0
 40
1.0
 40
1.0
 40
1.0
 10
7.3221563667
 20
6.7536842027
 30
0.0
 10
7.3232095147
 20
6.7543866807
 30
0.0
 10
7.3252382125
 20
6.7559402367
 30
0.0
 10
7.3279854259
 20
6.7586708808
 30
0.0
 10
7.330446131
 20
6.761798507
 30
0.0
 10
7.3326276219
 20
6.7653199648
 30
0.0
 10
7.3345461518
 20
6.7692306932
 30
0.0
 10
7.3362237453
 20
6.7735270761
 30
0.0
 10
7.3376815967
 20
6.7782078128
 30
0.0
 10
7.3389397426
 20
6.7832716271
 30
0.0
 10
7.3400205862
 20
6.7887153786
 30
0.0
 10
7.3409535559
 20
6.7945335606
 30
0.0
 10
7.3417664961
 20
6.8007203739
 30
0.0
 10
7.3427515142
 20
6.809677856
 30
0.0
 10
7.3438039128
 20
6.8217222502
 30
0.0
 10
7.3450032469
 20
6.8371021197
 30
0.0
 10
7.346382872
 20
6.8535805836
 30
0.0
 10
7.3477706838
 20
6.867907956
 30
0.0
 10
7.3490881045
 20
6.8797622071
 30
0.0
 10
7.3505813254
 20
6.8920105423
 30
0.0
 10
7.352720108
 20
6.9075547957
 30
0.0
 10
7.3557081694
 20
6.9263674432
 30
0.0
 10
7.3590943505
 20
6.9452991855
 30
0.0
 10
7.3628018932
 20
6.9642248789
 30
0.0
 10
7.3680610521
 20
6.9892327826
 30
0.0
 10
7.3736563331
 20
7.0139541531
 30
0.0
 10
7.3793098367
 20
7.0383570969
 30
0.0
 10
7.3834459535
 20
7.0562298346
 30
0.0
 10
7.3874063933
 20
7.0737303658
 30
0.0
 10
7.3910924284
 20
7.0907985444
 30
0.0
 10
7.3944031397
 20
7.1073721751
 30
0.0
 10
7.3972405523
 20
7.1233659918
 30
0.0
 10
7.3991249746
 20
7.136305234
 30
0.0
 10
7.4002329506
 20
7.1462757389
 30
0.0
 10
7.4008345327
 20
7.153404378
 30
0.0
 10
7.4011902529
 20
7.1602661771
 30
0.0
 10
7.4012700016
 20
7.1668263047
 30
0.0
 10
7.4010430214
 20
7.1730486997
 30
0.0
 10
7.4004812014
 20
7.1788913895
 30
0.0
 10
7.3995485101
 20
7.1843028854
 30
0.0
 10
7.3982005488
 20
7.1892217608
 30
0.0
 10
7.3963908096
 20
7.1935846178
 30
0.0
 10
7.3940597858
 20
7.1973209379
 30
0.0
 10
7.3911649278
 20
7.2003460084
 30
0.0
 10
7.3877060764
 20
7.2025813329
 30
0.0
 10
7.3837047431
 20
7.2039444887
 30
0.0
 10
7.3808419653
 20
7.2042194446
 30
0.0
 10
7.3793650576
 20
7.2042196148
 30
0.0
  0
ENDSEC
  0
SECTION
  2
OBJECTS
  0
DICTIONARY
  5
C
100
AcDbDictionary
280
0
281
1
  3
ACAD_GROUP
350
D
  3
ACAD_MLINESTYLE
350
17
  3
ACAD_LAYOUT
350
1A
  3
ACAD_PLOTSETTINGS
350
19
  3
ACAD_PLOTSTYLENAME
350
E
  0
DICTIONARY
  5
D
102
{ACAD_REACTORS
330
C
102
}
100
AcDbDictionary
280
0
281
1
  0
ACDBDICTIONARYWDFLT
  5
E
102
{ACAD_REACTORS
330
C
102
}
100
AcDbDictionary
281
1
  3
Normal
350
F
100
AcDbDictionaryWithDefault
340
F
  0
DICTIONARY
  5
17
102
{ACAD_REACTORS
330
C
102
}
100
AcDbDictionary
280
0
281
1
  3
Standard
350
18
  0
DICTIONARY
  5
19
102
{ACAD_REACTORS
330
C
102
}
100
AcDbDictionary
281
1
  0
DICTIONARY
  5
1A
102
{ACAD_REACTORS
330
C
102
}
100
AcDbDictionary
281
1
  3
Model
350
2CF
  3
Layout1
350
2D0
  0
ACDBPLACEHOLDER
  5
F
102
{ACAD_REACTORS
330
E
102
}
  0
MLINESTYLE
  5
18
102
{ACAD_REACTORS
330
17
102
}
100
AcDbMlineStyle
  2
STANDARD
 70
0
  3

 62
256
 51
90.0
 52
90.0
 71
2
 49
0.5
 62
256
  6
BYLAYER
 49
-0.5
 62
256
  6
BYLAYER
  0
LAYOUT
  5
2CF
102
{ACAD_REACTORS
330
1A
102
}
100
AcDbPlotSettings
  1

  2
none_device
  4
ANSI_C_(22.00_x_17.00_Inches)
  6

 40
0.0
 41
0.0
 42
0.0
 43
0.0
 44
558.8
 45
431.8
 46
0.0
 47
0.0
 48
0.0
 49
0.0
140
0.0
141
0.0
142
1.0
143
1.0
 70
1024
 72
0
 73
0
 74
0
  7

 75
0
147
1.0
148
0.0
149
0.0
100
AcDbLayout
  1
Model
 70
0
 71
0
 10
0.0
 20
0.0
 11
22.0
 21
17.0
 12
0.0
 22
0.0
 32
0.0
 14
0.0
 24
0.0
 34
0.0
 15
0.0
 25
0.0
 35
0.0
146
0.0
 13
0.0
 23
0.0
 33
0.0
 16
1.0
 26
0.0
 36
0.0
 17
0.0
 27
1.0
 37
0.0
 76
0
330
202
345
0
346
0
  0
LAYOUT
  5
2D0
102
{ACAD_REACTORS
330
1A
102
}
100
AcDbPlotSettings
  1

  2
none_device
  4
ANSI_C_(22.00_x_17.00_Inches)
  6

 40
0.0
 41
0.0
 42
0.0
 43
0.0
 44
558.8
 45
431.8
 46
0.0
 47
0.0
 48
0.0
 49
0.0
140
0.0
141
0.0
142
1.0
143
1.0
 70
0
 72
0
 73
0
 74
0
  7

 75
0
147
1.0
148
0.0
149
0.0
100
AcDbLayout
  1
Layout1
 70
0
 71
1
 10
0.0
 20
0.0
 11
22.0
 21
17.0
 12
0.0
 22
0.0
 32
0.0
 14
0.0
 24
0.0
 34
0.0
 15
0.0
 25
0.0
 35
0.0
146
0.0
 13
0.0
 23
0.0
 33
0.0
 16
1.0
 26
0.0
 36
0.0
 17
0.0
 27
1.0
 37
0.0
 76
0
330
203
345
0
346
0
  0
ENDSEC
  0
EOF
