999
DXF file: E:\BT Custom\CADOUTPUT\_RIGHT.dxf
999
Pro/ENGINEER 2018400 by Parametric Technology Corporation
  0
SECTION
  2
HEADER
  9
$ACADVER
  1
AC1018
  9
$DWGCODEPAGE
  3
ANSI_1252
  9
$EXTMAX
 10
22.0
 20
17.0
 30
0.0
  9
$EXTMIN
 10
0.0
 20
0.0
 30
0.0
  9
$LIMMIN
 10
0.0
 20
0.0
  9
$LIMMAX
 10
22.0
 20
17.0
  9
$VIEWCTR
 10
11.0
 20
8.5
  9
$VIEWSIZE
 40
17.0
  9
$CLAYER
  8
0
  9
$LTSCALE
 40
1.21
  9
$CELTYPE
  6
BYLAYER
  9
$DIMSCALE
 40
1.0
  9
$DIMASZ
 40
0.1
  9
$DIMEXO
 40
0.0625
  9
$DIMDLI
 40
0.836
  9
$DIMEXE
 40
0.125
  9
$DIMCEN
 40
0.198
  9
$DIMLFAC
 40
1.0
  9
$DIMBLK
  1
_FILLED
  9
$DIMALT
 70
1
  9
$DIMALTD
 70
2
  9
$DIMALTTD
 70
2
  9
$DIMALTF
 40
25.4
  9
$DIMTXT
 40
0.08
  9
$DIMTOL
 70
1
  9
$DIMLIM
 70
0
  9
$DIMTFAC
 40
1.0
  9
$DIMTP
 40
0.001
  9
$DIMTM
 40
0.001
  9
$DIMGAP
 40
0.09
  9
$DIMDSEP
 70
46
  9
$AUNITS
 70
0
  9
$PDMODE
 70
3
  9
$PDSIZE
 40
0.06
  9
$HANDSEED
  5
275
  9
$TILEMODE
 70
1
  9
$MEASUREMENT
 70
0
  9
$INSUNITS
 70
1
  0
ENDSEC
  0
SECTION
  2
CLASSES
  0
CLASS
  1
ACDBDICTIONARYWDFLT
  2
AcDbDictionaryWithDefault
  3
AutoCAD 2000
 90
0
 91
1
280
0
281
0
  0
CLASS
  1
ACDBPLACEHOLDER
  2
AcDbPlaceHolder
  3
AutoCAD 2000
 90
0
 91
1
280
0
281
0
  0
CLASS
  1
LAYOUT
  2
AcDbLayout
  3
AutoCAD 2000
 90
0
 91
0
280
0
281
0
  0
ENDSEC
  0
SECTION
  2
TABLES
  0
TABLE
  2
VPORT
  5
8
100
AcDbSymbolTable
 70
2
  0
VPORT
  5
1F4
100
AcDbSymbolTableRecord
100
AcDbViewportTableRecord
  2
*ACTIVE
 70
0
 10
0.0
 20
0.0
 11
1.0
 21
1.0
 12
11.0
 22
8.5
 13
0.0
 23
0.0
 14
1.0
 24
1.0
 15
0.0
 25
0.0
 16
0.0
 26
0.0
 36
1.0
 17
0.0
 27
0.0
 37
0.0
 40
17.0
 41
1.2941176471
 42
50.0
 43
0.0
 44
0.0
 50
0.0
 51
0.0
 71
0
 72
100
 73
1
 74
1
 75
0
 76
0
 77
0
 78
0
  0
ENDTAB
  0
TABLE
  2
LTYPE
  5
5
100
AcDbSymbolTable
 70
6
  0
LTYPE
  5
14
100
AcDbSymbolTableRecord
100
AcDbLinetypeTableRecord
  2
BYBLOCK
 70
0
  3

 72
65
 73
0
 40
0.0
  0
LTYPE
  5
15
100
AcDbSymbolTableRecord
100
AcDbLinetypeTableRecord
  2
BYLAYER
 70
0
  3

 72
65
 73
0
 40
0.0
  0
LTYPE
  5
16
100
AcDbSymbolTableRecord
100
AcDbLinetypeTableRecord
  2
CONTINUOUS
 70
64
  3
Solid line
 72
65
 73
0
 40
0.0
  0
LTYPE
  5
1F5
100
AcDbSymbolTableRecord
100
AcDbLinetypeTableRecord
  2
CENTER
 70
64
  3
____ _ ____ _ ____ _ ____ _ ____ _ ____ _ ____
 72
65
 73
4
 40
0.6
 49
0.375
 74
0
 49
-0.075
 74
0
 49
0.075
 74
0
 49
-0.075
 74
0
  0
LTYPE
  5
1F6
100
AcDbSymbolTableRecord
100
AcDbLinetypeTableRecord
  2
HIDDEN
 70
64
  3
- - - - - - - - - - - - - - - - - - - -
 72
65
 73
2
 40
0.2
 49
0.1
 74
0
 49
-0.1
 74
0
  0
LTYPE
  5
1F7
100
AcDbSymbolTableRecord
100
AcDbLinetypeTableRecord
  2
PHANTOM
 70
64
  3
_____ _ _ _____ _ _ _____ _ _ _____
 72
65
 73
6
 40
0.8
 49
0.45
 74
0
 49
-0.05
 74
0
 49
0.1
 74
0
 49
-0.05
 74
0
 49
0.1
 74
0
 49
-0.05
 74
0
  0
LTYPE
  5
1F8
100
AcDbSymbolTableRecord
100
AcDbLinetypeTableRecord
  2
DOT
 70
64
  3
. . . . . . . . . . . . . . . . . . . .
 72
65
 73
2
 40
0.2
 49
0.1
 74
0
 49
-0.1
 74
0
  0
LTYPE
  5
1F9
100
AcDbSymbolTableRecord
100
AcDbLinetypeTableRecord
  2
DASHED
 70
64
  3
- - - - - - - - - - - - - - - - - - - -
 72
65
 73
2
 40
0.2
 49
0.1
 74
0
 49
-0.1
 74
0
  0
ENDTAB
  0
TABLE
  2
LAYER
  5
2
100
AcDbSymbolTable
 70
36
  0
LAYER
  5
10
100
AcDbSymbolTableRecord
100
AcDbLayerTableRecord
  2
0
 70
0
 62
7
  6
CONTINUOUS
370
-3
390
F
  0
LAYER
  5
1FA
100
AcDbSymbolTableRecord
100
AcDbLayerTableRecord
  2
DEFAULT_1
 70
0
 62
7
  6
CENTER
370
-3
390
F
  0
LAYER
  5
1FB
100
AcDbSymbolTableRecord
100
AcDbLayerTableRecord
  2
DEFAULT_2
 70
0
 62
8
  6
HIDDEN
370
-3
390
F
  0
LAYER
  5
1FC
100
AcDbSymbolTableRecord
100
AcDbLayerTableRecord
  2
DEFAULT_3
 70
0
 62
7
  6
PHANTOM
370
-3
390
F
  0
LAYER
  5
1FD
100
AcDbSymbolTableRecord
100
AcDbLayerTableRecord
  2
ALL_FEATURES
 70
0
 62
7
  6
CONTINUOUS
370
-3
390
F
  0
LAYER
  5
1FE
100
AcDbSymbolTableRecord
100
AcDbLayerTableRecord
  2
AXES_FEATURES
 70
0
 62
7
  6
CONTINUOUS
370
-3
390
F
  0
LAYER
  5
1FF
100
AcDbSymbolTableRecord
100
AcDbLayerTableRecord
  2
DIMENSIONS
 70
0
 62
7
  6
CONTINUOUS
370
-3
390
F
  0
ENDTAB
  0
TABLE
  2
STYLE
  5
3
100
AcDbSymbolTable
 70
1
  0
STYLE
  5
11
100
AcDbSymbolTableRecord
100
AcDbTextStyleTableRecord
  2
STANDARD
 70
0
 40
0.0
 41
0.8
 50
0.0
 71
0
 42
0.2
  3
txt
  4

  0
STYLE
  5
200
100
AcDbSymbolTableRecord
100
AcDbTextStyleTableRecord
  2
TEXTSTYLE_1
 70
0
 40
0.0
 41
0.8
 50
0.0
 71
0
 42
0.2
  3
gdt
  4

  0
ENDTAB
  0
TABLE
  2
VIEW
  5
6
100
AcDbSymbolTable
 70
0
  0
ENDTAB
  0
TABLE
  2
UCS
  5
7
100
AcDbSymbolTable
 70
0
  0
ENDTAB
  0
TABLE
  2
APPID
  5
9
100
AcDbSymbolTable
 70
1
  0
APPID
  5
201
100
AcDbSymbolTableRecord
100
AcDbRegAppTableRecord
  2
ACAD
 70
0
  0
ENDTAB
  0
TABLE
  2
BLOCK_RECORD
  5
1
100
AcDbSymbolTable
 70
0
  0
BLOCK_RECORD
  5
202
100
AcDbSymbolTableRecord
100
AcDbBlockTableRecord
  2
*Model_Space
  0
BLOCK_RECORD
  5
203
100
AcDbSymbolTableRecord
100
AcDbBlockTableRecord
  2
*Paper_Space
  0
BLOCK_RECORD
  5
204
100
AcDbSymbolTableRecord
100
AcDbBlockTableRecord
  2
_FILLED
  0
ENDTAB
  0
TABLE
  2
DIMSTYLE
  5
A
100
AcDbSymbolTable
 70
1
100
AcDbDimStyleTable
 71
0
  0
DIMSTYLE
105
205
100
AcDbSymbolTableRecord
100
AcDbDimStyleTableRecord
  2
STANDARD
 70
0
  3

  4

 40
1.0
 41
0.1
 42
0.0625
 43
0.38
 44
0.125
 45
0.0
 46
0.0
 47
0.001
 48
0.001
140
0.08
141
0.09
142
0.0
143
25.4
144
1.0
145
0.0
146
1.0
147
0.09
 71
1.0
 72
0.0
 73
1
 74
1
 75
0
 76
0
 77
0
 78
4
 79
1
170
1
171
2
172
0
173
0
174
0
175
0
176
0
177
0
178
0
270
2
179
3
271
3
272
3
273
2
274
2
275
0
280
0
281
0
282
0
283
1
284
4
285
0
286
0
287
3
288
0
340
11
278
46
341
204
342
204
343
204
344
204
  0
ENDTAB
  0
ENDSEC
  0
SECTION
  2
BLOCKS
  0
BLOCK
  5
20
100
AcDbEntity
  8
0
100
AcDbBlockBegin
  2
*Model_Space
 70
0
 10
0.0
 20
0.0
 30
0.0
  3
*Model_Space
  1

  0
ENDBLK
  5
21
100
AcDbEntity
  8
0
100
AcDbBlockEnd
  0
BLOCK
  5
1C
100
AcDbEntity
  8
0
100
AcDbBlockBegin
  2
*Paper_Space
 70
0
 10
0.0
 20
0.0
 30
0.0
  3
*Paper_Space
  1

  0
ENDBLK
  5
1D
100
AcDbEntity
  8
0
100
AcDbBlockEnd
  0
BLOCK
  5
206
100
AcDbEntity
  8
0
100
AcDbBlockBegin
  2
_FILLED
 70
64
 10
0.0
 20
0.0
  3
_FILLED
  1

  0
SOLID
  5
207
100
AcDbEntity
  8
0
  6
BYBLOCK
 62
0
100
AcDbTrace
 10
0.0
 20
0.0
 11
-1.0
 21
0.2
 12
-1.0
 22
-0.2
 13
-1.0
 23
-0.2
  0
ENDBLK
  5
208
100
AcDbEntity
  8
0
  6
BYBLOCK
 62
0
100
AcDbBlockEnd
  0
ENDSEC
  0
SECTION
  2
ENTITIES
  0
LINE
  5
209
100
AcDbEntity
  8
0
100
AcDbLine
 62
7
  6
CONTINUOUS
 10
12.0857323243
 20
4.261391804
 11
14.4607243731
 21
4.261391804
  0
LINE
  5
20A
100
AcDbEntity
  8
0
100
AcDbLine
 62
7
  6
CONTINUOUS
 10
14.460723614
 20
4.636391804
 11
12.0857330834
 21
4.636391804
  0
LINE
  5
20B
100
AcDbEntity
  8
0
100
AcDbLine
 62
7
  6
CONTINUOUS
 10
6.7107283487
 20
10.259391804
 11
6.7107283487
 21
11.820891804
  0
LINE
  5
20C
100
AcDbEntity
  8
0
100
AcDbLine
 62
7
  6
CONTINUOUS
 10
13.9294741046
 20
5.744391804
 11
12.6169825928
 21
5.744391804
  0
LINE
  5
20D
100
AcDbEntity
  8
0
100
AcDbLine
 62
7
  6
CONTINUOUS
 10
7.5857283487
 20
10.259391804
 11
7.5857283487
 21
11.820891804
  0
LINE
  5
20E
100
AcDbEntity
  8
0
100
AcDbLine
 62
7
  6
CONTINUOUS
 10
12.9582405759
 20
5.764391804
 11
13.5882161215
 21
5.764391804
  0
LINE
  5
20F
100
AcDbEntity
  8
0
100
AcDbLine
 62
7
  6
CONTINUOUS
 10
13.9156020452
 20
5.848891804
 11
14.3752283487
 21
5.848891804
  0
LINE
  5
210
100
AcDbEntity
  8
0
100
AcDbLine
 62
7
  6
CONTINUOUS
 10
13.9655756051
 20
6.9637214877
 11
13.9688982739
 21
6.9643232786
  0
LINE
  5
211
100
AcDbEntity
  8
0
100
AcDbLine
 62
7
  6
CONTINUOUS
 10
13.9156020452
 20
6.223891804
 11
14.3752283487
 21
6.223891804
  0
LINE
  5
212
100
AcDbEntity
  8
0
100
AcDbLine
 62
7
  6
CONTINUOUS
 10
12.8982401778
 20
6.364391804
 11
13.6482165196
 21
6.364391804
  0
LINE
  5
213
100
AcDbEntity
  8
0
100
AcDbLine
 62
9
  6
CONTINUOUS
 10
8.6482283487
 20
13.758391804
 11
8.6482283487
 21
12.883391804
  0
LINE
  5
214
100
AcDbEntity
  8
0
100
AcDbLine
 62
7
  6
CONTINUOUS
 10
13.9676126679
 20
6.964391804
 11
13.9676236266
 21
6.9643918042
  0
LINE
  5
215
100
AcDbEntity
  8
0
100
AcDbLine
 62
7
  6
CONTINUOUS
 10
13.9676122867
 20
6.964391804
 11
14.5093266809
 21
6.964391804
  0
LINE
  5
216
100
AcDbEntity
  8
0
100
AcDbLine
 62
7
  6
CONTINUOUS
 10
12.0382185613
 20
6.9643927761
 11
13.8131125942
 21
6.964391804
  0
LINE
  5
217
100
AcDbEntity
  8
0
100
AcDbLine
 62
7
  6
CONTINUOUS
 10
12.0371300165
 20
7.364391804
 11
14.5093266809
 21
7.364391804
  0
LINE
  5
218
100
AcDbEntity
  8
0
100
AcDbLine
 62
9
  6
CONTINUOUS
 10
13.9532283487
 20
7.416391804
 11
12.5932283487
 21
7.416391804
  0
LINE
  5
219
100
AcDbEntity
  8
0
100
AcDbLine
 62
7
  6
CONTINUOUS
 10
13.9232283487
 20
7.446391804
 11
12.6232296224
 21
7.446391804
  0
LINE
  5
21A
100
AcDbEntity
  8
0
100
AcDbLine
 62
7
  6
CONTINUOUS
 10
12.8532283487
 20
6.4903353648
 11
12.0502393775
 21
6.9539412634
  0
LINE
  5
21B
100
AcDbEntity
  8
0
100
AcDbLine
 62
7
  6
CONTINUOUS
 10
12.7632283487
 20
6.9464420774
 11
12.7321385102
 21
6.964391804
  0
LINE
  5
21C
100
AcDbEntity
  8
0
100
AcDbLine
 62
9
  6
CONTINUOUS
 10
11.7732283487
 20
12.883391804
 11
11.7732283487
 21
13.758391804
  0
LINE
  5
21D
100
AcDbEntity
  8
0
100
AcDbLine
 62
7
  6
CONTINUOUS
 10
6.7107285909
 20
10.259391804
 11
7.5857281065
 21
10.259391804
  0
LINE
  5
21E
100
AcDbEntity
  8
0
100
AcDbLine
 62
7
  6
CONTINUOUS
 10
12.0857283487
 20
4.636391804
 11
12.0857283487
 21
4.261391804
  0
LINE
  5
21F
100
AcDbEntity
  8
0
100
AcDbLine
 62
7
  6
CONTINUOUS
 10
12.5932283487
 20
7.416391804
 11
12.5932283487
 21
7.364391804
  0
LINE
  5
220
100
AcDbEntity
  8
0
100
AcDbLine
 62
7
  6
CONTINUOUS
 10
12.5932283487
 20
6.6404464348
 11
12.5932283487
 21
4.636391804
  0
LINE
  5
221
100
AcDbEntity
  8
0
100
AcDbLine
 62
7
  6
CONTINUOUS
 10
12.6169783487
 20
5.744391804
 11
12.6169783487
 21
4.636391804
  0
LINE
  5
222
100
AcDbEntity
  8
0
100
AcDbLine
 62
7
  6
CONTINUOUS
 10
7.5857281065
 20
11.069391804
 11
6.7107285909
 21
11.069391804
  0
LINE
  5
223
100
AcDbEntity
  8
0
100
AcDbLine
 62
7
  6
CONTINUOUS
 10
12.8357283487
 20
11.820891804
 11
12.8357283487
 21
7.446391804
  0
LINE
  5
224
100
AcDbEntity
  8
0
100
AcDbLine
 62
7
  6
CONTINUOUS
 10
12.8982283487
 20
6.4123930784
 11
12.8982283487
 21
6.364391804
  0
LINE
  5
225
100
AcDbEntity
  8
0
100
AcDbLine
 62
7
  6
CONTINUOUS
 10
12.9582283487
 20
6.364391804
 11
12.9582283487
 21
5.764391804
  0
LINE
  5
226
100
AcDbEntity
  8
0
100
AcDbLine
 62
7
  6
CONTINUOUS
 10
13.0894792218
 20
5.744391804
 11
13.0894792218
 21
5.764391804
  0
LINE
  5
227
100
AcDbEntity
  8
0
100
AcDbLine
 62
7
  6
CONTINUOUS
 10
13.0952474275
 20
5.764391804
 11
13.0952474275
 21
5.744391804
  0
LINE
  5
228
100
AcDbEntity
  8
0
100
AcDbLine
 62
7
  6
CONTINUOUS
 10
13.1116851549
 20
5.744391804
 11
13.1116851549
 21
5.764391804
  0
LINE
  5
229
100
AcDbEntity
  8
0
100
AcDbLine
 62
7
  6
CONTINUOUS
 10
13.128111615
 20
5.764391804
 11
13.128111615
 21
5.744391804
  0
LINE
  5
22A
100
AcDbEntity
  8
0
100
AcDbLine
 62
7
  6
CONTINUOUS
 10
13.1510126743
 20
5.744391804
 11
13.1510126743
 21
5.764391804
  0
LINE
  5
22B
100
AcDbEntity
  8
0
100
AcDbLine
 62
7
  6
CONTINUOUS
 10
13.158484575
 20
5.744391804
 11
13.158484575
 21
5.764391804
  0
LINE
  5
22C
100
AcDbEntity
  8
0
100
AcDbLine
 62
7
  6
CONTINUOUS
 10
13.1830685098
 20
5.764391804
 11
13.1830685098
 21
5.744391804
  0
LINE
  5
22D
100
AcDbEntity
  8
0
100
AcDbLine
 62
7
  6
CONTINUOUS
 10
13.2018780616
 20
5.744391804
 11
13.2018780616
 21
5.764391804
  0
LINE
  5
22E
100
AcDbEntity
  8
0
100
AcDbLine
 62
7
  6
CONTINUOUS
 10
13.2196580592
 20
5.764391804
 11
13.2196580592
 21
5.744391804
  0
LINE
  5
22F
100
AcDbEntity
  8
0
100
AcDbLine
 62
7
  6
CONTINUOUS
 10
13.2227526944
 20
5.744391804
 11
13.2227526944
 21
5.764391804
  0
LINE
  5
230
100
AcDbEntity
  8
0
100
AcDbLine
 62
7
  6
CONTINUOUS
 10
13.2517514227
 20
5.764391804
 11
13.2517514227
 21
5.744391804
  0
LINE
  5
231
100
AcDbEntity
  8
0
100
AcDbLine
 62
7
  6
CONTINUOUS
 10
13.2636058833
 20
5.744391804
 11
13.2636058833
 21
5.764391804
  0
LINE
  5
232
100
AcDbEntity
  8
0
100
AcDbLine
 62
7
  6
CONTINUOUS
 10
13.2828508141
 20
5.764391804
 11
13.2828508141
 21
5.744391804
  0
LINE
  5
233
100
AcDbEntity
  8
0
100
AcDbLine
 62
7
  6
CONTINUOUS
 10
13.2947052747
 20
5.744391804
 11
13.2947052747
 21
5.764391804
  0
LINE
  5
234
100
AcDbEntity
  8
0
100
AcDbLine
 62
7
  6
CONTINUOUS
 10
13.323704003
 20
5.764391804
 11
13.323704003
 21
5.744391804
  0
LINE
  5
235
100
AcDbEntity
  8
0
100
AcDbLine
 62
7
  6
CONTINUOUS
 10
13.3267986382
 20
5.744391804
 11
13.3267986382
 21
5.764391804
  0
LINE
  5
236
100
AcDbEntity
  8
0
100
AcDbLine
 62
7
  6
CONTINUOUS
 10
13.3445786358
 20
5.764391804
 11
13.3445786358
 21
5.744391804
  0
LINE
  5
237
100
AcDbEntity
  8
0
100
AcDbLine
 62
7
  6
CONTINUOUS
 10
13.3633881876
 20
5.744391804
 11
13.3633881876
 21
5.764391804
  0
LINE
  5
238
100
AcDbEntity
  8
0
100
AcDbLine
 62
7
  6
CONTINUOUS
 10
13.3879721224
 20
5.764391804
 11
13.3879721224
 21
5.744391804
  0
LINE
  5
239
100
AcDbEntity
  8
0
100
AcDbLine
 62
7
  6
CONTINUOUS
 10
13.3954440231
 20
5.764391804
 11
13.3954440231
 21
5.744391804
  0
LINE
  5
23A
100
AcDbEntity
  8
0
100
AcDbLine
 62
7
  6
CONTINUOUS
 10
13.4183450824
 20
5.744391804
 11
13.4183450824
 21
5.764391804
  0
LINE
  5
23B
100
AcDbEntity
  8
0
100
AcDbLine
 62
7
  6
CONTINUOUS
 10
13.4347715425
 20
5.764391804
 11
13.4347715425
 21
5.744391804
  0
LINE
  5
23C
100
AcDbEntity
  8
0
100
AcDbLine
 62
7
  6
CONTINUOUS
 10
13.4512092699
 20
5.744391804
 11
13.4512092699
 21
5.764391804
  0
LINE
  5
23D
100
AcDbEntity
  8
0
100
AcDbLine
 62
7
  6
CONTINUOUS
 10
13.4569774756
 20
5.764391804
 11
13.4569774756
 21
5.744391804
  0
LINE
  5
23E
100
AcDbEntity
  8
0
100
AcDbLine
 62
7
  6
CONTINUOUS
 10
13.5882283487
 20
6.364391804
 11
13.5882283487
 21
5.764391804
  0
LINE
  5
23F
100
AcDbEntity
  8
0
100
AcDbLine
 62
7
  6
CONTINUOUS
 10
13.6482283487
 20
6.6156166323
 11
13.6482283487
 21
6.364391804
  0
LINE
  5
240
100
AcDbEntity
  8
0
100
AcDbLine
 62
9
  6
CONTINUOUS
 10
13.7107283487
 20
11.820891804
 11
12.8357283487
 21
11.820891804
  0
LINE
  5
241
100
AcDbEntity
  8
0
100
AcDbLine
 62
9
  6
CONTINUOUS
 10
7.5857283487
 20
11.820891804
 11
6.7107283487
 21
11.820891804
  0
LINE
  5
242
100
AcDbEntity
  8
0
100
AcDbLine
 62
7
  6
CONTINUOUS
 10
13.7107283487
 20
11.820891804
 11
13.7107283487
 21
7.446391804
  0
LINE
  5
243
100
AcDbEntity
  8
0
100
AcDbLine
 62
7
  6
CONTINUOUS
 10
13.9156020452
 20
6.6878917772
 11
13.9156020452
 21
5.744391804
  0
LINE
  5
244
100
AcDbEntity
  8
0
100
AcDbLine
 62
7
  6
CONTINUOUS
 10
13.9294783487
 20
5.744391804
 11
13.9294783487
 21
4.636391804
  0
LINE
  5
245
100
AcDbEntity
  8
0
100
AcDbLine
 62
7
  6
CONTINUOUS
 10
13.9532283487
 20
7.416391804
 11
13.9532283487
 21
7.364391804
  0
LINE
  5
246
100
AcDbEntity
  8
0
100
AcDbLine
 62
7
  6
CONTINUOUS
 10
13.9532283487
 20
6.9590916197
 11
13.9532283487
 21
6.9043930847
  0
LINE
  5
247
100
AcDbEntity
  8
0
100
AcDbLine
 62
7
  6
CONTINUOUS
 10
13.9532283487
 20
4.7243905237
 11
13.9532283487
 21
4.636391804
  0
LINE
  5
248
100
AcDbEntity
  8
0
100
AcDbLine
 62
7
  6
CONTINUOUS
 10
13.9552403015
 20
6.9602850372
 11
13.9655852349
 21
6.9637246873
  0
LINE
  5
249
100
AcDbEntity
  8
0
100
AcDbLine
 62
7
  6
CONTINUOUS
 10
14.3752283487
 20
5.848891804
 11
14.3752283487
 21
6.223891804
  0
LINE
  5
24A
100
AcDbEntity
  8
0
100
AcDbLine
 62
7
  6
CONTINUOUS
 10
14.4607283487
 20
4.636391804
 11
14.4607283487
 21
4.261391804
  0
LINE
  5
24B
100
AcDbEntity
  8
0
100
AcDbLine
 62
7
  6
CONTINUOUS
 10
13.4872700282
 20
6.964391804
 11
13.4066469369
 21
6.8712962422
  0
LINE
  5
24C
100
AcDbEntity
  8
0
100
AcDbLine
 62
7
  6
CONTINUOUS
 10
13.9313697848
 20
6.9425602481
 11
13.9414796713
 21
6.9521007044
  0
LINE
  5
24D
100
AcDbEntity
  8
0
100
AcDbLine
 62
7
  6
CONTINUOUS
 10
13.9414715319
 20
6.9520958634
 11
13.9552497124
 21
6.9602906345
  0
LINE
  5
24E
100
AcDbEntity
  8
0
100
AcDbLine
 62
7
  6
CONTINUOUS
 10
13.9313611335
 20
6.9425502115
 11
13.9313638924
 21
6.9425534386
  0
LINE
  5
24F
100
AcDbEntity
  8
0
100
AcDbLine
 62
7
  6
CONTINUOUS
 10
13.9313671272
 20
6.9425571322
 11
13.5711488684
 21
6.5266129149
  0
LINE
  5
250
100
AcDbEntity
  8
0
100
AcDbLine
 62
7
  6
CONTINUOUS
 10
8.6482283487
 20
12.883391804
 11
11.7732283487
 21
12.883391804
  0
LINE
  5
251
100
AcDbEntity
  8
0
100
AcDbLine
 62
7
  6
CONTINUOUS
 10
8.6482283487
 20
13.758391804
 11
11.7732283487
 21
13.758391804
  0
ARC
  5
252
100
AcDbEntity
  8
0
100
AcDbCircle
 62
7
  6
CONTINUOUS
 10
11.7732283487
 20
11.820891804
 40
1.9375
100
AcDbArc
 50
0.0
 51
90.0
  0
ARC
  5
253
100
AcDbEntity
  8
0
100
AcDbCircle
 62
7
  6
CONTINUOUS
 10
8.6482283487
 20
11.820891804
 40
1.9375
100
AcDbArc
 50
90.0
 51
180.0
  0
ARC
  5
254
100
AcDbEntity
  8
0
100
AcDbCircle
 62
7
  6
CONTINUOUS
 10
11.7732283487
 20
11.820891804
 40
1.0625
100
AcDbArc
 50
0.0
 51
90.0
  0
ARC
  5
255
100
AcDbEntity
  8
0
100
AcDbCircle
 62
7
  6
CONTINUOUS
 10
8.6482283487
 20
11.820891804
 40
1.0625
100
AcDbArc
 50
90.0
 51
180.0
  0
ARC
  5
256
100
AcDbEntity
  8
0
100
AcDbCircle
 62
9
  6
CONTINUOUS
 10
12.0389141861
 20
7.2334023201
 40
0.269010346
100
AcDbArc
 50
269.3489932397
 51
269.8516101375
  0
ARC
  5
257
100
AcDbEntity
  8
0
100
AcDbCircle
 62
7
  6
CONTINUOUS
 10
14.5107283487
 20
7.164391804
 40
0.2
100
AcDbArc
 50
270.0
 51
90.0
  0
ARC
  5
258
100
AcDbEntity
  8
0
100
AcDbCircle
 62
7
  6
CONTINUOUS
 10
12.0357283487
 20
7.164391804
 40
0.2
100
AcDbArc
 50
90.0
 51
263.965090985
  0
ARC
  5
259
100
AcDbEntity
  8
0
100
AcDbCircle
 62
7
  6
CONTINUOUS
 10
12.0048464226
 20
6.8748463084
 40
0.0912046832
100
AcDbArc
 50
69.0029428101
 51
69.4412486679
  0
ARC
  5
25A
100
AcDbEntity
  8
0
100
AcDbCircle
 62
7
  6
CONTINUOUS
 10
12.0051313459
 20
6.8757583764
 40
0.0902506625
100
AcDbArc
 50
69.4072767745
 51
83.9129445214
  0
ARC
  5
25B
100
AcDbEntity
  8
0
100
AcDbCircle
 62
7
  6
CONTINUOUS
 10
12.0055333818
 20
6.8764344383
 40
0.089475885
100
AcDbArc
 50
60.0236189677
 51
69.0492308033
  0
ARC
  5
25C
100
AcDbEntity
  8
0
100
AcDbCircle
 62
7
  6
CONTINUOUS
 10
12.6232283487
 20
7.416391804
 40
0.03
100
AcDbArc
 50
90.0
 51
180.0
  0
ARC
  5
25D
100
AcDbEntity
  8
0
100
AcDbCircle
 62
7
  6
CONTINUOUS
 10
13.9232283487
 20
7.416391804
 40
0.03
100
AcDbArc
 50
0.0
 51
90.0
  0
SPLINE
  5
25E
100
AcDbEntity
  8
0
100
AcDbSpline
 62
7
  6
CONTINUOUS
 70
0
 71
3
 72
36
 73
32
 74
0
 42
0.0000001
 43
0.0000001
 44
0.0000000001
 40
0.0
 40
0.0
 40
0.0
 40
0.0
 40
0.2193308559
 40
0.3207538161
 40
0.4162532099
 40
0.5055264186
 40
0.5882692399
 40
0.6641739355
 40
0.7329593552
 40
0.7943752978
 40
0.8481708486
 40
0.872132194
 40
0.8940995895
 40
0.9140532783
 40
0.931973753
 40
0.947841463
 40
0.9616368156
 40
0.9733401791
 40
0.9784012204
 40
0.9829318887
 40
0.9869303254
 40
0.9903961751
 40
0.9933293138
 40
0.9957296174
 40
0.9975969618
 40
0.9983307356
 40
0.998931223
 40
0.9993984085
 40
0.9997322768
 40
0.9999328122
 40
1.0
 40
1.0
 40
1.0
 40
1.0
 10
13.9294337804
 20
4.8108121737
 30
0.0
 10
13.930784134
 20
4.804395744
 30
0.0
 10
13.9328937744
 20
4.7950399061
 30
0.0
 10
13.9358739337
 20
4.7829577796
 30
0.0
 10
13.9380225807
 20
4.7746758146
 30
0.0
 10
13.9401172869
 20
4.7669573787
 30
0.0
 10
13.9421318003
 20
4.7598245944
 30
0.0
 10
13.9440397157
 20
4.7532984856
 30
0.0
 10
13.9458172313
 20
4.7473987557
 30
0.0
 10
13.947443607
 20
4.7421439792
 30
0.0
 10
13.9486999127
 20
4.7381775286
 30
0.0
 10
13.9496116785
 20
4.7353390732
 30
0.0
 10
13.9502183601
 20
4.7334652548
 30
0.0
 10
13.9507732652
 20
4.7317645019
 30
0.0
 10
13.9512748759
 20
4.7302381778
 30
0.0
 10
13.9517217045
 20
4.7288876466
 30
0.0
 10
13.9521122576
 20
4.7277142703
 30
0.0
 10
13.9524020873
 20
4.7268478657
 30
0.0
 10
13.9526045366
 20
4.7262442886
 30
0.0
 10
13.9527338566
 20
4.7258591368
 30
0.0
 10
13.9528480245
 20
4.725519202
 30
0.0
 10
13.9529470228
 20
4.725224555
 30
0.0
 10
13.9530308178
 20
4.7249751948
 30
0.0
 10
13.9530994568
 20
4.7247711738
 30
0.0
 10
13.9531470602
 20
4.724629404
 30
0.0
 10
13.9531777033
 20
4.7245387753
 30
0.0
 10
13.9531946642
 20
4.7244875622
 30
0.0
 10
13.9532086325
 20
4.7244483077
 30
0.0
 10
13.9532168739
 20
4.7244189147
 30
0.0
 10
13.9532249689
 20
4.7244036703
 30
0.0
 10
13.9532251177
 20
4.7243942299
 30
0.0
 10
13.9532267786
 20
4.7243931004
 30
0.0
  0
LINE
  5
25F
100
AcDbEntity
  8
0
100
AcDbLine
 62
7
  6
CONTINUOUS
 10
13.952947437
 20
6.9035602812
 11
13.9532267788
 21
6.9043905083
  0
LINE
  5
260
100
AcDbEntity
  8
0
100
AcDbLine
 62
7
  6
CONTINUOUS
 10
13.9532267787
 20
4.7243931004
 11
13.9528777392
 21
4.725431429
  0
SPLINE
  5
261
100
AcDbEntity
  8
0
100
AcDbSpline
 62
7
  6
CONTINUOUS
 70
0
 71
3
 72
44
 73
40
 74
0
 42
0.0000001
 43
0.0000001
 44
0.0000000001
 40
0.0
 40
0.0
 40
0.0
 40
0.0
 40
0.0000190477
 40
0.0000763961
 40
0.0001720493
 40
0.0003060111
 40
0.0004782851
 40
0.0006888752
 40
0.0012250186
 40
0.0019144712
 40
0.0027572631
 40
0.0037534243
 40
0.0049029833
 40
0.0062057884
 40
0.0076613442
 40
0.0110285712
 40
0.0150003942
 40
0.0195725488
 40
0.0247407767
 40
0.0305008264
 40
0.0368484534
 40
0.0437794204
 40
0.0593728899
 40
0.0772308149
 40
0.0972945877
 40
0.1195059113
 40
0.143806787
 40
0.1701333403
 40
0.1984135966
 40
0.2285757796
 40
0.2942610397
 40
0.3665938699
 40
0.4449571313
 40
0.5286899955
 40
0.6170448825
 40
0.7092570693
 40
0.8044725368
 40
0.901777368
 40
1.0
 40
1.0
 40
1.0
 40
1.0
 10
13.9532267787
 20
6.9043905083
 30
0.0
 10
13.9532281024
 20
6.9043909686
 30
0.0
 10
13.9532220548
 20
6.9043812542
 30
0.0
 10
13.9532221821
 20
6.9043734884
 30
0.0
 10
13.9532131139
 20
6.904351047
 30
0.0
 10
13.9532047578
 20
6.9043240822
 30
0.0
 10
13.9531922547
 20
6.9042876167
 30
0.0
 10
13.953170925
 20
6.9042237141
 30
0.0
 10
13.9531371437
 20
6.9041234169
 30
0.0
 10
13.9530887072
 20
6.9039792207
 30
0.0
 10
13.9530293879
 20
6.9038028725
 30
0.0
 10
13.9529592828
 20
6.9035944719
 30
0.0
 10
13.9528783504
 20
6.9033539911
 30
0.0
 10
13.952786631
 20
6.9030814811
 30
0.0
 10
13.9526429465
 20
6.9026542968
 30
0.0
 10
13.9524369928
 20
6.9020408691
 30
0.0
 10
13.9521589562
 20
6.9012097543
 30
0.0
 10
13.9518401354
 20
6.900252554
 30
0.0
 10
13.9514813282
 20
6.8991699951
 30
0.0
 10
13.951083333
 20
6.8979628044
 30
0.0
 10
13.950646944
 20
6.8966317101
 30
0.0
 10
13.9499886876
 20
6.8946119559
 30
0.0
 10
13.9490756861
 20
6.8917844966
 30
0.0
 10
13.9478824827
 20
6.8880321534
 30
0.0
 10
13.9465642352
 20
6.8838086848
 30
0.0
 10
13.9451326407
 20
6.8791240716
 30
0.0
 10
13.9435993821
 20
6.8739888018
 30
0.0
 10
13.9419776144
 20
6.8684140849
 30
0.0
 10
13.9402827041
 20
6.8624116907
 30
0.0
 10
13.9378763792
 20
6.853601387
 30
0.0
 10
13.9347853129
 20
6.8416186359
 30
0.0
 10
13.9311327562
 20
6.8261213021
 30
0.0
 10
13.9275765493
 20
6.809241493
 30
0.0
 10
13.9242536985
 20
6.7911138189
 30
0.0
 10
13.921301089
 20
6.7718898964
 30
0.0
 10
13.9188549383
 20
6.7517431984
 30
0.0
 10
13.9170048106
 20
6.7308714183
 30
0.0
 10
13.9158462465
 20
6.7095067556
 30
0.0
 10
13.9155881862
 20
6.6951186668
 30
0.0
 10
13.9156020453
 20
6.6878917772
 30
0.0
  0
SPLINE
  5
262
100
AcDbEntity
  8
0
100
AcDbSpline
 62
7
  6
CONTINUOUS
 70
0
 71
3
 72
14
 73
10
 74
0
 42
0.0000001
 43
0.0000001
 44
0.0000000001
 40
0.0
 40
0.0
 40
0.0
 40
0.0
 40
0.1067030181
 40
0.2197105069
 40
0.4630547239
 40
0.5926757845
 40
0.7261301122
 40
0.8623595315
 40
1.0
 40
1.0
 40
1.0
 40
1.0
 10
12.8532283487
 20
6.4903353648
 30
0.0
 10
12.8561278236
 20
6.4886613521
 30
0.0
 10
12.8619115737
 20
6.4848766127
 30
0.0
 10
12.8730957704
 20
6.4755660933
 30
0.0
 10
12.8829293735
 20
6.4636512046
 30
0.0
 10
12.8904708838
 20
6.4496227818
 30
0.0
 10
12.8948712675
 20
6.4378450586
 30
0.0
 10
12.8975972977
 20
6.4253168562
 30
0.0
 10
12.8982283487
 20
6.4167118294
 30
0.0
 10
12.8982283487
 20
6.4123930784
 30
0.0
  0
SPLINE
  5
263
100
AcDbEntity
  8
0
100
AcDbSpline
 62
7
  6
CONTINUOUS
 70
0
 71
3
 72
19
 73
15
 74
0
 42
0.0000001
 43
0.0000001
 44
0.0000000001
 40
0.0
 40
0.0
 40
0.0
 40
0.0
 40
0.1053678762
 40
0.1610274068
 40
0.2186339852
 40
0.339062608
 40
0.4657573283
 40
0.5310275442
 40
0.5972665054
 40
0.6642431555
 40
0.731653037
 40
0.7992119515
 40
0.8666682145
 40
1.0
 40
1.0
 40
1.0
 40
1.0
 10
12.7632283486
 20
6.9464420775
 30
0.0
 10
12.7669417329
 20
6.9442981541
 30
0.0
 10
12.7728624404
 20
6.9414226618
 30
0.0
 10
12.7812479696
 20
6.9384300913
 30
0.0
 10
12.7904329201
 20
6.9359322013
 30
0.0
 10
12.8027599184
 20
6.9341218959
 30
0.0
 10
12.8155364673
 20
6.9344242316
 30
0.0
 10
12.8259333283
 20
6.9360202087
 30
0.0
 10
12.8337853976
 20
6.9379631897
 30
0.0
 10
12.8415105688
 20
6.9406382429
 30
0.0
 10
12.8490141793
 20
6.9440164843
 30
0.0
 10
12.8561935634
 20
6.9480817662
 30
0.0
 10
12.8651657752
 20
6.9543241467
 30
0.0
 10
12.8712321374
 20
6.9598851849
 30
0.0
 10
12.8748775202
 20
6.9639039681
 30
0.0
  0
SPLINE
  5
264
100
AcDbEntity
  8
0
100
AcDbSpline
 62
9
  6
CONTINUOUS
 70
0
 71
3
 72
22
 73
18
 74
0
 42
0.0000001
 43
0.0000001
 44
0.0000000001
 40
0.0
 40
0.0
 40
0.0
 40
0.0
 40
0.0704605569
 40
0.1394820873
 40
0.2725691803
 40
0.3365803872
 40
0.3989507146
 40
0.4598385166
 40
0.5194970196
 40
0.5782737623
 40
0.6365743683
 40
0.6948458682
 40
0.7535469749
 40
0.8130983489
 40
0.8738593655
 40
0.9361079209
 40
1.0
 40
1.0
 40
1.0
 40
1.0
 10
13.6042733254
 20
6.564672849
 30
0.0
 10
13.6033385494
 20
6.5593461784
 30
0.0
 10
13.6012813018
 20
6.5488355014
 30
0.0
 10
13.5963540643
 20
6.5285004536
 30
0.0
 10
13.5900391933
 20
6.5090153003
 30
0.0
 10
13.5820123914
 20
6.4907731067
 30
0.0
 10
13.5752438854
 20
6.4780754651
 30
0.0
 10
13.5676118243
 20
6.4662698906
 30
0.0
 10
13.5590855461
 20
6.45543792
 30
0.0
 10
13.5496542226
 20
6.4456544182
 30
0.0
 10
13.5393161644
 20
6.4369953921
 30
0.0
 10
13.5280860385
 20
6.4295376944
 30
0.0
 10
13.5160059387
 20
6.4233396648
 30
0.0
 10
13.5031292637
 20
6.4184660898
 30
0.0
 10
13.4895351509
 20
6.4149588071
 30
0.0
 10
13.4753214212
 20
6.4128482958
 30
0.0
 10
13.4656322677
 20
6.4123933624
 30
0.0
 10
13.4607283487
 20
6.4123930784
 30
0.0
  0
SPLINE
  5
265
100
AcDbEntity
  8
0
100
AcDbSpline
 62
9
  6
CONTINUOUS
 70
0
 71
3
 72
15
 73
11
 74
0
 42
0.0000001
 43
0.0000001
 44
0.0000000001
 40
0.0
 40
0.0
 40
0.0
 40
0.0
 40
0.1201159988
 40
0.2389672236
 40
0.3581433587
 40
0.4791427863
 40
0.6031277367
 40
0.7310483439
 40
0.8633452627
 40
1.0
 40
1.0
 40
1.0
 40
1.0
 10
13.5711474077
 20
6.5266136555
 30
0.0
 10
13.5685745255
 20
6.5236415237
 30
0.0
 10
13.5631160406
 20
6.518011594
 30
0.0
 10
13.5539944138
 20
6.5106080991
 30
0.0
 10
13.5440251272
 20
6.5043357548
 30
0.0
 10
13.5332366987
 20
6.4992098446
 30
0.0
 10
13.521675877
 20
6.4952260131
 30
0.0
 10
13.5094037259
 20
6.4923910179
 30
0.0
 10
13.4965079196
 20
6.4906987791
 30
0.0
 10
13.4877005428
 20
6.490335432
 30
0.0
 10
13.4832282079
 20
6.4903352022
 30
0.0
  0
SPLINE
  5
266
100
AcDbEntity
  8
0
100
AcDbSpline
 62
9
  6
CONTINUOUS
 70
0
 71
3
 72
33
 73
29
 74
0
 42
0.0000001
 43
0.0000001
 44
0.0000000001
 40
0.0
 40
0.0
 40
0.0
 40
0.0
 40
0.0278680683
 40
0.0566290386
 40
0.0861883494
 40
0.1164119345
 40
0.178195393
 40
0.2410092565
 40
0.2726091873
 40
0.3042461686
 40
0.3358958186
 40
0.3675460078
 40
0.3991958901
 40
0.4308448511
 40
0.4624943928
 40
0.4941466203
 40
0.5257998868
 40
0.557453288
 40
0.5891072818
 40
0.6207601346
 40
0.6840456802
 40
0.747335501
 40
0.8106283074
 40
0.8739006589
 40
0.905518484
 40
0.937095969
 40
0.9686043967
 40
1.0
 40
1.0
 40
1.0
 40
1.0
 10
13.4607283487
 20
6.4123930784
 30
0.0
 10
13.4542684779
 20
6.412393427
 30
0.0
 10
13.4411306413
 20
6.4132061579
 30
0.0
 10
13.421422134
 20
6.4167020248
 30
0.0
 10
13.4016715084
 20
6.4224264304
 30
0.0
 10
13.3755046717
 20
6.4329913666
 30
0.0
 10
13.3443438961
 20
6.4512597824
 30
0.0
 10
13.3168848153
 20
6.4751946006
 30
0.0
 10
13.297691021
 20
6.4972710204
 30
0.0
 10
13.2848289359
 20
6.5151526363
 30
0.0
 10
13.2736316581
 20
6.5341315166
 30
0.0
 10
13.2641673631
 20
6.5540339231
 30
0.0
 10
13.2564535831
 20
6.5746747254
 30
0.0
 10
13.2504472138
 20
6.5958730159
 30
0.0
 10
13.2461233123
 20
6.6174753866
 30
0.0
 10
13.2433756434
 20
6.6393318791
 30
0.0
 10
13.2421076214
 20
6.661322747
 30
0.0
 10
13.2422332602
 20
6.6833478933
 30
0.0
 10
13.2436392573
 20
6.7053267454
 30
0.0
 10
13.2470957587
 20
6.7344786311
 30
0.0
 10
13.2541916678
 20
6.7705272517
 30
0.0
 10
13.2666164558
 20
6.8128063163
 30
0.0
 10
13.282643014
 20
6.8538499015
 30
0.0
 10
13.2989352435
 20
6.8867601844
 30
0.0
 10
13.3137750351
 20
6.9120537117
 30
0.0
 10
13.3258414989
 20
6.9304056507
 30
0.0
 10
13.3388846784
 20
6.9480135398
 30
0.0
 10
13.3482910198
 20
6.9591725708
 30
0.0
 10
13.3531802872
 20
6.964563113
 30
0.0
  0
SPLINE
  5
267
100
AcDbEntity
  8
0
100
AcDbSpline
 62
9
  6
CONTINUOUS
 70
0
 71
3
 72
44
 73
40
 74
0
 42
0.0000001
 43
0.0000001
 44
0.0000000001
 40
0.0
 40
0.0
 40
0.0
 40
0.0
 40
0.0000367331
 40
0.0000824718
 40
0.0001464442
 40
0.0003290468
 40
0.0005844542
 40
0.0009125799
 40
0.0013133374
 40
0.0017866402
 40
0.002332398
 40
0.0036403527
 40
0.0052347019
 40
0.0071127982
 40
0.0092719869
 40
0.0117091728
 40
0.0144206801
 40
0.0206518149
 40
0.0279320008
 40
0.0362204795
 40
0.0454746472
 40
0.0556498997
 40
0.0667002838
 40
0.0785771564
 40
0.1046145001
 40
0.133372216
 40
0.1644652007
 40
0.1975224559
 40
0.2321916957
 40
0.2681476681
 40
0.3427497677
 40
0.4194068569
 40
0.4967603026
 40
0.5739274202
 40
0.6503202266
 40
0.7254731419
 40
0.7988967577
 40
0.8699343323
 40
1.0
 40
1.0
 40
1.0
 40
1.0
 10
12.8982283487
 20
6.4123930784
 30
0.0
 10
12.898229986
 20
6.4123998467
 30
0.0
 10
12.8982403293
 20
6.4124124389
 30
0.0
 10
12.8982524245
 20
6.4124372431
 30
0.0
 10
12.8982801875
 20
6.4124853432
 30
0.0
 10
12.8983258705
 20
6.4125687242
 30
0.0
 10
12.8983967497
 20
6.412695538
 30
0.0
 10
12.8984872691
 20
6.4128586831
 30
0.0
 10
12.8985979272
 20
6.4130579181
 30
0.0
 10
12.8987284608
 20
6.4132932974
 30
0.0
 10
12.8989422763
 20
6.413679146
 30
0.0
 10
12.8992586403
 20
6.4142511299
 30
0.0
 10
12.8996961426
 20
6.4150447411
 30
0.0
 10
12.9002100339
 20
6.4159805027
 30
0.0
 10
12.9007989738
 20
6.4170573314
 30
0.0
 10
12.9014612849
 20
6.4182741035
 30
0.0
 10
12.9024879645
 20
6.420171395
 30
0.0
 10
12.9039399327
 20
6.4228824186
 30
0.0
 10
12.905867392
 20
6.4265379983
 30
0.0
 10
12.9080309357
 20
6.4307168216
 30
0.0
 10
12.9104075115
 20
6.4354031746
 30
0.0
 10
12.9129710812
 20
6.4405814747
 30
0.0
 10
12.9156951596
 20
6.4462347367
 30
0.0
 10
12.919626226
 20
6.4546435814
 30
0.0
 10
12.9247532736
 20
6.4661977661
 30
0.0
 10
12.9309160228
 20
6.4812709316
 30
0.0
 10
12.9370375792
 20
6.4977892047
 30
0.0
 10
12.9429017244
 20
6.5155854791
 30
0.0
 10
12.948318841
 20
6.5344850461
 30
0.0
 10
12.9548066177
 20
6.5612471506
 30
0.0
 10
12.9609503114
 20
6.5962492619
 30
0.0
 10
12.9648482599
 20
6.6394577819
 30
0.0
 10
12.9654468032
 20
6.6833157487
 30
0.0
 10
12.9631211127
 20
6.7270551877
 30
0.0
 10
12.9584101108
 20
6.7701738387
 30
0.0
 10
12.9518338771
 20
6.8123232257
 30
0.0
 10
12.9438783145
 20
6.8531962083
 30
0.0
 10
12.932387882
 20
6.9039593186
 30
0.0
 10
12.9226533335
 20
6.9408322429
 30
0.0
 10
12.9159602305
 20
6.9645628301
 30
0.0
  0
SPLINE
  5
268
100
AcDbEntity
  8
0
100
AcDbSpline
 62
9
  6
CONTINUOUS
 70
0
 71
3
 72
15
 73
11
 74
0
 42
0.0000001
 43
0.0000001
 44
0.0000000001
 40
0.0
 40
0.0
 40
0.0
 40
0.0
 40
0.0837631851
 40
0.1798554836
 40
0.2891268746
 40
0.4114318631
 40
0.5460780205
 40
0.6909857534
 40
0.8435075958
 40
1.0
 40
1.0
 40
1.0
 40
1.0
 10
13.4832283495
 20
6.4903353648
 30
0.0
 10
13.4817180096
 20
6.4885913745
 30
0.0
 10
13.4787205896
 20
6.4846303057
 30
0.0
 10
13.4746426045
 20
6.4777742457
 30
0.0
 10
13.4708253782
 20
6.4695808833
 30
0.0
 10
13.4674062523
 20
6.4600776008
 30
0.0
 10
13.4645514096
 20
6.4493712292
 30
0.0
 10
13.4623810197
 20
6.4376582821
 30
0.0
 10
13.4610384058
 20
6.4252174367
 30
0.0
 10
13.4607283497
 20
6.4167033354
 30
0.0
 10
13.4607283497
 20
6.4123930784
 30
0.0
  0
SPLINE
  5
269
100
AcDbEntity
  8
0
100
AcDbSpline
 62
9
  6
CONTINUOUS
 70
0
 71
3
 72
9
 73
5
 74
0
 42
0.0000001
 43
0.0000001
 44
0.0000000001
 40
0.0
 40
0.0
 40
0.0
 40
0.0
 40
0.2417022954
 40
1.0
 40
1.0
 40
1.0
 40
1.0
 10
13.4780385196
 20
6.9534468076
 30
0.0
 10
13.4775221782
 20
6.9542531684
 30
0.0
 10
13.4754534475
 20
6.9576324112
 30
0.0
 10
13.4736444512
 20
6.96116818
 30
0.0
 10
13.4724036512
 20
6.9639039682
 30
0.0
  0
SPLINE
  5
26A
100
AcDbEntity
  8
0
100
AcDbSpline
 62
9
  6
CONTINUOUS
 70
0
 71
3
 72
34
 73
30
 74
0
 42
0.0000001
 43
0.0000001
 44
0.0000000001
 40
0.0
 40
0.0
 40
0.0
 40
0.0
 40
0.0273125385
 40
0.0554118363
 40
0.0841642277
 40
0.1134301167
 40
0.1430701762
 40
0.1729546595
 40
0.2329266845
 40
0.2628998574
 40
0.2927902086
 40
0.3226119672
 40
0.3524146786
 40
0.3822678239
 40
0.4122690143
 40
0.4425105759
 40
0.4730507016
 40
0.5039447552
 40
0.5352168266
 40
0.5987970935
 40
0.6310885762
 40
0.6636576839
 40
0.7295987065
 40
0.7629454179
 40
0.7964839854
 40
0.8639727377
 40
0.931866983
 40
0.9659211866
 40
1.0
 40
1.0
 40
1.0
 40
1.0
 10
13.4832282095
 20
6.4903352041
 30
0.0
 10
13.4786158338
 20
6.4903354265
 30
0.0
 10
13.4692544572
 20
6.490733164
 30
0.0
 10
13.4551324002
 20
6.492452675
 30
0.0
 10
13.4408571419
 20
6.4953028905
 30
0.0
 10
13.4265843948
 20
6.4992800825
 30
0.0
 10
13.4124674118
 20
6.5043804107
 30
0.0
 10
13.394055723
 20
6.5126731404
 30
0.0
 10
13.3766270743
 20
6.5231831822
 30
0.0
 10
13.3608389856
 20
6.5358811251
 30
0.0
 10
13.3499747638
 20
6.5464706119
 30
0.0
 10
13.3402695763
 20
6.5580961807
 30
0.0
 10
13.3318491045
 20
6.5706776607
 30
0.0
 10
13.3248250592
 20
6.5841252501
 30
0.0
 10
13.3193000043
 20
6.5983332179
 30
0.0
 10
13.3152563025
 20
6.6131489155
 30
0.0
 10
13.3126942399
 20
6.628441825
 30
0.0
 10
13.3115536549
 20
6.6440768638
 30
0.0
 10
13.3117919095
 20
6.665330918
 30
0.0
 10
13.3145062065
 20
6.6867112803
 30
0.0
 10
13.3191689547
 20
6.7079009917
 30
0.0
 10
13.3250987697
 20
6.7291898305
 30
0.0
 10
13.3327196406
 20
6.7501543305
 30
0.0
 10
13.3417456357
 20
6.7706937317
 30
0.0
 10
13.3517091455
 20
6.7910877381
 30
0.0
 10
13.3657036076
 20
6.8159797423
 30
0.0
 10
13.3816456152
 20
6.8397793318
 30
0.0
 10
13.3955481694
 20
6.8580721273
 30
0.0
 10
13.4028817903
 20
6.8669436381
 30
0.0
 10
13.4066474929
 20
6.8712956234
 30
0.0
  0
SPLINE
  5
26B
100
AcDbEntity
  8
0
100
AcDbSpline
 62
9
  6
CONTINUOUS
 70
0
 71
3
 72
25
 73
21
 74
0
 42
0.0000001
 43
0.0000001
 44
0.0000000001
 40
0.0
 40
0.0
 40
0.0
 40
0.0
 40
0.0562393413
 40
0.1136075114
 40
0.1427590725
 40
0.1722149274
 40
0.2320643032
 40
0.2931905273
 40
0.3555210036
 40
0.4833571918
 40
0.5487333992
 40
0.614916969
 40
0.6817084614
 40
0.7488035175
 40
0.7823085747
 40
0.8156807295
 40
0.8812473242
 40
0.9436217791
 40
0.9727667769
 40
1.0
 40
1.0
 40
1.0
 40
1.0
 10
13.6371730325
 20
6.964149252
 30
0.0
 10
13.64125253
 20
6.9617870093
 30
0.0
 10
13.6498121095
 20
6.9575533283
 30
0.0
 10
13.6610594651
 20
6.9534157816
 30
0.0
 10
13.6703868117
 20
6.9506683956
 30
0.0
 10
13.6800183828
 20
6.9482457408
 30
0.0
 10
13.6924110565
 20
6.9458582932
 30
0.0
 10
13.7076617736
 20
6.9439184173
 30
0.0
 10
13.7286784129
 20
6.9423953275
 30
0.0
 10
13.7501255842
 20
6.9423249759
 30
0.0
 10
13.7718457599
 20
6.9433510425
 30
0.0
 10
13.7884259417
 20
6.9446168996
 30
0.0
 10
13.8051152161
 20
6.9462718524
 30
0.0
 10
13.8190540876
 20
6.9478801987
 30
0.0
 10
13.8302037053
 20
6.9492193738
 30
0.0
 10
13.8412249426
 20
6.9505532465
 30
0.0
 10
13.8546558914
 20
6.9521168543
 30
0.0
 10
13.8677733405
 20
6.9533021026
 30
0.0
 10
13.8777140871
 20
6.9538365897
 30
0.0
 10
13.8824399746
 20
6.9539411607
 30
0.0
 10
13.884722708
 20
6.9539411176
 30
0.0
  0
SPLINE
  5
26C
100
AcDbEntity
  8
0
100
AcDbSpline
 62
9
  6
CONTINUOUS
 70
0
 71
3
 72
26
 73
22
 74
0
 42
0.0000001
 43
0.0000001
 44
0.0000000001
 40
0.0
 40
0.0
 40
0.0
 40
0.0
 40
0.150068501
 40
0.2835900441
 40
0.5022505777
 40
0.5901515018
 40
0.6663981697
 40
0.7325894157
 40
0.7898160326
 40
0.8390216401
 40
0.8809123311
 40
0.9159401588
 40
0.9445056323
 40
0.9564495748
 40
0.9668528557
 40
0.9757335662
 40
0.9831201913
 40
0.989062985
 40
0.9936617221
 40
0.9971387039
 40
1.0
 40
1.0
 40
1.0
 40
1.0
 10
13.884722779
 20
6.9539411996
 30
0.0
 10
13.8871592207
 20
6.9539412838
 30
0.0
 10
13.8917650676
 20
6.9538310339
 30
0.0
 10
13.8998965579
 20
6.9532004251
 30
0.0
 10
13.9069740398
 20
6.95206666
 30
0.0
 10
13.9129784903
 20
6.9504476745
 30
0.0
 10
13.9165272951
 20
6.9492624906
 30
0.0
 10
13.9195490827
 20
6.9480855954
 30
0.0
 10
13.9221108187
 20
6.9469465995
 30
0.0
 10
13.9242723608
 20
6.9458842094
 30
0.0
 10
13.9260849325
 20
6.9449311011
 30
0.0
 10
13.9275851398
 20
6.9441050329
 30
0.0
 10
13.9286581631
 20
6.9435111191
 30
0.0
 10
13.9293886693
 20
6.9431242339
 30
0.0
 10
13.9298413496
 20
6.9428958153
 30
0.0
 10
13.9302340079
 20
6.9427129781
 30
0.0
 10
13.930568291
 20
6.9425773063
 30
0.0
 10
13.9308465868
 20
6.9424898406
 30
0.0
 10
13.9310718617
 20
6.9424521696
 30
0.0
 10
13.9312526996
 20
6.9424661742
 30
0.0
 10
13.9313444096
 20
6.942524786
 30
0.0
 10
13.9313743098
 20
6.9425603389
 30
0.0
  0
SPLINE
  5
26D
100
AcDbEntity
  8
0
100
AcDbSpline
 62
9
  6
CONTINUOUS
 70
0
 71
3
 72
11
 73
7
 74
0
 42
0.0000001
 43
0.0000001
 44
0.0000000001
 40
0.0
 40
0.0
 40
0.0
 40
0.0
 40
0.2621933673
 40
0.516077303
 40
0.7612194999
 40
1.0
 40
1.0
 40
1.0
 40
1.0
 10
13.8847228814
 20
6.9539412635
 30
0.0
 10
13.8859556231
 20
6.955364709
 30
0.0
 10
13.8885415876
 20
6.9580345847
 30
0.0
 10
13.8928438637
 20
6.9614380486
 30
0.0
 10
13.8974867656
 20
6.9640427804
 30
0.0
 10
13.9008140604
 20
6.9651454454
 30
0.0
 10
13.9024918598
 20
6.9655001997
 30
0.0
  0
SPLINE
  5
26E
100
AcDbEntity
  8
0
100
AcDbSpline
 62
9
  6
CONTINUOUS
 70
0
 71
3
 72
11
 73
7
 74
0
 42
0.0000001
 43
0.0000001
 44
0.0000000001
 40
0.0
 40
0.0
 40
0.0
 40
0.0
 40
0.2954318597
 40
0.5595180403
 40
0.7930592177
 40
1.0
 40
1.0
 40
1.0
 40
1.0
 10
13.902491787
 20
6.9655001993
 30
0.0
 10
13.9089059006
 20
6.9655008385
 30
0.0
 10
13.9210538755
 20
6.9653991159
 30
0.0
 10
13.9382674855
 20
6.9649916759
 30
0.0
 10
13.9535577667
 20
6.9645520611
 30
0.0
 10
13.9631207293
 20
6.9643917244
 30
0.0
 10
13.9676136154
 20
6.9643919504
 30
0.0
  0
SPLINE
  5
26F
100
AcDbEntity
  8
0
100
AcDbSpline
 62
9
  6
CONTINUOUS
 70
0
 71
3
 72
51
 73
47
 74
0
 42
0.0000001
 43
0.0000001
 44
0.0000000001
 40
0.0
 40
0.0
 40
0.0
 40
0.0
 40
0.0003239064
 40
0.0012800299
 40
0.0028471541
 40
0.0050040637
 40
0.0077295443
 40
0.0110023824
 40
0.0191052834
 40
0.0291341534
 40
0.0408746852
 40
0.0541036993
 40
0.0685980942
 40
0.1006327887
 40
0.1359048083
 40
0.1735501464
 40
0.2129717872
 40
0.253688444
 40
0.2954091108
 40
0.3809120411
 40
0.4676853082
 40
0.5541861769
 40
0.5969489662
 40
0.6390805565
 40
0.6803328283
 40
0.7204115985
 40
0.7590407425
 40
0.7959148094
 40
0.8307253851
 40
0.8631913315
 40
0.8929858901
 40
0.9198077782
 40
0.9433077118
 40
0.953710503
 40
0.9631569224
 40
0.9716024479
 40
0.9790119304
 40
0.9853516277
 40
0.990586455
 40
0.9946841696
 40
0.996301072
 40
0.9976278158
 40
0.9986627483
 40
0.9994042066
 40
0.999850518
 40
1.0
 40
1.0
 40
1.0
 40
1.0
 10
12.763228549
 20
6.9464419618
 30
0.0
 10
12.7632560547
 20
6.94639603
 30
0.0
 10
12.7633700339
 20
6.9462177427
 30
0.0
 10
12.7636169029
 20
6.9458171098
 30
0.0
 10
12.7640265253
 20
6.9451608786
 30
0.0
 10
12.7645884274
 20
6.9442549722
 30
0.0
 10
12.765298869
 20
6.9431094302
 30
0.0
 10
12.7665254032
 20
6.9411275029
 30
0.0
 10
12.7683835984
 20
6.9381168603
 30
0.0
 10
12.7709696504
 20
6.933910738
 30
0.0
 10
12.7739883296
 20
6.9289760059
 30
0.0
 10
12.7773771156
 20
6.9234024561
 30
0.0
 10
12.7824820352
 20
6.9149466565
 30
0.0
 10
12.7894053111
 20
6.903332795
 30
0.0
 10
12.7981588207
 20
6.888355724
 30
0.0
 10
12.8073612845
 20
6.8722278333
 30
0.0
 10
12.8168060858
 20
6.8552035852
 30
0.0
 10
12.8263323621
 20
6.8374560212
 30
0.0
 10
12.8390536416
 20
6.8127831106
 30
0.0
 10
12.8543461006
 20
6.7808753488
 30
0.0
 10
12.8708700096
 20
6.7413987271
 30
0.0
 10
12.8822707084
 20
6.7075077051
 30
0.0
 10
12.889312563
 20
6.6800548185
 30
0.0
 10
12.8933310172
 20
6.6595811796
 30
0.0
 10
12.8959087857
 20
6.6393208334
 30
0.0
 10
12.8969415202
 20
6.6194983686
 30
0.0
 10
12.896317238
 20
6.6003809178
 30
0.0
 10
12.8941540838
 20
6.5822516576
 30
0.0
 10
12.8905622795
 20
6.5653924647
 30
0.0
 10
12.8858982403
 20
6.550021691
 30
0.0
 10
12.8805061076
 20
6.5363051446
 30
0.0
 10
12.8748103537
 20
6.5243405759
 30
0.0
 10
12.8699704784
 20
6.5155416551
 30
0.0
 10
12.8662795682
 20
6.5093997776
 30
0.0
 10
12.8637847192
 20
6.5054436581
 30
0.0
 10
12.8614908242
 20
6.5019466742
 30
0.0
 10
12.8594286143
 20
6.4989124798
 30
0.0
 10
12.8576273686
 20
6.4963430387
 30
0.0
 10
12.8561152297
 20
6.4942397242
 30
0.0
 10
12.8550483873
 20
6.4927777753
 30
0.0
 10
12.8543574186
 20
6.4918412324
 30
0.0
 10
12.8539650489
 20
6.4913135031
 30
0.0
 10
12.8536581344
 20
6.4909025546
 30
0.0
 10
12.853436259
 20
6.4906097226
 30
0.0
 10
12.853304171
 20
6.4904325163
 30
0.0
 10
12.8532429458
 20
6.4903553288
 30
0.0
 10
12.853228549
 20
6.4903352491
 30
0.0
  0
SPLINE
  5
270
100
AcDbEntity
  8
0
100
AcDbSpline
 62
9
  6
CONTINUOUS
 70
0
 71
3
 72
43
 73
39
 74
0
 42
0.0000001
 43
0.0000001
 44
0.0000000001
 40
0.0
 40
0.0
 40
0.0
 40
0.0
 40
0.0000436812
 40
0.0001743643
 40
0.0003910377
 40
0.0006926899
 40
0.0010783096
 40
0.0015468855
 40
0.0027288612
 40
0.0042305297
 40
0.0060438055
 40
0.0081606059
 40
0.0105728501
 40
0.0162513591
 40
0.023014743
 40
0.030798436
 40
0.0395352876
 40
0.0491531322
 40
0.0595793181
 40
0.0707413011
 40
0.0825666594
 40
0.1079192689
 40
0.1351630903
 40
0.164021312
 40
0.1942410253
 40
0.2255844251
 40
0.2578913867
 40
0.2910304749
 40
0.3248736526
 40
0.3943456148
 40
0.4658623131
 40
0.5390468439
 40
0.6135653165
 40
0.6891786644
 40
0.7657302182
 40
0.8431342707
 40
0.9212674754
 40
1.0
 40
1.0
 40
1.0
 40
1.0
 10
12.0502396253
 20
6.9539411204
 30
0.0
 10
12.0502371007
 20
6.9539429619
 30
0.0
 10
12.0502627539
 20
6.9539337974
 30
0.0
 10
12.0502769284
 20
6.9539332618
 30
0.0
 10
12.0503294551
 20
6.9539190121
 30
0.0
 10
12.0503891033
 20
6.9539054426
 30
0.0
 10
12.0504707729
 20
6.9538856564
 30
0.0
 10
12.0506118859
 20
6.953852178
 30
0.0
 10
12.0508316914
 20
6.9537999942
 30
0.0
 10
12.0511446602
 20
6.9537263143
 30
0.0
 10
12.0515230746
 20
6.9536377495
 30
0.0
 10
12.0519649929
 20
6.9535350399
 30
0.0
 10
12.0526765258
 20
6.9533708148
 30
0.0
 10
12.0537125335
 20
6.9531344236
 30
0.0
 10
12.0551242454
 20
6.9528172357
 30
0.0
 10
12.0567506912
 20
6.9524577818
 30
0.0
 10
12.0585780366
 20
6.9520611362
 30
0.0
 10
12.0605919413
 20
6.9516328645
 30
0.0
 10
12.0627776553
 20
6.951178554
 30
0.0
 10
12.0651203965
 20
6.9507038335
 30
0.0
 10
12.068513348
 20
6.9500354059
 30
0.0
 10
12.0730430872
 20
6.9491856612
 30
0.0
 10
12.0787843416
 20
6.9481879775
 30
0.0
 10
12.0848825671
 20
6.9472140724
 30
0.0
 10
12.0912845321
 20
6.9462864403
 30
0.0
 10
12.0979448352
 20
6.9454265948
 30
0.0
 10
12.1048256029
 20
6.9446501133
 30
0.0
 10
12.1118963565
 20
6.9439705872
 30
0.0
 10
12.1216284241
 20
6.9432054704
 30
0.0
 10
12.1341222537
 20
6.9425648005
 30
0.0
 10
12.1494463939
 20
6.9423638492
 30
0.0
 10
12.1651276173
 20
6.9427991862
 30
0.0
 10
12.1810678292
 20
6.9439445955
 30
0.0
 10
12.1971735796
 20
6.9458982257
 30
0.0
 10
12.2133535788
 20
6.9487634009
 30
0.0
 10
12.2295115542
 20
6.9526316507
 30
0.0
 10
12.2455215058
 20
6.9576324681
 30
0.0
 10
12.2559521517
 20
6.9618161066
 30
0.0
 10
12.2610776444
 20
6.9641512835
 30
0.0
  0
SPLINE
  5
271
100
AcDbEntity
  8
0
100
AcDbSpline
 62
9
  6
CONTINUOUS
 70
0
 71
3
 72
11
 73
7
 74
0
 42
0.0000001
 43
0.0000001
 44
0.0000000001
 40
0.0
 40
0.0
 40
0.0
 40
0.0
 40
0.235123252
 40
0.4838418903
 40
0.7401951868
 40
1.0
 40
1.0
 40
1.0
 40
1.0
 10
13.902491787
 20
6.9655001993
 30
0.0
 10
13.8954861059
 20
6.9655007532
 30
0.0
 10
13.8810696475
 20
6.9653718155
 30
0.0
 10
13.8590188798
 20
6.9649556648
 30
0.0
 10
13.8362327896
 20
6.9645282424
 30
0.0
 10
13.8208534271
 20
6.9643916524
 30
0.0
 10
13.8131123395
 20
6.9643919383
 30
0.0
  0
SPLINE
  5
272
100
AcDbEntity
  8
0
100
AcDbSpline
 62
9
  6
CONTINUOUS
 70
0
 71
3
 72
23
 73
19
 74
0
 42
0.0000001
 43
0.0000001
 44
0.0000000001
 40
0.0
 40
0.0
 40
0.0
 40
0.0
 40
0.0011287167
 40
0.0045636128
 40
0.010277148
 40
0.0182417802
 40
0.0284299751
 40
0.0408142069
 40
0.072057037
 40
0.1116903162
 40
0.1593906
 40
0.2148339582
 40
0.2776863341
 40
0.3475541571
 40
0.424024245
 40
0.5951303122
 40
0.7879959483
 40
1.0
 40
1.0
 40
1.0
 40
1.0
 10
12.014701472
 20
6.9655001993
 30
0.0
 10
12.0146938432
 20
6.9655025148
 30
0.0
 10
12.0147641963
 20
6.9654922057
 30
0.0
 10
12.014799281
 20
6.9654925983
 30
0.0
 10
12.0149408215
 20
6.9654773742
 30
0.0
 10
12.0150993769
 20
6.9654637249
 30
0.0
 10
12.015317766
 20
6.9654434899
 30
0.0
 10
12.0156946618
 20
6.9654097551
 30
0.0
 10
12.0162815737
 20
6.9653578006
 30
0.0
 10
12.0171156194
 20
6.9652866984
 30
0.0
 10
12.0181209473
 20
6.9652048503
 30
0.0
 10
12.0192899241
 20
6.9651148716
 30
0.0
 10
12.0206155657
 20
6.9650192204
 30
0.0
 10
12.0220898763
 20
6.9649208909
 30
0.0
 10
12.0243279889
 20
6.9647850706
 30
0.0
 10
12.0274351361
 20
6.9646282377
 30
0.0
 10
12.0315010036
 20
6.9644829474
 30
0.0
 10
12.0343603385
 20
6.9644263642
 30
0.0
 10
12.0358576994
 20
6.9644093385
 30
0.0
  0
ENDSEC
  0
SECTION
  2
OBJECTS
  0
DICTIONARY
  5
C
100
AcDbDictionary
280
0
281
1
  3
ACAD_GROUP
350
D
  3
ACAD_MLINESTYLE
350
17
  3
ACAD_LAYOUT
350
1A
  3
ACAD_PLOTSETTINGS
350
19
  3
ACAD_PLOTSTYLENAME
350
E
  0
DICTIONARY
  5
D
102
{ACAD_REACTORS
330
C
102
}
100
AcDbDictionary
280
0
281
1
  0
ACDBDICTIONARYWDFLT
  5
E
102
{ACAD_REACTORS
330
C
102
}
100
AcDbDictionary
281
1
  3
Normal
350
F
100
AcDbDictionaryWithDefault
340
F
  0
DICTIONARY
  5
17
102
{ACAD_REACTORS
330
C
102
}
100
AcDbDictionary
280
0
281
1
  3
Standard
350
18
  0
DICTIONARY
  5
19
102
{ACAD_REACTORS
330
C
102
}
100
AcDbDictionary
281
1
  0
DICTIONARY
  5
1A
102
{ACAD_REACTORS
330
C
102
}
100
AcDbDictionary
281
1
  3
Model
350
273
  3
Layout1
350
274
  0
ACDBPLACEHOLDER
  5
F
102
{ACAD_REACTORS
330
E
102
}
  0
MLINESTYLE
  5
18
102
{ACAD_REACTORS
330
17
102
}
100
AcDbMlineStyle
  2
STANDARD
 70
0
  3

 62
256
 51
90.0
 52
90.0
 71
2
 49
0.5
 62
256
  6
BYLAYER
 49
-0.5
 62
256
  6
BYLAYER
  0
LAYOUT
  5
273
102
{ACAD_REACTORS
330
1A
102
}
100
AcDbPlotSettings
  1

  2
none_device
  4
ANSI_C_(22.00_x_17.00_Inches)
  6

 40
0.0
 41
0.0
 42
0.0
 43
0.0
 44
558.8
 45
431.8
 46
0.0
 47
0.0
 48
0.0
 49
0.0
140
0.0
141
0.0
142
1.0
143
1.0
 70
1024
 72
0
 73
0
 74
0
  7

 75
0
147
1.0
148
0.0
149
0.0
100
AcDbLayout
  1
Model
 70
0
 71
0
 10
0.0
 20
0.0
 11
22.0
 21
17.0
 12
0.0
 22
0.0
 32
0.0
 14
0.0
 24
0.0
 34
0.0
 15
0.0
 25
0.0
 35
0.0
146
0.0
 13
0.0
 23
0.0
 33
0.0
 16
1.0
 26
0.0
 36
0.0
 17
0.0
 27
1.0
 37
0.0
 76
0
330
202
345
0
346
0
  0
LAYOUT
  5
274
102
{ACAD_REACTORS
330
1A
102
}
100
AcDbPlotSettings
  1

  2
none_device
  4
ANSI_C_(22.00_x_17.00_Inches)
  6

 40
0.0
 41
0.0
 42
0.0
 43
0.0
 44
558.8
 45
431.8
 46
0.0
 47
0.0
 48
0.0
 49
0.0
140
0.0
141
0.0
142
1.0
143
1.0
 70
0
 72
0
 73
0
 74
0
  7

 75
0
147
1.0
148
0.0
149
0.0
100
AcDbLayout
  1
Layout1
 70
0
 71
1
 10
0.0
 20
0.0
 11
22.0
 21
17.0
 12
0.0
 22
0.0
 32
0.0
 14
0.0
 24
0.0
 34
0.0
 15
0.0
 25
0.0
 35
0.0
146
0.0
 13
0.0
 23
0.0
 33
0.0
 16
1.0
 26
0.0
 36
0.0
 17
0.0
 27
1.0
 37
0.0
 76
0
330
203
345
0
346
0
  0
ENDSEC
  0
EOF
