999
DXF file: E:\BT Custom\CADOUTPUT\_TOP.dxf
999
Pro/ENGINEER 2018400 by Parametric Technology Corporation
  0
SECTION
  2
HEADER
  9
$ACADVER
  1
AC1018
  9
$DWGCODEPAGE
  3
ANSI_1252
  9
$EXTMAX
 10
22.0
 20
17.0
 30
0.0
  9
$EXTMIN
 10
0.0
 20
0.0
 30
0.0
  9
$LIMMIN
 10
0.0
 20
0.0
  9
$LIMMAX
 10
22.0
 20
17.0
  9
$VIEWCTR
 10
11.0
 20
8.5
  9
$VIEWSIZE
 40
17.0
  9
$CLAYER
  8
0
  9
$LTSCALE
 40
1.21
  9
$CELTYPE
  6
BYLAYER
  9
$DIMSCALE
 40
1.0
  9
$DIMASZ
 40
0.1
  9
$DIMEXO
 40
0.0625
  9
$DIMDLI
 40
0.836
  9
$DIMEXE
 40
0.125
  9
$DIMCEN
 40
0.198
  9
$DIMLFAC
 40
1.0
  9
$DIMBLK
  1
_FILLED
  9
$DIMALT
 70
1
  9
$DIMALTD
 70
2
  9
$DIMALTTD
 70
2
  9
$DIMALTF
 40
25.4
  9
$DIMTXT
 40
0.08
  9
$DIMTOL
 70
1
  9
$DIMLIM
 70
0
  9
$DIMTFAC
 40
1.0
  9
$DIMTP
 40
0.001
  9
$DIMTM
 40
0.001
  9
$DIMGAP
 40
0.09
  9
$DIMDSEP
 70
46
  9
$AUNITS
 70
0
  9
$PDMODE
 70
3
  9
$PDSIZE
 40
0.06
  9
$HANDSEED
  5
2CB
  9
$TILEMODE
 70
1
  9
$MEASUREMENT
 70
0
  9
$INSUNITS
 70
1
  0
ENDSEC
  0
SECTION
  2
CLASSES
  0
CLASS
  1
ACDBDICTIONARYWDFLT
  2
AcDbDictionaryWithDefault
  3
AutoCAD 2000
 90
0
 91
1
280
0
281
0
  0
CLASS
  1
ACDBPLACEHOLDER
  2
AcDbPlaceHolder
  3
AutoCAD 2000
 90
0
 91
1
280
0
281
0
  0
CLASS
  1
LAYOUT
  2
AcDbLayout
  3
AutoCAD 2000
 90
0
 91
0
280
0
281
0
  0
ENDSEC
  0
SECTION
  2
TABLES
  0
TABLE
  2
VPORT
  5
8
100
AcDbSymbolTable
 70
2
  0
VPORT
  5
1F4
100
AcDbSymbolTableRecord
100
AcDbViewportTableRecord
  2
*ACTIVE
 70
0
 10
0.0
 20
0.0
 11
1.0
 21
1.0
 12
11.0
 22
8.5
 13
0.0
 23
0.0
 14
1.0
 24
1.0
 15
0.0
 25
0.0
 16
0.0
 26
0.0
 36
1.0
 17
0.0
 27
0.0
 37
0.0
 40
17.0
 41
1.2941176471
 42
50.0
 43
0.0
 44
0.0
 50
0.0
 51
0.0
 71
0
 72
100
 73
1
 74
1
 75
0
 76
0
 77
0
 78
0
  0
ENDTAB
  0
TABLE
  2
LTYPE
  5
5
100
AcDbSymbolTable
 70
6
  0
LTYPE
  5
14
100
AcDbSymbolTableRecord
100
AcDbLinetypeTableRecord
  2
BYBLOCK
 70
0
  3

 72
65
 73
0
 40
0.0
  0
LTYPE
  5
15
100
AcDbSymbolTableRecord
100
AcDbLinetypeTableRecord
  2
BYLAYER
 70
0
  3

 72
65
 73
0
 40
0.0
  0
LTYPE
  5
16
100
AcDbSymbolTableRecord
100
AcDbLinetypeTableRecord
  2
CONTINUOUS
 70
64
  3
Solid line
 72
65
 73
0
 40
0.0
  0
LTYPE
  5
1F5
100
AcDbSymbolTableRecord
100
AcDbLinetypeTableRecord
  2
CENTER
 70
64
  3
____ _ ____ _ ____ _ ____ _ ____ _ ____ _ ____
 72
65
 73
4
 40
0.6
 49
0.375
 74
0
 49
-0.075
 74
0
 49
0.075
 74
0
 49
-0.075
 74
0
  0
LTYPE
  5
1F6
100
AcDbSymbolTableRecord
100
AcDbLinetypeTableRecord
  2
HIDDEN
 70
64
  3
- - - - - - - - - - - - - - - - - - - -
 72
65
 73
2
 40
0.2
 49
0.1
 74
0
 49
-0.1
 74
0
  0
LTYPE
  5
1F7
100
AcDbSymbolTableRecord
100
AcDbLinetypeTableRecord
  2
PHANTOM
 70
64
  3
_____ _ _ _____ _ _ _____ _ _ _____
 72
65
 73
6
 40
0.8
 49
0.45
 74
0
 49
-0.05
 74
0
 49
0.1
 74
0
 49
-0.05
 74
0
 49
0.1
 74
0
 49
-0.05
 74
0
  0
LTYPE
  5
1F8
100
AcDbSymbolTableRecord
100
AcDbLinetypeTableRecord
  2
DOT
 70
64
  3
. . . . . . . . . . . . . . . . . . . .
 72
65
 73
2
 40
0.2
 49
0.1
 74
0
 49
-0.1
 74
0
  0
LTYPE
  5
1F9
100
AcDbSymbolTableRecord
100
AcDbLinetypeTableRecord
  2
DASHED
 70
64
  3
- - - - - - - - - - - - - - - - - - - -
 72
65
 73
2
 40
0.2
 49
0.1
 74
0
 49
-0.1
 74
0
  0
ENDTAB
  0
TABLE
  2
LAYER
  5
2
100
AcDbSymbolTable
 70
36
  0
LAYER
  5
10
100
AcDbSymbolTableRecord
100
AcDbLayerTableRecord
  2
0
 70
0
 62
7
  6
CONTINUOUS
370
-3
390
F
  0
LAYER
  5
1FA
100
AcDbSymbolTableRecord
100
AcDbLayerTableRecord
  2
DEFAULT_1
 70
0
 62
7
  6
CENTER
370
-3
390
F
  0
LAYER
  5
1FB
100
AcDbSymbolTableRecord
100
AcDbLayerTableRecord
  2
DEFAULT_2
 70
0
 62
8
  6
HIDDEN
370
-3
390
F
  0
LAYER
  5
1FC
100
AcDbSymbolTableRecord
100
AcDbLayerTableRecord
  2
DEFAULT_3
 70
0
 62
7
  6
PHANTOM
370
-3
390
F
  0
LAYER
  5
1FD
100
AcDbSymbolTableRecord
100
AcDbLayerTableRecord
  2
ALL_FEATURES
 70
0
 62
7
  6
CONTINUOUS
370
-3
390
F
  0
LAYER
  5
1FE
100
AcDbSymbolTableRecord
100
AcDbLayerTableRecord
  2
AXES_FEATURES
 70
0
 62
7
  6
CONTINUOUS
370
-3
390
F
  0
LAYER
  5
1FF
100
AcDbSymbolTableRecord
100
AcDbLayerTableRecord
  2
DIMENSIONS
 70
0
 62
7
  6
CONTINUOUS
370
-3
390
F
  0
ENDTAB
  0
TABLE
  2
STYLE
  5
3
100
AcDbSymbolTable
 70
1
  0
STYLE
  5
11
100
AcDbSymbolTableRecord
100
AcDbTextStyleTableRecord
  2
STANDARD
 70
0
 40
0.0
 41
0.8
 50
0.0
 71
0
 42
0.2
  3
txt
  4

  0
STYLE
  5
200
100
AcDbSymbolTableRecord
100
AcDbTextStyleTableRecord
  2
TEXTSTYLE_1
 70
0
 40
0.0
 41
0.8
 50
0.0
 71
0
 42
0.2
  3
gdt
  4

  0
ENDTAB
  0
TABLE
  2
VIEW
  5
6
100
AcDbSymbolTable
 70
0
  0
ENDTAB
  0
TABLE
  2
UCS
  5
7
100
AcDbSymbolTable
 70
0
  0
ENDTAB
  0
TABLE
  2
APPID
  5
9
100
AcDbSymbolTable
 70
1
  0
APPID
  5
201
100
AcDbSymbolTableRecord
100
AcDbRegAppTableRecord
  2
ACAD
 70
0
  0
ENDTAB
  0
TABLE
  2
BLOCK_RECORD
  5
1
100
AcDbSymbolTable
 70
0
  0
BLOCK_RECORD
  5
202
100
AcDbSymbolTableRecord
100
AcDbBlockTableRecord
  2
*Model_Space
  0
BLOCK_RECORD
  5
203
100
AcDbSymbolTableRecord
100
AcDbBlockTableRecord
  2
*Paper_Space
  0
BLOCK_RECORD
  5
204
100
AcDbSymbolTableRecord
100
AcDbBlockTableRecord
  2
_FILLED
  0
ENDTAB
  0
TABLE
  2
DIMSTYLE
  5
A
100
AcDbSymbolTable
 70
1
100
AcDbDimStyleTable
 71
0
  0
DIMSTYLE
105
205
100
AcDbSymbolTableRecord
100
AcDbDimStyleTableRecord
  2
STANDARD
 70
0
  3

  4

 40
1.0
 41
0.1
 42
0.0625
 43
0.38
 44
0.125
 45
0.0
 46
0.0
 47
0.001
 48
0.001
140
0.08
141
0.09
142
0.0
143
25.4
144
1.0
145
0.0
146
1.0
147
0.09
 71
1.0
 72
0.0
 73
1
 74
1
 75
0
 76
0
 77
0
 78
4
 79
1
170
1
171
2
172
0
173
0
174
0
175
0
176
0
177
0
178
0
270
2
179
3
271
3
272
3
273
2
274
2
275
0
280
0
281
0
282
0
283
1
284
4
285
0
286
0
287
3
288
0
340
11
278
46
341
204
342
204
343
204
344
204
  0
ENDTAB
  0
ENDSEC
  0
SECTION
  2
BLOCKS
  0
BLOCK
  5
20
100
AcDbEntity
  8
0
100
AcDbBlockBegin
  2
*Model_Space
 70
0
 10
0.0
 20
0.0
 30
0.0
  3
*Model_Space
  1

  0
ENDBLK
  5
21
100
AcDbEntity
  8
0
100
AcDbBlockEnd
  0
BLOCK
  5
1C
100
AcDbEntity
  8
0
100
AcDbBlockBegin
  2
*Paper_Space
 70
0
 10
0.0
 20
0.0
 30
0.0
  3
*Paper_Space
  1

  0
ENDBLK
  5
1D
100
AcDbEntity
  8
0
100
AcDbBlockEnd
  0
BLOCK
  5
206
100
AcDbEntity
  8
0
100
AcDbBlockBegin
  2
_FILLED
 70
64
 10
0.0
 20
0.0
  3
_FILLED
  1

  0
SOLID
  5
207
100
AcDbEntity
  8
0
  6
BYBLOCK
 62
0
100
AcDbTrace
 10
0.0
 20
0.0
 11
-1.0
 21
0.2
 12
-1.0
 22
-0.2
 13
-1.0
 23
-0.2
  0
ENDBLK
  5
208
100
AcDbEntity
  8
0
  6
BYBLOCK
 62
0
100
AcDbBlockEnd
  0
ENDSEC
  0
SECTION
  2
ENTITIES
  0
LINE
  5
209
100
AcDbEntity
  8
0
100
AcDbLine
 62
7
  6
CONTINUOUS
 10
6.0550280412
 20
10.348506406
 11
6.0550796273
 21
10.348675038
  0
LINE
  5
20A
100
AcDbEntity
  8
0
100
AcDbLine
 62
7
  6
CONTINUOUS
 10
6.0549407167
 20
10.3480767226
 11
6.0566746288
 21
10.3513736199
  0
LINE
  5
20B
100
AcDbEntity
  8
0
100
AcDbLine
 62
7
  6
CONTINUOUS
 10
6.287365993
 20
10.7509609598
 11
6.2880319724
 21
10.752107801
  0
LINE
  5
20C
100
AcDbEntity
  8
0
100
AcDbLine
 62
7
  6
CONTINUOUS
 10
6.2880319724
 20
10.752107801
 11
6.2891047625
 21
10.7536976744
  0
LWPOLYLINE
  5
20D
100
AcDbEntity
  8
0
100
AcDbPolyline
 62
7
  6
CONTINUOUS
 90
8
 70
0
 10
6.0566746288
 20
10.3513736199
 10
6.0638977726
 20
10.3603498543
 10
6.0768198964
 20
10.3700702908
 10
6.0928915901
 20
10.376458931
 10
6.1086565167
 20
10.3783056037
 10
6.1208778793
 20
10.3767754507
 10
6.1274713337
 20
10.3745098386
 10
6.1285397827
 20
10.3739617739
  0
LINE
  5
20E
100
AcDbEntity
  8
0
100
AcDbLine
 62
7
  6
CONTINUOUS
 10
6.2888511405
 20
10.7534849147
 11
6.2887081396
 21
10.7533314914
  0
LINE
  5
20F
100
AcDbEntity
  8
0
100
AcDbLine
 62
7
  6
CONTINUOUS
 10
6.8723183383
 20
9.0856749677
 11
6.8723183383
 21
9.6634772176
  0
LINE
  5
210
100
AcDbEntity
  8
0
100
AcDbLine
 62
9
  6
CONTINUOUS
 10
7.0473186095
 20
9.5355767199
 11
7.0473186696
 21
9.67057672
  0
LINE
  5
211
100
AcDbEntity
  8
0
100
AcDbLine
 62
9
  6
CONTINUOUS
 10
7.047318482
 20
8.9975877489
 11
7.0473185717
 21
8.9698084715
  0
LWPOLYLINE
  5
212
100
AcDbEntity
  8
0
100
AcDbPolyline
 62
7
  6
CONTINUOUS
 90
8
 70
0
 10
6.8723192512
 20
9.0856926546
 10
6.8722457029
 20
9.0843458771
 10
6.8707577714
 20
9.077086982
 10
6.8656721065
 20
9.06548822
 10
6.8561018772
 20
9.0530082668
 10
6.8425932568
 20
9.0425640063
 10
6.8275805075
 20
9.0363554547
 10
6.8164058411
 20
9.0347464149
  0
LWPOLYLINE
  5
213
100
AcDbEntity
  8
0
100
AcDbPolyline
 62
7
  6
CONTINUOUS
 90
5
 70
0
 10
7.222319495
 20
9.6634668046
 10
7.2241554315
 20
9.6815611846
 10
7.2315291189
 20
9.703135853
 10
7.2440256701
 20
9.7220935289
 10
7.2608458355
 20
9.7373045678
  0
LWPOLYLINE
  5
214
100
AcDbEntity
  8
0
100
AcDbPolyline
 62
7
  6
CONTINUOUS
 90
5
 70
0
 10
7.4210366294
 20
10.0145706629
 10
7.4257152315
 20
10.0366718161
 10
7.4359087921
 20
10.0571498806
 10
7.4509534462
 20
10.0744125035
 10
7.4657275066
 20
10.085071741
  0
LINE
  5
215
100
AcDbEntity
  8
0
100
AcDbLine
 62
7
  6
CONTINUOUS
 10
7.7911199061
 20
10.6770833496
 11
7.2907240856
 21
10.3881796879
  0
LINE
  5
216
100
AcDbEntity
  8
0
100
AcDbLine
 62
7
  6
CONTINUOUS
 10
7.2907300465
 20
10.3881831293
 11
7.2907278105
 21
10.3881818385
  0
LINE
  5
217
100
AcDbEntity
  8
0
100
AcDbLine
 62
9
  6
CONTINUOUS
 10
7.4889913764
 20
10.3005765776
 11
7.3720779651
 21
10.2330765461
  0
LINE
  5
218
100
AcDbEntity
  8
0
100
AcDbLine
 62
9
  6
CONTINUOUS
 10
7.9549034368
 20
10.5695711596
 11
7.9789610221
 21
10.5834607746
  0
LINE
  5
219
100
AcDbEntity
  8
0
100
AcDbLine
 62
7
  6
CONTINUOUS
 10
7.9661177916
 20
10.3739732374
 11
7.4657296073
 21
10.0850739845
  0
LWPOLYLINE
  5
21A
100
AcDbEntity
  8
0
100
AcDbPolyline
 62
7
  6
CONTINUOUS
 90
5
 70
0
 10
7.2907280997
 20
10.3881820731
 10
7.2742851418
 20
10.3807746311
 10
7.2520080016
 20
10.3763427059
 10
7.22935644
 20
10.3776243758
 10
7.2077192935
 20
10.38454193
  0
LWPOLYLINE
  5
21B
100
AcDbEntity
  8
0
100
AcDbPolyline
 62
7
  6
CONTINUOUS
 90
5
 70
0
 10
6.8873118334
 20
10.3847293389
 10
6.8658181406
 20
10.3777278356
 10
6.8430024147
 20
10.3763192737
 10
6.8205339966
 20
10.3807152924
 10
6.8039090733
 20
10.3881828681
  0
LINE
  5
21C
100
AcDbEntity
  8
0
100
AcDbLine
 62
7
  6
CONTINUOUS
 10
7.2223183383
 20
9.0856727904
 11
7.2223183383
 21
9.6634844013
  0
LINE
  5
21D
100
AcDbEntity
  8
0
100
AcDbLine
 62
7
  6
CONTINUOUS
 10
7.2223183358
 20
9.6634628371
 11
7.2223183381
 21
9.6634724766
  0
LWPOLYLINE
  5
21E
100
AcDbEntity
  8
0
100
AcDbPolyline
 62
7
  6
CONTINUOUS
 90
8
 70
0
 10
7.9661017059
 20
10.3739648803
 10
7.9673067629
 20
10.3745754224
 10
7.9743338567
 20
10.3769153432
 10
7.9869151382
 20
10.3783107102
 10
8.0024968043
 20
10.3762675932
 10
8.0182992484
 20
10.3697951482
 10
8.0311857237
 20
10.3599019404
 10
8.0381795572
 20
10.3510153345
  0
LINE
  5
21F
100
AcDbEntity
  8
0
100
AcDbLine
 62
9
  6
CONTINUOUS
 10
10.6098183383
 20
5.42057672
 11
11.4848183383
 21
5.42057672
  0
LWPOLYLINE
  5
220
100
AcDbEntity
  8
0
100
AcDbPolyline
 62
7
  6
CONTINUOUS
 90
8
 70
0
 10
7.8074673825
 20
10.7506021976
 10
7.8116142469
 20
10.7399167934
 10
7.813588188
 20
10.7238978089
 10
7.8111038114
 20
10.7067624379
 10
7.8048209074
 20
10.692150781
 10
7.7973707327
 20
10.6823045356
 10
7.7921175442
 20
10.6777283733
 10
7.7911017906
 20
10.6770724408
  0
LINE
  5
221
100
AcDbEntity
  8
0
100
AcDbLine
 62
7
  6
CONTINUOUS
 10
8.039618161
 20
10.3484753201
 11
8.0395570493
 21
10.3486750379
  0
LWPOLYLINE
  5
222
100
AcDbEntity
  8
0
100
AcDbPolyline
 62
7
  6
CONTINUOUS
 90
5
 70
0
 10
14.8873118334
 20
10.3847293389
 10
14.8658181406
 20
10.3777278356
 10
14.8430024147
 20
10.3763192737
 10
14.8205339966
 20
10.3807152924
 10
14.8039090733
 20
10.3881828681
  0
LINE
  5
223
100
AcDbEntity
  8
0
100
AcDbLine
 62
7
  6
CONTINUOUS
 10
8.0388383305
 20
10.3498671311
 11
8.0396757682
 21
10.3481488751
  0
LWPOLYLINE
  5
224
100
AcDbEntity
  8
0
100
AcDbPolyline
 62
7
  6
CONTINUOUS
 90
5
 70
0
 10
15.2907280997
 20
10.3881820731
 10
15.2742851418
 20
10.3807746311
 10
15.2520080016
 20
10.3763427059
 10
15.22935644
 20
10.3776243758
 10
15.2077192935
 20
10.38454193
  0
LWPOLYLINE
  5
225
100
AcDbEntity
  8
0
100
AcDbPolyline
 62
7
  6
CONTINUOUS
 90
5
 70
0
 10
6.8336067125
 20
9.7374319346
 10
6.850471312
 20
9.7222556825
 10
6.8630653088
 20
9.7032221076
 10
6.8704759926
 20
9.6815880251
 10
6.8723174191
 20
9.6634736851
  0
LINE
  5
226
100
AcDbEntity
  8
0
100
AcDbLine
 62
7
  6
CONTINUOUS
 10
7.8054875523
 20
10.7537386314
 11
7.8074673825
 21
10.7506021976
  0
LINE
  5
227
100
AcDbEntity
  8
0
100
AcDbLine
 62
7
  6
CONTINUOUS
 10
8.0381795572
 20
10.3510153345
 11
8.0388383305
 21
10.3498671311
  0
LINE
  5
228
100
AcDbEntity
  8
0
100
AcDbLine
 62
7
  6
CONTINUOUS
 10
10.6098183383
 20
10.04557672
 11
10.6098183383
 21
3.92057672
  0
LINE
  5
229
100
AcDbEntity
  8
0
100
AcDbLine
 62
7
  6
CONTINUOUS
 10
15.2907300465
 20
10.3881831293
 11
15.2907278105
 21
10.3881818385
  0
LINE
  5
22A
100
AcDbEntity
  8
0
100
AcDbLine
 62
7
  6
CONTINUOUS
 10
15.7911199061
 20
10.6770833496
 11
15.2907240856
 21
10.3881796879
  0
LWPOLYLINE
  5
22B
100
AcDbEntity
  8
0
100
AcDbPolyline
 62
7
  6
CONTINUOUS
 90
5
 70
0
 10
6.6289082857
 20
10.0850728131
 10
6.6436500808
 20
10.0744430164
 10
6.6586744228
 20
10.0572319033
 10
6.6688695347
 20
10.0368253517
 10
6.6736017584
 20
10.0145704779
  0
LINE
  5
22C
100
AcDbEntity
  8
0
100
AcDbLine
 62
7
  6
CONTINUOUS
 10
10.8598183383
 20
10.697970699
 11
10.8598183383
 21
11.14757672
  0
LINE
  5
22D
100
AcDbEntity
  8
0
100
AcDbLine
 62
9
  6
CONTINUOUS
 10
15.9549034368
 20
10.5695711596
 11
15.9789610221
 21
10.5834607746
  0
LINE
  5
22E
100
AcDbEntity
  8
0
100
AcDbLine
 62
9
  6
CONTINUOUS
 10
15.4889913764
 20
10.3005765776
 11
15.3720779651
 21
10.2330765461
  0
LINE
  5
22F
100
AcDbEntity
  8
0
100
AcDbLine
 62
7
  6
CONTINUOUS
 10
15.9661177916
 20
10.3739732374
 11
15.4657296073
 21
10.0850739845
  0
LWPOLYLINE
  5
230
100
AcDbEntity
  8
0
100
AcDbPolyline
 62
7
  6
CONTINUOUS
 90
8
 70
0
 10
15.9661017059
 20
10.3739648803
 10
15.9673067629
 20
10.3745754224
 10
15.9743338567
 20
10.3769153432
 10
15.9869151382
 20
10.3783107102
 10
16.0024968043
 20
10.3762675932
 10
16.0182992484
 20
10.3697951482
 10
16.0311857237
 20
10.3599019404
 10
16.0381795572
 20
10.3510153345
  0
LINE
  5
231
100
AcDbEntity
  8
0
100
AcDbLine
 62
7
  6
CONTINUOUS
 10
6.1285171155
 20
10.3739742591
 11
6.6289111877
 21
10.0850716067
  0
LINE
  5
232
100
AcDbEntity
  8
0
100
AcDbLine
 62
7
  6
CONTINUOUS
 10
7.8058114725
 20
10.7534570658
 11
7.805928537
 21
10.7533314913
  0
LINE
  5
233
100
AcDbEntity
  8
0
100
AcDbLine
 62
7
  6
CONTINUOUS
 10
11.2348183383
 20
10.6975979085
 11
11.2348183383
 21
11.14757672
  0
LINE
  5
234
100
AcDbEntity
  8
0
100
AcDbLine
 62
7
  6
CONTINUOUS
 10
11.4848183383
 20
10.04557672
 11
11.4848183383
 21
3.92057672
  0
LINE
  5
235
100
AcDbEntity
  8
0
100
AcDbLine
 62
7
  6
CONTINUOUS
 10
14.2888511405
 20
10.7534849147
 11
14.2887081396
 21
10.7533314914
  0
LINE
  5
236
100
AcDbEntity
  8
0
100
AcDbLine
 62
9
  6
CONTINUOUS
 10
6.6056452531
 20
10.3005764962
 11
6.7225586541
 21
10.2330764466
  0
LINE
  5
237
100
AcDbEntity
  8
0
100
AcDbLine
 62
9
  6
CONTINUOUS
 10
6.1397331991
 20
10.5695710888
 11
6.1156755967
 21
10.5834606549
  0
LINE
  5
238
100
AcDbEntity
  8
0
100
AcDbLine
 62
7
  6
CONTINUOUS
 10
6.303518856
 20
10.6770821455
 11
6.8039080831
 21
10.3881822905
  0
LWPOLYLINE
  5
239
100
AcDbEntity
  8
0
100
AcDbPolyline
 62
7
  6
CONTINUOUS
 90
8
 70
0
 10
6.3035336252
 20
10.6770728248
 10
6.3023993584
 20
10.6778131185
 10
6.2968637068
 20
10.6827256853
 10
6.2893720742
 20
10.6929100562
 10
6.2833504653
 20
10.7074108159
 10
6.2810465121
 20
10.7243235159
 10
6.2831649503
 20
10.7404459608
 10
6.287365993
 20
10.7509609598
  0
LINE
  5
23A
100
AcDbEntity
  8
0
100
AcDbLine
 62
7
  6
CONTINUOUS
 10
14.2880319724
 20
10.752107801
 11
14.2891047625
 21
10.7536976744
  0
LWPOLYLINE
  5
23B
100
AcDbEntity
  8
0
100
AcDbPolyline
 62
7
  6
CONTINUOUS
 90
8
 70
0
 10
14.0566746288
 20
10.3513736199
 10
14.0638977726
 20
10.3603498543
 10
14.0768198964
 20
10.3700702908
 10
14.0928915901
 20
10.376458931
 10
14.1086565167
 20
10.3783056037
 10
14.1208778793
 20
10.3767754507
 10
14.1274713337
 20
10.3745098386
 10
14.1285397827
 20
10.3739617739
  0
LINE
  5
23C
100
AcDbEntity
  8
0
100
AcDbLine
 62
7
  6
CONTINUOUS
 10
15.2811152412
 20
9.0347624792
 11
15.2809468505
 21
9.0347236306
  0
LINE
  5
23D
100
AcDbEntity
  8
0
100
AcDbLine
 62
7
  6
CONTINUOUS
 10
6.8134862765
 20
9.0347705728
 11
6.8136898259
 21
9.0347236306
  0
LINE
  5
23E
100
AcDbEntity
  8
0
100
AcDbLine
 62
7
  6
CONTINUOUS
 10
14.0549407167
 20
10.3480767226
 11
14.0566746288
 21
10.3513736199
  0
LINE
  5
23F
100
AcDbEntity
  8
0
100
AcDbLine
 62
7
  6
CONTINUOUS
 10
14.287365993
 20
10.7509609598
 11
14.2880319724
 21
10.752107801
  0
LINE
  5
240
100
AcDbEntity
  8
0
100
AcDbLine
 62
7
  6
CONTINUOUS
 10
15.2815185154
 20
9.0349015223
 11
15.2778481431
 21
9.0347546783
  0
LINE
  5
241
100
AcDbEntity
  8
0
100
AcDbLine
 62
9
  6
CONTINUOUS
 10
11.4848183383
 20
8.54557672
 11
10.6098183383
 21
8.54557672
  0
LINE
  5
242
100
AcDbEntity
  8
0
100
AcDbLine
 62
7
  6
CONTINUOUS
 10
6.8150828059
 20
9.0347500598
 11
6.8131591114
 21
9.0348851698
  0
LWPOLYLINE
  5
243
100
AcDbEntity
  8
0
100
AcDbPolyline
 62
7
  6
CONTINUOUS
 90
8
 70
0
 10
7.2778481431
 20
9.0347546783
 10
7.2665353702
 20
9.0364936162
 10
7.2516712174
 20
9.0427809682
 10
7.2380543011
 20
9.0535000993
 10
7.2285271818
 20
9.0662545712
 10
7.2237186534
 20
9.0776337232
 10
7.2223772474
 20
9.0844959486
 10
7.2223174189
 20
9.0856984845
  0
LINE
  5
244
100
AcDbEntity
  8
0
100
AcDbLine
 62
7
  6
CONTINUOUS
 10
7.2815185154
 20
9.0349015223
 11
7.2778481431
 21
9.0347546783
  0
LINE
  5
245
100
AcDbEntity
  8
0
100
AcDbLine
 62
7
  6
CONTINUOUS
 10
6.8164058411
 20
9.0347464149
 11
6.8150828059
 21
9.0347500598
  0
LINE
  5
246
100
AcDbEntity
  8
0
100
AcDbLine
 62
7
  6
CONTINUOUS
 10
14.8164058411
 20
9.0347464149
 11
14.8150828059
 21
9.0347500598
  0
LINE
  5
247
100
AcDbEntity
  8
0
100
AcDbLine
 62
7
  6
CONTINUOUS
 10
14.8150828059
 20
9.0347500598
 11
14.8131591114
 21
9.0348851698
  0
LINE
  5
248
100
AcDbEntity
  8
0
100
AcDbLine
 62
7
  6
CONTINUOUS
 10
14.0550280412
 20
10.348506406
 11
14.0550796273
 21
10.348675038
  0
LWPOLYLINE
  5
249
100
AcDbEntity
  8
0
100
AcDbPolyline
 62
7
  6
CONTINUOUS
 90
8
 70
0
 10
15.2778481431
 20
9.0347546783
 10
15.2665353702
 20
9.0364936162
 10
15.2516712174
 20
9.0427809682
 10
15.2380543011
 20
9.0535000993
 10
15.2285271818
 20
9.0662545712
 10
15.2237186534
 20
9.0776337232
 10
15.2223772474
 20
9.0844959486
 10
15.2223174189
 20
9.0856984845
  0
LINE
  5
24A
100
AcDbEntity
  8
0
100
AcDbLine
 62
7
  6
CONTINUOUS
 10
7.2811152412
 20
9.0347624792
 11
7.2809468505
 21
9.0347236306
  0
LINE
  5
24B
100
AcDbEntity
  8
0
100
AcDbLine
 62
7
  6
CONTINUOUS
 10
14.8134862765
 20
9.0347705728
 11
14.8136898259
 21
9.0347236306
  0
LINE
  5
24C
100
AcDbEntity
  8
0
100
AcDbLine
 62
7
  6
CONTINUOUS
 10
11.2703928395
 20
10.6879455913
 11
11.2703789442
 21
10.6879504166
  0
LINE
  5
24D
100
AcDbEntity
  8
0
100
AcDbLine
 62
7
  6
CONTINUOUS
 10
14.8723183383
 20
9.0856749677
 11
14.8723183383
 21
9.6634772176
  0
LINE
  5
24E
100
AcDbEntity
  8
0
100
AcDbLine
 62
9
  6
CONTINUOUS
 10
15.0473186095
 20
9.5355767199
 11
15.0473186696
 21
9.67057672
  0
LINE
  5
24F
100
AcDbEntity
  8
0
100
AcDbLine
 62
9
  6
CONTINUOUS
 10
15.047318482
 20
8.9975877489
 11
15.0473185717
 21
8.9698084715
  0
LWPOLYLINE
  5
250
100
AcDbEntity
  8
0
100
AcDbPolyline
 62
7
  6
CONTINUOUS
 90
8
 70
0
 10
14.8723192512
 20
9.0856926546
 10
14.8722457029
 20
9.0843458771
 10
14.8707577714
 20
9.077086982
 10
14.8656721065
 20
9.06548822
 10
14.8561018772
 20
9.0530082668
 10
14.8425932568
 20
9.0425640063
 10
14.8275805075
 20
9.0363554547
 10
14.8164058411
 20
9.0347464149
  0
LWPOLYLINE
  5
251
100
AcDbEntity
  8
0
100
AcDbPolyline
 62
7
  6
CONTINUOUS
 90
5
 70
0
 10
15.222319495
 20
9.6634668046
 10
15.2241554315
 20
9.6815611846
 10
15.2315291189
 20
9.703135853
 10
15.2440256701
 20
9.7220935289
 10
15.2608458355
 20
9.7373045678
  0
LWPOLYLINE
  5
252
100
AcDbEntity
  8
0
100
AcDbPolyline
 62
7
  6
CONTINUOUS
 90
5
 70
0
 10
15.4210366294
 20
10.0145706629
 10
15.4257152315
 20
10.0366718161
 10
15.4359087921
 20
10.0571498806
 10
15.4509534462
 20
10.0744125035
 10
15.4657275066
 20
10.085071741
  0
LINE
  5
253
100
AcDbEntity
  8
0
100
AcDbLine
 62
7
  6
CONTINUOUS
 10
11.2348181327
 20
11.14757672
 11
10.8598185439
 21
11.14757672
  0
LINE
  5
254
100
AcDbEntity
  8
0
100
AcDbLine
 62
7
  6
CONTINUOUS
 10
14.1285171155
 20
10.3739742591
 11
14.6289111877
 21
10.0850716067
  0
LINE
  5
255
100
AcDbEntity
  8
0
100
AcDbLine
 62
7
  6
CONTINUOUS
 10
15.2223183383
 20
9.0856727904
 11
15.2223183383
 21
9.6634844013
  0
LINE
  5
256
100
AcDbEntity
  8
0
100
AcDbLine
 62
7
  6
CONTINUOUS
 10
15.2223183358
 20
9.6634628371
 11
15.2223183381
 21
9.6634724766
  0
LINE
  5
257
100
AcDbEntity
  8
0
100
AcDbLine
 62
9
  6
CONTINUOUS
 10
14.1397331991
 20
10.5695710888
 11
14.1156755967
 21
10.5834606549
  0
LINE
  5
258
100
AcDbEntity
  8
0
100
AcDbLine
 62
9
  6
CONTINUOUS
 10
14.6056452531
 20
10.3005764962
 11
14.7225586541
 21
10.2330764466
  0
LINE
  5
259
100
AcDbEntity
  8
0
100
AcDbLine
 62
7
  6
CONTINUOUS
 10
14.303518856
 20
10.6770821455
 11
14.8039080831
 21
10.3881822905
  0
LWPOLYLINE
  5
25A
100
AcDbEntity
  8
0
100
AcDbPolyline
 62
7
  6
CONTINUOUS
 90
8
 70
0
 10
14.3035336252
 20
10.6770728248
 10
14.3023993584
 20
10.6778131185
 10
14.2968637068
 20
10.6827256853
 10
14.2893720742
 20
10.6929100562
 10
14.2833504653
 20
10.7074108159
 10
14.2810465121
 20
10.7243235159
 10
14.2831649503
 20
10.7404459608
 10
14.287365993
 20
10.7509609598
  0
LWPOLYLINE
  5
25B
100
AcDbEntity
  8
0
100
AcDbPolyline
 62
7
  6
CONTINUOUS
 90
5
 70
0
 10
14.6289082857
 20
10.0850728131
 10
14.6436500808
 20
10.0744430164
 10
14.6586744228
 20
10.0572319033
 10
14.6688695347
 20
10.0368253517
 10
14.6736017584
 20
10.0145704779
  0
LWPOLYLINE
  5
25C
100
AcDbEntity
  8
0
100
AcDbPolyline
 62
7
  6
CONTINUOUS
 90
5
 70
0
 10
14.8336067125
 20
9.7374319346
 10
14.850471312
 20
9.7222556825
 10
14.8630653088
 20
9.7032221076
 10
14.8704759926
 20
9.6815880251
 10
14.8723174191
 20
9.6634736851
  0
LINE
  5
25D
100
AcDbEntity
  8
0
100
AcDbLine
 62
7
  6
CONTINUOUS
 10
15.8058114725
 20
10.7534570658
 11
15.805928537
 21
10.7533314913
  0
LINE
  5
25E
100
AcDbEntity
  8
0
100
AcDbLine
 62
7
  6
CONTINUOUS
 10
15.8054875523
 20
10.7537386314
 11
15.8074673825
 21
10.7506021976
  0
LINE
  5
25F
100
AcDbEntity
  8
0
100
AcDbLine
 62
7
  6
CONTINUOUS
 10
16.0381795572
 20
10.3510153345
 11
16.0388383305
 21
10.3498671311
  0
LINE
  5
260
100
AcDbEntity
  8
0
100
AcDbLine
 62
7
  6
CONTINUOUS
 10
16.0388383305
 20
10.3498671311
 11
16.0396757682
 21
10.3481488751
  0
LWPOLYLINE
  5
261
100
AcDbEntity
  8
0
100
AcDbPolyline
 62
7
  6
CONTINUOUS
 90
8
 70
0
 10
15.8074673825
 20
10.7506021976
 10
15.8116142469
 20
10.7399167934
 10
15.813588188
 20
10.7238978089
 10
15.8111038114
 20
10.7067624379
 10
15.8048209074
 20
10.692150781
 10
15.7973707327
 20
10.6823045356
 10
15.7921175442
 20
10.6777283733
 10
15.7911017906
 20
10.6770724408
  0
LINE
  5
262
100
AcDbEntity
  8
0
100
AcDbLine
 62
7
  6
CONTINUOUS
 10
16.039618161
 20
10.3484753201
 11
16.0395570493
 21
10.3486750379
  0
ARC
  5
263
100
AcDbEntity
  8
0
100
AcDbCircle
 62
7
  6
CONTINUOUS
 10
11.0473183383
 20
3.92057672
 40
0.4375
100
AcDbArc
 50
180.0
 51
360.0
  0
ARC
  5
264
100
AcDbEntity
  8
0
100
AcDbCircle
 62
9
  6
CONTINUOUS
 10
6.7618516477
 20
8.8104521979
 40
0.2301844309
100
AcDbArc
 50
76.6666271667
 51
76.985196234
  0
ARC
  5
265
100
AcDbEntity
  8
0
100
AcDbCircle
 62
9
  6
CONTINUOUS
 10
6.8281504415
 20
9.0972965097
 40
0.0642220725
100
AcDbArc
 50
256.9873679103
 51
258.2136630767
  0
CIRCLE
  5
266
100
AcDbEntity
  8
0
100
AcDbCircle
 62
7
  6
CONTINUOUS
 10
7.0473183383
 20
10.04557672
 40
1.4375
  0
ARC
  5
267
100
AcDbEntity
  8
0
100
AcDbCircle
 62
7
  6
CONTINUOUS
 10
7.0473183383
 20
10.04557672
 40
1.0375
100
AcDbArc
 50
283.0137046198
 51
16.9862953725
  0
ARC
  5
268
100
AcDbEntity
  8
0
100
AcDbCircle
 62
7
  6
CONTINUOUS
 10
7.0473183383
 20
10.04557672
 40
1.0375
100
AcDbArc
 50
163.01370462
 51
256.9862953741
  0
ARC
  5
269
100
AcDbEntity
  8
0
100
AcDbCircle
 62
7
  6
CONTINUOUS
 10
7.0473183383
 20
10.04557672
 40
1.0375
100
AcDbArc
 50
43.0137046213
 51
136.9862953722
  0
ARC
  5
26A
100
AcDbEntity
  8
0
100
AcDbCircle
 62
7
  6
CONTINUOUS
 10
7.0473183383
 20
10.04557672
 40
0.665
100
AcDbArc
 50
285.3035615101
 51
14.697899119
  0
ARC
  5
26B
100
AcDbEntity
  8
0
100
AcDbCircle
 62
7
  6
CONTINUOUS
 10
7.0473183383
 20
10.04557672
 40
0.665
100
AcDbArc
 50
45.2976941516
 51
134.6978098472
  0
ARC
  5
26C
100
AcDbEntity
  8
0
100
AcDbCircle
 62
7
  6
CONTINUOUS
 10
7.0473183383
 20
10.04557672
 40
0.665
100
AcDbArc
 50
165.2623017109
 51
254.7367413657
  0
ARC
  5
26D
100
AcDbEntity
  8
0
100
AcDbCircle
 62
7
  6
CONTINUOUS
 10
7.0473183383
 20
10.04557672
 40
0.65625
100
AcDbArc
 50
45.4829383572
 51
134.5057320001
  0
ARC
  5
26E
100
AcDbEntity
  8
0
100
AcDbCircle
 62
7
  6
CONTINUOUS
 10
7.0473183383
 20
10.04557672
 40
0.65625
100
AcDbArc
 50
285.4939859279
 51
14.5178307951
  0
ARC
  5
26F
100
AcDbEntity
  8
0
100
AcDbCircle
 62
7
  6
CONTINUOUS
 10
7.0473183383
 20
10.04557672
 40
0.65625
100
AcDbArc
 50
165.5055938433
 51
254.4948987085
  0
CIRCLE
  5
270
100
AcDbEntity
  8
0
100
AcDbCircle
 62
7
  6
CONTINUOUS
 10
7.0473183383
 20
10.04557672
 40
0.375
  0
ARC
  5
271
100
AcDbEntity
  8
0
100
AcDbCircle
 62
9
  6
CONTINUOUS
 10
6.120385107
 20
10.9103761889
 40
0.2302079067
100
AcDbArc
 50
316.6656072722
 51
316.9852687201
  0
ARC
  5
272
100
AcDbEntity
  8
0
100
AcDbCircle
 62
9
  6
CONTINUOUS
 10
8.2597081491
 20
10.4159200971
 40
0.230192104
100
AcDbArc
 50
196.6670190356
 51
196.9852692697
  0
ARC
  5
273
100
AcDbEntity
  8
0
100
AcDbCircle
 62
9
  6
CONTINUOUS
 10
6.3356683801
 20
10.709521021
 40
0.0642232163
100
AcDbArc
 50
136.9873737491
 51
138.2179504107
  0
ARC
  5
274
100
AcDbEntity
  8
0
100
AcDbCircle
 62
9
  6
CONTINUOUS
 10
7.9781372959
 20
10.3299119356
 40
0.064221804
100
AcDbArc
 50
16.9873648601
 51
18.2125795774
  0
ARC
  5
275
100
AcDbEntity
  8
0
100
AcDbCircle
 62
7
  6
CONTINUOUS
 10
11.0473183383
 20
10.04557672
 40
1.1875
100
AcDbArc
 50
291.6591556738
 51
248.342253314
  0
ARC
  5
276
100
AcDbEntity
  8
0
100
AcDbCircle
 62
7
  6
CONTINUOUS
 10
11.0473183383
 20
10.04557672
 40
0.69
100
AcDbArc
 50
309.4834986272
 51
74.1911933324
  0
ARC
  5
277
100
AcDbEntity
  8
0
100
AcDbCircle
 62
7
  6
CONTINUOUS
 10
11.0473183383
 20
10.04557672
 40
0.69
100
AcDbArc
 50
105.804582742
 51
230.5165867852
  0
ARC
  5
278
100
AcDbEntity
  8
0
100
AcDbCircle
 62
7
  6
CONTINUOUS
 10
11.0473183383
 20
10.04557672
 40
0.68
100
AcDbArc
 50
310.1918136075
 51
229.8083767422
  0
ARC
  5
279
100
AcDbEntity
  8
0
100
AcDbCircle
 62
9
  6
CONTINUOUS
 10
11.0473183383
 20
10.04557672
 40
0.65
100
AcDbArc
 50
312.4209204117
 51
227.5590407386
  0
ARC
  5
27A
100
AcDbEntity
  8
0
100
AcDbCircle
 62
7
  6
CONTINUOUS
 10
11.0473183383
 20
10.04557672
 40
0.44
100
AcDbArc
 50
356.2577458477
 51
183.7609150888
  0
ARC
  5
27B
100
AcDbEntity
  8
0
100
AcDbCircle
 62
7
  6
CONTINUOUS
 10
11.0473183383
 20
10.04557672
 40
0.4375
100
AcDbArc
 50
0.0
 51
180.0
  0
CIRCLE
  5
27C
100
AcDbEntity
  8
0
100
AcDbCircle
 62
7
  6
CONTINUOUS
 10
15.0473183383
 20
10.04557672
 40
1.4375
  0
ARC
  5
27D
100
AcDbEntity
  8
0
100
AcDbCircle
 62
7
  6
CONTINUOUS
 10
15.0473183383
 20
10.04557672
 40
1.0375
100
AcDbArc
 50
283.0137046198
 51
16.9862953725
  0
ARC
  5
27E
100
AcDbEntity
  8
0
100
AcDbCircle
 62
7
  6
CONTINUOUS
 10
15.0473183383
 20
10.04557672
 40
1.0375
100
AcDbArc
 50
163.01370462
 51
256.9862953741
  0
ARC
  5
27F
100
AcDbEntity
  8
0
100
AcDbCircle
 62
7
  6
CONTINUOUS
 10
15.0473183383
 20
10.04557672
 40
1.0375
100
AcDbArc
 50
43.0137046213
 51
136.9862953722
  0
ARC
  5
280
100
AcDbEntity
  8
0
100
AcDbCircle
 62
7
  6
CONTINUOUS
 10
15.0473183383
 20
10.04557672
 40
0.665
100
AcDbArc
 50
285.3035615101
 51
14.697899119
  0
ARC
  5
281
100
AcDbEntity
  8
0
100
AcDbCircle
 62
7
  6
CONTINUOUS
 10
15.0473183383
 20
10.04557672
 40
0.665
100
AcDbArc
 50
45.2976941516
 51
134.6978098472
  0
ARC
  5
282
100
AcDbEntity
  8
0
100
AcDbCircle
 62
7
  6
CONTINUOUS
 10
15.0473183383
 20
10.04557672
 40
0.665
100
AcDbArc
 50
165.2623017109
 51
254.7367413657
  0
ARC
  5
283
100
AcDbEntity
  8
0
100
AcDbCircle
 62
7
  6
CONTINUOUS
 10
15.0473183383
 20
10.04557672
 40
0.65625
100
AcDbArc
 50
45.4829383572
 51
134.5057320001
  0
ARC
  5
284
100
AcDbEntity
  8
0
100
AcDbCircle
 62
7
  6
CONTINUOUS
 10
15.0473183383
 20
10.04557672
 40
0.65625
100
AcDbArc
 50
285.4939859279
 51
14.5178307951
  0
ARC
  5
285
100
AcDbEntity
  8
0
100
AcDbCircle
 62
7
  6
CONTINUOUS
 10
15.0473183383
 20
10.04557672
 40
0.65625
100
AcDbArc
 50
165.5055938433
 51
254.4948987085
  0
CIRCLE
  5
286
100
AcDbEntity
  8
0
100
AcDbCircle
 62
7
  6
CONTINUOUS
 10
15.0473183383
 20
10.04557672
 40
0.375
  0
ARC
  5
287
100
AcDbEntity
  8
0
100
AcDbCircle
 62
9
  6
CONTINUOUS
 10
14.1203851073
 20
10.9103761886
 40
0.2302079063
100
AcDbArc
 50
316.6656072719
 51
316.9852687203
  0
ARC
  5
288
100
AcDbEntity
  8
0
100
AcDbCircle
 62
9
  6
CONTINUOUS
 10
16.2597081487
 20
10.415920097
 40
0.2301921035
100
AcDbArc
 50
196.6670190353
 51
196.9852692701
  0
ARC
  5
289
100
AcDbEntity
  8
0
100
AcDbCircle
 62
9
  6
CONTINUOUS
 10
14.7618516478
 20
8.810452198
 40
0.2301844309
100
AcDbArc
 50
76.6666271667
 51
76.985196234
  0
ARC
  5
28A
100
AcDbEntity
  8
0
100
AcDbCircle
 62
9
  6
CONTINUOUS
 10
14.3356683801
 20
10.709521021
 40
0.0642232163
100
AcDbArc
 50
136.987373749
 51
138.2179504106
  0
ARC
  5
28B
100
AcDbEntity
  8
0
100
AcDbCircle
 62
9
  6
CONTINUOUS
 10
14.8281504415
 20
9.0972965097
 40
0.0642220725
100
AcDbArc
 50
256.9873679101
 51
258.2136630767
  0
ARC
  5
28C
100
AcDbEntity
  8
0
100
AcDbCircle
 62
9
  6
CONTINUOUS
 10
15.9781372959
 20
10.3299119356
 40
0.0642218041
100
AcDbArc
 50
16.9873648604
 51
18.2125795772
  0
SPLINE
  5
28D
100
AcDbEntity
  8
0
100
AcDbSpline
 62
9
  6
CONTINUOUS
 70
0
 71
3
 72
22
 73
18
 74
0
 42
0.0000001
 43
0.0000001
 44
0.0000000001
 40
0.0
 40
0.0
 40
0.0
 40
0.0
 40
0.0851044058
 40
0.1609930947
 40
0.22801739
 40
0.2868918668
 40
0.3388437117
 40
0.3859977705
 40
0.4311257551
 40
0.476884245
 40
0.5253867282
 40
0.5780758322
 40
0.6357354327
 40
0.6986307667
 40
0.7667015135
 40
0.8397959176
 40
1.0
 40
1.0
 40
1.0
 40
1.0
 10
15.7910879913
 20
10.6770626357
 30
0.0
 10
15.7898444538
 20
10.6763442429
 30
0.0
 10
15.7875359646
 20
10.6749055255
 30
0.0
 10
15.7844624141
 20
10.672580228
 30
0.0
 10
15.7819880531
 20
10.6702278431
 30
0.0
 10
15.7801227245
 20
10.6678598944
 30
0.0
 10
15.7788836565
 20
10.6654766702
 30
0.0
 10
15.7782910956
 20
10.6630895943
 30
0.0
 10
15.7783274442
 20
10.6607345973
 30
0.0
 10
15.7789512812
 20
10.6584441059
 30
0.0
 10
15.7801091431
 20
10.6562336683
 30
0.0
 10
15.7817485159
 20
10.6541000661
 30
0.0
 10
15.783824331
 20
10.6520324015
 30
0.0
 10
15.7862984547
 20
10.6500232392
 30
0.0
 10
15.7891353544
 20
10.6480664889
 30
0.0
 10
15.7934947828
 20
10.6454431051
 30
0.0
 10
15.7970165916
 20
10.6436703137
 30
0.0
 10
15.7994658118
 20
10.642525816
 30
0.0
  0
SPLINE
  5
28E
100
AcDbEntity
  8
0
100
AcDbSpline
 62
9
  6
CONTINUOUS
 70
0
 71
3
 72
22
 73
18
 74
0
 42
0.0000001
 43
0.0000001
 44
0.0000000001
 40
0.0
 40
0.0
 40
0.0
 40
0.0
 40
0.0850931185
 40
0.1609724148
 40
0.2279890787
 40
0.2868575814
 40
0.3388055748
 40
0.3859588216
 40
0.4310889956
 40
0.4768518913
 40
0.525359892
 40
0.5780548506
 40
0.6357201894
 40
0.6986208375
 40
0.7666962394
 40
0.8397942076
 40
1.0
 40
1.0
 40
1.0
 40
1.0
 10
15.2223160986
 20
9.0857166902
 30
0.0
 10
15.2223155834
 20
9.0871524665
 30
0.0
 10
15.2222236159
 20
9.0898703654
 30
0.0
 10
15.221746382
 20
9.0936938292
 30
0.0
 10
15.220946192
 20
9.0970120448
 30
0.0
 10
15.2198280527
 20
9.099810717
 30
0.0
 10
15.2183835255
 20
9.1020747441
 30
0.0
 10
15.2166124004
 20
9.1037808529
 30
0.0
 10
15.2145546439
 20
9.1049263419
 30
0.0
 10
15.212259063
 20
9.1055308928
 30
0.0
 10
15.2097658478
 20
9.1056330304
 30
0.0
 10
15.2070984655
 20
9.1052798321
 30
0.0
 10
15.2042700121
 20
9.1045157723
 30
0.0
 10
15.2012931143
 20
9.1033775927
 30
0.0
 10
15.1981802671
 20
9.1018991143
 30
0.0
 10
15.1937290456
 20
9.0994355504
 30
0.0
 10
15.190433168
 20
9.0972721648
 30
0.0
 10
15.1882176202
 20
9.0957234933
 30
0.0
  0
SPLINE
  5
28F
100
AcDbEntity
  8
0
100
AcDbSpline
 62
9
  6
CONTINUOUS
 70
0
 71
3
 72
31
 73
27
 74
0
 42
0.0000001
 43
0.0000001
 44
0.0000000001
 40
0.0
 40
0.0
 40
0.0
 40
0.0
 40
0.0104892103
 40
0.0228182984
 40
0.0369708177
 40
0.0528832429
 40
0.070491008
 40
0.089717375
 40
0.1326724795
 40
0.1810189306
 40
0.2340682645
 40
0.2914836166
 40
0.3530707636
 40
0.3853902778
 40
0.4187119755
 40
0.4530399793
 40
0.4883928433
 40
0.5248008889
 40
0.5623008924
 40
0.6009226279
 40
0.640711208
 40
0.6817330091
 40
0.7240101204
 40
0.8121215411
 40
0.9047778589
 40
1.0
 40
1.0
 40
1.0
 40
1.0
 10
14.8039097249
 20
10.3881808882
 30
0.0
 10
14.8032129269
 20
10.3885826571
 30
0.0
 10
14.8016093417
 20
10.3893039662
 30
0.0
 10
14.7988976602
 20
10.3901432883
 30
0.0
 10
14.7957181214
 20
10.3908357109
 30
0.0
 10
14.7921017582
 20
10.3913826364
 30
0.0
 10
14.7880748598
 20
10.3917780341
 30
0.0
 10
14.7819639556
 20
10.3921096442
 30
0.0
 10
14.7734813683
 20
10.3920805898
 30
0.0
 10
14.7624289059
 20
10.3913906906
 30
0.0
 10
14.7503250481
 20
10.3899978324
 30
0.0
 10
14.7373141401
 20
10.3877717631
 30
0.0
 10
14.7260006455
 20
10.3851605216
 30
0.0
 10
14.7166000997
 20
10.3825462752
 30
0.0
 10
14.7092795598
 20
10.3802671795
 30
0.0
 10
14.7018171217
 20
10.3776748519
 30
0.0
 10
14.6942288767
 20
10.3747377407
 30
0.0
 10
14.686530827
 20
10.3714257469
 30
0.0
 10
14.6787406989
 20
10.3677091242
 30
0.0
 10
14.6708849098
 20
10.3635452881
 30
0.0
 10
14.6629928839
 20
10.3588924763
 30
0.0
 10
14.6550975189
 20
10.353712989
 30
0.0
 10
14.6444836106
 20
10.3459524995
 30
0.0
 10
14.6315393585
 20
10.3347042243
 30
0.0
 10
14.6174234003
 20
10.3188625844
 30
0.0
 10
14.6092967531
 20
10.3068999746
 30
0.0
 10
14.6056456445
 20
10.3005765685
 30
0.0
  0
SPLINE
  5
290
100
AcDbEntity
  8
0
100
AcDbSpline
 62
9
  6
CONTINUOUS
 70
0
 71
3
 72
31
 73
27
 74
0
 42
0.0000001
 43
0.0000001
 44
0.0000000001
 40
0.0
 40
0.0
 40
0.0
 40
0.0
 40
0.010494134
 40
0.0228285974
 40
0.0369862246
 40
0.0529028417
 40
0.0705138682
 40
0.0897426856
 40
0.1327007992
 40
0.1810487033
 40
0.2340983533
 40
0.2915123047
 40
0.3530959827
 40
0.3854128531
 40
0.4187312152
 40
0.4530551022
 40
0.488402997
 40
0.5248051515
 40
0.5622982378
 40
0.6009115996
 40
0.6406897433
 40
0.6816984207
 40
0.7239610089
 40
0.8120556246
 40
0.9047342992
 40
1.0
 40
1.0
 40
1.0
 40
1.0
 10
14.8723190771
 20
9.6634750099
 30
0.0
 10
14.8723196517
 20
9.6626703097
 30
0.0
 10
14.8724971017
 20
9.6609201611
 30
0.0
 10
14.8731266418
 20
9.6581510583
 30
0.0
 10
14.8741173662
 20
9.6550503279
 30
0.0
 10
14.8754524152
 20
9.6516442046
 30
0.0
 10
14.8771238807
 20
9.6479585108
 30
0.0
 10
14.8798926126
 20
9.6425000472
 30
0.0
 10
14.8841595629
 20
9.6351681878
 30
0.0
 10
14.8902839245
 20
9.6259415236
 30
0.0
 10
14.8975426984
 20
9.6161562311
 30
0.0
 10
14.9059762775
 20
9.6060023257
 30
0.0
 10
14.9138943765
 20
9.5975110447
 30
0.0
 10
14.9208583459
 20
9.5906778896
 30
0.0
 10
14.9264919211
 20
9.5854784097
 30
0.0
 10
14.9324674937
 20
9.5803126944
 30
0.0
 10
14.9388043383
 20
9.5752104668
 30
0.0
 10
14.9455205099
 20
9.5702006431
 30
0.0
 10
14.9526328573
 20
9.5653134518
 30
0.0
 10
14.9601649032
 20
9.5605929817
 30
0.0
 10
14.9681379573
 20
9.5560855602
 30
0.0
 10
14.9765681891
 20
9.5518383988
 30
0.0
 10
14.9885921649
 20
9.5465269158
 30
0.0
 10
15.0048044784
 20
9.5409402249
 30
0.0
 10
15.0255851018
 20
9.5366348681
 30
0.0
 10
15.0400132717
 20
9.535577144
 30
0.0
 10
15.0473183384
 20
9.5355769327
 30
0.0
  0
SPLINE
  5
291
100
AcDbEntity
  8
0
100
AcDbSpline
 62
9
  6
CONTINUOUS
 70
0
 71
3
 72
23
 73
19
 74
0
 42
0.0000001
 43
0.0000001
 44
0.0000000001
 40
0.0
 40
0.0
 40
0.0
 40
0.0
 40
0.046861852
 40
0.0973407978
 40
0.1510377546
 40
0.2075120245
 40
0.2663418957
 40
0.3272676895
 40
0.4545188897
 40
0.5874698874
 40
0.6555122436
 40
0.7242603952
 40
0.7934388086
 40
0.862535567
 40
0.8970648983
 40
0.9314981557
 40
0.9657924344
 40
1.0
 40
1.0
 40
1.0
 40
1.0
 10
15.1882176097
 20
9.0957235166
 30
0.0
 10
15.1859815518
 20
9.094160264
 30
0.0
 10
15.1814331524
 20
9.0907748271
 30
0.0
 10
15.1745986012
 20
9.0852395461
 30
0.0
 10
15.1675036662
 20
9.0791435737
 30
0.0
 10
15.1601691526
 20
9.0725842641
 30
0.0
 10
15.1526063495
 20
9.0656504599
 30
0.0
 10
15.14205915
 20
9.0558746006
 30
0.0
 10
15.1283289116
 20
9.0431857959
 30
0.0
 10
15.1139773881
 20
9.0305557159
 30
0.0
 10
15.1017018687
 20
9.020753789
 30
0.0
 10
15.0919666556
 20
9.0137411389
 30
0.0
 10
15.0817279417
 20
9.0073580671
 30
0.0
 10
15.0726416135
 20
9.002964527
 30
0.0
 10
15.065050708
 20
9.0002976508
 30
0.0
 10
15.0592250304
 20
8.9987818083
 30
0.0
 10
15.0533010932
 20
8.9978172965
 30
0.0
 10
15.0493099174
 20
8.9975879737
 30
0.0
 10
15.0473183383
 20
8.9975880193
 30
0.0
  0
SPLINE
  5
292
100
AcDbEntity
  8
0
100
AcDbSpline
 62
9
  6
CONTINUOUS
 70
0
 71
3
 72
31
 73
27
 74
0
 42
0.0000001
 43
0.0000001
 44
0.0000000001
 40
0.0
 40
0.0
 40
0.0
 40
0.0
 40
0.0952256705
 40
0.1878795609
 40
0.2759777809
 40
0.3182458539
 40
0.3592580857
 40
0.3990371257
 40
0.4376498907
 40
0.475142083
 40
0.5115439365
 40
0.5468920783
 40
0.5812165369
 40
0.6145355791
 40
0.6468531585
 40
0.7084386157
 40
0.7658553245
 40
0.8189093086
 40
0.8672640387
 40
0.9102309329
 40
0.9294644001
 40
0.9470800123
 40
0.9630009862
 40
0.9771627023
 40
0.9895013803
 40
1.0
 40
1.0
 40
1.0
 40
1.0
 10
15.0473183383
 20
9.5355769203
 30
0.0
 10
15.0546201125
 20
9.5355771877
 30
0.0
 10
15.0690428764
 20
9.5366338282
 30
0.0
 10
15.0898184559
 20
9.5409371309
 30
0.0
 10
15.1060295677
 20
9.546521877
 30
0.0
 10
15.1180547494
 20
9.5518320303
 30
0.0
 10
15.1264859402
 20
9.5560783461
 30
0.0
 10
15.1344595138
 20
9.5605848854
 30
0.0
 10
15.1419917455
 20
9.5653044662
 30
0.0
 10
15.1491041573
 20
9.5701908582
 30
0.0
 10
15.1558204417
 20
9.5751999818
 30
0.0
 10
15.1621574971
 20
9.5803016151
 30
0.0
 10
15.1681333373
 20
9.5854668287
 30
0.0
 10
15.1737671856
 20
9.5906658896
 30
0.0
 10
15.1807315571
 20
9.5974985566
 30
0.0
 10
15.1886502386
 20
9.6059893597
 30
0.0
 10
15.1970846611
 20
9.616142926
 30
0.0
 10
15.2043444766
 20
9.625928311
 30
0.0
 10
15.2104702217
 20
9.6351554816
 30
0.0
 10
15.2147386003
 20
9.6424880027
 30
0.0
 10
15.2175085365
 20
9.6479471949
 30
0.0
 10
15.2191808562
 20
9.6516335096
 30
0.0
 10
15.2205166853
 20
9.655040282
 30
0.0
 10
15.2215080703
 20
9.6581417148
 30
0.0
 10
15.222138296
 20
9.6609115762
 30
0.0
 10
15.2223163254
 20
9.6626622636
 30
0.0
 10
15.2223172583
 20
9.6634672829
 30
0.0
  0
SPLINE
  5
293
100
AcDbEntity
  8
0
100
AcDbSpline
 62
9
  6
CONTINUOUS
 70
0
 71
3
 72
19
 73
15
 74
0
 42
0.0000001
 43
0.0000001
 44
0.0000000001
 40
0.0
 40
0.0
 40
0.0
 40
0.0
 40
0.05051812
 40
0.1035969022
 40
0.158797001
 40
0.2158366284
 40
0.3345864737
 40
0.4586472938
 40
0.5874594918
 40
0.6535939142
 40
0.7208801374
 40
0.8587558733
 40
0.9291288046
 40
1.0
 40
1.0
 40
1.0
 40
1.0
 10
15.2809468505
 20
9.0347236306
 30
0.0
 10
15.2769514876
 20
9.0338002476
 30
0.0
 10
15.2688089654
 20
9.0316855126
 30
0.0
 10
15.2564591861
 20
9.0279874596
 30
0.0
 10
15.2437061035
 20
9.0238081992
 30
0.0
 10
15.2259962434
 20
9.0176480815
 30
0.0
 10
15.2031490123
 20
9.0092536748
 30
0.0
 10
15.1748646819
 20
8.9987695467
 30
0.0
 10
15.1504366337
 20
8.9901668614
 30
0.0
 10
15.1301428553
 20
8.9837325772
 30
0.0
 10
15.1089617078
 20
8.9777062182
 30
0.0
 10
15.0870613891
 20
8.9729143731
 30
0.0
 10
15.0645411415
 20
8.970277389
 30
0.0
 10
15.0530711247
 20
8.9698072867
 30
0.0
 10
15.0473183383
 20
8.969808464
 30
0.0
  0
SPLINE
  5
294
100
AcDbEntity
  8
0
100
AcDbSpline
 62
9
  6
CONTINUOUS
 70
0
 71
3
 72
19
 73
15
 74
0
 42
0.0000001
 43
0.0000001
 44
0.0000000001
 40
0.0
 40
0.0
 40
0.0
 40
0.0
 40
0.1266759593
 40
0.2580108816
 40
0.3246921209
 40
0.3914985895
 40
0.4579865936
 40
0.5237668714
 40
0.6520044503
 40
0.7142232586
 40
0.7748320725
 40
0.8336851877
 40
0.8908479574
 40
1.0
 40
1.0
 40
1.0
 40
1.0
 10
15.1882177277
 20
9.0957232345
 30
0.0
 10
15.189830635
 20
9.0908488367
 30
0.0
 10
15.1938615312
 20
9.0811532358
 30
0.0
 10
15.2007209514
 20
9.0698511491
 30
0.0
 10
15.2074188436
 20
9.0614485848
 30
0.0
 10
15.2130006662
 20
9.0555577612
 30
0.0
 10
15.2190514191
 20
9.0502023753
 30
0.0
 10
15.2275796002
 20
9.0439566977
 30
0.0
 10
15.2368430836
 20
9.0390833534
 30
0.0
 10
15.2464645277
 20
9.0357310715
 30
0.0
 10
15.2536406354
 20
9.0340188049
 30
0.0
 10
15.2607551656
 20
9.0331040259
 30
0.0
 10
15.2698892841
 20
9.0328813807
 30
0.0
 10
15.2766364117
 20
9.0337274016
 30
0.0
 10
15.2809468396
 20
9.0347236281
 30
0.0
  0
SPLINE
  5
295
100
AcDbEntity
  8
0
100
AcDbSpline
 62
9
  6
CONTINUOUS
 70
0
 71
3
 72
19
 73
15
 74
0
 42
0.0000001
 43
0.0000001
 44
0.0000000001
 40
0.0
 40
0.0
 40
0.0
 40
0.0
 40
0.0707717904
 40
0.1410523825
 40
0.2787744374
 40
0.3460008902
 40
0.4120838486
 40
0.5408199673
 40
0.6648514907
 40
0.7836416641
 40
0.8407427838
 40
0.8960430757
 40
0.9492665006
 40
1.0
 40
1.0
 40
1.0
 40
1.0
 10
15.9789609766
 20
10.583460848
 30
0.0
 10
15.9818193729
 20
10.5785125317
 30
0.0
 10
15.9871143895
 20
10.5684126704
 30
0.0
 10
15.9960485453
 20
10.5477330484
 30
0.0
 10
16.0028281051
 20
10.5265140081
 30
0.0
 10
16.0081908573
 20
10.5052964079
 30
0.0
 10
16.0127580247
 20
10.4846325698
 30
0.0
 10
16.017511703
 20
10.459325076
 30
0.0
 10
16.0225534775
 20
10.4297503926
 30
0.0
 10
16.0266763799
 20
10.4058853618
 30
0.0
 10
16.0301598081
 20
10.3875447579
 30
0.0
 10
16.0328827105
 20
10.37445024
 30
0.0
 10
16.0358121444
 20
10.3619273675
 30
0.0
 10
16.0380119305
 20
10.3538233198
 30
0.0
 10
16.0391869337
 20
10.3498989014
 30
0.0
  0
SPLINE
  5
296
100
AcDbEntity
  8
0
100
AcDbSpline
 62
9
  6
CONTINUOUS
 70
0
 71
3
 72
19
 73
15
 74
0
 42
0.0000001
 43
0.0000001
 44
0.0000000001
 40
0.0
 40
0.0
 40
0.0
 40
0.0
 40
0.1192120253
 40
0.2446730727
 40
0.3092390053
 40
0.3745362994
 40
0.4401402264
 40
0.5057008677
 40
0.6355103959
 40
0.6993719262
 40
0.7621311097
 40
0.8236084976
 40
0.8837978586
 40
1.0
 40
1.0
 40
1.0
 40
1.0
 10
15.9403652801
 20
10.398480998
 30
0.0
 10
15.9450435148
 20
10.3994490434
 30
0.0
 10
15.9547933521
 20
10.4007760178
 30
0.0
 10
15.9672362454
 20
10.400684102
 30
0.0
 10
15.9773959653
 20
10.3993886539
 30
0.0
 10
15.9850687426
 20
10.3977674687
 30
0.0
 10
15.9926169939
 20
10.3954924372
 30
0.0
 10
16.0023313206
 20
10.3915882919
 30
0.0
 10
16.0113794672
 20
10.3863251226
 30
0.0
 10
16.0194179093
 20
10.379902523
 30
0.0
 10
16.0248114494
 20
10.3746160263
 30
0.0
 10
16.0295088722
 20
10.3688898743
 30
0.0
 10
16.0347411656
 20
10.3609079623
 30
0.0
 10
16.0376864612
 20
10.354407505
 30
0.0
 10
16.0391418094
 20
10.3499840419
 30
0.0
  0
SPLINE
  5
297
100
AcDbEntity
  8
0
100
AcDbSpline
 62
9
  6
CONTINUOUS
 70
0
 71
3
 72
22
 73
18
 74
0
 42
0.0000001
 43
0.0000001
 44
0.0000000001
 40
0.0
 40
0.0
 40
0.0
 40
0.0
 40
0.0850752704
 40
0.1609476889
 40
0.2279656216
 40
0.2868400823
 40
0.3387951436
 40
0.3859539472
 40
0.4310870376
 40
0.4768502722
 40
0.5253571765
 40
0.5780509436
 40
0.6357156468
 40
0.698616318
 40
0.766692218
 40
0.8397910956
 40
1.0
 40
1.0
 40
1.0
 40
1.0
 10
14.1285534319
 20
10.3739551579
 30
0.0
 10
14.1297968899
 20
10.3732377761
 30
0.0
 10
14.1321963654
 20
10.3719585099
 30
0.0
 10
14.1357459771
 20
10.370460007
 30
0.0
 10
14.1390198564
 20
10.3694936189
 30
0.0
 10
14.1420029988
 20
10.3690622239
 30
0.0
 10
14.1446864445
 20
10.369180746
 30
0.0
 10
14.1470500849
 20
10.3698610699
 30
0.0
 10
14.1490715535
 20
10.3710700013
 30
0.0
 10
14.1507434213
 20
10.3727554999
 30
0.0
 10
14.1520788654
 20
10.3748635215
 30
0.0
 10
14.153106922
 20
10.3773501606
 30
0.0
 10
14.1538596088
 20
10.3801818061
 30
0.0
 10
14.1543624624
 20
10.3833291328
 30
0.0
 10
14.1546385565
 20
10.3867643927
 30
0.0
 10
14.1547307199
 20
10.3918514112
 30
0.0
 10
14.1545051127
 20
10.3957877121
 30
0.0
 10
14.1542716839
 20
10.3984809747
 30
0.0
  0
SPLINE
  5
298
100
AcDbEntity
  8
0
100
AcDbSpline
 62
9
  6
CONTINUOUS
 70
0
 71
3
 72
23
 73
19
 74
0
 42
0.0000001
 43
0.0000001
 44
0.0000000001
 40
0.0
 40
0.0
 40
0.0
 40
0.0
 40
0.0342128757
 40
0.0685116631
 40
0.1029482447
 40
0.1374792049
 40
0.2065737432
 40
0.2757479431
 40
0.3444954078
 40
0.4125398503
 40
0.5454987679
 40
0.6727628184
 40
0.7336921852
 40
0.7925203281
 40
0.8489862346
 40
0.9026717765
 40
0.9531410989
 40
1.0
 40
1.0
 40
1.0
 40
1.0
 10
15.9549032562
 20
10.5695711167
 30
0.0
 10
15.9558992647
 20
10.5678461258
 30
0.0
 10
15.9576965168
 20
10.5642744872
 30
0.0
 10
15.959823388
 20
10.5586611973
 30
0.0
 10
15.9614235035
 20
10.552857522
 30
0.0
 10
15.962909268
 20
10.5449499784
 30
0.0
 10
15.9636473926
 20
10.5348844781
 30
0.0
 10
15.9632385687
 20
10.5228263668
 30
0.0
 10
15.9620329121
 20
10.5108892698
 30
0.0
 10
15.9596817531
 20
10.4953568572
 30
0.0
 10
15.9559187234
 20
10.4766118213
 30
0.0
 10
15.9517948861
 20
10.4583752455
 30
0.0
 10
15.9486023676
 20
10.444352275
 30
0.0
 10
15.9463790847
 20
10.4343361352
 30
0.0
 10
15.9443660097
 20
10.4247058339
 30
0.0
 10
15.9426344598
 20
10.4155151391
 30
0.0
 10
15.9412582872
 20
10.4068299685
 30
0.0
 10
15.940600807
 20
10.4011989287
 30
0.0
 10
15.9403650818
 20
10.3984809838
 30
0.0
  0
SPLINE
  5
299
100
AcDbEntity
  8
0
100
AcDbSpline
 62
9
  6
CONTINUOUS
 70
0
 71
3
 72
19
 73
15
 74
0
 42
0.0000001
 43
0.0000001
 44
0.0000000001
 40
0.0
 40
0.0
 40
0.0
 40
0.0
 40
0.1192115578
 40
0.2446721481
 40
0.3092378784
 40
0.3745350106
 40
0.4401388232
 40
0.5056994012
 40
0.6355089738
 40
0.6993706187
 40
0.7621299802
 40
0.8236075935
 40
0.8837972117
 40
1.0
 40
1.0
 40
1.0
 40
1.0
 10
14.9064189402
 20
9.0957232405
 30
0.0
 10
14.9049181958
 20
9.0911878114
 30
0.0
 10
14.9011925314
 20
9.0820808414
 30
0.0
 10
14.8948916031
 20
9.0713510676
 30
0.0
 10
14.8886899744
 20
9.0632002951
 30
0.0
 10
14.8834496988
 20
9.0573661102
 30
0.0
 10
14.8777054453
 20
9.0519666714
 30
0.0
 10
14.8694673379
 20
9.0455058863
 30
0.0
 10
14.8603853729
 20
9.0403014997
 30
0.0
 10
14.8508041495
 20
9.0365512166
 30
0.0
 10
14.8435292223
 20
9.0345234327
 30
0.0
 10
14.8362215851
 20
9.033318312
 30
0.0
 10
14.8266929599
 20
9.0327778151
 30
0.0
 10
14.8195907754
 20
9.0334772147
 30
0.0
 10
14.8150322727
 20
9.0344284873
 30
0.0
  0
SPLINE
  5
29A
100
AcDbEntity
  8
0
100
AcDbSpline
 62
9
  6
CONTINUOUS
 70
0
 71
3
 72
22
 73
18
 74
0
 42
0.0000001
 43
0.0000001
 44
0.0000000001
 40
0.0
 40
0.0
 40
0.0
 40
0.0
 40
0.1601801313
 40
0.2332628899
 40
0.3013267553
 40
0.3642216021
 40
0.4218850836
 40
0.4745802962
 40
0.5230897842
 40
0.5688559682
 40
0.6139921596
 40
0.6611543196
 40
0.7131134101
 40
0.7719936584
 40
0.8390206582
 40
0.9149065049
 40
1.0
 40
1.0
 40
1.0
 40
1.0
 10
14.9064190875
 20
9.0957235625
 30
0.0
 10
14.9042034955
 20
9.0972723196
 30
0.0
 10
14.900907584
 20
9.0994357797
 30
0.0
 10
14.8964562387
 20
9.1018993105
 30
0.0
 10
14.8933432466
 20
9.103377743
 30
0.0
 10
14.8903660495
 20
9.1045159433
 30
0.0
 10
14.8875371422
 20
9.1052800052
 30
0.0
 10
14.8848692167
 20
9.1056330731
 30
0.0
 10
14.8823754366
 20
9.1055305143
 30
0.0
 10
14.880079386
 20
9.1049251668
 30
0.0
 10
14.8780213483
 20
9.1037785999
 30
0.0
 10
14.8762501731
 20
9.102071224
 30
0.0
 10
14.874805858
 20
9.0998058167
 30
0.0
 10
14.8736881439
 20
9.0970057554
 30
0.0
 10
14.8728885306
 20
9.093686236
 30
0.0
 10
14.872411976
 20
9.0898616539
 30
0.0
 10
14.8723204623
 20
9.0871431036
 30
0.0
 10
14.8723201802
 20
9.0857070455
 30
0.0
  0
SPLINE
  5
29B
100
AcDbEntity
  8
0
100
AcDbSpline
 62
9
  6
CONTINUOUS
 70
0
 71
3
 72
23
 73
19
 74
0
 42
0.0000001
 43
0.0000001
 44
0.0000000001
 40
0.0
 40
0.0
 40
0.0
 40
0.0
 40
0.0342135337
 40
0.0685106469
 40
0.1029447189
 40
0.1374738133
 40
0.2065696349
 40
0.2757497521
 40
0.3445053807
 40
0.4125569287
 40
0.5455197752
 40
0.6727862674
 40
0.7337154373
 40
0.7925407378
 40
0.849000547
 40
0.9026788139
 40
0.9531424433
 40
1.0
 40
1.0
 40
1.0
 40
1.0
 10
15.0473183383
 20
8.997587868
 30
0.0
 10
15.0453264096
 20
8.9975878395
 30
0.0
 10
15.041334717
 20
8.9978172137
 30
0.0
 10
15.035410233
 20
8.9987819094
 30
0.0
 10
15.029584389
 20
9.0002979296
 30
0.0
 10
15.0219935357
 20
9.0029648997
 30
0.0
 10
15.012907045
 20
9.0073581657
 30
0.0
 10
15.0026678026
 20
9.0137413671
 30
0.0
 10
14.9929321358
 20
9.0207552604
 30
0.0
 10
14.9806559963
 20
9.0305590883
 30
0.0
 10
14.9663029927
 20
9.0431906906
 30
0.0
 10
14.9525711788
 20
9.0558804417
 30
0.0
 10
14.9420231789
 20
9.0656566673
 30
0.0
 10
14.9344609827
 20
9.0725898005
 30
0.0
 10
14.9271281525
 20
9.0791477132
 30
0.0
 10
14.920035387
 20
9.0852418967
 30
0.0
 10
14.913202497
 20
9.0907757045
 30
0.0
 10
14.9086548935
 20
9.094160309
 30
0.0
 10
14.9064189971
 20
9.0957233614
 30
0.0
  0
SPLINE
  5
29C
100
AcDbEntity
  8
0
100
AcDbSpline
 62
9
  6
CONTINUOUS
 70
0
 71
3
 72
19
 73
15
 74
0
 42
0.0000001
 43
0.0000001
 44
0.0000000001
 40
0.0
 40
0.0
 40
0.0
 40
0.0
 40
0.0707717578
 40
0.1410508986
 40
0.2787746788
 40
0.3460012194
 40
0.4120832558
 40
0.5408179948
 40
0.6648506333
 40
0.7836410435
 40
0.8407428849
 40
0.8960441641
 40
0.9492669848
 40
1.0
 40
1.0
 40
1.0
 40
1.0
 10
15.0473183383
 20
8.969808464
 30
0.0
 10
15.0416038038
 20
8.9698074729
 30
0.0
 10
15.0302095979
 20
8.9702692766
 30
0.0
 10
15.0078340496
 20
8.9728767488
 30
0.0
 10
14.9860675616
 20
8.977611297
 30
0.0
 10
14.9650113508
 20
8.9835764796
 30
0.0
 10
14.9448327858
 20
8.9899534583
 30
0.0
 10
14.9205393584
 20
8.9984907089
 30
0.0
 10
14.8924059872
 20
9.0089111407
 30
0.0
 10
14.8696767779
 20
9.0172731569
 30
0.0
 10
14.8520515606
 20
9.0234267029
 30
0.0
 10
14.8393498871
 20
9.0276158166
 30
0.0
 10
14.827040129
 20
9.0313403138
 30
0.0
 10
14.8189220683
 20
9.0334873012
 30
0.0
 10
14.8149359851
 20
9.0344319411
 30
0.0
  0
SPLINE
  5
29D
100
AcDbEntity
  8
0
100
AcDbSpline
 62
9
  6
CONTINUOUS
 70
0
 71
3
 72
31
 73
27
 74
0
 42
0.0000001
 43
0.0000001
 44
0.0000000001
 40
0.0
 40
0.0
 40
0.0
 40
0.0
 40
0.0104887656
 40
0.0228174275
 40
0.0369696836
 40
0.0528820989
 40
0.070490061
 40
0.0897167621
 40
0.132672654
 40
0.1810195504
 40
0.2340685854
 40
0.291483082
 40
0.3530690886
 40
0.385388007
 40
0.4187091333
 40
0.4530366188
 40
0.4883890405
 40
0.5247967418
 40
0.5622965252
 40
0.600918235
 40
0.6407070755
 40
0.6817295178
 40
0.7240076091
 40
0.8121211415
 40
0.9047784204
 40
1.0
 40
1.0
 40
1.0
 40
1.0
 10
15.4657269135
 20
10.0850726653
 30
0.0
 10
15.4664232287
 20
10.0854752003
 30
0.0
 10
15.467849647
 20
10.0865032386
 30
0.0
 10
15.469932299
 20
10.088431899
 30
0.0
 10
15.4721216736
 20
10.0908392183
 30
0.0
 10
15.4744034697
 20
10.0936976352
 30
0.0
 10
15.4767593243
 20
10.0969873902
 30
0.0
 10
15.4801019508
 20
10.1021139016
 30
0.0
 10
15.4843180686
 20
10.1094747002
 30
0.0
 10
15.4892468054
 20
10.119391441
 30
0.0
 10
15.4940924207
 20
10.130570072
 30
0.0
 10
15.4986699416
 20
10.1429507177
 30
0.0
 10
15.5020652079
 20
10.154053915
 30
0.0
 10
15.5045014307
 20
10.1635019679
 30
0.0
 10
15.5061879271
 20
10.1709811525
 30
0.0
 10
15.5076741207
 20
10.1787398496
 30
0.0
 10
15.5089246447
 20
10.1867799056
 30
0.0
 10
15.5099054345
 20
10.1951025179
 30
0.0
 10
15.5105818659
 20
10.2037072188
 30
0.0
 10
15.510903834
 20
10.2125924393
 30
0.0
 10
15.5108204464
 20
10.2217535981
 30
0.0
 10
15.5102825917
 20
10.2311810649
 30
0.0
 10
15.5088687662
 20
10.244253498
 30
0.0
 10
15.5055995885
 20
10.2610879833
 30
0.0
 10
15.4989382912
 20
10.2812337575
 30
0.0
 10
15.4926416986
 20
10.2942529661
 30
0.0
 10
15.4889910532
 20
10.3005765809
 30
0.0
  0
SPLINE
  5
29E
100
AcDbEntity
  8
0
100
AcDbSpline
 62
9
  6
CONTINUOUS
 70
0
 71
3
 72
19
 73
15
 74
0
 42
0.0000001
 43
0.0000001
 44
0.0000000001
 40
0.0
 40
0.0
 40
0.0
 40
0.0
 40
0.050518136
 40
0.1035969575
 40
0.1587970182
 40
0.2158366214
 40
0.334586457
 40
0.4586471931
 40
0.5874594445
 40
0.6535941525
 40
0.7208804482
 40
0.8587555917
 40
0.9291287986
 40
1.0
 40
1.0
 40
1.0
 40
1.0
 10
15.805928537
 20
10.7533314913
 30
0.0
 10
15.8087258921
 20
10.7503330961
 30
0.0
 10
15.8146285683
 20
10.7443388276
 30
0.0
 10
15.8240060683
 20
10.7354926329
 30
0.0
 10
15.8340019528
 20
10.7265377708
 30
0.0
 10
15.8481917045
 20
10.7142806551
 30
0.0
 10
15.8668850744
 20
10.6986915749
 30
0.0
 10
15.8901067714
 20
10.6794387104
 30
0.0
 10
15.9097709759
 20
10.6625847562
 30
0.0
 10
15.9254900345
 20
10.6482268216
 30
0.0
 10
15.9412993496
 20
10.6328963997
 30
0.0
 10
15.9564001393
 20
10.6163267592
 30
0.0
 10
15.9699431216
 20
10.598141561
 30
0.0
 10
15.9760856685
 20
10.5884435339
 30
0.0
 10
15.9789609765
 20
10.583460848
 30
0.0
  0
SPLINE
  5
29F
100
AcDbEntity
  8
0
100
AcDbSpline
 62
9
  6
CONTINUOUS
 70
0
 71
3
 72
19
 73
15
 74
0
 42
0.0000001
 43
0.0000001
 44
0.0000000001
 40
0.0
 40
0.0
 40
0.0
 40
0.0
 40
0.1266759681
 40
0.2580108971
 40
0.3246921387
 40
0.3914986089
 40
0.4579866138
 40
0.5237668918
 40
0.6520044686
 40
0.7142232749
 40
0.7748320865
 40
0.8336851987
 40
0.8908479651
 40
1.0
 40
1.0
 40
1.0
 40
1.0
 10
15.7994658885
 20
10.6425259149
 30
0.0
 10
15.8028807876
 20
10.6463599328
 30
0.0
 10
15.8092619768
 20
10.6546985923
 30
0.0
 10
15.8156201614
 20
10.6662900688
 30
0.0
 10
15.8195480496
 20
10.6762918965
 30
0.0
 10
15.8218587412
 20
10.6840713089
 30
0.0
 10
15.8234712648
 20
10.6919891079
 30
0.0
 10
15.8246160894
 20
10.7024975685
 30
0.0
 10
15.8242047873
 20
10.7129566527
 30
0.0
 10
15.8222972261
 20
10.7229652085
 30
0.0
 10
15.8201920384
 20
10.7300360332
 30
0.0
 10
15.8174269948
 20
10.7366547864
 30
0.0
 10
15.8130527518
 20
10.7446764871
 30
0.0
 10
15.8089465125
 20
10.7500966603
 30
0.0
 10
15.8059285411
 20
10.7533314869
 30
0.0
  0
SPLINE
  5
2A0
100
AcDbEntity
  8
0
100
AcDbSpline
 62
9
  6
CONTINUOUS
 70
0
 71
3
 72
19
 73
15
 74
0
 42
0.0000001
 43
0.0000001
 44
0.0000000001
 40
0.0
 40
0.0
 40
0.0
 40
0.0
 40
0.0707714048
 40
0.1410503109
 40
0.2787736271
 40
0.3459999001
 40
0.4120822007
 40
0.5408177956
 40
0.6648490922
 40
0.7836395018
 40
0.8407408412
 40
0.8960415351
 40
0.9492655082
 40
1.0
 40
1.0
 40
1.0
 40
1.0
 10
14.1156757
 20
10.583460848
 30
0.0
 10
14.1185320113
 20
10.5884101767
 30
0.0
 10
14.1246290715
 20
10.5980466246
 30
0.0
 10
14.1380743855
 20
10.616120484
 30
0.0
 10
14.1530574432
 20
10.6326032929
 30
0.0
 10
14.1687513093
 20
10.6478555191
 30
0.0
 10
14.1843627266
 20
10.6621422319
 30
0.0
 10
14.2039022606
 20
10.6789123453
 30
0.0
 10
14.2269932363
 20
10.6980654958
 30
0.0
 10
14.2455991214
 20
10.713568152
 30
0.0
 10
14.259740593
 20
10.7257549053
 30
0.0
 10
14.2697192534
 20
10.7346600176
 30
0.0
 10
14.2790996576
 20
10.7434582086
 30
0.0
 10
14.2850181433
 20
10.7494151307
 30
0.0
 10
14.2878293494
 20
10.7523948419
 30
0.0
  0
SPLINE
  5
2A1
100
AcDbEntity
  8
0
100
AcDbSpline
 62
9
  6
CONTINUOUS
 70
0
 71
3
 72
19
 73
15
 74
0
 42
0.0000001
 43
0.0000001
 44
0.0000000001
 40
0.0
 40
0.0
 40
0.0
 40
0.0
 40
0.1192107065
 40
0.2446702741
 40
0.3092354883
 40
0.374532185
 40
0.4401356683
 40
0.5056960303
 40
0.6355055759
 40
0.6993674575
 40
0.762127239
 40
0.8236053922
 40
0.883795616
 40
1.0
 40
1.0
 40
1.0
 40
1.0
 10
14.2951707987
 20
10.6425259199
 30
0.0
 10
14.2919935236
 20
10.6460931491
 30
0.0
 10
14.2859697527
 20
10.6538727616
 30
0.0
 10
14.2798281433
 20
10.6646938277
 30
0.0
 10
14.2758702129
 20
10.6741394642
 30
0.0
 10
14.2734377579
 20
10.6815943706
 30
0.0
 10
14.27163372
 20
10.6892683671
 30
0.0
 10
14.2701573032
 20
10.6996326845
 30
0.0
 10
14.2701907415
 20
10.710099665
 30
0.0
 10
14.2717329815
 20
10.720272078
 30
0.0
 10
14.2736138759
 20
10.7275860948
 30
0.0
 10
14.2762235248
 20
10.7345171939
 30
0.0
 10
14.2805190934
 20
10.7430395023
 30
0.0
 10
14.2846753682
 20
10.7488405948
 30
0.0
 10
14.287778105
 20
10.7523128783
 30
0.0
  0
SPLINE
  5
2A2
100
AcDbEntity
  8
0
100
AcDbSpline
 62
9
  6
CONTINUOUS
 70
0
 71
3
 72
19
 73
15
 74
0
 42
0.0000001
 43
0.0000001
 44
0.0000000001
 40
0.0
 40
0.0
 40
0.0
 40
0.0
 40
0.0505167745
 40
0.103594659
 40
0.1587972494
 40
0.2158389585
 40
0.3345869146
 40
0.4586469306
 40
0.5874600711
 40
0.653595478
 40
0.7208815587
 40
0.8587550256
 40
0.9291288842
 40
1.0
 40
1.0
 40
1.0
 40
1.0
 10
14.0550796273
 20
10.348675038
 30
0.0
 10
14.0562775858
 20
10.3525967152
 30
0.0
 10
14.0585173367
 20
10.3607055501
 30
0.0
 10
14.061489536
 20
10.3732498338
 30
0.0
 10
14.0642470743
 20
10.3863841859
 30
0.0
 10
14.0677673583
 20
10.4048016202
 30
0.0
 10
14.0719209675
 20
10.4287850914
 30
0.0
 10
14.0769833037
 20
10.4585220069
 30
0.0
 10
14.081747472
 20
10.4839786921
 30
0.0
 10
14.0863227582
 20
10.5047707795
 30
0.0
 10
14.0916949671
 20
10.5261270214
 30
0.0
 10
14.0984919444
 20
10.5474902868
 30
0.0
 10
14.1074717327
 20
10.5683102811
 30
0.0
 10
14.1127980951
 20
10.5784794975
 30
0.0
 10
14.1156757
 20
10.583460848
 30
0.0
  0
SPLINE
  5
2A3
100
AcDbEntity
  8
0
100
AcDbSpline
 62
9
  6
CONTINUOUS
 70
0
 71
3
 72
19
 73
15
 74
0
 42
0.0000001
 43
0.0000001
 44
0.0000000001
 40
0.0
 40
0.0
 40
0.0
 40
0.0
 40
0.1266759993
 40
0.2580109519
 40
0.3246922015
 40
0.3914986773
 40
0.4579866852
 40
0.5237669635
 40
0.6520045332
 40
0.7142233327
 40
0.7748321356
 40
0.8336852375
 40
0.8908479921
 40
1.0
 40
1.0
 40
1.0
 40
1.0
 10
14.1542713953
 20
10.3984810119
 30
0.0
 10
14.1492435877
 20
10.3995213923
 30
0.0
 10
14.1388315001
 20
10.4008783344
 30
0.0
 10
14.1256138924
 20
10.4005889447
 30
0.0
 10
14.1149881104
 20
10.3989896808
 30
0.0
 10
14.1070955955
 20
10.3971010913
 30
0.0
 10
14.0994323188
 20
10.3945386774
 30
0.0
 10
14.0897593134
 20
10.3902758935
 30
0.0
 10
14.0809071331
 20
10.384690153
 30
0.0
 10
14.0731932515
 20
10.3780338787
 30
0.0
 10
14.0681223328
 20
10.3726753208
 30
0.0
 10
14.0637728474
 20
10.3669713471
 30
0.0
 10
14.0590129737
 20
10.3591722929
 30
0.0
 10
14.0563720865
 20
10.3529061004
 30
0.0
 10
14.0550796304
 20
10.3486750484
 30
0.0
  0
SPLINE
  5
2A4
100
AcDbEntity
  8
0
100
AcDbSpline
 62
9
  6
CONTINUOUS
 70
0
 71
3
 72
23
 73
19
 74
0
 42
0.0000001
 43
0.0000001
 44
0.0000000001
 40
0.0
 40
0.0
 40
0.0
 40
0.0
 40
0.0468558077
 40
0.0973194705
 40
0.1509980378
 40
0.2074569112
 40
0.2662789442
 40
0.3272030101
 40
0.4544573349
 40
0.5874069968
 40
0.6554494713
 40
0.7242021296
 40
0.7933916511
 40
0.8625040505
 40
0.8970421355
 40
0.9314840356
 40
0.9657861278
 40
1.0
 40
1.0
 40
1.0
 40
1.0
 10
14.1542715721
 20
10.3984809861
 30
0.0
 10
14.1540358733
 20
10.4011987503
 30
0.0
 10
14.153378502
 20
10.4068292843
 30
0.0
 10
14.1520025384
 20
10.4155135538
 30
0.0
 10
14.1502712417
 20
10.4247031233
 30
0.0
 10
14.1482584239
 20
10.4343322736
 30
0.0
 10
14.1460353804
 20
10.4443473578
 30
0.0
 10
14.1428431545
 20
10.4583691202
 30
0.0
 10
14.138719706
 20
10.4766043227
 30
0.0
 10
14.1349571378
 20
10.4953481796
 30
0.0
 10
14.132605487
 20
10.5108801433
 30
0.0
 10
14.1313991511
 20
10.5228182455
 30
0.0
 10
14.1309894554
 20
10.5348785454
 30
0.0
 10
14.1317269862
 20
10.5449464536
 30
0.0
 10
14.1332127832
 20
10.5528557874
 30
0.0
 10
14.1348130267
 20
10.5586603766
 30
0.0
 10
14.1369400307
 20
10.5642742119
 30
0.0
 10
14.1387373694
 20
10.5678460851
 30
0.0
 10
14.1397334027
 20
10.5695711268
 30
0.0
  0
SPLINE
  5
2A5
100
AcDbEntity
  8
0
100
AcDbSpline
 62
9
  6
CONTINUOUS
 70
0
 71
3
 72
31
 73
27
 74
0
 42
0.0000001
 43
0.0000001
 44
0.0000000001
 40
0.0
 40
0.0
 40
0.0
 40
0.0
 40
0.0952701123
 40
0.1879598372
 40
0.27607889
 40
0.3183519078
 40
0.3593656934
 40
0.3991435759
 40
0.437753811
 40
0.4752434189
 40
0.5116435609
 40
0.5469906105
 40
0.5813141382
 40
0.6146320023
 40
0.6469479332
 40
0.7085285236
 40
0.7659380528
 40
0.8189822798
 40
0.8673251252
 40
0.9102785974
 40
0.9295047745
 40
0.9471127202
 40
0.963025673
 40
0.9771791308
 40
0.9895095594
 40
1.0
 40
1.0
 40
1.0
 40
1.0
 10
14.6056453917
 20
10.3005767145
 30
0.0
 10
14.6019929609
 20
10.2942498891
 30
0.0
 10
14.5956944214
 20
10.2812247533
 30
0.0
 10
14.5890325359
 20
10.2610723109
 30
0.0
 10
14.5857645026
 20
10.2442351209
 30
0.0
 10
14.5843523162
 20
10.231163231
 30
0.0
 10
14.5838156044
 20
10.2217376612
 30
0.0
 10
14.5837331142
 20
10.2125789414
 30
0.0
 10
14.5840557632
 20
10.2036963084
 30
0.0
 10
14.5847326618
 20
10.1950939512
 30
0.0
 10
14.5857136436
 20
10.186773205
 30
0.0
 10
14.586964141
 20
10.1787345125
 30
0.0
 10
14.5884501771
 20
10.1709768228
 30
0.0
 10
14.5901364883
 20
10.1634984512
 30
0.0
 10
14.5925724404
 20
10.1540513193
 30
0.0
 10
14.5959672846
 20
10.142949148
 30
0.0
 10
14.6005442164
 20
10.1305696195
 30
0.0
 10
14.6053893156
 20
10.1193920069
 30
0.0
 10
14.6103176125
 20
10.1094760963
 30
0.0
 10
14.6145333815
 20
10.1021157813
 30
0.0
 10
14.6178758482
 20
10.0969894845
 30
0.0
 10
14.6202316937
 20
10.0936997561
 30
0.0
 10
14.622513582
 20
10.0908412733
 30
0.0
 10
14.6247031626
 20
10.0884338082
 30
0.0
 10
14.6267860197
 20
10.0865048782
 30
0.0
 10
14.6282125681
 20
10.0854765954
 30
0.0
 10
14.6289089519
 20
10.085073933
 30
0.0
  0
SPLINE
  5
2A6
100
AcDbEntity
  8
0
100
AcDbSpline
 62
9
  6
CONTINUOUS
 70
0
 71
3
 72
22
 73
18
 74
0
 42
0.0000001
 43
0.0000001
 44
0.0000000001
 40
0.0
 40
0.0
 40
0.0
 40
0.0
 40
0.1601877326
 40
0.2332756206
 40
0.3013433672
 40
0.3642398388
 40
0.4219029842
 40
0.4745964577
 40
0.5231034748
 40
0.5688672307
 40
0.6140016271
 40
0.6611625401
 40
0.7131200936
 40
0.7719978672
 40
0.8390221613
 40
0.9149062139
 40
1.0
 40
1.0
 40
1.0
 40
1.0
 10
14.2951709692
 20
10.6425256713
 30
0.0
 10
14.2976201996
 20
10.6436701537
 30
0.0
 10
14.3011420359
 20
10.6454429374
 30
0.0
 10
14.305501528
 20
10.6480663865
 30
0.0
 10
14.3083385903
 20
10.6500232766
 30
0.0
 10
14.3108129924
 20
10.6520326621
 30
0.0
 10
14.3128891175
 20
10.6541006623
 30
0.0
 10
14.3145287167
 20
10.6562347148
 30
0.0
 10
14.3156865641
 20
10.6584457407
 30
0.0
 10
14.3163100445
 20
10.6607368843
 30
0.0
 10
14.316345787
 20
10.6630924527
 30
0.0
 10
14.3157524695
 20
10.6654799336
 30
0.0
 10
14.3145125591
 20
10.6678633327
 30
0.0
 10
14.3126464109
 20
10.6702312192
 30
0.0
 10
14.3101713642
 20
10.6725833526
 30
0.0
 10
14.3070973546
 20
10.6749082649
 30
0.0
 10
14.3047886969
 20
10.6763467481
 30
0.0
 10
14.3035451195
 20
10.6770650094
 30
0.0
  0
SPLINE
  5
2A7
100
AcDbEntity
  8
0
100
AcDbSpline
 62
9
  6
CONTINUOUS
 70
0
 71
3
 72
23
 73
19
 74
0
 42
0.0000001
 43
0.0000001
 44
0.0000000001
 40
0.0
 40
0.0
 40
0.0
 40
0.0
 40
0.0342104102
 40
0.0685046144
 40
0.1029359419
 40
0.1374624543
 40
0.2065535919
 40
0.2757291038
 40
0.3444798124
 40
0.4125277098
 40
0.5454900921
 40
0.6727564256
 40
0.7336869531
 40
0.7925162618
 40
0.8489833254
 40
0.9026699679
 40
0.9531402787
 40
1.0
 40
1.0
 40
1.0
 40
1.0
 10
14.1397334746
 20
10.5695710853
 30
0.0
 10
14.1407293226
 20
10.5712960029
 30
0.0
 10
14.1429236007
 20
10.5746379382
 30
0.0
 10
14.1467209082
 20
10.5792859952
 30
0.0
 10
14.1509463291
 20
10.5835730445
 30
0.0
 10
14.1570508797
 20
10.5888131631
 30
0.0
 10
14.1653981442
 20
10.5944853958
 30
0.0
 10
14.17604489
 20
10.600161127
 30
0.0
 10
14.1869859873
 20
10.6050857347
 30
0.0
 10
14.2016137006
 20
10.6108156764
 30
0.0
 10
14.2197293274
 20
10.6169296749
 30
0.0
 10
14.237584963
 20
10.6224767544
 30
0.0
 10
14.2513257337
 20
10.6267234902
 30
0.0
 10
14.2611118066
 20
10.6298061774
 30
0.0
 10
14.2704586224
 20
10.6328780029
 30
0.0
 10
14.2792839521
 20
10.6359738403
 30
0.0
 10
14.287493775
 20
10.6391246832
 30
0.0
 10
14.2926992351
 20
10.6413708492
 30
0.0
 10
14.2951709502
 20
10.6425256975
 30
0.0
  0
SPLINE
  5
2A8
100
AcDbEntity
  8
0
100
AcDbSpline
 62
9
  6
CONTINUOUS
 70
0
 71
3
 72
23
 73
19
 74
0
 42
0.0000001
 43
0.0000001
 44
0.0000000001
 40
0.0
 40
0.0
 40
0.0
 40
0.0
 40
0.0468618514
 40
0.0973409373
 40
0.1510380763
 40
0.2075124739
 40
0.2663423443
 40
0.3272680239
 40
0.4545188036
 40
0.5874687344
 40
0.655509701
 40
0.7242566095
 40
0.7934347165
 40
0.862532319
 40
0.8970625573
 40
0.9314968418
 40
0.9657919929
 40
1.0
 40
1.0
 40
1.0
 40
1.0
 10
15.7994657265
 20
10.6425256977
 30
0.0
 10
15.8019375726
 20
10.6413708421
 30
0.0
 10
15.8071436553
 20
10.6391245296
 30
0.0
 10
15.8153546429
 20
10.6359732679
 30
0.0
 10
15.8241814026
 20
10.6328768506
 30
0.0
 10
15.833529207
 20
10.6298046271
 30
0.0
 10
15.8433154639
 20
10.6267219598
 30
0.0
 10
15.8570551833
 20
10.6224757744
 30
0.0
 10
15.8749090468
 20
10.6169294842
 30
0.0
 10
15.8930226155
 20
10.6108157716
 30
0.0
 10
15.9076488655
 20
10.605085829
 30
0.0
 10
15.9185894439
 20
10.6001612749
 30
0.0
 10
15.9292367389
 20
10.5944859838
 30
0.0
 10
15.937584964
 20
10.588813816
 30
0.0
 10
15.9436901446
 20
10.5835732552
 30
0.0
 10
15.947915865
 20
10.5792858827
 30
0.0
 10
15.9517132175
 20
10.5746377568
 30
0.0
 10
15.9539074458
 20
10.5712958926
 30
0.0
 10
15.9549032021
 20
10.5695710855
 30
0.0
  0
SPLINE
  5
2A9
100
AcDbEntity
  8
0
100
AcDbSpline
 62
9
  6
CONTINUOUS
 70
0
 71
3
 72
31
 73
27
 74
0
 42
0.0000001
 43
0.0000001
 44
0.0000000001
 40
0.0
 40
0.0
 40
0.0
 40
0.0
 40
0.0951750575
 40
0.1877170775
 40
0.2757615906
 40
0.3180220925
 40
0.3590352188
 40
0.3988216956
 40
0.4374464095
 40
0.4749529475
 40
0.5113698431
 40
0.5467333687
 40
0.5810734179
 40
0.6144081004
 40
0.6467411599
 40
0.7083564141
 40
0.7658002022
 40
0.8188769423
 40
0.8672477124
 40
0.9102243643
 40
0.9294610736
 40
0.9470791755
 40
0.9630021017
 40
0.9771651745
 40
0.9895036473
 40
1.0
 40
1.0
 40
1.0
 40
1.0
 10
15.4889910504
 20
10.3005765792
 30
0.0
 10
15.4853419767
 20
10.3068968933
 30
0.0
 10
15.4772250675
 20
10.3188508896
 30
0.0
 10
15.4631216833
 20
10.3346799365
 30
0.0
 10
15.4501915652
 20
10.3459207607
 30
0.0
 10
15.4395858636
 20
10.3536802371
 30
0.0
 10
15.4316938923
 20
10.3588608709
 30
0.0
 10
15.4238037606
 20
10.363515512
 30
0.0
 10
15.4159486837
 20
10.3676816852
 30
0.0
 10
15.40815836
 20
10.3714009377
 30
0.0
 10
15.4004593965
 20
10.3747156196
 30
0.0
 10
15.3928696785
 20
10.3776553714
 30
0.0
 10
15.3854053323
 20
10.3802502691
 30
0.0
 10
15.3780825618
 20
10.3825318553
 30
0.0
 10
15.3686786284
 20
10.3851491413
 30
0.0
 10
15.3573605039
 20
10.3877636646
 30
0.0
 10
15.3443437633
 20
10.3899929405
 30
0.0
 10
15.3322341528
 20
10.3913883874
 30
0.0
 10
15.3211762899
 20
10.3920800641
 30
0.0
 10
15.3126894867
 20
10.3921099181
 30
0.0
 10
15.3065753889
 20
10.3917787239
 30
0.0
 10
15.3025461128
 20
10.3913835558
 30
0.0
 10
15.2989273328
 20
10.3908368258
 30
0.0
 10
15.2957453892
 20
10.3901446626
 30
0.0
 10
15.2930315351
 20
10.3893054538
 30
0.0
 10
15.2914266217
 20
10.388584013
 30
0.0
 10
15.2907293023
 20
10.3881820708
 30
0.0
  0
SPLINE
  5
2AA
100
AcDbEntity
  8
0
100
AcDbSpline
 62
9
  6
CONTINUOUS
 70
0
 71
3
 72
22
 73
18
 74
0
 42
0.0000001
 43
0.0000001
 44
0.0000000001
 40
0.0
 40
0.0
 40
0.0
 40
0.0
 40
0.1601858728
 40
0.2332739382
 40
0.3013421013
 40
0.3642389637
 40
0.4219024085
 40
0.4745960514
 40
0.5231030803
 40
0.5688667004
 40
0.6140008937
 40
0.6611617053
 40
0.7131194737
 40
0.7719978238
 40
0.8390227209
 40
0.9149069306
 40
1.0
 40
1.0
 40
1.0
 40
1.0
 10
15.940364998
 20
10.3984809752
 30
0.0
 10
15.9401315403
 20
10.3957876373
 30
0.0
 10
15.9399059005
 20
10.3918512282
 30
0.0
 10
15.9399981158
 20
10.3867640342
 30
0.0
 10
15.9402742927
 20
10.3833285631
 30
0.0
 10
15.9407772682
 20
10.380180918
 30
0.0
 10
15.9415301489
 20
10.3773488907
 30
0.0
 10
15.9425585002
 20
10.3748618898
 30
0.0
 10
15.9438943929
 20
10.3727536229
 30
0.0
 10
15.9455668607
 20
10.3710680875
 30
0.0
 10
15.9475890025
 20
10.3698593582
 30
0.0
 10
15.9499533223
 20
10.3691794846
 30
0.0
 10
15.9526374094
 20
10.3690616546
 30
0.0
 10
15.9556211782
 20
10.3694939427
 30
0.0
 10
15.9588957441
 20
10.3704614277
 30
0.0
 10
15.9624461973
 20
10.3719612222
 30
0.0
 10
15.9648462947
 20
10.3732413732
 30
0.0
 10
15.9660901132
 20
10.3739592266
 30
0.0
  0
SPLINE
  5
2AB
100
AcDbEntity
  8
0
100
AcDbSpline
 62
9
  6
CONTINUOUS
 70
0
 71
3
 72
22
 73
18
 74
0
 42
0.0000001
 43
0.0000001
 44
0.0000000001
 40
0.0
 40
0.0
 40
0.0
 40
0.0
 40
0.0851044058
 40
0.1609930947
 40
0.22801739
 40
0.2868918668
 40
0.3388437117
 40
0.3859977705
 40
0.4311257551
 40
0.476884245
 40
0.5253867282
 40
0.5780758322
 40
0.6357354327
 40
0.6986307667
 40
0.7667015135
 40
0.8397959176
 40
1.0
 40
1.0
 40
1.0
 40
1.0
 10
7.7910879913
 20
10.6770626357
 30
0.0
 10
7.7898444538
 20
10.6763442429
 30
0.0
 10
7.7875359646
 20
10.6749055255
 30
0.0
 10
7.7844624141
 20
10.672580228
 30
0.0
 10
7.7819880531
 20
10.6702278431
 30
0.0
 10
7.7801227245
 20
10.6678598944
 30
0.0
 10
7.7788836565
 20
10.6654766702
 30
0.0
 10
7.7782910956
 20
10.6630895943
 30
0.0
 10
7.7783274442
 20
10.6607345973
 30
0.0
 10
7.7789512812
 20
10.6584441059
 30
0.0
 10
7.7801091431
 20
10.6562336683
 30
0.0
 10
7.7817485159
 20
10.6541000661
 30
0.0
 10
7.783824331
 20
10.6520324015
 30
0.0
 10
7.7862984547
 20
10.6500232392
 30
0.0
 10
7.7891353544
 20
10.6480664889
 30
0.0
 10
7.7934947828
 20
10.6454431051
 30
0.0
 10
7.7970165916
 20
10.6436703137
 30
0.0
 10
7.7994658118
 20
10.642525816
 30
0.0
  0
SPLINE
  5
2AC
100
AcDbEntity
  8
0
100
AcDbSpline
 62
9
  6
CONTINUOUS
 70
0
 71
3
 72
22
 73
18
 74
0
 42
0.0000001
 43
0.0000001
 44
0.0000000001
 40
0.0
 40
0.0
 40
0.0
 40
0.0
 40
0.0850931185
 40
0.1609724148
 40
0.2279890787
 40
0.2868575814
 40
0.3388055748
 40
0.3859588216
 40
0.4310889956
 40
0.4768518913
 40
0.525359892
 40
0.5780548506
 40
0.6357201894
 40
0.6986208375
 40
0.7666962394
 40
0.8397942076
 40
1.0
 40
1.0
 40
1.0
 40
1.0
 10
7.2223160986
 20
9.0857166902
 30
0.0
 10
7.2223155834
 20
9.0871524665
 30
0.0
 10
7.2222236159
 20
9.0898703654
 30
0.0
 10
7.221746382
 20
9.0936938292
 30
0.0
 10
7.220946192
 20
9.0970120448
 30
0.0
 10
7.2198280527
 20
9.099810717
 30
0.0
 10
7.2183835255
 20
9.1020747441
 30
0.0
 10
7.2166124004
 20
9.1037808529
 30
0.0
 10
7.2145546439
 20
9.1049263419
 30
0.0
 10
7.212259063
 20
9.1055308928
 30
0.0
 10
7.2097658478
 20
9.1056330304
 30
0.0
 10
7.2070984655
 20
9.1052798321
 30
0.0
 10
7.2042700121
 20
9.1045157723
 30
0.0
 10
7.2012931143
 20
9.1033775927
 30
0.0
 10
7.1981802671
 20
9.1018991143
 30
0.0
 10
7.1937290456
 20
9.0994355504
 30
0.0
 10
7.190433168
 20
9.0972721648
 30
0.0
 10
7.1882176202
 20
9.0957234933
 30
0.0
  0
SPLINE
  5
2AD
100
AcDbEntity
  8
0
100
AcDbSpline
 62
9
  6
CONTINUOUS
 70
0
 71
3
 72
31
 73
27
 74
0
 42
0.0000001
 43
0.0000001
 44
0.0000000001
 40
0.0
 40
0.0
 40
0.0
 40
0.0
 40
0.0104892103
 40
0.0228182984
 40
0.0369708177
 40
0.0528832429
 40
0.070491008
 40
0.089717375
 40
0.1326724795
 40
0.1810189306
 40
0.2340682645
 40
0.2914836166
 40
0.3530707636
 40
0.3853902778
 40
0.4187119755
 40
0.4530399793
 40
0.4883928433
 40
0.5248008889
 40
0.5623008924
 40
0.6009226279
 40
0.640711208
 40
0.6817330091
 40
0.7240101204
 40
0.8121215411
 40
0.9047778589
 40
1.0
 40
1.0
 40
1.0
 40
1.0
 10
6.8039097249
 20
10.3881808882
 30
0.0
 10
6.8032129269
 20
10.3885826571
 30
0.0
 10
6.8016093417
 20
10.3893039662
 30
0.0
 10
6.7988976602
 20
10.3901432883
 30
0.0
 10
6.7957181214
 20
10.3908357109
 30
0.0
 10
6.7921017582
 20
10.3913826364
 30
0.0
 10
6.7880748598
 20
10.3917780341
 30
0.0
 10
6.7819639556
 20
10.3921096442
 30
0.0
 10
6.7734813683
 20
10.3920805898
 30
0.0
 10
6.7624289059
 20
10.3913906906
 30
0.0
 10
6.7503250481
 20
10.3899978324
 30
0.0
 10
6.7373141401
 20
10.3877717631
 30
0.0
 10
6.7260006455
 20
10.3851605216
 30
0.0
 10
6.7166000997
 20
10.3825462752
 30
0.0
 10
6.7092795598
 20
10.3802671795
 30
0.0
 10
6.7018171217
 20
10.3776748519
 30
0.0
 10
6.6942288767
 20
10.3747377407
 30
0.0
 10
6.686530827
 20
10.3714257469
 30
0.0
 10
6.6787406989
 20
10.3677091242
 30
0.0
 10
6.6708849098
 20
10.3635452881
 30
0.0
 10
6.6629928839
 20
10.3588924763
 30
0.0
 10
6.6550975189
 20
10.353712989
 30
0.0
 10
6.6444836106
 20
10.3459524995
 30
0.0
 10
6.6315393585
 20
10.3347042243
 30
0.0
 10
6.6174234003
 20
10.3188625844
 30
0.0
 10
6.6092967531
 20
10.3068999746
 30
0.0
 10
6.6056456445
 20
10.3005765685
 30
0.0
  0
SPLINE
  5
2AE
100
AcDbEntity
  8
0
100
AcDbSpline
 62
9
  6
CONTINUOUS
 70
0
 71
3
 72
31
 73
27
 74
0
 42
0.0000001
 43
0.0000001
 44
0.0000000001
 40
0.0
 40
0.0
 40
0.0
 40
0.0
 40
0.010494134
 40
0.0228285974
 40
0.0369862246
 40
0.0529028417
 40
0.0705138682
 40
0.0897426856
 40
0.1327007992
 40
0.1810487033
 40
0.2340983533
 40
0.2915123047
 40
0.3530959827
 40
0.3854128531
 40
0.4187312152
 40
0.4530551022
 40
0.488402997
 40
0.5248051515
 40
0.5622982378
 40
0.6009115996
 40
0.6406897433
 40
0.6816984207
 40
0.7239610089
 40
0.8120556246
 40
0.9047342992
 40
1.0
 40
1.0
 40
1.0
 40
1.0
 10
6.8723190771
 20
9.6634750099
 30
0.0
 10
6.8723196517
 20
9.6626703097
 30
0.0
 10
6.8724971017
 20
9.6609201611
 30
0.0
 10
6.8731266418
 20
9.6581510583
 30
0.0
 10
6.8741173662
 20
9.6550503279
 30
0.0
 10
6.8754524152
 20
9.6516442046
 30
0.0
 10
6.8771238807
 20
9.6479585108
 30
0.0
 10
6.8798926126
 20
9.6425000472
 30
0.0
 10
6.8841595629
 20
9.6351681878
 30
0.0
 10
6.8902839245
 20
9.6259415236
 30
0.0
 10
6.8975426984
 20
9.6161562311
 30
0.0
 10
6.9059762775
 20
9.6060023257
 30
0.0
 10
6.9138943765
 20
9.5975110447
 30
0.0
 10
6.9208583459
 20
9.5906778896
 30
0.0
 10
6.9264919211
 20
9.5854784097
 30
0.0
 10
6.9324674937
 20
9.5803126944
 30
0.0
 10
6.9388043383
 20
9.5752104668
 30
0.0
 10
6.9455205099
 20
9.5702006431
 30
0.0
 10
6.9526328573
 20
9.5653134518
 30
0.0
 10
6.9601649032
 20
9.5605929817
 30
0.0
 10
6.9681379573
 20
9.5560855602
 30
0.0
 10
6.9765681891
 20
9.5518383988
 30
0.0
 10
6.9885921649
 20
9.5465269158
 30
0.0
 10
7.0048044784
 20
9.5409402249
 30
0.0
 10
7.0255851018
 20
9.5366348681
 30
0.0
 10
7.0400132717
 20
9.535577144
 30
0.0
 10
7.0473183384
 20
9.5355769327
 30
0.0
  0
SPLINE
  5
2AF
100
AcDbEntity
  8
0
100
AcDbSpline
 62
9
  6
CONTINUOUS
 70
0
 71
3
 72
23
 73
19
 74
0
 42
0.0000001
 43
0.0000001
 44
0.0000000001
 40
0.0
 40
0.0
 40
0.0
 40
0.0
 40
0.046861852
 40
0.0973407978
 40
0.1510377546
 40
0.2075120245
 40
0.2663418957
 40
0.3272676895
 40
0.4545188897
 40
0.5874698874
 40
0.6555122436
 40
0.7242603952
 40
0.7934388086
 40
0.862535567
 40
0.8970648983
 40
0.9314981557
 40
0.9657924344
 40
1.0
 40
1.0
 40
1.0
 40
1.0
 10
7.1882176097
 20
9.0957235166
 30
0.0
 10
7.1859815518
 20
9.094160264
 30
0.0
 10
7.1814331524
 20
9.0907748271
 30
0.0
 10
7.1745986012
 20
9.0852395461
 30
0.0
 10
7.1675036662
 20
9.0791435737
 30
0.0
 10
7.1601691526
 20
9.0725842641
 30
0.0
 10
7.1526063495
 20
9.0656504599
 30
0.0
 10
7.14205915
 20
9.0558746006
 30
0.0
 10
7.1283289116
 20
9.0431857959
 30
0.0
 10
7.1139773881
 20
9.0305557159
 30
0.0
 10
7.1017018687
 20
9.020753789
 30
0.0
 10
7.0919666556
 20
9.0137411389
 30
0.0
 10
7.0817279417
 20
9.0073580671
 30
0.0
 10
7.0726416135
 20
9.002964527
 30
0.0
 10
7.065050708
 20
9.0002976508
 30
0.0
 10
7.0592250304
 20
8.9987818083
 30
0.0
 10
7.0533010932
 20
8.9978172965
 30
0.0
 10
7.0493099174
 20
8.9975879737
 30
0.0
 10
7.0473183383
 20
8.9975880193
 30
0.0
  0
SPLINE
  5
2B0
100
AcDbEntity
  8
0
100
AcDbSpline
 62
9
  6
CONTINUOUS
 70
0
 71
3
 72
31
 73
27
 74
0
 42
0.0000001
 43
0.0000001
 44
0.0000000001
 40
0.0
 40
0.0
 40
0.0
 40
0.0
 40
0.0952256705
 40
0.1878795609
 40
0.2759777809
 40
0.3182458539
 40
0.3592580857
 40
0.3990371257
 40
0.4376498907
 40
0.475142083
 40
0.5115439365
 40
0.5468920783
 40
0.5812165369
 40
0.6145355791
 40
0.6468531585
 40
0.7084386157
 40
0.7658553245
 40
0.8189093086
 40
0.8672640387
 40
0.9102309329
 40
0.9294644001
 40
0.9470800123
 40
0.9630009862
 40
0.9771627023
 40
0.9895013803
 40
1.0
 40
1.0
 40
1.0
 40
1.0
 10
7.0473183383
 20
9.5355769203
 30
0.0
 10
7.0546201125
 20
9.5355771877
 30
0.0
 10
7.0690428764
 20
9.5366338282
 30
0.0
 10
7.0898184559
 20
9.5409371309
 30
0.0
 10
7.1060295677
 20
9.546521877
 30
0.0
 10
7.1180547494
 20
9.5518320303
 30
0.0
 10
7.1264859402
 20
9.5560783461
 30
0.0
 10
7.1344595138
 20
9.5605848854
 30
0.0
 10
7.1419917455
 20
9.5653044662
 30
0.0
 10
7.1491041573
 20
9.5701908582
 30
0.0
 10
7.1558204417
 20
9.5751999818
 30
0.0
 10
7.1621574971
 20
9.5803016151
 30
0.0
 10
7.1681333373
 20
9.5854668287
 30
0.0
 10
7.1737671856
 20
9.5906658896
 30
0.0
 10
7.1807315571
 20
9.5974985566
 30
0.0
 10
7.1886502386
 20
9.6059893597
 30
0.0
 10
7.1970846611
 20
9.616142926
 30
0.0
 10
7.2043444766
 20
9.625928311
 30
0.0
 10
7.2104702217
 20
9.6351554816
 30
0.0
 10
7.2147386003
 20
9.6424880027
 30
0.0
 10
7.2175085365
 20
9.6479471949
 30
0.0
 10
7.2191808562
 20
9.6516335096
 30
0.0
 10
7.2205166853
 20
9.655040282
 30
0.0
 10
7.2215080703
 20
9.6581417148
 30
0.0
 10
7.222138296
 20
9.6609115762
 30
0.0
 10
7.2223163254
 20
9.6626622636
 30
0.0
 10
7.2223172583
 20
9.6634672829
 30
0.0
  0
SPLINE
  5
2B1
100
AcDbEntity
  8
0
100
AcDbSpline
 62
9
  6
CONTINUOUS
 70
0
 71
3
 72
19
 73
15
 74
0
 42
0.0000001
 43
0.0000001
 44
0.0000000001
 40
0.0
 40
0.0
 40
0.0
 40
0.0
 40
0.05051812
 40
0.1035969022
 40
0.158797001
 40
0.2158366284
 40
0.3345864737
 40
0.4586472938
 40
0.5874594918
 40
0.6535939142
 40
0.7208801374
 40
0.8587558733
 40
0.9291288046
 40
1.0
 40
1.0
 40
1.0
 40
1.0
 10
7.2809468505
 20
9.0347236306
 30
0.0
 10
7.2769514876
 20
9.0338002476
 30
0.0
 10
7.2688089654
 20
9.0316855126
 30
0.0
 10
7.2564591861
 20
9.0279874596
 30
0.0
 10
7.2437061035
 20
9.0238081992
 30
0.0
 10
7.2259962434
 20
9.0176480815
 30
0.0
 10
7.2031490123
 20
9.0092536748
 30
0.0
 10
7.1748646819
 20
8.9987695467
 30
0.0
 10
7.1504366337
 20
8.9901668614
 30
0.0
 10
7.1301428553
 20
8.9837325772
 30
0.0
 10
7.1089617078
 20
8.9777062182
 30
0.0
 10
7.0870613891
 20
8.9729143731
 30
0.0
 10
7.0645411415
 20
8.970277389
 30
0.0
 10
7.0530711247
 20
8.9698072867
 30
0.0
 10
7.0473183383
 20
8.969808464
 30
0.0
  0
SPLINE
  5
2B2
100
AcDbEntity
  8
0
100
AcDbSpline
 62
9
  6
CONTINUOUS
 70
0
 71
3
 72
19
 73
15
 74
0
 42
0.0000001
 43
0.0000001
 44
0.0000000001
 40
0.0
 40
0.0
 40
0.0
 40
0.0
 40
0.1266759593
 40
0.2580108816
 40
0.3246921209
 40
0.3914985895
 40
0.4579865936
 40
0.5237668714
 40
0.6520044503
 40
0.7142232586
 40
0.7748320725
 40
0.8336851877
 40
0.8908479574
 40
1.0
 40
1.0
 40
1.0
 40
1.0
 10
7.1882177277
 20
9.0957232345
 30
0.0
 10
7.189830635
 20
9.0908488367
 30
0.0
 10
7.1938615312
 20
9.0811532358
 30
0.0
 10
7.2007209514
 20
9.0698511491
 30
0.0
 10
7.2074188436
 20
9.0614485848
 30
0.0
 10
7.2130006662
 20
9.0555577612
 30
0.0
 10
7.2190514191
 20
9.0502023753
 30
0.0
 10
7.2275796002
 20
9.0439566977
 30
0.0
 10
7.2368430836
 20
9.0390833534
 30
0.0
 10
7.2464645277
 20
9.0357310715
 30
0.0
 10
7.2536406354
 20
9.0340188049
 30
0.0
 10
7.2607551656
 20
9.0331040259
 30
0.0
 10
7.2698892841
 20
9.0328813807
 30
0.0
 10
7.2766364117
 20
9.0337274016
 30
0.0
 10
7.2809468396
 20
9.0347236281
 30
0.0
  0
SPLINE
  5
2B3
100
AcDbEntity
  8
0
100
AcDbSpline
 62
9
  6
CONTINUOUS
 70
0
 71
3
 72
19
 73
15
 74
0
 42
0.0000001
 43
0.0000001
 44
0.0000000001
 40
0.0
 40
0.0
 40
0.0
 40
0.0
 40
0.0707717904
 40
0.1410523825
 40
0.2787744374
 40
0.3460008902
 40
0.4120838486
 40
0.5408199673
 40
0.6648514907
 40
0.7836416641
 40
0.8407427838
 40
0.8960430757
 40
0.9492665006
 40
1.0
 40
1.0
 40
1.0
 40
1.0
 10
7.9789609766
 20
10.583460848
 30
0.0
 10
7.9818193729
 20
10.5785125317
 30
0.0
 10
7.9871143895
 20
10.5684126704
 30
0.0
 10
7.9960485453
 20
10.5477330484
 30
0.0
 10
8.0028281051
 20
10.5265140081
 30
0.0
 10
8.0081908573
 20
10.5052964079
 30
0.0
 10
8.0127580247
 20
10.4846325698
 30
0.0
 10
8.017511703
 20
10.459325076
 30
0.0
 10
8.0225534775
 20
10.4297503926
 30
0.0
 10
8.0266763799
 20
10.4058853618
 30
0.0
 10
8.0301598081
 20
10.3875447579
 30
0.0
 10
8.0328827105
 20
10.37445024
 30
0.0
 10
8.0358121444
 20
10.3619273675
 30
0.0
 10
8.0380119305
 20
10.3538233198
 30
0.0
 10
8.0391869337
 20
10.3498989014
 30
0.0
  0
SPLINE
  5
2B4
100
AcDbEntity
  8
0
100
AcDbSpline
 62
9
  6
CONTINUOUS
 70
0
 71
3
 72
19
 73
15
 74
0
 42
0.0000001
 43
0.0000001
 44
0.0000000001
 40
0.0
 40
0.0
 40
0.0
 40
0.0
 40
0.1192120253
 40
0.2446730727
 40
0.3092390053
 40
0.3745362994
 40
0.4401402264
 40
0.5057008677
 40
0.6355103959
 40
0.6993719262
 40
0.7621311097
 40
0.8236084976
 40
0.8837978586
 40
1.0
 40
1.0
 40
1.0
 40
1.0
 10
7.9403652801
 20
10.398480998
 30
0.0
 10
7.9450435148
 20
10.3994490434
 30
0.0
 10
7.9547933521
 20
10.4007760178
 30
0.0
 10
7.9672362454
 20
10.400684102
 30
0.0
 10
7.9773959653
 20
10.3993886539
 30
0.0
 10
7.9850687426
 20
10.3977674687
 30
0.0
 10
7.9926169939
 20
10.3954924372
 30
0.0
 10
8.0023313206
 20
10.3915882919
 30
0.0
 10
8.0113794672
 20
10.3863251226
 30
0.0
 10
8.0194179093
 20
10.379902523
 30
0.0
 10
8.0248114494
 20
10.3746160263
 30
0.0
 10
8.0295088722
 20
10.3688898743
 30
0.0
 10
8.0347411656
 20
10.3609079623
 30
0.0
 10
8.0376864612
 20
10.354407505
 30
0.0
 10
8.0391418094
 20
10.3499840419
 30
0.0
  0
SPLINE
  5
2B5
100
AcDbEntity
  8
0
100
AcDbSpline
 62
9
  6
CONTINUOUS
 70
0
 71
3
 72
22
 73
18
 74
0
 42
0.0000001
 43
0.0000001
 44
0.0000000001
 40
0.0
 40
0.0
 40
0.0
 40
0.0
 40
0.0850752704
 40
0.1609476889
 40
0.2279656216
 40
0.2868400823
 40
0.3387951436
 40
0.3859539472
 40
0.4310870376
 40
0.4768502722
 40
0.5253571765
 40
0.5780509436
 40
0.6357156468
 40
0.698616318
 40
0.766692218
 40
0.8397910956
 40
1.0
 40
1.0
 40
1.0
 40
1.0
 10
6.1285534319
 20
10.3739551579
 30
0.0
 10
6.1297968899
 20
10.3732377761
 30
0.0
 10
6.1321963654
 20
10.3719585099
 30
0.0
 10
6.1357459771
 20
10.370460007
 30
0.0
 10
6.1390198564
 20
10.3694936189
 30
0.0
 10
6.1420029988
 20
10.3690622239
 30
0.0
 10
6.1446864445
 20
10.369180746
 30
0.0
 10
6.1470500849
 20
10.3698610699
 30
0.0
 10
6.1490715535
 20
10.3710700013
 30
0.0
 10
6.1507434213
 20
10.3727554999
 30
0.0
 10
6.1520788654
 20
10.3748635215
 30
0.0
 10
6.153106922
 20
10.3773501606
 30
0.0
 10
6.1538596088
 20
10.3801818061
 30
0.0
 10
6.1543624624
 20
10.3833291328
 30
0.0
 10
6.1546385565
 20
10.3867643927
 30
0.0
 10
6.1547307199
 20
10.3918514112
 30
0.0
 10
6.1545051127
 20
10.3957877121
 30
0.0
 10
6.1542716839
 20
10.3984809747
 30
0.0
  0
SPLINE
  5
2B6
100
AcDbEntity
  8
0
100
AcDbSpline
 62
9
  6
CONTINUOUS
 70
0
 71
3
 72
23
 73
19
 74
0
 42
0.0000001
 43
0.0000001
 44
0.0000000001
 40
0.0
 40
0.0
 40
0.0
 40
0.0
 40
0.0342128757
 40
0.0685116631
 40
0.1029482447
 40
0.1374792049
 40
0.2065737432
 40
0.2757479431
 40
0.3444954078
 40
0.4125398503
 40
0.5454987679
 40
0.6727628184
 40
0.7336921852
 40
0.7925203281
 40
0.8489862346
 40
0.9026717765
 40
0.9531410989
 40
1.0
 40
1.0
 40
1.0
 40
1.0
 10
7.9549032562
 20
10.5695711167
 30
0.0
 10
7.9558992647
 20
10.5678461258
 30
0.0
 10
7.9576965168
 20
10.5642744872
 30
0.0
 10
7.959823388
 20
10.5586611973
 30
0.0
 10
7.9614235035
 20
10.552857522
 30
0.0
 10
7.962909268
 20
10.5449499784
 30
0.0
 10
7.9636473926
 20
10.5348844781
 30
0.0
 10
7.9632385687
 20
10.5228263668
 30
0.0
 10
7.9620329121
 20
10.5108892698
 30
0.0
 10
7.9596817531
 20
10.4953568572
 30
0.0
 10
7.9559187234
 20
10.4766118213
 30
0.0
 10
7.9517948861
 20
10.4583752455
 30
0.0
 10
7.9486023676
 20
10.444352275
 30
0.0
 10
7.9463790847
 20
10.4343361352
 30
0.0
 10
7.9443660097
 20
10.4247058339
 30
0.0
 10
7.9426344598
 20
10.4155151391
 30
0.0
 10
7.9412582872
 20
10.4068299685
 30
0.0
 10
7.940600807
 20
10.4011989287
 30
0.0
 10
7.9403650818
 20
10.3984809838
 30
0.0
  0
SPLINE
  5
2B7
100
AcDbEntity
  8
0
100
AcDbSpline
 62
9
  6
CONTINUOUS
 70
0
 71
3
 72
19
 73
15
 74
0
 42
0.0000001
 43
0.0000001
 44
0.0000000001
 40
0.0
 40
0.0
 40
0.0
 40
0.0
 40
0.1192115578
 40
0.2446721481
 40
0.3092378784
 40
0.3745350106
 40
0.4401388232
 40
0.5056994012
 40
0.6355089738
 40
0.6993706187
 40
0.7621299802
 40
0.8236075935
 40
0.8837972117
 40
1.0
 40
1.0
 40
1.0
 40
1.0
 10
6.9064189402
 20
9.0957232405
 30
0.0
 10
6.9049181958
 20
9.0911878114
 30
0.0
 10
6.9011925314
 20
9.0820808414
 30
0.0
 10
6.8948916031
 20
9.0713510676
 30
0.0
 10
6.8886899744
 20
9.0632002951
 30
0.0
 10
6.8834496988
 20
9.0573661102
 30
0.0
 10
6.8777054453
 20
9.0519666714
 30
0.0
 10
6.8694673379
 20
9.0455058863
 30
0.0
 10
6.8603853729
 20
9.0403014997
 30
0.0
 10
6.8508041495
 20
9.0365512166
 30
0.0
 10
6.8435292223
 20
9.0345234327
 30
0.0
 10
6.8362215851
 20
9.033318312
 30
0.0
 10
6.8266929599
 20
9.0327778151
 30
0.0
 10
6.8195907754
 20
9.0334772147
 30
0.0
 10
6.8150322727
 20
9.0344284873
 30
0.0
  0
SPLINE
  5
2B8
100
AcDbEntity
  8
0
100
AcDbSpline
 62
9
  6
CONTINUOUS
 70
0
 71
3
 72
22
 73
18
 74
0
 42
0.0000001
 43
0.0000001
 44
0.0000000001
 40
0.0
 40
0.0
 40
0.0
 40
0.0
 40
0.1601801313
 40
0.2332628899
 40
0.3013267553
 40
0.3642216021
 40
0.4218850836
 40
0.4745802962
 40
0.5230897842
 40
0.5688559682
 40
0.6139921596
 40
0.6611543196
 40
0.7131134101
 40
0.7719936584
 40
0.8390206582
 40
0.9149065049
 40
1.0
 40
1.0
 40
1.0
 40
1.0
 10
6.9064190875
 20
9.0957235625
 30
0.0
 10
6.9042034955
 20
9.0972723196
 30
0.0
 10
6.900907584
 20
9.0994357797
 30
0.0
 10
6.8964562387
 20
9.1018993105
 30
0.0
 10
6.8933432466
 20
9.103377743
 30
0.0
 10
6.8903660495
 20
9.1045159433
 30
0.0
 10
6.8875371422
 20
9.1052800052
 30
0.0
 10
6.8848692167
 20
9.1056330731
 30
0.0
 10
6.8823754366
 20
9.1055305143
 30
0.0
 10
6.880079386
 20
9.1049251668
 30
0.0
 10
6.8780213483
 20
9.1037785999
 30
0.0
 10
6.8762501731
 20
9.102071224
 30
0.0
 10
6.874805858
 20
9.0998058167
 30
0.0
 10
6.8736881439
 20
9.0970057554
 30
0.0
 10
6.8728885306
 20
9.093686236
 30
0.0
 10
6.872411976
 20
9.0898616539
 30
0.0
 10
6.8723204623
 20
9.0871431036
 30
0.0
 10
6.8723201802
 20
9.0857070455
 30
0.0
  0
SPLINE
  5
2B9
100
AcDbEntity
  8
0
100
AcDbSpline
 62
9
  6
CONTINUOUS
 70
0
 71
3
 72
23
 73
19
 74
0
 42
0.0000001
 43
0.0000001
 44
0.0000000001
 40
0.0
 40
0.0
 40
0.0
 40
0.0
 40
0.0342135337
 40
0.0685106469
 40
0.1029447189
 40
0.1374738133
 40
0.2065696349
 40
0.2757497521
 40
0.3445053807
 40
0.4125569287
 40
0.5455197752
 40
0.6727862674
 40
0.7337154373
 40
0.7925407378
 40
0.849000547
 40
0.9026788139
 40
0.9531424433
 40
1.0
 40
1.0
 40
1.0
 40
1.0
 10
7.0473183383
 20
8.997587868
 30
0.0
 10
7.0453264096
 20
8.9975878395
 30
0.0
 10
7.041334717
 20
8.9978172137
 30
0.0
 10
7.035410233
 20
8.9987819094
 30
0.0
 10
7.029584389
 20
9.0002979296
 30
0.0
 10
7.0219935357
 20
9.0029648997
 30
0.0
 10
7.012907045
 20
9.0073581657
 30
0.0
 10
7.0026678026
 20
9.0137413671
 30
0.0
 10
6.9929321358
 20
9.0207552604
 30
0.0
 10
6.9806559963
 20
9.0305590883
 30
0.0
 10
6.9663029927
 20
9.0431906906
 30
0.0
 10
6.9525711788
 20
9.0558804417
 30
0.0
 10
6.9420231789
 20
9.0656566673
 30
0.0
 10
6.9344609827
 20
9.0725898005
 30
0.0
 10
6.9271281525
 20
9.0791477132
 30
0.0
 10
6.920035387
 20
9.0852418967
 30
0.0
 10
6.913202497
 20
9.0907757045
 30
0.0
 10
6.9086548935
 20
9.094160309
 30
0.0
 10
6.9064189971
 20
9.0957233614
 30
0.0
  0
SPLINE
  5
2BA
100
AcDbEntity
  8
0
100
AcDbSpline
 62
9
  6
CONTINUOUS
 70
0
 71
3
 72
19
 73
15
 74
0
 42
0.0000001
 43
0.0000001
 44
0.0000000001
 40
0.0
 40
0.0
 40
0.0
 40
0.0
 40
0.0707717578
 40
0.1410508986
 40
0.2787746788
 40
0.3460012194
 40
0.4120832558
 40
0.5408179948
 40
0.6648506333
 40
0.7836410435
 40
0.8407428849
 40
0.8960441641
 40
0.9492669848
 40
1.0
 40
1.0
 40
1.0
 40
1.0
 10
7.0473183383
 20
8.969808464
 30
0.0
 10
7.0416038038
 20
8.9698074729
 30
0.0
 10
7.0302095979
 20
8.9702692766
 30
0.0
 10
7.0078340496
 20
8.9728767488
 30
0.0
 10
6.9860675616
 20
8.977611297
 30
0.0
 10
6.9650113508
 20
8.9835764796
 30
0.0
 10
6.9448327858
 20
8.9899534583
 30
0.0
 10
6.9205393584
 20
8.9984907089
 30
0.0
 10
6.8924059872
 20
9.0089111407
 30
0.0
 10
6.8696767779
 20
9.0172731569
 30
0.0
 10
6.8520515606
 20
9.0234267029
 30
0.0
 10
6.8393498871
 20
9.0276158166
 30
0.0
 10
6.827040129
 20
9.0313403138
 30
0.0
 10
6.8189220683
 20
9.0334873012
 30
0.0
 10
6.8149359851
 20
9.0344319411
 30
0.0
  0
SPLINE
  5
2BB
100
AcDbEntity
  8
0
100
AcDbSpline
 62
9
  6
CONTINUOUS
 70
0
 71
3
 72
31
 73
27
 74
0
 42
0.0000001
 43
0.0000001
 44
0.0000000001
 40
0.0
 40
0.0
 40
0.0
 40
0.0
 40
0.0104887656
 40
0.0228174275
 40
0.0369696836
 40
0.0528820989
 40
0.070490061
 40
0.0897167621
 40
0.132672654
 40
0.1810195504
 40
0.2340685854
 40
0.291483082
 40
0.3530690886
 40
0.385388007
 40
0.4187091333
 40
0.4530366188
 40
0.4883890405
 40
0.5247967418
 40
0.5622965252
 40
0.600918235
 40
0.6407070755
 40
0.6817295178
 40
0.7240076091
 40
0.8121211415
 40
0.9047784204
 40
1.0
 40
1.0
 40
1.0
 40
1.0
 10
7.4657269135
 20
10.0850726653
 30
0.0
 10
7.4664232287
 20
10.0854752003
 30
0.0
 10
7.467849647
 20
10.0865032386
 30
0.0
 10
7.469932299
 20
10.088431899
 30
0.0
 10
7.4721216736
 20
10.0908392183
 30
0.0
 10
7.4744034697
 20
10.0936976352
 30
0.0
 10
7.4767593243
 20
10.0969873902
 30
0.0
 10
7.4801019508
 20
10.1021139016
 30
0.0
 10
7.4843180686
 20
10.1094747002
 30
0.0
 10
7.4892468054
 20
10.119391441
 30
0.0
 10
7.4940924207
 20
10.130570072
 30
0.0
 10
7.4986699416
 20
10.1429507177
 30
0.0
 10
7.5020652079
 20
10.154053915
 30
0.0
 10
7.5045014307
 20
10.1635019679
 30
0.0
 10
7.5061879271
 20
10.1709811525
 30
0.0
 10
7.5076741207
 20
10.1787398496
 30
0.0
 10
7.5089246447
 20
10.1867799056
 30
0.0
 10
7.5099054345
 20
10.1951025179
 30
0.0
 10
7.5105818659
 20
10.2037072188
 30
0.0
 10
7.510903834
 20
10.2125924393
 30
0.0
 10
7.5108204464
 20
10.2217535981
 30
0.0
 10
7.5102825917
 20
10.2311810649
 30
0.0
 10
7.5088687662
 20
10.244253498
 30
0.0
 10
7.5055995885
 20
10.2610879833
 30
0.0
 10
7.4989382912
 20
10.2812337575
 30
0.0
 10
7.4926416986
 20
10.2942529661
 30
0.0
 10
7.4889910532
 20
10.3005765809
 30
0.0
  0
SPLINE
  5
2BC
100
AcDbEntity
  8
0
100
AcDbSpline
 62
9
  6
CONTINUOUS
 70
0
 71
3
 72
19
 73
15
 74
0
 42
0.0000001
 43
0.0000001
 44
0.0000000001
 40
0.0
 40
0.0
 40
0.0
 40
0.0
 40
0.050518136
 40
0.1035969575
 40
0.1587970182
 40
0.2158366214
 40
0.334586457
 40
0.4586471931
 40
0.5874594445
 40
0.6535941525
 40
0.7208804482
 40
0.8587555917
 40
0.9291287986
 40
1.0
 40
1.0
 40
1.0
 40
1.0
 10
7.805928537
 20
10.7533314913
 30
0.0
 10
7.8087258921
 20
10.7503330961
 30
0.0
 10
7.8146285683
 20
10.7443388276
 30
0.0
 10
7.8240060683
 20
10.7354926329
 30
0.0
 10
7.8340019528
 20
10.7265377708
 30
0.0
 10
7.8481917045
 20
10.7142806551
 30
0.0
 10
7.8668850744
 20
10.6986915749
 30
0.0
 10
7.8901067714
 20
10.6794387104
 30
0.0
 10
7.9097709759
 20
10.6625847562
 30
0.0
 10
7.9254900345
 20
10.6482268216
 30
0.0
 10
7.9412993496
 20
10.6328963997
 30
0.0
 10
7.9564001393
 20
10.6163267592
 30
0.0
 10
7.9699431216
 20
10.598141561
 30
0.0
 10
7.9760856685
 20
10.5884435339
 30
0.0
 10
7.9789609765
 20
10.583460848
 30
0.0
  0
SPLINE
  5
2BD
100
AcDbEntity
  8
0
100
AcDbSpline
 62
9
  6
CONTINUOUS
 70
0
 71
3
 72
19
 73
15
 74
0
 42
0.0000001
 43
0.0000001
 44
0.0000000001
 40
0.0
 40
0.0
 40
0.0
 40
0.0
 40
0.1266759681
 40
0.2580108971
 40
0.3246921387
 40
0.3914986089
 40
0.4579866138
 40
0.5237668918
 40
0.6520044686
 40
0.7142232749
 40
0.7748320865
 40
0.8336851987
 40
0.8908479651
 40
1.0
 40
1.0
 40
1.0
 40
1.0
 10
7.7994658885
 20
10.6425259149
 30
0.0
 10
7.8028807876
 20
10.6463599328
 30
0.0
 10
7.8092619768
 20
10.6546985923
 30
0.0
 10
7.8156201614
 20
10.6662900688
 30
0.0
 10
7.8195480496
 20
10.6762918965
 30
0.0
 10
7.8218587412
 20
10.6840713089
 30
0.0
 10
7.8234712648
 20
10.6919891079
 30
0.0
 10
7.8246160894
 20
10.7024975685
 30
0.0
 10
7.8242047873
 20
10.7129566527
 30
0.0
 10
7.8222972261
 20
10.7229652085
 30
0.0
 10
7.8201920384
 20
10.7300360332
 30
0.0
 10
7.8174269948
 20
10.7366547864
 30
0.0
 10
7.8130527518
 20
10.7446764871
 30
0.0
 10
7.8089465125
 20
10.7500966603
 30
0.0
 10
7.8059285411
 20
10.7533314869
 30
0.0
  0
SPLINE
  5
2BE
100
AcDbEntity
  8
0
100
AcDbSpline
 62
9
  6
CONTINUOUS
 70
0
 71
3
 72
19
 73
15
 74
0
 42
0.0000001
 43
0.0000001
 44
0.0000000001
 40
0.0
 40
0.0
 40
0.0
 40
0.0
 40
0.0707714048
 40
0.1410503109
 40
0.2787736271
 40
0.3459999001
 40
0.4120822007
 40
0.5408177956
 40
0.6648490922
 40
0.7836395018
 40
0.8407408412
 40
0.8960415351
 40
0.9492655082
 40
1.0
 40
1.0
 40
1.0
 40
1.0
 10
6.1156757
 20
10.583460848
 30
0.0
 10
6.1185320113
 20
10.5884101767
 30
0.0
 10
6.1246290715
 20
10.5980466246
 30
0.0
 10
6.1380743855
 20
10.616120484
 30
0.0
 10
6.1530574432
 20
10.6326032929
 30
0.0
 10
6.1687513093
 20
10.6478555191
 30
0.0
 10
6.1843627266
 20
10.6621422319
 30
0.0
 10
6.2039022606
 20
10.6789123453
 30
0.0
 10
6.2269932363
 20
10.6980654958
 30
0.0
 10
6.2455991214
 20
10.713568152
 30
0.0
 10
6.259740593
 20
10.7257549053
 30
0.0
 10
6.2697192534
 20
10.7346600176
 30
0.0
 10
6.2790996576
 20
10.7434582086
 30
0.0
 10
6.2850181433
 20
10.7494151307
 30
0.0
 10
6.2878293494
 20
10.7523948419
 30
0.0
  0
SPLINE
  5
2BF
100
AcDbEntity
  8
0
100
AcDbSpline
 62
9
  6
CONTINUOUS
 70
0
 71
3
 72
19
 73
15
 74
0
 42
0.0000001
 43
0.0000001
 44
0.0000000001
 40
0.0
 40
0.0
 40
0.0
 40
0.0
 40
0.1192107065
 40
0.2446702741
 40
0.3092354883
 40
0.374532185
 40
0.4401356683
 40
0.5056960303
 40
0.6355055759
 40
0.6993674575
 40
0.762127239
 40
0.8236053922
 40
0.883795616
 40
1.0
 40
1.0
 40
1.0
 40
1.0
 10
6.2951707987
 20
10.6425259199
 30
0.0
 10
6.2919935236
 20
10.6460931491
 30
0.0
 10
6.2859697527
 20
10.6538727616
 30
0.0
 10
6.2798281433
 20
10.6646938277
 30
0.0
 10
6.2758702129
 20
10.6741394642
 30
0.0
 10
6.2734377579
 20
10.6815943706
 30
0.0
 10
6.27163372
 20
10.6892683671
 30
0.0
 10
6.2701573032
 20
10.6996326845
 30
0.0
 10
6.2701907415
 20
10.710099665
 30
0.0
 10
6.2717329815
 20
10.720272078
 30
0.0
 10
6.2736138759
 20
10.7275860948
 30
0.0
 10
6.2762235248
 20
10.7345171939
 30
0.0
 10
6.2805190934
 20
10.7430395023
 30
0.0
 10
6.2846753682
 20
10.7488405948
 30
0.0
 10
6.287778105
 20
10.7523128783
 30
0.0
  0
SPLINE
  5
2C0
100
AcDbEntity
  8
0
100
AcDbSpline
 62
9
  6
CONTINUOUS
 70
0
 71
3
 72
19
 73
15
 74
0
 42
0.0000001
 43
0.0000001
 44
0.0000000001
 40
0.0
 40
0.0
 40
0.0
 40
0.0
 40
0.0505167745
 40
0.103594659
 40
0.1587972494
 40
0.2158389585
 40
0.3345869146
 40
0.4586469306
 40
0.5874600711
 40
0.653595478
 40
0.7208815587
 40
0.8587550256
 40
0.9291288842
 40
1.0
 40
1.0
 40
1.0
 40
1.0
 10
6.0550796273
 20
10.348675038
 30
0.0
 10
6.0562775858
 20
10.3525967152
 30
0.0
 10
6.0585173367
 20
10.3607055501
 30
0.0
 10
6.061489536
 20
10.3732498338
 30
0.0
 10
6.0642470743
 20
10.3863841859
 30
0.0
 10
6.0677673583
 20
10.4048016202
 30
0.0
 10
6.0719209675
 20
10.4287850914
 30
0.0
 10
6.0769833037
 20
10.4585220069
 30
0.0
 10
6.081747472
 20
10.4839786921
 30
0.0
 10
6.0863227582
 20
10.5047707795
 30
0.0
 10
6.0916949671
 20
10.5261270214
 30
0.0
 10
6.0984919444
 20
10.5474902868
 30
0.0
 10
6.1074717327
 20
10.5683102811
 30
0.0
 10
6.1127980951
 20
10.5784794975
 30
0.0
 10
6.1156757
 20
10.583460848
 30
0.0
  0
SPLINE
  5
2C1
100
AcDbEntity
  8
0
100
AcDbSpline
 62
9
  6
CONTINUOUS
 70
0
 71
3
 72
19
 73
15
 74
0
 42
0.0000001
 43
0.0000001
 44
0.0000000001
 40
0.0
 40
0.0
 40
0.0
 40
0.0
 40
0.1266759993
 40
0.2580109519
 40
0.3246922015
 40
0.3914986773
 40
0.4579866852
 40
0.5237669635
 40
0.6520045332
 40
0.7142233327
 40
0.7748321356
 40
0.8336852375
 40
0.8908479921
 40
1.0
 40
1.0
 40
1.0
 40
1.0
 10
6.1542713953
 20
10.3984810119
 30
0.0
 10
6.1492435877
 20
10.3995213923
 30
0.0
 10
6.1388315001
 20
10.4008783344
 30
0.0
 10
6.1256138924
 20
10.4005889447
 30
0.0
 10
6.1149881104
 20
10.3989896808
 30
0.0
 10
6.1070955955
 20
10.3971010913
 30
0.0
 10
6.0994323188
 20
10.3945386774
 30
0.0
 10
6.0897593134
 20
10.3902758935
 30
0.0
 10
6.0809071331
 20
10.384690153
 30
0.0
 10
6.0731932515
 20
10.3780338787
 30
0.0
 10
6.0681223328
 20
10.3726753208
 30
0.0
 10
6.0637728474
 20
10.3669713471
 30
0.0
 10
6.0590129737
 20
10.3591722929
 30
0.0
 10
6.0563720865
 20
10.3529061004
 30
0.0
 10
6.0550796304
 20
10.3486750484
 30
0.0
  0
SPLINE
  5
2C2
100
AcDbEntity
  8
0
100
AcDbSpline
 62
9
  6
CONTINUOUS
 70
0
 71
3
 72
23
 73
19
 74
0
 42
0.0000001
 43
0.0000001
 44
0.0000000001
 40
0.0
 40
0.0
 40
0.0
 40
0.0
 40
0.0468558077
 40
0.0973194705
 40
0.1509980378
 40
0.2074569112
 40
0.2662789442
 40
0.3272030101
 40
0.4544573349
 40
0.5874069968
 40
0.6554494713
 40
0.7242021296
 40
0.7933916511
 40
0.8625040505
 40
0.8970421355
 40
0.9314840356
 40
0.9657861278
 40
1.0
 40
1.0
 40
1.0
 40
1.0
 10
6.1542715721
 20
10.3984809861
 30
0.0
 10
6.1540358733
 20
10.4011987503
 30
0.0
 10
6.153378502
 20
10.4068292843
 30
0.0
 10
6.1520025384
 20
10.4155135538
 30
0.0
 10
6.1502712417
 20
10.4247031233
 30
0.0
 10
6.1482584239
 20
10.4343322736
 30
0.0
 10
6.1460353804
 20
10.4443473578
 30
0.0
 10
6.1428431545
 20
10.4583691202
 30
0.0
 10
6.138719706
 20
10.4766043227
 30
0.0
 10
6.1349571378
 20
10.4953481796
 30
0.0
 10
6.132605487
 20
10.5108801433
 30
0.0
 10
6.1313991511
 20
10.5228182455
 30
0.0
 10
6.1309894554
 20
10.5348785454
 30
0.0
 10
6.1317269862
 20
10.5449464536
 30
0.0
 10
6.1332127832
 20
10.5528557874
 30
0.0
 10
6.1348130267
 20
10.5586603766
 30
0.0
 10
6.1369400307
 20
10.5642742119
 30
0.0
 10
6.1387373694
 20
10.5678460851
 30
0.0
 10
6.1397334027
 20
10.5695711268
 30
0.0
  0
SPLINE
  5
2C3
100
AcDbEntity
  8
0
100
AcDbSpline
 62
9
  6
CONTINUOUS
 70
0
 71
3
 72
31
 73
27
 74
0
 42
0.0000001
 43
0.0000001
 44
0.0000000001
 40
0.0
 40
0.0
 40
0.0
 40
0.0
 40
0.0952701123
 40
0.1879598372
 40
0.27607889
 40
0.3183519078
 40
0.3593656934
 40
0.3991435759
 40
0.437753811
 40
0.4752434189
 40
0.5116435609
 40
0.5469906105
 40
0.5813141382
 40
0.6146320023
 40
0.6469479332
 40
0.7085285236
 40
0.7659380528
 40
0.8189822798
 40
0.8673251252
 40
0.9102785974
 40
0.9295047745
 40
0.9471127202
 40
0.963025673
 40
0.9771791308
 40
0.9895095594
 40
1.0
 40
1.0
 40
1.0
 40
1.0
 10
6.6056453917
 20
10.3005767145
 30
0.0
 10
6.6019929609
 20
10.2942498891
 30
0.0
 10
6.5956944214
 20
10.2812247533
 30
0.0
 10
6.5890325359
 20
10.2610723109
 30
0.0
 10
6.5857645026
 20
10.2442351209
 30
0.0
 10
6.5843523162
 20
10.231163231
 30
0.0
 10
6.5838156044
 20
10.2217376612
 30
0.0
 10
6.5837331142
 20
10.2125789414
 30
0.0
 10
6.5840557632
 20
10.2036963084
 30
0.0
 10
6.5847326618
 20
10.1950939512
 30
0.0
 10
6.5857136436
 20
10.186773205
 30
0.0
 10
6.586964141
 20
10.1787345125
 30
0.0
 10
6.5884501771
 20
10.1709768228
 30
0.0
 10
6.5901364883
 20
10.1634984512
 30
0.0
 10
6.5925724404
 20
10.1540513193
 30
0.0
 10
6.5959672846
 20
10.142949148
 30
0.0
 10
6.6005442164
 20
10.1305696195
 30
0.0
 10
6.6053893156
 20
10.1193920069
 30
0.0
 10
6.6103176125
 20
10.1094760963
 30
0.0
 10
6.6145333815
 20
10.1021157813
 30
0.0
 10
6.6178758482
 20
10.0969894845
 30
0.0
 10
6.6202316937
 20
10.0936997561
 30
0.0
 10
6.622513582
 20
10.0908412733
 30
0.0
 10
6.6247031626
 20
10.0884338082
 30
0.0
 10
6.6267860197
 20
10.0865048782
 30
0.0
 10
6.6282125681
 20
10.0854765954
 30
0.0
 10
6.6289089519
 20
10.085073933
 30
0.0
  0
SPLINE
  5
2C4
100
AcDbEntity
  8
0
100
AcDbSpline
 62
9
  6
CONTINUOUS
 70
0
 71
3
 72
22
 73
18
 74
0
 42
0.0000001
 43
0.0000001
 44
0.0000000001
 40
0.0
 40
0.0
 40
0.0
 40
0.0
 40
0.1601877326
 40
0.2332756206
 40
0.3013433672
 40
0.3642398388
 40
0.4219029842
 40
0.4745964577
 40
0.5231034748
 40
0.5688672307
 40
0.6140016271
 40
0.6611625401
 40
0.7131200936
 40
0.7719978672
 40
0.8390221613
 40
0.9149062139
 40
1.0
 40
1.0
 40
1.0
 40
1.0
 10
6.2951709692
 20
10.6425256713
 30
0.0
 10
6.2976201996
 20
10.6436701537
 30
0.0
 10
6.3011420359
 20
10.6454429374
 30
0.0
 10
6.305501528
 20
10.6480663865
 30
0.0
 10
6.3083385903
 20
10.6500232766
 30
0.0
 10
6.3108129924
 20
10.6520326621
 30
0.0
 10
6.3128891175
 20
10.6541006623
 30
0.0
 10
6.3145287167
 20
10.6562347148
 30
0.0
 10
6.3156865641
 20
10.6584457407
 30
0.0
 10
6.3163100445
 20
10.6607368843
 30
0.0
 10
6.316345787
 20
10.6630924527
 30
0.0
 10
6.3157524695
 20
10.6654799336
 30
0.0
 10
6.3145125591
 20
10.6678633327
 30
0.0
 10
6.3126464109
 20
10.6702312192
 30
0.0
 10
6.3101713642
 20
10.6725833526
 30
0.0
 10
6.3070973546
 20
10.6749082649
 30
0.0
 10
6.3047886969
 20
10.6763467481
 30
0.0
 10
6.3035451195
 20
10.6770650094
 30
0.0
  0
SPLINE
  5
2C5
100
AcDbEntity
  8
0
100
AcDbSpline
 62
9
  6
CONTINUOUS
 70
0
 71
3
 72
23
 73
19
 74
0
 42
0.0000001
 43
0.0000001
 44
0.0000000001
 40
0.0
 40
0.0
 40
0.0
 40
0.0
 40
0.0342104102
 40
0.0685046144
 40
0.1029359419
 40
0.1374624543
 40
0.2065535919
 40
0.2757291038
 40
0.3444798124
 40
0.4125277098
 40
0.5454900921
 40
0.6727564256
 40
0.7336869531
 40
0.7925162618
 40
0.8489833254
 40
0.9026699679
 40
0.9531402787
 40
1.0
 40
1.0
 40
1.0
 40
1.0
 10
6.1397334746
 20
10.5695710853
 30
0.0
 10
6.1407293226
 20
10.5712960029
 30
0.0
 10
6.1429236007
 20
10.5746379382
 30
0.0
 10
6.1467209082
 20
10.5792859952
 30
0.0
 10
6.1509463291
 20
10.5835730445
 30
0.0
 10
6.1570508797
 20
10.5888131631
 30
0.0
 10
6.1653981442
 20
10.5944853958
 30
0.0
 10
6.17604489
 20
10.600161127
 30
0.0
 10
6.1869859873
 20
10.6050857347
 30
0.0
 10
6.2016137006
 20
10.6108156764
 30
0.0
 10
6.2197293274
 20
10.6169296749
 30
0.0
 10
6.237584963
 20
10.6224767544
 30
0.0
 10
6.2513257337
 20
10.6267234902
 30
0.0
 10
6.2611118066
 20
10.6298061774
 30
0.0
 10
6.2704586224
 20
10.6328780029
 30
0.0
 10
6.2792839521
 20
10.6359738403
 30
0.0
 10
6.287493775
 20
10.6391246832
 30
0.0
 10
6.2926992351
 20
10.6413708492
 30
0.0
 10
6.2951709502
 20
10.6425256975
 30
0.0
  0
SPLINE
  5
2C6
100
AcDbEntity
  8
0
100
AcDbSpline
 62
9
  6
CONTINUOUS
 70
0
 71
3
 72
23
 73
19
 74
0
 42
0.0000001
 43
0.0000001
 44
0.0000000001
 40
0.0
 40
0.0
 40
0.0
 40
0.0
 40
0.0468618514
 40
0.0973409373
 40
0.1510380763
 40
0.2075124739
 40
0.2663423443
 40
0.3272680239
 40
0.4545188036
 40
0.5874687344
 40
0.655509701
 40
0.7242566095
 40
0.7934347165
 40
0.862532319
 40
0.8970625573
 40
0.9314968418
 40
0.9657919929
 40
1.0
 40
1.0
 40
1.0
 40
1.0
 10
7.7994657265
 20
10.6425256977
 30
0.0
 10
7.8019375726
 20
10.6413708421
 30
0.0
 10
7.8071436553
 20
10.6391245296
 30
0.0
 10
7.8153546429
 20
10.6359732679
 30
0.0
 10
7.8241814026
 20
10.6328768506
 30
0.0
 10
7.833529207
 20
10.6298046271
 30
0.0
 10
7.8433154639
 20
10.6267219598
 30
0.0
 10
7.8570551833
 20
10.6224757744
 30
0.0
 10
7.8749090468
 20
10.6169294842
 30
0.0
 10
7.8930226155
 20
10.6108157716
 30
0.0
 10
7.9076488655
 20
10.605085829
 30
0.0
 10
7.9185894439
 20
10.6001612749
 30
0.0
 10
7.9292367389
 20
10.5944859838
 30
0.0
 10
7.937584964
 20
10.588813816
 30
0.0
 10
7.9436901446
 20
10.5835732552
 30
0.0
 10
7.947915865
 20
10.5792858827
 30
0.0
 10
7.9517132175
 20
10.5746377568
 30
0.0
 10
7.9539074458
 20
10.5712958926
 30
0.0
 10
7.9549032021
 20
10.5695710855
 30
0.0
  0
SPLINE
  5
2C7
100
AcDbEntity
  8
0
100
AcDbSpline
 62
9
  6
CONTINUOUS
 70
0
 71
3
 72
31
 73
27
 74
0
 42
0.0000001
 43
0.0000001
 44
0.0000000001
 40
0.0
 40
0.0
 40
0.0
 40
0.0
 40
0.0951750575
 40
0.1877170775
 40
0.2757615906
 40
0.3180220925
 40
0.3590352188
 40
0.3988216956
 40
0.4374464095
 40
0.4749529475
 40
0.5113698431
 40
0.5467333687
 40
0.5810734179
 40
0.6144081004
 40
0.6467411599
 40
0.7083564141
 40
0.7658002022
 40
0.8188769423
 40
0.8672477124
 40
0.9102243643
 40
0.9294610736
 40
0.9470791755
 40
0.9630021017
 40
0.9771651745
 40
0.9895036473
 40
1.0
 40
1.0
 40
1.0
 40
1.0
 10
7.4889910504
 20
10.3005765792
 30
0.0
 10
7.4853419767
 20
10.3068968933
 30
0.0
 10
7.4772250675
 20
10.3188508896
 30
0.0
 10
7.4631216833
 20
10.3346799365
 30
0.0
 10
7.4501915652
 20
10.3459207607
 30
0.0
 10
7.4395858636
 20
10.3536802371
 30
0.0
 10
7.4316938923
 20
10.3588608709
 30
0.0
 10
7.4238037606
 20
10.363515512
 30
0.0
 10
7.4159486837
 20
10.3676816852
 30
0.0
 10
7.40815836
 20
10.3714009377
 30
0.0
 10
7.4004593965
 20
10.3747156196
 30
0.0
 10
7.3928696785
 20
10.3776553714
 30
0.0
 10
7.3854053323
 20
10.3802502691
 30
0.0
 10
7.3780825618
 20
10.3825318553
 30
0.0
 10
7.3686786284
 20
10.3851491413
 30
0.0
 10
7.3573605039
 20
10.3877636646
 30
0.0
 10
7.3443437633
 20
10.3899929405
 30
0.0
 10
7.3322341528
 20
10.3913883874
 30
0.0
 10
7.3211762899
 20
10.3920800641
 30
0.0
 10
7.3126894867
 20
10.3921099181
 30
0.0
 10
7.3065753889
 20
10.3917787239
 30
0.0
 10
7.3025461128
 20
10.3913835558
 30
0.0
 10
7.2989273328
 20
10.3908368258
 30
0.0
 10
7.2957453892
 20
10.3901446626
 30
0.0
 10
7.2930315351
 20
10.3893054538
 30
0.0
 10
7.2914266217
 20
10.388584013
 30
0.0
 10
7.2907293023
 20
10.3881820708
 30
0.0
  0
SPLINE
  5
2C8
100
AcDbEntity
  8
0
100
AcDbSpline
 62
9
  6
CONTINUOUS
 70
0
 71
3
 72
22
 73
18
 74
0
 42
0.0000001
 43
0.0000001
 44
0.0000000001
 40
0.0
 40
0.0
 40
0.0
 40
0.0
 40
0.1601858728
 40
0.2332739382
 40
0.3013421013
 40
0.3642389637
 40
0.4219024085
 40
0.4745960514
 40
0.5231030803
 40
0.5688667004
 40
0.6140008937
 40
0.6611617053
 40
0.7131194737
 40
0.7719978238
 40
0.8390227209
 40
0.9149069306
 40
1.0
 40
1.0
 40
1.0
 40
1.0
 10
7.940364998
 20
10.3984809752
 30
0.0
 10
7.9401315403
 20
10.3957876373
 30
0.0
 10
7.9399059005
 20
10.3918512282
 30
0.0
 10
7.9399981158
 20
10.3867640342
 30
0.0
 10
7.9402742927
 20
10.3833285631
 30
0.0
 10
7.9407772682
 20
10.380180918
 30
0.0
 10
7.9415301489
 20
10.3773488907
 30
0.0
 10
7.9425585002
 20
10.3748618898
 30
0.0
 10
7.9438943929
 20
10.3727536229
 30
0.0
 10
7.9455668607
 20
10.3710680875
 30
0.0
 10
7.9475890025
 20
10.3698593582
 30
0.0
 10
7.9499533223
 20
10.3691794846
 30
0.0
 10
7.9526374094
 20
10.3690616546
 30
0.0
 10
7.9556211782
 20
10.3694939427
 30
0.0
 10
7.9588957441
 20
10.3704614277
 30
0.0
 10
7.9624461973
 20
10.3719612222
 30
0.0
 10
7.9648462947
 20
10.3732413732
 30
0.0
 10
7.9660901132
 20
10.3739592266
 30
0.0
  0
ENDSEC
  0
SECTION
  2
OBJECTS
  0
DICTIONARY
  5
C
100
AcDbDictionary
280
0
281
1
  3
ACAD_GROUP
350
D
  3
ACAD_MLINESTYLE
350
17
  3
ACAD_LAYOUT
350
1A
  3
ACAD_PLOTSETTINGS
350
19
  3
ACAD_PLOTSTYLENAME
350
E
  0
DICTIONARY
  5
D
102
{ACAD_REACTORS
330
C
102
}
100
AcDbDictionary
280
0
281
1
  0
ACDBDICTIONARYWDFLT
  5
E
102
{ACAD_REACTORS
330
C
102
}
100
AcDbDictionary
281
1
  3
Normal
350
F
100
AcDbDictionaryWithDefault
340
F
  0
DICTIONARY
  5
17
102
{ACAD_REACTORS
330
C
102
}
100
AcDbDictionary
280
0
281
1
  3
Standard
350
18
  0
DICTIONARY
  5
19
102
{ACAD_REACTORS
330
C
102
}
100
AcDbDictionary
281
1
  0
DICTIONARY
  5
1A
102
{ACAD_REACTORS
330
C
102
}
100
AcDbDictionary
281
1
  3
Model
350
2C9
  3
Layout1
350
2CA
  0
ACDBPLACEHOLDER
  5
F
102
{ACAD_REACTORS
330
E
102
}
  0
MLINESTYLE
  5
18
102
{ACAD_REACTORS
330
17
102
}
100
AcDbMlineStyle
  2
STANDARD
 70
0
  3

 62
256
 51
90.0
 52
90.0
 71
2
 49
0.5
 62
256
  6
BYLAYER
 49
-0.5
 62
256
  6
BYLAYER
  0
LAYOUT
  5
2C9
102
{ACAD_REACTORS
330
1A
102
}
100
AcDbPlotSettings
  1

  2
none_device
  4
ANSI_C_(22.00_x_17.00_Inches)
  6

 40
0.0
 41
0.0
 42
0.0
 43
0.0
 44
558.8
 45
431.8
 46
0.0
 47
0.0
 48
0.0
 49
0.0
140
0.0
141
0.0
142
1.0
143
1.0
 70
1024
 72
0
 73
0
 74
0
  7

 75
0
147
1.0
148
0.0
149
0.0
100
AcDbLayout
  1
Model
 70
0
 71
0
 10
0.0
 20
0.0
 11
22.0
 21
17.0
 12
0.0
 22
0.0
 32
0.0
 14
0.0
 24
0.0
 34
0.0
 15
0.0
 25
0.0
 35
0.0
146
0.0
 13
0.0
 23
0.0
 33
0.0
 16
1.0
 26
0.0
 36
0.0
 17
0.0
 27
1.0
 37
0.0
 76
0
330
202
345
0
346
0
  0
LAYOUT
  5
2CA
102
{ACAD_REACTORS
330
1A
102
}
100
AcDbPlotSettings
  1

  2
none_device
  4
ANSI_C_(22.00_x_17.00_Inches)
  6

 40
0.0
 41
0.0
 42
0.0
 43
0.0
 44
558.8
 45
431.8
 46
0.0
 47
0.0
 48
0.0
 49
0.0
140
0.0
141
0.0
142
1.0
143
1.0
 70
0
 72
0
 73
0
 74
0
  7

 75
0
147
1.0
148
0.0
149
0.0
100
AcDbLayout
  1
Layout1
 70
0
 71
1
 10
0.0
 20
0.0
 11
22.0
 21
17.0
 12
0.0
 22
0.0
 32
0.0
 14
0.0
 24
0.0
 34
0.0
 15
0.0
 25
0.0
 35
0.0
146
0.0
 13
0.0
 23
0.0
 33
0.0
 16
1.0
 26
0.0
 36
0.0
 17
0.0
 27
1.0
 37
0.0
 76
0
330
203
345
0
346
0
  0
ENDSEC
  0
EOF
