  0
SECTION
  2
HEADER
  9
$ACADVER
  1
AC1015
  9
$DWGCODEPAGE
  3
ANSI_1252
  9
$EXTMAX
 10
46.811023622
 20
33.1102362205
 30
0.0
  9
$EXTMIN
 10
0.0
 20
0.0
 30
0.0
  9
$LIMMIN
 10
0.0
 20
0.0
  9
$LIMMAX
 10
46.811023622
 20
33.1102362205
  9
$VIEWCTR
 10
23.405511811
 20
16.5551181102
  9
$VIEWSIZE
 40
33.1102362205
  9
$CLAYER
  8
0
  9
$LTSCALE
 40
2.5746062992
  9
$CELTYPE
  6
BYLAYER
  9
$DIMSCALE
 40
1.0
  9
$DIMASZ
 40
0.1875
  9
$DIMEXO
 40
0.2925688976
  9
$DIMDLI
 40
1.7788188976
  9
$DIMEXE
 40
0.8425984252
  9
$DIMCEN
 40
0.4212992126
  9
$DIMLFAC
 40
1.0
  9
$DIMBLK
  1
_CLOSED
  9
$DIMTXT
 40
0.15625
  9
$DIMTOL
 70
0
  9
$DIMLIM
 70
0
  9
$DIMTFAC
 40
1.0
  9
$PDMODE
 70
3
  9
$PDSIZE
 40
0.3125
  9
$HANDSEED
  5
266
  9
$TILEMODE
 70
1
  9
$MEASUREMENT
 70
0
  9
$INSUNITS
 70
1
  0
ENDSEC
  0
SECTION
  2
CLASSES
  0
CLASS
  1
ACDBDICTIONARYWDFLT
  2
AcDbDictionaryWithDefault
  3
AutoCAD 2000
 90
0
280
0
281
0
  0
CLASS
  1
ACDBPLACEHOLDER
  2
AcDbPlaceHolder
  3
AutoCAD 2000
 90
0
280
0
281
0
  0
CLASS
  1
LAYOUT
  2
AcDbLayout
  3
AutoCAD 2000
 90
0
280
0
281
0
  0
ENDSEC
  0
SECTION
  2
TABLES
  0
TABLE
  2
VPORT
  5
8
100
AcDbSymbolTable
 70
2
  0
VPORT
  5
1F4
100
AcDbSymbolTableRecord
100
AcDbViewportTableRecord
  2
*ACTIVE
 70
0
 10
0.0
 20
0.0
 11
1.0
 21
1.0
 12
23.405511811
 22
16.5551181102
 13
0.0
 23
0.0
 14
1.0
 24
1.0
 15
0.0
 25
0.0
 16
0.0
 26
0.0
 36
1.0
 17
0.0
 27
0.0
 37
0.0
 40
33.1102362205
 41
1.4137931034
 42
50.0
 43
0.0
 44
0.0
 50
0.0
 51
0.0
 71
0
 72
100
 73
1
 74
1
 75
0
 76
0
 77
0
 78
0
  0
ENDTAB
  0
TABLE
  2
LTYPE
  5
5
100
AcDbSymbolTable
 70
6
  0
LTYPE
  5
14
100
AcDbSymbolTableRecord
100
AcDbLinetypeTableRecord
  2
BYBLOCK
 70
0
  3

 72
65
 73
0
 40
0.0
  0
LTYPE
  5
15
100
AcDbSymbolTableRecord
100
AcDbLinetypeTableRecord
  2
BYLAYER
 70
0
  3

 72
65
 73
0
 40
0.0
  0
LTYPE
  5
16
100
AcDbSymbolTableRecord
100
AcDbLinetypeTableRecord
  2
CONTINUOUS
 70
64
  3
Solid line
 72
65
 73
0
 40
0.0
  0
LTYPE
  5
1F5
100
AcDbSymbolTableRecord
100
AcDbLinetypeTableRecord
  2
CENTER
 70
64
  3
____ _ ____ _ ____ _ ____ _ ____ _ ____ _ ____
 72
65
 73
4
 40
0.6
 49
0.375
 74
0
 49
-0.075
 74
0
 49
0.075
 74
0
 49
-0.075
 74
0
  0
LTYPE
  5
1F6
100
AcDbSymbolTableRecord
100
AcDbLinetypeTableRecord
  2
HIDDEN
 70
64
  3
- - - - - - - - - - - - - - - - - - - -
 72
65
 73
2
 40
0.2
 49
0.1
 74
0
 49
-0.1
 74
0
  0
LTYPE
  5
1F7
100
AcDbSymbolTableRecord
100
AcDbLinetypeTableRecord
  2
PHANTOM
 70
64
  3
_____ _ _ _____ _ _ _____ _ _ _____
 72
65
 73
6
 40
0.8
 49
0.45
 74
0
 49
-0.05
 74
0
 49
0.1
 74
0
 49
-0.05
 74
0
 49
0.1
 74
0
 49
-0.05
 74
0
  0
LTYPE
  5
1F8
100
AcDbSymbolTableRecord
100
AcDbLinetypeTableRecord
  2
DOT
 70
64
  3
. . . . . . . . . . . . . . . . . . . .
 72
65
 73
2
 40
0.2
 49
0.1
 74
0
 49
-0.1
 74
0
  0
LTYPE
  5
1F9
100
AcDbSymbolTableRecord
100
AcDbLinetypeTableRecord
  2
DASHED
 70
64
  3
- - - - - - - - - - - - - - - - - - - -
 72
65
 73
2
 40
0.2
 49
0.1
 74
0
 49
-0.1
 74
0
  0
ENDTAB
  0
TABLE
  2
LAYER
  5
2
100
AcDbSymbolTable
 70
36
  0
LAYER
  5
10
100
AcDbSymbolTableRecord
100
AcDbLayerTableRecord
  2
0
 70
0
 62
7
  6
CONTINUOUS
370
-3
390
F
  0
LAYER
  5
1FA
100
AcDbSymbolTableRecord
100
AcDbLayerTableRecord
  2
DEFAULT_1
 70
0
 62
7
  6
CENTER
370
-3
390
F
  0
LAYER
  5
1FB
100
AcDbSymbolTableRecord
100
AcDbLayerTableRecord
  2
DEFAULT_2
 70
0
 62
8
  6
HIDDEN
370
-3
390
F
  0
LAYER
  5
1FC
100
AcDbSymbolTableRecord
100
AcDbLayerTableRecord
  2
DEFAULT_3
 70
0
 62
7
  6
PHANTOM
370
-3
390
F
  0
LAYER
  5
1FD
100
AcDbSymbolTableRecord
100
AcDbLayerTableRecord
  2
3_ALL_SYMBOLS
 70
0
 62
7
  6
CONTINUOUS
370
-3
390
F
  0
LAYER
  5
1FE
100
AcDbSymbolTableRecord
100
AcDbLayerTableRecord
  2
DEFAULT_COORDINATE_SYSTEM
 70
0
 62
7
  6
CONTINUOUS
370
-3
390
F
  0
LAYER
  5
1FF
100
AcDbSymbolTableRecord
100
AcDbLayerTableRecord
  2
DEFAULT_DATUM_AXES
 70
0
 62
7
  6
CONTINUOUS
370
-3
390
F
  0
LAYER
  5
200
100
AcDbSymbolTableRecord
100
AcDbLayerTableRecord
  2
DEFAULT_DATUM_CURVES
 70
0
 62
7
  6
CONTINUOUS
370
-3
390
F
  0
LAYER
  5
201
100
AcDbSymbolTableRecord
100
AcDbLayerTableRecord
  2
DEFAULT_DATUM_PLANES
 70
0
 62
7
  6
CONTINUOUS
370
-3
390
F
  0
ENDTAB
  0
TABLE
  2
STYLE
  5
3
100
AcDbSymbolTable
 70
1
  0
STYLE
  5
11
100
AcDbSymbolTableRecord
100
AcDbTextStyleTableRecord
  2
STANDARD
 70
0
 40
0.0
 41
0.8
 50
0.0
 71
0
 42
0.2
  3
txt
  4

  0
STYLE
  5
202
100
AcDbSymbolTableRecord
100
AcDbTextStyleTableRecord
  2
TEXTSTYLE_1
 70
0
 40
0.0
 41
0.8
 50
0.0
 71
0
 42
0.2
  3
gdt
  4

  0
ENDTAB
  0
TABLE
  2
VIEW
  5
6
100
AcDbSymbolTable
 70
0
  0
ENDTAB
  0
TABLE
  2
UCS
  5
7
100
AcDbSymbolTable
 70
0
  0
ENDTAB
  0
TABLE
  2
APPID
  5
9
100
AcDbSymbolTable
 70
1
  0
APPID
  5
203
100
AcDbSymbolTableRecord
100
AcDbRegAppTableRecord
  2
ACAD
 70
0
  0
ENDTAB
  0
TABLE
  2
BLOCK_RECORD
  5
1
100
AcDbSymbolTable
 70
0
  0
BLOCK_RECORD
  5
204
100
AcDbSymbolTableRecord
100
AcDbBlockTableRecord
  2
*Model_Space
  0
BLOCK_RECORD
  5
205
100
AcDbSymbolTableRecord
100
AcDbBlockTableRecord
  2
*Paper_Space
  0
ENDTAB
  0
TABLE
  2
DIMSTYLE
  5
A
100
AcDbSymbolTable
 70
1
100
AcDbDimStyleTable
 71
0
  0
DIMSTYLE
105
206
100
AcDbSymbolTableRecord
100
AcDbDimStyleTableRecord
  2
STANDARD
 70
0
  3

  4

 40
1.0
 41
0.1875
 42
0.0625
 43
0.38
 44
0.18
 45
0.0
 46
0.0
 47
0.01
 48
0.01
140
0.15625
141
0.09
142
0.0
143
25.4
144
1.0
145
0.0
146
1.0
147
0.09
 71
0.0
 72
0.0
 73
1
 74
1
 75
0
 76
0
 77
0
 78
4
170
0
171
2
172
0
173
0
174
0
175
0
176
0
177
0
178
0
270
2
271
2
272
2
273
2
274
2
275
0
280
0
281
0
282
0
283
1
284
4
285
0
286
0
287
3
288
0
340
11
  0
ENDTAB
  0
ENDSEC
  0
SECTION
  2
BLOCKS
  0
BLOCK
  5
20
100
AcDbEntity
  8
0
100
AcDbBlockBegin
  2
*Model_Space
 70
0
 10
0.0
 20
0.0
 30
0.0
  3
*Model_Space
  1

  0
ENDBLK
  5
21
100
AcDbEntity
  8
0
100
AcDbBlockEnd
  0
BLOCK
  5
1C
100
AcDbEntity
  8
0
100
AcDbBlockBegin
  2
*Paper_Space
 70
0
 10
0.0
 20
0.0
 30
0.0
  3
*Paper_Space
  1

  0
ENDBLK
  5
1D
100
AcDbEntity
  8
0
100
AcDbBlockEnd
  0
ENDSEC
  0
SECTION
  2
ENTITIES
  0
LINE
  5
207
100
AcDbEntity
  8
0
100
AcDbLine
 62
6
  6
CONTINUOUS
 10
21.4392994293
 20
16.6673749189
 11
21.4392994293
 21
16.0423749189
  0
LINE
  5
208
100
AcDbEntity
  8
0
100
AcDbLine
 62
6
  6
CONTINUOUS
 10
21.4927994293
 20
17.5148749189
 11
21.4927994293
 21
16.6613241289
  0
LINE
  5
209
100
AcDbEntity
  8
0
100
AcDbLine
 62
6
  6
CONTINUOUS
 10
21.4927994293
 20
16.0484256939
 11
21.4927994293
 21
15.1948749189
  0
LINE
  5
20A
100
AcDbEntity
  8
0
100
AcDbLine
 62
6
  6
CONTINUOUS
 10
21.8777994293
 20
17.5148749189
 11
21.8777994293
 21
16.6613240465
  0
LINE
  5
20B
100
AcDbEntity
  8
0
100
AcDbLine
 62
6
  6
CONTINUOUS
 10
21.8777994293
 20
16.0484257752
 11
21.8777994293
 21
15.1948749189
  0
LINE
  5
20C
100
AcDbEntity
  8
0
100
AcDbLine
 62
6
  6
CONTINUOUS
 10
21.9312994293
 20
16.6673749189
 11
21.9312994293
 21
16.0423749189
  0
LINE
  5
20D
100
AcDbEntity
  8
0
100
AcDbLine
 62
7
  6
CONTINUOUS
 10
22.4492994293
 20
16.5373749189
 11
22.4492994293
 21
16.1723749189
  0
LINE
  5
20E
100
AcDbEntity
  8
0
100
AcDbLine
 62
6
  6
CONTINUOUS
 10
22.4722994293
 20
16.6748749189
 11
22.4722994293
 21
16.0348749189
  0
LINE
  5
20F
100
AcDbEntity
  8
0
100
AcDbLine
 62
6
  6
CONTINUOUS
 10
21.4927994293
 20
15.1948749189
 11
21.8777994293
 21
15.1948749189
  0
LINE
  5
210
100
AcDbEntity
  8
0
100
AcDbLine
 62
6
  6
CONTINUOUS
 10
22.8452994293
 20
17.3628749189
 11
22.8452994293
 21
17.1028749189
  0
LINE
  5
211
100
AcDbEntity
  8
0
100
AcDbLine
 62
6
  6
CONTINUOUS
 10
22.8452994293
 20
15.6068749189
 11
22.8452994293
 21
15.3468749189
  0
LINE
  5
212
100
AcDbEntity
  8
0
100
AcDbLine
 62
6
  6
CONTINUOUS
 10
22.8842994293
 20
17.1028749189
 11
22.8842994293
 21
16.7348749189
  0
LINE
  5
213
100
AcDbEntity
  8
0
100
AcDbLine
 62
6
  6
CONTINUOUS
 10
22.8842994293
 20
15.9748749189
 11
22.8842994293
 21
15.6068749189
  0
LINE
  5
214
100
AcDbEntity
  8
0
100
AcDbLine
 62
6
  6
CONTINUOUS
 10
23.0342994293
 20
33.6388093243
 11
23.0342994293
 21
17.3628749189
  0
LINE
  5
215
100
AcDbEntity
  8
0
100
AcDbLine
 62
6
  6
CONTINUOUS
 10
23.0342994293
 20
15.3468749189
 11
23.0342994293
 21
-0.9290594865
  0
LWPOLYLINE
  5
216
100
AcDbEntity
  8
0
100
AcDbPolyline
 62
6
  6
CONTINUOUS
 90
57
 70
0
 10
24.6013738784
 20
15.7048755992
 10
24.6019691453
 20
15.7048815055
 10
24.602643927
 20
15.7049024949
 10
24.6033180654
 20
15.7049386631
 10
24.6039912193
 20
15.7049899918
 10
24.6046630477
 20
15.7050564548
 10
24.6053332104
 20
15.7051380186
 10
24.606001368
 20
15.7052346418
 10
24.6066671822
 20
15.7053462756
 10
24.6073303158
 20
15.7054728633
 10
24.6079904329
 20
15.705614341
 10
24.6086471993
 20
15.7057706368
 10
24.6093002824
 20
15.7059416718
 10
24.6099493514
 20
15.7061273592
 10
24.6105940777
 20
15.7063276051
 10
24.6112341347
 20
15.7065423079
 10
24.6118691983
 20
15.7067713591
 10
24.612498947
 20
15.7070146426
 10
24.6131230618
 20
15.7072720351
 10
24.6137412266
 20
15.7075434064
 10
24.6143531285
 20
15.7078286191
 10
24.6149584574
 20
15.7081275286
 10
24.615556907
 20
15.7084399836
 10
24.616148174
 20
15.7087658259
 10
24.6167319592
 20
15.7091048905
 10
24.6173079668
 20
15.7094570056
 10
24.6178759052
 20
15.709821993
 10
24.6184354868
 20
15.7101996678
 10
24.6189864282
 20
15.7105898387
 10
24.6195284503
 20
15.7109923082
 10
24.6200612787
 20
15.7114068725
 10
24.6205846436
 20
15.7118333215
 10
24.6210982799
 20
15.7122714394
 10
24.6216019275
 20
15.7127210043
 10
24.6220953314
 20
15.7131817885
 10
24.6225782417
 20
15.7136535587
 10
24.6230504138
 20
15.7141360759
 10
24.6235116087
 20
15.7146290958
 10
24.6239615928
 20
15.7151323688
 10
24.6244001381
 20
15.7156456399
 10
24.6248270227
 20
15.7161686493
 10
24.6252420304
 20
15.716701132
 10
24.6256449509
 20
15.7172428185
 10
24.6260355803
 20
15.7177934344
 10
24.6264137207
 20
15.7183527008
 10
24.6267791806
 20
15.7189203347
 10
24.627131775
 20
15.7194960484
 10
24.6274713253
 20
15.7200795505
 10
24.6277976595
 20
15.7206705454
 10
24.6281106125
 20
15.7212687339
 10
24.6284100256
 20
15.7218738131
 10
24.6286957474
 20
15.7224854765
 10
24.628967633
 20
15.7231034143
 10
24.6292255448
 20
15.7237273137
 10
24.6294693522
 20
15.7243568587
 10
24.6296989318
 20
15.7249917305
 10
24.6298915301
 20
15.7255620064
  0
LWPOLYLINE
  5
217
100
AcDbEntity
  8
0
100
AcDbPolyline
 62
6
  6
CONTINUOUS
 90
52
 70
0
 10
25.9422964945
 20
15.9798748572
 10
25.9433925568
 20
15.9798845568
 10
25.9445760355
 20
15.9799165907
 10
25.9457573938
 20
15.979970978
 10
25.9469357989
 20
15.9800476451
 10
25.9481104216
 20
15.9801464784
 10
25.9492804303
 20
15.9802673233
 10
25.9504450028
 20
15.9804099844
 10
25.9516033293
 20
15.9805742286
 10
25.9527545833
 20
15.9807598296
 10
25.9538978847
 20
15.980966555
 10
25.9550323617
 20
15.9811941236
 10
25.9561572088
 20
15.9814422166
 10
25.957272164
 20
15.981710601
 10
25.9583773191
 20
15.9819991323
 10
25.9594727787
 20
15.9823076902
 10
25.9605586137
 20
15.9826361653
 10
25.961634798
 20
15.9829844342
 10
25.9627010586
 20
15.9833522959
 10
25.9637563784
 20
15.9837392586
 10
25.9647996013
 20
15.9841447476
 10
25.9658297041
 20
15.9845682109
 10
25.9668458551
 20
15.9850091102
 10
25.967847887
 20
15.9854671584
 10
25.968835824
 20
15.9859421619
 10
25.9698096198
 20
15.9864339061
 10
25.9707692029
 20
15.9869421717
 10
25.9717145138
 20
15.987466751
 10
25.9726454338
 20
15.9880074066
 10
25.9735616523
 20
15.9885637804
 10
25.9744628467
 20
15.9891354827
 10
25.9753486893
 20
15.9897221007
 10
25.9762188069
 20
15.9903232038
 10
25.9770728061
 20
15.9909383358
 10
25.9779102889
 20
15.991567011
 10
25.978730889
 20
15.9922087383
 10
25.9795343574
 20
15.9928630934
 10
25.9803206189
 20
15.9935297825
 10
25.981089627
 20
15.9942085389
 10
25.981841348
 20
15.9948991116
 10
25.9825758288
 20
15.9956013325
 10
25.9832932233
 20
15.996315158
 10
25.983993688
 20
15.997040581
 10
25.9846773677
 20
15.9977776086
 10
25.9853444555
 20
15.9985262669
 10
25.9859951796
 20
15.9992866616
 10
25.9866293583
 20
16.0000584854
 10
25.9872462394
 20
16.0008407134
 10
25.9878451843
 20
16.0016323686
 10
25.9884258084
 20
16.0024327352
 10
25.9889877797
 20
16.0032411235
 10
25.9894834653
 20
16.0039843023
  0
LINE
  5
218
100
AcDbEntity
  8
0
100
AcDbLine
 62
6
  6
CONTINUOUS
 10
24.2232994293
 20
15.3468749189
 11
22.8452994293
 21
15.3468749189
  0
LINE
  5
219
100
AcDbEntity
  8
0
100
AcDbLine
 62
6
  6
CONTINUOUS
 10
24.2232994293
 20
15.6068749189
 11
22.8452994293
 21
15.6068749189
  0
LINE
  5
21A
100
AcDbEntity
  8
0
100
AcDbLine
 62
6
  6
CONTINUOUS
 10
24.6013738511
 20
15.7048749189
 11
24.4132994293
 21
15.7048749189
  0
LINE
  5
21B
100
AcDbEntity
  8
0
100
AcDbLine
 62
6
  6
CONTINUOUS
 10
24.2642994293
 20
15.7698749189
 11
24.3982994293
 21
15.7698749189
  0
LINE
  5
21C
100
AcDbEntity
  8
0
100
AcDbLine
 62
9
  6
CONTINUOUS
 10
25.9422889773
 20
15.9798749189
 11
25.9422959019
 21
15.9798749195
  0
LINE
  5
21D
100
AcDbEntity
  8
0
100
AcDbLine
 62
9
  6
CONTINUOUS
 10
24.8901271102
 20
15.9798749189
 11
25.9422890955
 21
15.9798749189
  0
LINE
  5
21E
100
AcDbEntity
  8
0
100
AcDbLine
 62
9
  6
CONTINUOUS
 10
24.8465055051
 20
16.0054380288
 11
25.9866075288
 21
16.0054388502
  0
LINE
  5
21F
100
AcDbEntity
  8
0
100
AcDbLine
 62
6
  6
CONTINUOUS
 10
22.4722994293
 20
16.0348749189
 11
22.8242994293
 21
16.0348749189
  0
LINE
  5
220
100
AcDbEntity
  8
0
100
AcDbLine
 62
6
  6
CONTINUOUS
 10
21.9312994293
 20
16.0423749189
 11
21.8872994293
 21
16.0423749189
  0
LINE
  5
221
100
AcDbEntity
  8
0
100
AcDbLine
 62
6
  6
CONTINUOUS
 10
21.4832994293
 20
16.0423749189
 11
21.4392994293
 21
16.0423749189
  0
LINE
  5
222
100
AcDbEntity
  8
0
100
AcDbLine
 62
6
  6
CONTINUOUS
 10
22.4492994293
 20
16.1723749189
 11
21.9312994293
 21
16.1723749189
  0
LWPOLYLINE
  5
223
100
AcDbEntity
  8
0
100
AcDbPolyline
 62
6
  6
CONTINUOUS
 90
49
 70
0
 10
24.8082994293
 20
16.6916085596
 10
24.8082917047
 20
16.6922893087
 10
24.8082685347
 20
16.6929697072
 10
24.8082299313
 20
16.6936494047
 10
24.8081759145
 20
16.6943280512
 10
24.8081065119
 20
16.6950052973
 10
24.8080217594
 20
16.6956807941
 10
24.8079217006
 20
16.6963541938
 10
24.807806387
 20
16.6970251496
 10
24.8076758781
 20
16.697693316
 10
24.8075302409
 20
16.6983583489
 10
24.8073695506
 20
16.6990199058
 10
24.8071938898
 20
16.6996776461
 10
24.8070033491
 20
16.7003312309
 10
24.8067980265
 20
16.7009803238
 10
24.8065780278
 20
16.7016245904
 10
24.8063434663
 20
16.7022636991
 10
24.8060944628
 20
16.7028973205
 10
24.8058311455
 20
16.7035251286
 10
24.80555365
 20
16.7041467998
 10
24.8052621192
 20
16.7047620142
 10
24.8049567032
 20
16.7053704548
 10
24.8046375594
 20
16.7059718084
 10
24.8043048521
 20
16.7065657653
 10
24.8039587526
 20
16.7071520195
 10
24.8035994391
 20
16.7077302693
 10
24.8032270967
 20
16.7083002167
 10
24.8028419172
 20
16.7088615683
 10
24.8024440988
 20
16.709414035
 10
24.8020338466
 20
16.7099573323
 10
24.8016113716
 20
16.7104911805
 10
24.8011768915
 20
16.7110153045
 10
24.8007306301
 20
16.7115294345
 10
24.8002728172
 20
16.7120333057
 10
24.7998036884
 20
16.7125266587
 10
24.7993234855
 20
16.7130092393
 10
24.7988324557
 20
16.7134807991
 10
24.7983308519
 20
16.7139410952
 10
24.7978189323
 20
16.7143898905
 10
24.7972969607
 20
16.714826954
 10
24.7967652058
 20
16.7152520606
 10
24.7962239414
 20
16.7156649913
 10
24.7956734463
 20
16.7160655335
 10
24.795114004
 20
16.716453481
 10
24.7945459027
 20
16.7168286339
 10
24.7939694347
 20
16.717190799
 10
24.7933848971
 20
16.7175397899
 10
24.7927925908
 20
16.7178754269
 10
24.7905017902
 20
16.7191040918
  0
LINE
  5
224
100
AcDbEntity
  8
0
100
AcDbLine
 62
6
  6
CONTINUOUS
 10
24.0342994293
 20
33.6388093243
 11
24.0342994293
 21
17.3628749189
  0
LINE
  5
225
100
AcDbEntity
  8
0
100
AcDbLine
 62
6
  6
CONTINUOUS
 10
24.0342994293
 20
15.3468749189
 11
24.0342994293
 21
-0.9290594865
  0
LINE
  5
226
100
AcDbEntity
  8
0
100
AcDbLine
 62
6
  6
CONTINUOUS
 10
24.1842994293
 20
17.1028749189
 11
24.1842994293
 21
17.0198749189
  0
LINE
  5
227
100
AcDbEntity
  8
0
100
AcDbLine
 62
6
  6
CONTINUOUS
 10
24.1842994293
 20
15.6898749189
 11
24.1842994293
 21
15.6068749189
  0
LINE
  5
228
100
AcDbEntity
  8
0
100
AcDbLine
 62
6
  6
CONTINUOUS
 10
24.2232994293
 20
17.3628749189
 11
24.2232994293
 21
17.1028749189
  0
LINE
  5
229
100
AcDbEntity
  8
0
100
AcDbLine
 62
6
  6
CONTINUOUS
 10
24.2232994293
 20
15.6068749189
 11
24.2232994293
 21
15.3468749189
  0
LINE
  5
22A
100
AcDbEntity
  8
0
100
AcDbLine
 62
9
  6
CONTINUOUS
 10
24.3982994293
 20
16.9898826579
 11
24.3982994293
 21
15.71986718
  0
LINE
  5
22B
100
AcDbEntity
  8
0
100
AcDbLine
 62
9
  6
CONTINUOUS
 10
24.4132994293
 20
17.0048744062
 11
24.4132994293
 21
15.7048754317
  0
LINE
  5
22C
100
AcDbEntity
  8
0
100
AcDbLine
 62
9
  6
CONTINUOUS
 10
24.6013738493
 20
15.704874919
 11
24.60137385
 21
17.0048749186
  0
LINE
  5
22D
100
AcDbEntity
  8
0
100
AcDbLine
 62
7
  6
CONTINUOUS
 10
24.8082994293
 20
16.0181412787
 11
24.8082994293
 21
16.6916085591
  0
LWPOLYLINE
  5
22E
100
AcDbEntity
  8
0
100
AcDbPolyline
 62
6
  6
CONTINUOUS
 90
64
 70
0
 10
24.6298917256
 20
15.7255619427
 10
24.633713001
 20
15.7370974072
 10
24.6374970797
 20
15.7481999707
 10
24.6412201752
 20
15.7588189347
 10
24.6448844421
 20
15.7689812107
 10
24.6484925807
 20
15.7787134677
 10
24.6520466986
 20
15.788039115
 10
24.6555466844
 20
15.7969745375
 10
24.6589922932
 20
15.805535054
 10
24.662383943
 20
15.8137369056
 10
24.6657234817
 20
15.8215988626
 10
24.6690133495
 20
15.8291399432
 10
24.6722561924
 20
15.8363784585
 10
24.6754524367
 20
15.8433268247
 10
24.6786010894
 20
15.8499939286
 10
24.6817018344
 20
15.8563898065
 10
24.6847551525
 20
15.8625257135
 10
24.6877620162
 20
15.8684133464
 10
24.6907243853
 20
15.8740656839
 10
24.6936446974
 20
15.8794958475
 10
24.6965252606
 20
15.8847159467
 10
24.6993656527
 20
15.8897326203
 10
24.7021649856
 20
15.8945515278
 10
24.7049242943
 20
15.8991814133
 10
24.7076449491
 20
15.9036311405
 10
24.7103277623
 20
15.9079082408
 10
24.7129735627
 20
15.9120199287
 10
24.7155831755
 20
15.9159730863
 10
24.7181575001
 20
15.9197743928
 10
24.7206975461
 20
15.9234303776
 10
24.7232040686
 20
15.9269469095
 10
24.7256778427
 20
15.9303296276
 10
24.7281198105
 20
15.9335841424
 10
24.7305309971
 20
15.9367159119
 10
24.7329125108
 20
15.9397302402
 10
24.7352656381
 20
15.9426323917
 10
24.7375916416
 20
15.9454273349
 10
24.7398907201
 20
15.9481185574
 10
24.742162832
 20
15.9507091633
 10
24.7444086587
 20
15.9532029687
 10
24.7466291998
 20
15.9556039677
 10
24.7488252137
 20
15.9579157131
 10
24.7509973995
 20
15.9601415421
 10
24.7531464826
 20
15.9622846743
 10
24.7552732176
 20
15.9643482173
 10
24.757378381
 20
15.9663351611
 10
24.759462599
 20
15.9682482251
 10
24.7615265484
 20
15.9700900586
 10
24.7635708981
 20
15.9718631896
 10
24.7655963716
 20
15.9735700808
 10
24.7676036604
 20
15.9752130582
 10
24.7695933714
 20
15.9767942772
 10
24.7715661592
 20
15.9783158367
 10
24.7735226472
 20
15.979779719
 10
24.7754635143
 20
15.981187858
 10
24.7773893857
 20
15.9825420608
 10
24.7793008668
 20
15.9838440393
 10
24.7811985836
 20
15.9850954407
 10
24.7830831307
 20
15.9862978158
 10
24.784955146
 20
15.9874526696
 10
24.7868152006
 20
15.9885613947
 10
24.7886638753
 20
15.9896253237
 10
24.790501791
 20
15.9906457463
 10
24.7927925908
 20
15.9918744109
  0
LWPOLYLINE
  5
22F
100
AcDbEntity
  8
0
100
AcDbPolyline
 62
6
  6
CONTINUOUS
 90
48
 70
0
 10
24.7927925908
 20
15.9918744109
 10
24.7933848971
 20
15.9922100479
 10
24.7939694347
 20
15.9925590388
 10
24.7945459026
 20
15.9929212039
 10
24.795114004
 20
15.9932963568
 10
24.7956734463
 20
15.9936843043
 10
24.7962239414
 20
15.9940848465
 10
24.7967652057
 20
15.9944977772
 10
24.7972969606
 20
15.9949228838
 10
24.7978189323
 20
15.9953599473
 10
24.7983308518
 20
15.9958087427
 10
24.7988324557
 20
15.9962690387
 10
24.7993234855
 20
15.9967405985
 10
24.7998036884
 20
15.9972231791
 10
24.8002728172
 20
15.9977165321
 10
24.8007306301
 20
15.9982204033
 10
24.8011768915
 20
15.9987345333
 10
24.8016113716
 20
15.9992586573
 10
24.8020338465
 20
15.9997925055
 10
24.8024440988
 20
16.0003358028
 10
24.8028419172
 20
16.0008882695
 10
24.8032270967
 20
16.0014496211
 10
24.8035994391
 20
16.0020195685
 10
24.8039587526
 20
16.0025978183
 10
24.8043048521
 20
16.0031840725
 10
24.8046375594
 20
16.0037780294
 10
24.8049567032
 20
16.004379383
 10
24.8052621192
 20
16.0049878236
 10
24.80555365
 20
16.005603038
 10
24.8058311455
 20
16.0062247093
 10
24.8060944628
 20
16.0068525173
 10
24.8063434663
 20
16.0074861387
 10
24.8065780278
 20
16.0081252474
 10
24.8067980265
 20
16.008769514
 10
24.8070033491
 20
16.0094186069
 10
24.8071938898
 20
16.0100721917
 10
24.8073695506
 20
16.010729932
 10
24.8075302409
 20
16.0113914889
 10
24.8076758781
 20
16.0120565218
 10
24.807806387
 20
16.0127246882
 10
24.8079217006
 20
16.013395644
 10
24.8080217594
 20
16.0140690437
 10
24.8081065119
 20
16.0147445405
 10
24.8081759145
 20
16.0154217866
 10
24.8082299313
 20
16.0161004331
 10
24.8082685347
 20
16.0167801306
 10
24.8082917047
 20
16.0174605291
 10
24.8082994293
 20
16.0181412782
  0
LINE
  5
230
100
AcDbEntity
  8
0
100
AcDbLine
 62
6
  6
CONTINUOUS
 10
22.4492994293
 20
16.5373749189
 11
21.9312994293
 21
16.5373749189
  0
LINE
  5
231
100
AcDbEntity
  8
0
100
AcDbLine
 62
6
  6
CONTINUOUS
 10
21.9312994293
 20
16.6673749189
 11
21.8872994293
 21
16.6673749189
  0
LINE
  5
232
100
AcDbEntity
  8
0
100
AcDbLine
 62
6
  6
CONTINUOUS
 10
21.4832994293
 20
16.6673749189
 11
21.4392994293
 21
16.6673749189
  0
LINE
  5
233
100
AcDbEntity
  8
0
100
AcDbLine
 62
6
  6
CONTINUOUS
 10
22.4722994293
 20
16.6748749189
 11
22.8242994293
 21
16.6748749189
  0
LINE
  5
234
100
AcDbEntity
  8
0
100
AcDbLine
 62
9
  6
CONTINUOUS
 10
25.9693231094
 20
16.704310998
 11
24.8465051151
 21
16.7043111127
  0
LINE
  5
235
100
AcDbEntity
  8
0
100
AcDbLine
 62
6
  6
CONTINUOUS
 10
24.2642994293
 20
16.9398749189
 11
24.3982994293
 21
16.9398749189
  0
LINE
  5
236
100
AcDbEntity
  8
0
100
AcDbLine
 62
6
  6
CONTINUOUS
 10
24.6013738518
 20
17.0048749189
 11
24.4132994293
 21
17.0048749189
  0
LINE
  5
237
100
AcDbEntity
  8
0
100
AcDbLine
 62
6
  6
CONTINUOUS
 10
24.2232994293
 20
17.1028749189
 11
22.8452994293
 21
17.1028749189
  0
LINE
  5
238
100
AcDbEntity
  8
0
100
AcDbLine
 62
6
  6
CONTINUOUS
 10
24.2232994293
 20
17.3628749189
 11
22.8452994293
 21
17.3628749189
  0
LINE
  5
239
100
AcDbEntity
  8
0
100
AcDbLine
 62
6
  6
CONTINUOUS
 10
21.4927994293
 20
17.5148749189
 11
21.8777994293
 21
17.5148749189
  0
LINE
  5
23A
100
AcDbEntity
  8
0
100
AcDbLine
 62
9
  6
CONTINUOUS
 10
25.923976398
 20
16.7298749172
 11
24.8901269476
 21
16.7298749189
  0
LWPOLYLINE
  5
23B
100
AcDbEntity
  8
0
100
AcDbPolyline
 62
6
  6
CONTINUOUS
 90
63
 70
0
 10
24.7905017902
 20
16.7191040918
 10
24.7886638745
 20
16.7201245144
 10
24.7868151998
 20
16.7211884434
 10
24.7849551451
 20
16.7222971685
 10
24.7830831298
 20
16.7234520223
 10
24.7811985828
 20
16.7246543974
 10
24.7793008659
 20
16.7259057989
 10
24.7773893847
 20
16.7272077773
 10
24.7754635133
 20
16.7285619802
 10
24.7735226463
 20
16.7299701192
 10
24.7715661582
 20
16.7314340015
 10
24.7695933704
 20
16.7329555611
 10
24.7676036594
 20
16.7345367801
 10
24.7655963706
 20
16.7361797575
 10
24.7635708971
 20
16.7378866487
 10
24.7615265473
 20
16.7396597797
 10
24.7594625979
 20
16.7415016133
 10
24.7573783799
 20
16.7434146773
 10
24.7552732165
 20
16.7454016211
 10
24.7531464815
 20
16.7474651641
 10
24.7509973984
 20
16.7496082964
 10
24.7488252126
 20
16.7518341253
 10
24.7466291986
 20
16.7541458708
 10
24.7444086575
 20
16.7565468698
 10
24.7421628308
 20
16.7590406752
 10
24.7398907189
 20
16.7616312812
 10
24.7375916404
 20
16.7643225037
 10
24.7352656369
 20
16.7671174469
 10
24.7329125096
 20
16.7700195984
 10
24.7305309959
 20
16.7730339268
 10
24.7281198093
 20
16.7761656963
 10
24.7256778415
 20
16.7794202111
 10
24.7232040674
 20
16.7828029292
 10
24.7206975449
 20
16.7863194612
 10
24.7181574989
 20
16.789975446
 10
24.7155831743
 20
16.7937767525
 10
24.7129735615
 20
16.7977299101
 10
24.7103277611
 20
16.8018415981
 10
24.7076449479
 20
16.8061186984
 10
24.7049242932
 20
16.8105684256
 10
24.7021649845
 20
16.8151983111
 10
24.6993656515
 20
16.8200172187
 10
24.6965252595
 20
16.8250338923
 10
24.6936446964
 20
16.8302539915
 10
24.6907243842
 20
16.8356841552
 10
24.6877620152
 20
16.8413364927
 10
24.6847551515
 20
16.8472241256
 10
24.6817018334
 20
16.8533600326
 10
24.6786010885
 20
16.8597559105
 10
24.6754524357
 20
16.8664230145
 10
24.6722561915
 20
16.8733713807
 10
24.6690133486
 20
16.880609896
 10
24.6657234809
 20
16.8881509766
 10
24.6623839423
 20
16.8960129337
 10
24.6589922925
 20
16.9042147853
 10
24.6555466838
 20
16.9127753018
 10
24.652046698
 20
16.9217107243
 10
24.6484925802
 20
16.9310363716
 10
24.6448844417
 20
16.9407686286
 10
24.6412201748
 20
16.9509309046
 10
24.6374970794
 20
16.9615498687
 10
24.6337130008
 20
16.9726524322
 10
24.6298917261
 20
16.9841878949
  0
LWPOLYLINE
  5
23C
100
AcDbEntity
  8
0
100
AcDbPolyline
 62
6
  6
CONTINUOUS
 90
57
 70
0
 10
24.629891531
 20
16.9841878313
 10
24.6296989327
 20
16.984758107
 10
24.6294693531
 20
16.9853929788
 10
24.6292255457
 20
16.9860225238
 10
24.6289676339
 20
16.9866464232
 10
24.6286957483
 20
16.9872643611
 10
24.6284100266
 20
16.9878760245
 10
24.6281106134
 20
16.9884811036
 10
24.6277976605
 20
16.9890792922
 10
24.6274713263
 20
16.9896702871
 10
24.627131776
 20
16.9902537892
 10
24.6267791816
 20
16.9908295029
 10
24.6264137217
 20
16.9913971367
 10
24.6260355813
 20
16.9919564032
 10
24.6256449519
 20
16.9925070191
 10
24.6252420314
 20
16.9930487056
 10
24.6248270237
 20
16.9935811883
 10
24.6244001391
 20
16.9941041977
 10
24.6239615938
 20
16.9946174688
 10
24.6235116097
 20
16.9951207418
 10
24.6230504148
 20
16.9956137617
 10
24.6225782427
 20
16.9960962789
 10
24.6220953324
 20
16.9965680491
 10
24.6216019286
 20
16.9970288333
 10
24.6210982809
 20
16.9974783982
 10
24.6205846446
 20
16.9979165161
 10
24.6200612798
 20
16.9983429652
 10
24.6195284514
 20
16.9987575294
 10
24.6189864292
 20
16.9991599989
 10
24.6184354879
 20
16.9995501699
 10
24.6178759063
 20
16.9999278447
 10
24.617307968
 20
17.0002928321
 10
24.6167319603
 20
17.0006449472
 10
24.6161481752
 20
17.0009840118
 10
24.6155569081
 20
17.0013098541
 10
24.6149584586
 20
17.0016223091
 10
24.6143531296
 20
17.0019212187
 10
24.6137412278
 20
17.0022064313
 10
24.6131230629
 20
17.0024778026
 10
24.6124989482
 20
17.0027351952
 10
24.6118691995
 20
17.0029784786
 10
24.6112341358
 20
17.0032075298
 10
24.6105940788
 20
17.0034222327
 10
24.6099493525
 20
17.0036224786
 10
24.6093002835
 20
17.003808166
 10
24.6086472005
 20
17.0039792009
 10
24.6079904341
 20
17.0041354968
 10
24.6073303169
 20
17.0042769745
 10
24.6066671834
 20
17.0044035622
 10
24.6060013692
 20
17.004515196
 10
24.6053332116
 20
17.0046118192
 10
24.6046630489
 20
17.004693383
 10
24.6039912205
 20
17.0047598461
 10
24.6033180666
 20
17.0048111747
 10
24.6026439282
 20
17.0048473429
 10
24.6019691465
 20
17.0048683324
 10
24.6013738792
 20
17.0048742387
  0
LINE
  5
23D
100
AcDbEntity
  8
0
100
AcDbLine
 62
6
  6
CONTINUOUS
 10
25.9721025364
 20
16.7067832427
 11
25.9720241818
 21
16.7068890323
  0
LWPOLYLINE
  5
23E
100
AcDbEntity
  8
0
100
AcDbPolyline
 62
6
  6
CONTINUOUS
 90
50
 70
0
 10
25.9721027315
 20
16.7067829618
 10
25.9715604241
 20
16.7075152725
 10
25.9709430366
 20
16.7083165017
 10
25.9703062875
 20
16.7091095178
 10
25.9696503804
 20
16.7098937794
 10
25.9689755519
 20
16.7106687303
 10
25.9682821774
 20
16.7114336863
 10
25.9675707179
 20
16.712187915
 10
25.9668415027
 20
16.7129308618
 10
25.9660947577
 20
16.7136620905
 10
25.9653305632
 20
16.7143813132
 10
25.9645488708
 20
16.7150883672
 10
25.9637496347
 20
16.7157830819
 10
25.9629327842
 20
16.7164653005
 10
25.9620980738
 20
16.7171349939
 10
25.9612451946
 20
16.7177921489
 10
25.9603738399
 20
16.7184367125
 10
25.9594839772
 20
16.7190684046
 10
25.9585760254
 20
16.7196866402
 10
25.9576504836
 20
16.7202908283
 10
25.9567078758
 20
16.7208804114
 10
25.9557487986
 20
16.7214548145
 10
25.9547738307
 20
16.722013429
 10
25.9537835466
 20
16.7225556789
 10
25.9527784703
 20
16.723081069
 10
25.9517587146
 20
16.7235893503
 10
25.9507242691
 20
16.7240803352
 10
25.9496751341
 20
16.7245538232
 10
25.9486111774
 20
16.7250096614
 10
25.9475319584
 20
16.7254477983
 10
25.946437482
 20
16.7258679692
 10
25.945329122
 20
16.7262694197
 10
25.9442085395
 20
16.7266513865
 10
25.943077449
 20
16.7270131125
 10
25.9419372186
 20
16.7273540413
 10
25.9407878694
 20
16.7276740808
 10
25.9396291234
 20
16.7279732035
 10
25.9384607102
 20
16.7282513467
 10
25.9372823618
 20
16.7285084147
 10
25.9360939924
 20
16.7287442448
 10
25.9348964794
 20
16.7289584935
 10
25.9336910403
 20
16.7291508226
 10
25.9324788857
 20
16.7293209735
 10
25.9312610395
 20
16.7294687302
 10
25.9300384533
 20
16.7295938553
 10
25.9288120903
 20
16.7296961547
 10
25.9275829214
 20
16.7297754855
 10
25.9263519189
 20
16.7298317565
 10
25.9251200587
 20
16.7298649272
 10
25.9239775949
 20
16.7298750528
  0
ARC
  5
23F
100
AcDbEntity
  8
0
100
AcDbCircle
 62
6
  6
CONTINUOUS
 10
23.5342994293
 20
-1.3951250811
 40
0.685
100
AcDbArc
 50
138.0925572818
 51
270.0
  0
ARC
  5
240
100
AcDbEntity
  8
0
100
AcDbCircle
 62
6
  6
CONTINUOUS
 10
23.5342994293
 20
34.1048749189
 40
0.685
100
AcDbArc
 50
318.0925572818
 51
90.0
  0
ARC
  5
241
100
AcDbEntity
  8
0
100
AcDbCircle
 62
6
  6
CONTINUOUS
 10
23.5342994293
 20
34.1048749189
 40
1.191
100
AcDbArc
 50
294.8320767791
 51
245.1679232209
  0
ARC
  5
242
100
AcDbEntity
  8
0
100
AcDbCircle
 62
6
  6
CONTINUOUS
 10
23.5342994293
 20
-1.3951250811
 40
1.191
100
AcDbArc
 50
114.8320767791
 51
65.1679232209
  0
ARC
  5
243
100
AcDbEntity
  8
0
100
AcDbCircle
 62
6
  6
CONTINUOUS
 10
25.4702994293
 20
16.3548749189
 40
0.715
100
AcDbArc
 50
202.1994630268
 51
209.2780076025
  0
ARC
  5
244
100
AcDbEntity
  8
0
100
AcDbCircle
 62
6
  6
CONTINUOUS
 10
25.4702994293
 20
16.3548749189
 40
0.715
100
AcDbArc
 50
150.7316890327
 51
157.8005369732
  0
ARC
  5
245
100
AcDbEntity
  8
0
100
AcDbCircle
 62
6
  6
CONTINUOUS
 10
23.5342994293
 20
-1.3951250811
 40
0.685
100
AcDbArc
 50
270.0
 51
41.8782813166
  0
ARC
  5
246
100
AcDbEntity
  8
0
100
AcDbCircle
 62
7
  6
CONTINUOUS
 10
23.5342994293
 20
-1.3951250811
 40
0.685
100
AcDbArc
 50
41.8782813166
 51
138.0925572818
  0
ARC
  5
247
100
AcDbEntity
  8
0
100
AcDbCircle
 62
6
  6
CONTINUOUS
 10
23.5342994293
 20
34.1048749189
 40
0.685
100
AcDbArc
 50
90.0
 51
221.8782813166
  0
ARC
  5
248
100
AcDbEntity
  8
0
100
AcDbCircle
 62
7
  6
CONTINUOUS
 10
23.5342994293
 20
34.1048749189
 40
0.685
100
AcDbArc
 50
221.8782813166
 51
318.0925572818
  0
CIRCLE
  5
249
100
AcDbEntity
  8
0
100
AcDbCircle
 62
6
  6
CONTINUOUS
 10
21.6852994293
 20
16.3548749189
 40
0.1925
  0
ARC
  5
24A
100
AcDbEntity
  8
0
100
AcDbCircle
 62
6
  6
CONTINUOUS
 10
24.2642992206
 20
17.0198746998
 40
0.0799999736
100
AcDbArc
 50
179.9998430764
 51
270.0001495033
  0
ARC
  5
24B
100
AcDbEntity
  8
0
100
AcDbCircle
 62
6
  6
CONTINUOUS
 10
24.2642992206
 20
15.689875138
 40
0.0799999736
100
AcDbArc
 50
89.9998505228
 51
180.0001568958
  0
ARC
  5
24C
100
AcDbEntity
  8
0
100
AcDbCircle
 62
6
  6
CONTINUOUS
 10
22.8242995013
 20
15.9748750095
 40
0.0599999857
100
AcDbArc
 50
359.9999134988
 51
90.0000687805
  0
ARC
  5
24D
100
AcDbEntity
  8
0
100
AcDbCircle
 62
6
  6
CONTINUOUS
 10
24.8901270411
 20
16.0298749189
 40
0.05
100
AcDbArc
 50
209.5626649807
 51
270.0
  0
ARC
  5
24E
100
AcDbEntity
  8
0
100
AcDbCircle
 62
6
  6
CONTINUOUS
 10
24.8901270411
 20
16.6798749189
 40
0.05
100
AcDbArc
 50
90.0
 51
150.5759926733
  0
ARC
  5
24F
100
AcDbEntity
  8
0
100
AcDbCircle
 62
6
  6
CONTINUOUS
 10
24.4132994293
 20
16.9898749189
 40
0.015
100
AcDbArc
 50
90.0
 51
180.0000352418
  0
ARC
  5
250
100
AcDbEntity
  8
0
100
AcDbCircle
 62
6
  6
CONTINUOUS
 10
24.4132994293
 20
15.7198749189
 40
0.015
100
AcDbArc
 50
179.9999647582
 51
270.0
  0
SPLINE
  5
251
100
AcDbEntity
  8
0
100
AcDbSpline
 62
7
  6
CONTINUOUS
 70
0
 71
3
 72
48
 73
44
 74
42
 42
0.0000001
 43
0.0000001
 44
0.0000000001
 12
-0.1831276098
 22
-0.1186011175
 32
0.0
 13
-0.2181786572
 23
-0.0
 33
0.0
 40
0.0
 40
0.0
 40
0.0
 40
0.0
 40
0.0014195153
 40
0.0056557859
 40
0.0126754091
 40
0.0224331206
 40
0.034845879
 40
0.0498232692
 40
0.0672700257
 40
0.0870716083
 40
0.1091091485
 40
0.1332641162
 40
0.1594175229
 40
0.1874508256
 40
0.2021357224
 40
0.2172468677
 40
0.2327710674
 40
0.2486955353
 40
0.2816945839
 40
0.3161443879
 40
0.3519495607
 40
0.3890248999
 40
0.4272905531
 40
0.446846169
 40
0.4666712141
 40
0.4867564262
 40
0.5070928958
 40
0.5484854637
 40
0.5907875562
 40
0.6339362265
 40
0.6778521662
 40
0.7000754614
 40
0.7224643977
 40
0.7450117523
 40
0.7677074539
 40
0.8134896479
 40
0.8365535977
 40
0.8597170685
 40
0.8829698249
 40
0.9062991304
 40
0.9296862032
 40
0.9531117573
 40
1.0
 40
1.0
 40
1.0
 40
1.0
 10
21.8872994293
 20
16.6673749189
 30
0.0
 10
21.8872127785
 20
16.6673188002
 30
0.0
 10
21.8868674339
 20
16.6670953623
 30
0.0
 10
21.886092712
 20
16.6665957767
 30
0.0
 10
21.8848073046
 20
16.6657691895
 30
0.0
 10
21.8830197718
 20
16.6646240361
 30
0.0
 10
21.8807405448
 20
16.663173546
 30
0.0
 10
21.8779833464
 20
16.6614326142
 30
0.0
 10
21.8747636367
 20
16.6594177351
 30
0.0
 10
21.8710970603
 20
16.6571491165
 30
0.0
 10
21.8670008267
 20
16.6546478434
 30
0.0
 10
21.8624925708
 20
16.6519351166
 30
0.0
 10
21.8575886115
 20
16.6490345472
 30
0.0
 10
21.8532557829
 20
16.6465215534
 30
0.0
 10
21.8496030566
 20
16.6444369191
 30
0.0
 10
21.846732422
 20
16.6428173607
 30
0.0
 10
21.8437745448
 20
16.6411690632
 30
0.0
 10
21.8396675931
 20
16.6389104201
 30
0.0
 10
21.8343285161
 20
16.6360361494
 30
0.0
 10
21.8276706151
 20
16.6325626891
 30
0.0
 10
21.8206993319
 20
16.6290505359
 30
0.0
 10
21.813423356
 20
16.62552849
 30
0.0
 10
21.8071594325
 20
16.6226303145
 30
0.0
 10
21.8020013086
 20
16.6203319786
 30
0.0
 10
21.7980336354
 20
16.6186110771
 30
0.0
 10
21.7939958066
 20
16.6169097816
 30
0.0
 10
21.7884874215
 20
16.6146599252
 30
0.0
 10
21.7814338821
 20
16.6119211892
 30
0.0
 10
21.7727522882
 20
16.6087992041
 30
0.0
 10
21.7638143849
 20
16.6058574265
 30
0.0
 10
21.7561930663
 20
16.6035969263
 30
0.0
 10
21.7499782158
 20
16.6019144461
 30
0.0
 10
21.7452428333
 20
16.6007167397
 30
0.0
 10
21.7404539596
 20
16.5995932726
 30
0.0
 10
21.7339828333
 20
16.5981963899
 30
0.0
 10
21.7274372817
 20
16.5969704613
 30
0.0
 10
21.7208270712
 20
16.5959284148
 30
0.0
 10
21.7158207417
 20
16.5952403761
 30
0.0
 10
21.7107822662
 20
16.5946522232
 30
0.0
 10
21.7057164405
 20
16.5941676184
 30
0.0
 10
21.7006290346
 20
16.5937877989
 30
0.0
 10
21.6938239567
 20
16.5934232515
 30
0.0
 10
21.6887094339
 20
16.5933120176
 30
0.0
 10
21.6852994293
 20
16.5933120176
 30
0.0
 11
21.8872994293
 21
16.6673749189
 31
0.0
 11
21.8870394049
 21
16.6672066742
 31
0.0
 11
21.8862627507
 21
16.6667056034
 31
0.0
 11
21.8849745961
 21
16.6658772025
 31
0.0
 11
21.8831818544
 21
16.6647289883
 31
0.0
 11
21.8808971206
 21
16.6632749136
 31
0.0
 11
21.8781341187
 21
16.6615302101
 31
0.0
 11
21.8749072112
 21
16.6595111544
 31
0.0
 11
21.8712332453
 21
16.657238091
 31
0.0
 11
21.8671296729
 21
16.6547323535
 31
0.0
 11
21.862613836
 21
16.6520155256
 31
0.0
 11
21.8577023161
 21
16.6491109219
 31
0.0
 11
21.8524113725
 21
16.646042591
 31
0.0
 11
21.8496286975
 21
16.6444545438
 31
0.0
 11
21.8467571883
 21
16.6428346122
 31
0.0
 11
21.8437984653
 21
16.6411859584
 31
0.0
 11
21.8407540546
 21
16.63951178
 31
0.0
 11
21.8344142744
 21
16.6360996406
 31
0.0
 11
21.8277500559
 21
16.6326237759
 31
0.0
 11
21.8207728344
 21
16.6291102955
 31
0.0
 11
21.8134913389
 21
16.6255871554
 31
0.0
 11
21.805913707
 21
16.6220827151
 31
0.0
 11
21.8020163828
 21
16.6203463702
 31
0.0
 11
21.7980480429
 21
16.6186255047
 31
0.0
 11
21.7940095884
 21
16.6169242546
 31
0.0
 11
21.7899019079
 21
16.6152468206
 31
0.0
 11
21.7814824228
 21
16.6119802049
 31
0.0
 11
21.7727966978
 21
16.6088592661
 31
0.0
 11
21.7638535707
 21
16.6059188386
 31
0.0
 11
21.7546667221
 21
16.6031971935
 31
0.0
 11
21.7499864405
 21
16.6019305607
 31
0.0
 11
21.7452506745
 21
16.6007331992
 31
0.0
 11
21.7404612755
 21
16.5996099555
 31
0.0
 11
21.7356209901
 21
16.5985653764
 31
0.0
 11
21.7258025228
 21
16.5967291356
 31
0.0
 11
21.7208317877
 21
16.5959459137
 31
0.0
 11
21.7158250162
 21
16.5952582506
 31
0.0
 11
21.7107859387
 21
16.5946703593
 31
0.0
 11
21.7057191165
 21
16.5941856216
 31
0.0
 11
21.7006307111
 21
16.5938058191
 31
0.0
 11
21.6955270658
 21
16.5935325512
 31
0.0
 11
21.6852994293
 21
16.5933120176
 31
0.0
  0
SPLINE
  5
252
100
AcDbEntity
  8
0
100
AcDbSpline
 62
7
  6
CONTINUOUS
 70
0
 71
3
 72
221
 73
217
 74
215
 42
0.0000001
 43
0.0000001
 44
0.0000000001
 12
-0.367374031
 22
-1.5142444593
 32
0.0
 13
0.3408692865
 23
-1.5204301824
 33
0.0
 40
0.0
 40
0.0
 40
0.0
 40
0.0
 40
0.0000002398
 40
0.0000005219
 40
0.0000009122
 40
0.000002017
 40
0.0000035541
 40
0.0000055236
 40
0.0000079252
 40
0.0000107589
 40
0.0000140244
 40
0.0000218508
 40
0.0000314034
 40
0.0000426812
 40
0.0000556833
 40
0.0000704088
 40
0.0000868566
 40
0.0001249154
 40
0.0001698522
 40
0.000221659
 40
0.0002803283
 40
0.0003458524
 40
0.0004182234
 40
0.0004974338
 40
0.0006763414
 40
0.0008825137
 40
0.0011158888
 40
0.001376405
 40
0.0016640005
 40
0.0019786138
 40
0.0023201829
 40
0.0026886463
 40
0.0030839422
 40
0.0035060088
 40
0.0044301849
 40
0.005460219
 40
0.0065947537
 40
0.0078324168
 40
0.0091718362
 40
0.0106116399
 40
0.0121504559
 40
0.0137869121
 40
0.0155196367
 40
0.0173472288
 40
0.0212803291
 40
0.0255722346
 40
0.0302088444
 40
0.0351760588
 40
0.0404597998
 40
0.0460462142
 40
0.0519215906
 40
0.0580722223
 40
0.0644844058
 40
0.0711444996
 40
0.0780401013
 40
0.0924929806
 40
0.1077536575
 40
0.1156591796
 40
0.1237352134
 40
0.1403663111
 40
0.1489052097
 40
0.1575822434
 40
0.1663893748
 40
0.175319402
 40
0.1935251562
 40
0.2027897438
 40
0.212154745
 40
0.221614683
 40
0.2311644434
 40
0.2407997409
 40
0.2505165043
 40
0.2603107764
 40
0.2652357843
 40
0.2701787427
 40
0.2751391936
 40
0.2801166868
 40
0.2901210323
 40
0.3001884995
 40
0.3103160967
 40
0.3154016248
 40
0.320501222
 40
0.3256146138
 40
0.3307414587
 40
0.3358813167
 40
0.341033784
 40
0.351375097
 40
0.3565634907
 40
0.3617634138
 40
0.3669747447
 40
0.3721974128
 40
0.3774310806
 40
0.3826751514
 40
0.3931924296
 40
0.4037469496
 40
0.4090381464
 40
0.4143387252
 40
0.4249655407
 40
0.4356216877
 40
0.4409598248
 40
0.4463043763
 40
0.4489791483
 40
0.4516556071
 40
0.4570130712
 40
0.4677419728
 40
0.473112342
 40
0.4784856455
 40
0.4838615838
 40
0.4892399222
 40
0.4946199471
 40
0.5000008125
 40
0.5053816661
 40
0.5107616582
 40
0.5161399512
 40
0.521515881
 40
0.5268892298
 40
0.5322596651
 40
0.5429886443
 40
0.5483460697
 40
0.553697152
 40
0.5590417054
 40
0.5643799032
 40
0.5750362314
 40
0.5856631162
 40
0.6068068993
 40
0.6173242826
 40
0.6225683924
 40
0.6278020719
 40
0.6330247211
 40
0.638236043
 40
0.6434359707
 40
0.6486243793
 40
0.6589657397
 40
0.6641182318
 40
0.6692581099
 40
0.6743849658
 40
0.6794983593
 40
0.6845979603
 40
0.6896834949
 40
0.6998111118
 40
0.7098786048
 40
0.7198829773
 40
0.7248604826
 40
0.7298209438
 40
0.7347639111
 40
0.739688927
 40
0.7494832144
 40
0.7591999954
 40
0.7688353163
 40
0.778385109
 40
0.7878450842
 40
0.7972101171
 40
0.8064747321
 40
0.8156334061
 40
0.8246805727
 40
0.8336106252
 40
0.8424177823
 40
0.8510948369
 40
0.8596337508
 40
0.8762648627
 40
0.8843408954
 40
0.8922464106
 40
0.9075070597
 40
0.9219599131
 40
0.9288555106
 40
0.9355156095
 40
0.9419278017
 40
0.9480784422
 40
0.9539538245
 40
0.959540239
 40
0.9648239715
 40
0.969791169
 40
0.9744277598
 40
0.9787196508
 40
0.9826527476
 40
0.9844803442
 40
0.986213078
 40
0.9878495467
 40
0.9893883765
 40
0.9908281934
 40
0.9921676234
 40
0.9934052927
 40
0.9945398272
 40
0.9955698528
 40
0.9964940106
 40
0.9969160648
 40
0.9973113468
 40
0.9976797957
 40
0.9980213503
 40
0.9983359494
 40
0.9986235319
 40
0.9988840368
 40
0.9991174028
 40
0.999323569
 40
0.999502474
 40
0.9995816845
 40
0.9996540569
 40
0.9997195834
 40
0.9997782564
 40
0.9998300684
 40
0.9998750116
 40
0.9999130784
 40
0.9999295308
 40
0.9999442612
 40
0.9999572687
 40
0.9999685523
 40
0.9999781111
 40
0.9999859442
 40
0.9999892132
 40
0.9999920505
 40
0.9999944558
 40
0.9999964291
 40
0.9999979703
 40
0.9999990792
 40
0.9999994715
 40
0.9999997557
 40
1.0
 40
1.0
 40
1.0
 40
1.0
 10
24.1842992969
 20
17.0198749189
 30
0.0
 10
24.1842992675
 20
17.0198747979
 30
0.0
 10
24.1842990399
 20
17.0198746103
 30
0.0
 10
24.1842987788
 20
17.0198742236
 30
0.0
 10
24.1842981895
 20
17.0198735069
 30
0.0
 10
24.1842972202
 20
17.01987227
 30
0.0
 10
24.1842957167
 20
17.0198704033
 30
0.0
 10
24.1842937969
 20
17.0198680102
 30
0.0
 10
24.1842914495
 20
17.0198650957
 30
0.0
 10
24.1842886787
 20
17.0198616582
 30
0.0
 10
24.1842841364
 20
17.0198560295
 30
0.0
 10
24.1842773978
 20
17.019847689
 30
0.0
 10
24.1842680386
 20
17.0198361157
 30
0.0
 10
24.1842569846
 20
17.0198224557
 30
0.0
 10
24.1842442367
 20
17.0198067102
 30
0.0
 10
24.1842297961
 20
17.0197888802
 30
0.0
 10
24.1842071608
 20
17.0197609399
 30
0.0
 10
24.1841746414
 20
17.0197208126
 30
0.0
 10
24.1841305518
 20
17.019666423
 30
0.0
 10
24.1840797156
 20
17.0196037221
 30
0.0
 10
24.1840221408
 20
17.0195327189
 30
0.0
 10
24.1839578358
 20
17.0194534221
 30
0.0
 10
24.1838868086
 20
17.0193658406
 30
0.0
 10
24.1837786853
 20
17.0192325211
 30
0.0
 10
24.1836267856
 20
17.0190452276
 30
0.0
 10
24.1834244515
 20
17.0187957421
 30
0.0
 10
24.1831954255
 20
17.0185133297
 30
0.0
 10
24.1829397733
 20
17.0181980611
 30
0.0
 10
24.1826575605
 20
17.0178500069
 30
0.0
 10
24.1823488525
 20
17.0174692377
 30
0.0
 10
24.1820137151
 20
17.0170558244
 30
0.0
 10
24.1816522138
 20
17.0166098373
 30
0.0
 10
24.1812644141
 20
17.0161313474
 30
0.0
 10
24.180694924
 20
17.0154285874
 30
0.0
 10
24.1799179644
 20
17.0144696176
 30
0.0
 10
24.178908239
 20
17.0132229735
 30
0.0
 10
24.1777962819
 20
17.0118496019
 30
0.0
 10
24.1765835111
 20
17.0103510961
 30
0.0
 10
24.1752713508
 20
17.0087290537
 30
0.0
 10
24.1738612249
 20
17.0069850729
 30
0.0
 10
24.1723545577
 20
17.0051207516
 30
0.0
 10
24.170752773
 20
17.0031376879
 30
0.0
 10
24.1690573054
 20
17.0010374905
 30
0.0
 10
24.1666133801
 20
16.9980084681
 30
0.0
 10
24.1633366722
 20
16.9939434485
 30
0.0
 10
24.1591479869
 20
16.9887396004
 30
0.0
 10
24.1546269008
 20
16.9831138217
 30
0.0
 10
24.1497882468
 20
16.9770823696
 30
0.0
 10
24.1446467419
 20
16.9706614323
 30
0.0
 10
24.1392172337
 20
16.9638668388
 30
0.0
 10
24.133514556
 20
16.9567141872
 30
0.0
 10
24.1275534672
 20
16.949219042
 30
0.0
 10
24.1213487265
 20
16.9413969269
 30
0.0
 10
24.1149146263
 20
16.9332628773
 30
0.0
 10
24.1059064683
 20
16.9218401003
 30
0.0
 10
24.094168714
 20
16.9068809529
 30
0.0
 10
24.0821639818
 20
16.8914646968
 30
0.0
 10
24.0722336533
 20
16.8786310683
 30
0.0
 10
24.0618978321
 20
16.8652112708
 30
0.0
 10
24.0514118845
 20
16.8514919099
 30
0.0
 10
24.0407948276
 20
16.8374801548
 30
0.0
 10
24.0326642251
 20
16.8266829414
 30
0.0
 10
24.0244461223
 20
16.8156973921
 30
0.0
 10
24.0133140563
 20
16.8007111435
 30
0.0
 10
24.0021256466
 20
16.7854708649
 30
0.0
 10
23.9909038881
 20
16.7699755415
 30
0.0
 10
23.9824016431
 20
16.7581195208
 30
0.0
 10
23.9738725598
 20
16.7461006983
 30
0.0
 10
23.9653266783
 20
16.7339218893
 30
0.0
 10
23.9567766799
 20
16.7215833067
 30
0.0
 10
23.9482346646
 20
16.7090850496
 30
0.0
 10
23.9411465637
 20
16.6985567506
 30
0.0
 10
23.9354911484
 20
16.6900532526
 30
0.0
 10
23.9312511718
 20
16.6836236542
 30
0.0
 10
23.9270222782
 20
16.6771541656
 30
0.0
 10
23.9213914876
 20
16.668460517
 30
0.0
 10
23.9143919139
 20
16.6574932364
 30
0.0
 10
23.9060844912
 20
16.6441882196
 30
0.0
 10
23.8992516383
 20
16.6329752592
 30
0.0
 10
23.8938417182
 20
16.6239175858
 30
0.0
 10
23.8898093638
 20
16.6170708048
 30
0.0
 10
23.8858100807
 20
16.6101798281
 30
0.0
 10
23.8818466089
 20
16.6032440909
 30
0.0
 10
23.8779227188
 20
16.596262573
 30
0.0
 10
23.8727424428
 20
16.5868807495
 30
0.0
 10
23.8676624729
 20
16.5774150126
 30
0.0
 10
23.8626964105
 20
16.5678617819
 30
0.0
 10
23.8590255667
 20
16.5606385986
 30
0.0
 10
23.8554164345
 20
16.5533645007
 30
0.0
 10
23.8518726145
 20
16.546038875
 30
0.0
 10
23.848398813
 20
16.5386609551
 30
0.0
 10
23.8438642048
 20
16.5287436925
 30
0.0
 10
23.8384013781
 20
16.5162130227
 30
0.0
 10
23.83325953
 20
16.5035204029
 30
0.0
 10
23.8293561258
 20
16.4932538603
 30
0.0
 10
23.8255945704
 20
16.4828945535
 30
0.0
 10
23.8211888809
 20
16.4698063442
 30
0.0
 10
23.8172322784
 20
16.4565543479
 30
0.0
 10
23.8143628414
 20
16.4458484513
 30
0.0
 10
23.812698727
 20
16.4391127041
 30
0.0
 10
23.8114491963
 20
16.4336996825
 30
0.0
 10
23.8102547931
 20
16.428267333
 30
0.0
 10
23.8083133709
 20
16.4187168622
 30
0.0
 10
23.8064493282
 20
16.4077249614
 30
0.0
 10
23.8049623048
 20
16.396671098
 30
0.0
 10
23.8040408884
 20
16.3883487448
 30
0.0
 10
23.8033198211
 20
16.3800024962
 30
0.0
 10
23.8028048332
 20
16.3716374717
 30
0.0
 10
23.8024957449
 20
16.3632597643
 30
0.0
 10
23.8023926616
 20
16.3548756826
 30
0.0
 10
23.8024956299
 20
16.3464916164
 30
0.0
 10
23.8028046983
 20
16.3381139531
 30
0.0
 10
23.8033199788
 20
16.3297489897
 30
0.0
 10
23.8040413853
 20
16.3214027766
 30
0.0
 10
23.8049628564
 20
16.313080377
 30
0.0
 10
23.8064497978
 20
16.3020264072
 30
0.0
 10
23.8083136351
 20
16.2910343996
 30
0.0
 10
23.8105316876
 20
16.2801225124
 30
0.0
 10
23.8123655399
 20
16.2719882088
 30
0.0
 10
23.8143631134
 20
16.2639029262
 30
0.0
 10
23.8172325173
 20
16.2531968881
 30
0.0
 10
23.8211890109
 20
16.2399445402
 30
0.0
 10
23.8282197267
 20
16.219056589
 30
0.0
 10
23.8362029172
 20
16.1985790505
 30
0.0
 10
23.8438636834
 20
16.1810068975
 30
0.0
 10
23.848398312
 20
16.1710894679
 30
0.0
 10
23.8518720392
 20
16.1637115128
 30
0.0
 10
23.8554157114
 20
16.1563858201
 30
0.0
 10
23.8590247794
 20
16.1491117048
 30
0.0
 10
23.8626956141
 20
16.1418885103
 30
0.0
 10
23.8676617266
 20
16.1323352664
 30
0.0
 10
23.8727417922
 20
16.1228695293
 30
0.0
 10
23.8779221461
 20
16.1134876942
 30
0.0
 10
23.8818460676
 20
16.1065061607
 30
0.0
 10
23.8858095251
 20
16.0995703959
 30
0.0
 10
23.8898087425
 20
16.0926793712
 30
0.0
 10
23.8938410754
 20
16.0858325702
 30
0.0
 10
23.899250997
 20
16.0767748795
 30
0.0
 10
23.9060839009
 20
16.0655619183
 30
0.0
 10
23.9143914062
 20
16.0522569086
 30
0.0
 10
23.921391027
 20
16.0412896183
 30
0.0
 10
23.9270218134
 20
16.0325959366
 30
0.0
 10
23.9312506835
 20
16.0261264132
 30
0.0
 10
23.9354906558
 20
16.0196967951
 30
0.0
 10
23.9411460758
 20
16.0111932801
 30
0.0
 10
23.9482342045
 20
16.000664974
 30
0.0
 10
23.9567762699
 20
15.9881667158
 30
0.0
 10
23.9653263221
 20
15.9758281242
 30
0.0
 10
23.9738722395
 20
15.9636492816
 30
0.0
 10
23.9824013363
 20
15.9516304036
 30
0.0
 10
23.9909036107
 20
15.9397743451
 30
0.0
 10
23.9993692413
 20
15.9280847839
 30
0.0
 10
24.0077881914
 20
15.9165654358
 30
0.0
 10
24.0161504421
 20
15.9052200297
 30
0.0
 10
24.0244459827
 20
15.8940523902
 30
0.0
 10
24.0326641098
 20
15.883066816
 30
0.0
 10
24.0407947341
 20
15.8722695779
 30
0.0
 10
24.0514118085
 20
15.8582578035
 30
0.0
 10
24.0618977665
 20
15.8445384318
 30
0.0
 10
24.0722335925
 20
15.8311186341
 30
0.0
 10
24.0821639142
 20
15.8182850238
 30
0.0
 10
24.0941686371
 20
15.8028688003
 30
0.0
 10
24.1059063847
 20
15.7879096859
 30
0.0
 10
24.1149145425
 20
15.7764869253
 30
0.0
 10
24.1213486496
 20
15.7683528748
 30
0.0
 10
24.1275534009
 20
15.7605307531
 30
0.0
 10
24.1335145006
 20
15.753035601
 30
0.0
 10
24.1392171869
 20
15.7458829464
 30
0.0
 10
24.1446466992
 20
15.7390883579
 30
0.0
 10
24.1497882025
 20
15.7326674362
 30
0.0
 10
24.1546268508
 20
15.7266360091
 30
0.0
 10
24.1591479296
 20
15.7210102581
 30
0.0
 10
24.1633366108
 20
15.7158064314
 30
0.0
 10
24.1666133187
 20
15.7117414209
 30
0.0
 10
24.1690572485
 20
15.7087123952
 30
0.0
 10
24.1707527244
 20
15.706612187
 30
0.0
 10
24.1723545198
 20
15.7046291083
 30
0.0
 10
24.173861199
 20
15.7027647703
 30
0.0
 10
24.1752713367
 20
15.7010207739
 30
0.0
 10
24.1765835073
 20
15.6993987198
 30
0.0
 10
24.1777962855
 20
15.6979002088
 30
0.0
 10
24.1789082458
 20
15.6965268415
 30
0.0
 10
24.1799179688
 20
15.6952802134
 30
0.0
 10
24.1806949238
 20
15.6943212663
 30
0.0
 10
24.1812644073
 20
15.6936185308
 30
0.0
 10
24.1816521998
 20
15.6931400622
 30
0.0
 10
24.1820136932
 20
15.6926940974
 30
0.0
 10
24.1823488222
 20
15.692280706
 30
0.0
 10
24.1826575214
 20
15.6918999578
 30
0.0
 10
24.1829397257
 20
15.6915519224
 30
0.0
 10
24.1831953696
 20
15.6912366694
 30
0.0
 10
24.183424388
 20
15.6909542686
 30
0.0
 10
24.1836267155
 20
15.6907047896
 30
0.0
 10
24.1837786097
 20
15.6905174973
 30
0.0
 10
24.183886729
 20
15.6903841754
 30
0.0
 10
24.1839577542
 20
15.6902965897
 30
0.0
 10
24.1840220578
 20
15.6902172866
 30
0.0
 10
24.1840796315
 20
15.690146275
 30
0.0
 10
24.1841304672
 20
15.6900835635
 30
0.0
 10
24.1841745569
 20
15.6900291609
 30
0.0
 10
24.1842070763
 20
15.6899890208
 30
0.0
 10
24.1842297117
 20
15.689961069
 30
0.0
 10
24.184244153
 20
15.6899432296
 30
0.0
 10
24.1842569017
 20
15.6899274739
 30
0.0
 10
24.1842679567
 20
15.6899138031
 30
0.0
 10
24.1842773171
 20
15.6899022184
 30
0.0
 10
24.1842840566
 20
15.6898938676
 30
0.0
 10
24.1842885995
 20
15.6898882303
 30
0.0
 10
24.1842913711
 20
15.6898847862
 30
0.0
 10
24.1842937194
 20
15.6898818649
 30
0.0
 10
24.1842956401
 20
15.6898794649
 30
0.0
 10
24.1842971446
 20
15.6898775909
 30
0.0
 10
24.1842981145
 20
15.6898763481
 30
0.0
 10
24.1842987044
 20
15.6898756259
 30
0.0
 10
24.1842989663
 20
15.689875235
 30
0.0
 10
24.184299196
 20
15.6898750427
 30
0.0
 10
24.1842992237
 20
15.6898749189
 30
0.0
 11
24.1842992969
 21
17.0198749189
 31
0.0
 11
24.1842990748
 21
17.0198746183
 31
0.0
 11
24.1842988044
 21
17.0198742719
 31
0.0
 11
24.1842984277
 21
17.0198737946
 31
0.0
 11
24.1842973555
 21
17.0198724478
 31
0.0
 11
24.1842958584
 21
17.0198705781
 31
0.0
 11
24.1842939365
 21
17.0198681857
 31
0.0
 11
24.1842915901
 21
17.0198652706
 31
0.0
 11
24.1842888191
 21
17.0198618331
 31
0.0
 11
24.1842856238
 21
17.0198578732
 31
0.0
 11
24.1842779606
 21
17.0198483869
 31
0.0
 11
24.1842686015
 21
17.0198368129
 31
0.0
 11
24.1842575474
 21
17.0198231523
 31
0.0
 11
24.1842447995
 21
17.0198074062
 31
0.0
 11
24.1842303588
 21
17.0197895757
 31
0.0
 11
24.1842142262
 21
17.0197696618
 31
0.0
 11
24.1841768896
 21
17.0197235887
 31
0.0
 11
24.1841327981
 21
17.0196691955
 31
0.0
 11
24.1840819597
 21
17.0196064912
 31
0.0
 11
24.1840243828
 21
17.0195354846
 31
0.0
 11
24.1839600754
 21
17.0194561845
 31
0.0
 11
24.1838890459
 21
17.0193685997
 31
0.0
 11
24.1838113023
 21
17.0192727391
 31
0.0
 11
24.183635706
 21
17.0190562257
 31
0.0
 11
24.1834333522
 21
17.0188067149
 31
0.0
 11
24.1832043063
 21
17.0185242774
 31
0.0
 11
24.1829486341
 21
17.0182089837
 31
0.0
 11
24.1826664012
 21
17.0178609045
 31
0.0
 11
24.182357673
 21
17.0174801105
 31
0.0
 11
24.1820225153
 21
17.0170666723
 31
0.0
 11
24.1816609937
 21
17.0166206605
 31
0.0
 11
24.1812731737
 21
17.0161421457
 31
0.0
 11
24.180859121
 21
17.0156311986
 31
0.0
 11
24.1799526026
 21
17.0145123163
 31
0.0
 11
24.1789424366
 21
17.0132651218
 31
0.0
 11
24.1778300319
 21
17.0118911957
 31
0.0
 11
24.1766168128
 21
17.0103921358
 31
0.0
 11
24.1753042036
 21
17.0087695399
 31
0.0
 11
24.1738936285
 21
17.007025006
 31
0.0
 11
24.1723865117
 21
17.0051601319
 31
0.0
 11
24.1707842774
 21
17.0031765154
 31
0.0
 11
24.1690883499
 21
17.0010757543
 31
0.0
 11
24.167300185
 21
16.9988594787
 31
0.0
 11
24.1634541593
 21
16.9940881116
 31
0.0
 11
24.1592608985
 21
16.9888785454
 31
0.0
 11
24.1547352375
 21
16.9832470493
 31
0.0
 11
24.1498920109
 21
16.9772098928
 31
0.0
 11
24.1447460499
 21
16.9707833076
 31
0.0
 11
24.1393121481
 21
16.9639831109
 31
0.0
 11
24.1336050754
 21
16.9568248611
 31
0.0
 11
24.1276396012
 21
16.9493241128
 31
0.0
 11
24.1214304952
 21
16.9414964205
 31
0.0
 11
24.1149924791
 21
16.9333572597
 31
0.0
 11
24.1083392736
 21
16.9249204445
 31
0.0
 11
24.0944383321
 21
16.9072027291
 31
0.0
 11
24.0798295577
 21
16.8884407174
 31
0.0
 11
24.0722914591
 21
16.8786983253
 31
0.0
 11
24.0646131788
 21
16.8687285068
 31
0.0
 11
24.0488785449
 21
16.8481381596
 31
0.0
 11
24.0408434064
 21
16.8375333731
 31
0.0
 11
24.0327105302
 21
16.8267326728
 31
0.0
 11
24.0244905213
 21
16.8157439116
 31
0.0
 11
24.0161937794
 21
16.8045735093
 31
0.0
 11
23.9994102636
 21
16.7817034469
 31
0.0
 11
23.9909435215
 21
16.7700112617
 31
0.0
 11
23.9824401448
 21
16.758152624
 31
0.0
 11
23.9739101512
 21
16.746131268
 31
0.0
 11
23.9653641222
 21
16.7339499374
 31
0.0
 11
23.9568139997
 21
16.7216089853
 31
0.0
 11
23.9482719264
 21
16.7091084116
 31
0.0
 11
23.9397500453
 21
16.696448216
 31
0.0
 11
23.9355004714
 21
16.69005826
 31
0.0
 11
23.931260499
 21
16.6836283985
 31
0.0
 11
23.9270316482
 21
16.6771586301
 31
0.0
 11
23.9228156737
 21
16.6706488036
 31
0.0
 11
23.9144312244
 21
16.6575071882
 31
0.0
 11
23.9061251473
 21
16.6441998147
 31
0.0
 11
23.8979154892
 21
16.6307229126
 31
0.0
 11
23.893852457
 21
16.6239197101
 31
0.0
 11
23.8898202972
 21
16.6170727117
 31
0.0
 11
23.8858212759
 21
16.6101814432
 31
0.0
 11
23.8818582064
 21
16.6032452836
 31
0.0
 11
23.8779347099
 21
16.5962633947
 31
0.0
 11
23.8740544727
 21
16.5892349206
 31
0.0
 11
23.8664385212
 21
16.5750347944
 31
0.0
 11
23.8627101796
 21
16.5678614308
 31
0.0
 11
23.8590398424
 21
16.5606380592
 31
0.0
 11
23.855431196
 21
16.5533638238
 31
0.0
 11
23.8518879663
 21
16.5460378729
 31
0.0
 11
23.8484148931
 21
16.5386594554
 31
0.0
 11
23.8450177915
 21
16.5312279264
 31
0.0
 11
23.8384749695
 21
16.5162029769
 31
0.0
 11
23.8323064341
 21
16.5009579089
 31
0.0
 11
23.8293771906
 21
16.4932512319
 31
0.0
 11
23.8265591545
 21
16.4854876452
 31
0.0
 11
23.8212844941
 21
16.4697918252
 31
0.0
 11
23.8165423859
 21
16.4538792874
 31
0.0
 11
23.8143900773
 21
16.4458448433
 31
0.0
 11
23.8123937527
 21
16.4377599326
 31
0.0
 11
23.8114564643
 21
16.433698939
 31
0.0
 11
23.8105610116
 21
16.4296258248
 31
0.0
 11
23.8088987769
 21
16.4214451414
 31
0.0
 11
23.8061098071
 21
16.4049619508
 31
0.0
 11
23.8049949657
 21
16.3966685883
 31
0.0
 11
23.8040744823
 21
16.3883468107
 31
0.0
 11
23.8033543036
 21
16.3800011903
 31
0.0
 11
23.8028392155
 21
16.3716366587
 31
0.0
 11
23.8025300969
 21
16.363259356
 31
0.0
 11
23.8024270053
 21
16.3548756762
 31
0.0
 11
23.8025299981
 21
16.3464920137
 31
0.0
 11
23.802839133
 21
16.3381147626
 31
0.0
 11
23.8033544671
 21
16.3297503172
 31
0.0
 11
23.8040749282
 21
16.3214047346
 31
0.0
 11
23.8049954963
 21
16.3130828952
 31
0.0
 11
23.8061102902
 21
16.3047894224
 31
0.0
 11
23.8088990299
 21
16.2883060703
 31
0.0
 11
23.810561213
 21
16.2801254379
 31
0.0
 11
23.812393989
 21
16.2719914588
 31
0.0
 11
23.8143903288
 21
16.2639065489
 31
0.0
 11
23.8165426204
 21
16.2558720023
 31
0.0
 11
23.8212845846
 21
16.239959127
 31
0.0
 11
23.8265589337
 21
16.2242630885
 31
0.0
 11
23.838474411
 21
16.1935476648
 31
0.0
 11
23.8450172933
 21
16.1785225628
 31
0.0
 11
23.8484143862
 21
16.1710909631
 31
0.0
 11
23.8518873873
 21
16.1637124914
 31
0.0
 11
23.8554304847
 21
16.1563865094
 31
0.0
 11
23.8590390599
 21
16.1491122541
 31
0.0
 11
23.862709387
 21
16.1418888695
 31
0.0
 11
23.8664377621
 21
16.134715497
 31
0.0
 11
23.8740538399
 21
16.1205153548
 31
0.0
 11
23.8779341345
 21
16.1134868682
 31
0.0
 11
23.8818576608
 21
16.1065049601
 31
0.0
 11
23.8858207148
 21
16.099568772
 31
0.0
 11
23.8898196828
 21
16.0926774695
 31
0.0
 11
23.8938518168
 21
16.0858304491
 31
0.0
 11
23.897914849
 21
16.0790272349
 31
0.0
 11
23.9061245586
 21
16.065550328
 31
0.0
 11
23.9144307119
 21
16.0522429546
 31
0.0
 11
23.9228152093
 21
16.0391013201
 31
0.0
 11
23.9270311808
 21
16.0325914692
 31
0.0
 11
23.9312600146
 21
16.0261216705
 31
0.0
 11
23.9354999805
 21
16.0196917882
 31
0.0
 11
23.9397495579
 21
16.0133018195
 31
0.0
 11
23.9482714682
 21
16.0006416149
 31
0.0
 11
23.9568135879
 21
15.9881410397
 31
0.0
 11
23.9653637595
 21
15.9758000773
 31
0.0
 11
23.9739098252
 21
15.9636187109
 31
0.0
 11
23.9824398426
 21
15.9515973006
 31
0.0
 11
23.9909432481
 21
15.9397386228
 31
0.0
 11
23.9994100224
 21
15.9280464083
 31
0.0
 11
24.0078301477
 21
15.9165243898
 31
0.0
 11
24.0161936061
 21
15.9051763002
 31
0.0
 11
24.0244903799
 21
15.8940058725
 31
0.0
 11
24.0327104165
 21
15.883017082
 31
0.0
 11
24.0408433143
 21
15.8722163574
 31
0.0
 11
24.0488784688
 21
15.8616115529
 31
0.0
 11
24.0646131189
 21
15.8410211901
 31
0.0
 11
24.0722914003
 21
15.8310513749
 31
0.0
 11
24.079829496
 21
15.821308994
 31
0.0
 11
24.0944382553
 21
15.8025470254
 31
0.0
 11
24.108339185
 21
15.7848293522
 31
0.0
 11
24.114992392
 21
15.7763925465
 31
0.0
 11
24.1214304171
 21
15.7682533828
 31
0.0
 11
24.127639535
 21
15.7604256824
 31
0.0
 11
24.1336050211
 21
15.752924926
 31
0.0
 11
24.1393121035
 21
15.7457666722
 31
0.0
 11
24.1447460104
 21
15.7389664795
 31
0.0
 11
24.1498919699
 21
15.7325399101
 31
0.0
 11
24.1547351886
 21
15.7265027808
 31
0.0
 11
24.15926084
 21
15.720871315
 31
0.0
 11
24.1634540941
 21
15.7156617726
 31
0.0
 11
24.1673001212
 21
15.7108904136
 31
0.0
 11
24.1690882913
 21
15.7086741332
 31
0.0
 11
24.1707842276
 21
15.7065733608
 31
0.0
 11
24.1723864733
 21
15.7045897285
 31
0.0
 11
24.1738936028
 21
15.702724837
 31
0.0
 11
24.1753041905
 21
15.7009802868
 31
0.0
 11
24.1766168108
 21
15.6993576785
 31
0.0
 11
24.177830038
 21
15.6978586129
 31
0.0
 11
24.1789424467
 21
15.6964846903
 31
0.0
 11
24.1799526112
 21
15.6952375116
 31
0.0
 11
24.1808591213
 21
15.6941186595
 31
0.0
 11
24.1812731676
 21
15.6936077322
 31
0.0
 11
24.1816609802
 21
15.693129239
 31
0.0
 11
24.1820224936
 21
15.6926832495
 31
0.0
 11
24.1823576426
 21
15.6922698335
 31
0.0
 11
24.1826663618
 21
15.6918890606
 31
0.0
 11
24.1829485859
 21
15.6915410004
 31
0.0
 11
24.1832042495
 21
15.6912257225
 31
0.0
 11
24.1834332874
 21
15.6909432966
 31
0.0
 11
24.1836356342
 21
15.6906937924
 31
0.0
 11
24.1838112246
 21
15.6904772795
 31
0.0
 11
24.1838889657
 21
15.6903814165
 31
0.0
 11
24.1839599932
 21
15.6902938275
 31
0.0
 11
24.1840242989
 21
15.6902145211
 31
0.0
 11
24.1840818747
 21
15.690143506
 31
0.0
 11
24.1841327125
 21
15.690080791
 31
0.0
 11
24.1841768039
 21
15.6900263848
 31
0.0
 11
24.1842141409
 21
15.689980296
 31
0.0
 11
24.184230274
 21
15.6899603734
 31
0.0
 11
24.1842447153
 21
15.6899425335
 31
0.0
 11
24.184257464
 21
15.6899267772
 31
0.0
 11
24.184268519
 21
15.6899131057
 31
0.0
 11
24.1842778792
 21
15.6899015202
 31
0.0
 11
24.1842855437
 21
15.6898920216
 31
0.0
 11
24.1842887398
 21
15.6898880553
 31
0.0
 11
24.1842915114
 21
15.6898846111
 31
0.0
 11
24.1842938587
 21
15.6898816892
 31
0.0
 11
24.1842957814
 21
15.6898792898
 31
0.0
 11
24.1842972793
 21
15.6898774129
 31
0.0
 11
24.1842983525
 21
15.6898760587
 31
0.0
 11
24.1842987297
 21
15.6898755776
 31
0.0
 11
24.1842990007
 21
15.6898752273
 31
0.0
 11
24.1842992237
 21
15.6898749189
 31
0.0
  0
SPLINE
  5
253
100
AcDbEntity
  8
0
100
AcDbSpline
 62
7
  6
CONTINUOUS
 70
0
 71
3
 72
153
 73
149
 74
147
 42
0.0000001
 43
0.0000001
 44
0.0000000001
 12
0.0941869622
 22
0.7877692125
 32
0.0
 13
-0.1001129963
 23
0.7870380248
 33
0.0
 40
0.0
 40
0.0
 40
0.0
 40
0.0
 40
0.0000001828
 40
0.0000007227
 40
0.0000016195
 40
0.0000028734
 40
0.0000064518
 40
0.0000114577
 40
0.0000178908
 40
0.0000257509
 40
0.0000350376
 40
0.0000457508
 40
0.0000714553
 40
0.0001028623
 40
0.0001399697
 40
0.0001827753
 40
0.0002312771
 40
0.000285473
 40
0.0004109382
 40
0.0005591543
 40
0.0007301041
 40
0.0009237708
 40
0.0011401374
 40
0.0013791871
 40
0.0016409008
 40
0.0019252376
 40
0.0022321434
 40
0.0029134444
 40
0.0036843695
 40
0.004544484
 40
0.0054933539
 40
0.0065305397
 40
0.007655486
 40
0.00886752
 40
0.0101659639
 40
0.0115501401
 40
0.0145729741
 40
0.0179300789
 40
0.0216146311
 40
0.0256197211
 40
0.0299380875
 40
0.0345619752
 40
0.039483597
 40
0.0446949816
 40
0.0501879595
 40
0.0559543677
 40
0.0682747528
 40
0.0815909317
 40
0.0958390963
 40
0.1109572226
 40
0.1268866169
 40
0.1435713614
 40
0.1609591131
 40
0.1790003108
 40
0.1976483604
 40
0.2365894563
 40
0.2568023563
 40
0.2774577867
 40
0.2879400248
 40
0.2985191056
 40
0.3199481908
 40
0.3307891122
 40
0.3417081275
 40
0.3527008651
 40
0.363762616
 40
0.3860716452
 40
0.3973090166
 40
0.4085947826
 40
0.4199240793
 40
0.4312920276
 40
0.4426931459
 40
0.4541217933
 40
0.465572373
 40
0.4770393407
 40
0.4885172118
 40
0.4942585757
 40
0.5000006393
 40
0.5114840866
 40
0.5229621562
 40
0.5458794603
 40
0.5573080362
 40
0.5687088548
 40
0.5800763398
 40
0.5914054714
 40
0.6139284026
 40
0.6251124664
 40
0.6362377794
 40
0.6472989865
 40
0.658291195
 40
0.6800505458
 40
0.7014795812
 40
0.7225400509
 40
0.7431952119
 40
0.76340792
 40
0.8023486394
 40
0.8209966038
 40
0.8390376699
 40
0.8564254396
 40
0.8731101724
 40
0.8890395733
 40
0.9041579424
 40
0.9184064726
 40
0.931723097
 40
0.9440438764
 40
0.949810479
 40
0.955303654
 40
0.9605152091
 40
0.965436978
 40
0.970061036
 40
0.9743795367
 40
0.9783847238
 40
0.982069413
 40
0.9854266145
 40
0.9884495074
 40
0.9898337397
 40
0.9911322433
 40
0.9923443285
 40
0.9934693055
 40
0.9945065013
 40
0.9954553946
 40
0.996315542
 40
0.9970865007
 40
0.9977678278
 40
0.9980747411
 40
0.9983590803
 40
0.9986207909
 40
0.9988598372
 40
0.9990762016
 40
0.999269867
 40
0.9994408166
 40
0.9995890334
 40
0.9997145007
 40
0.9997686979
 40
0.9998172013
 40
0.9998600089
 40
0.9998971185
 40
0.999928528
 40
0.9999542353
 40
0.9999649499
 40
0.9999742382
 40
0.9999820999
 40
0.9999885347
 40
0.9999935424
 40
0.9999971227
 40
0.9999983775
 40
0.9999992753
 40
0.9999998162
 40
1.0
 40
1.0
 40
1.0
 40
1.0
 10
22.8842994543
 20
15.9748749189
 30
0.0
 10
22.8842994601
 20
15.9748749669
 30
0.0
 10
22.8842995793
 20
15.9748751286
 30
0.0
 10
22.8842997327
 20
15.9748755234
 30
0.0
 10
22.8843000644
 20
15.9748761572
 30
0.0
 10
22.8843007184
 20
15.9748775216
 30
0.0
 10
22.8843018711
 20
15.9748798559
 30
0.0
 10
22.8843036137
 20
15.9748834238
 30
0.0
 10
22.8843058607
 20
15.9748880068
 30
0.0
 10
22.8843086037
 20
15.9748936069
 30
0.0
 10
22.8843118458
 20
15.9749002231
 30
0.0
 10
22.8843171642
 20
15.9749110771
 30
0.0
 10
22.8843250569
 20
15.9749271842
 30
0.0
 10
22.8843360207
 20
15.9749495596
 30
0.0
 10
22.8843489738
 20
15.9749759966
 30
0.0
 10
22.8843639151
 20
15.9750064938
 30
0.0
 10
22.8843808433
 20
15.97504105
 30
0.0
 10
22.8844073862
 20
15.9750952384
 30
0.0
 10
22.8844455238
 20
15.9751731114
 30
0.0
 10
22.8844972321
 20
15.9752787191
 30
0.0
 10
22.8845568601
 20
15.9754005316
 30
0.0
 10
22.8846243983
 20
15.9755385385
 30
0.0
 10
22.8846998375
 20
15.9756927295
 30
0.0
 10
22.8847831679
 20
15.9758630938
 30
0.0
 10
22.8848743775
 20
15.9760496146
 30
0.0
 10
22.8849734448
 20
15.9762522688
 30
0.0
 10
22.885121199
 20
15.9765546357
 30
0.0
 10
22.885325337
 20
15.9769726754
 30
0.0
 10
22.8855934451
 20
15.9775222903
 30
0.0
 10
22.8858922981
 20
15.9781356389
 30
0.0
 10
22.8862216642
 20
15.9788124493
 30
0.0
 10
22.8865813031
 20
15.9795524178
 30
0.0
 10
22.8869709156
 20
15.9803551993
 30
0.0
 10
22.8873901455
 20
15.981220406
 30
0.0
 10
22.8878386296
 20
15.9821476174
 30
0.0
 10
22.8884946298
 20
15.9835064163
 30
0.0
 10
22.8893851227
 20
15.9853565666
 30
0.0
 10
22.8905353201
 20
15.9877568706
 30
0.0
 10
22.8917925866
 20
15.9903939142
 30
0.0
 10
22.8931531342
 20
15.9932633389
 30
0.0
 10
22.8946129153
 20
15.996360629
 30
0.0
 10
22.8961675559
 20
15.9996811567
 30
0.0
 10
22.8978126675
 20
16.0032200818
 30
0.0
 10
22.8995436581
 20
16.0069725262
 30
0.0
 10
22.9013557284
 20
16.010933584
 30
0.0
 10
22.9039309208
 20
16.0166129337
 30
0.0
 10
22.9073191535
 20
16.0241952456
 30
0.0
 10
22.9115456747
 20
16.0338594866
 30
0.0
 10
22.9159769849
 20
16.0442412813
 30
0.0
 10
22.920572173
 20
16.0553039715
 30
0.0
 10
22.9252898828
 20
16.0670128045
 30
0.0
 10
22.9300891289
 20
16.079335009
 30
0.0
 10
22.9349287027
 20
16.0922397425
 30
0.0
 10
22.93976766
 20
16.1056979699
 30
0.0
 10
22.9462579698
 20
16.1246173776
 30
0.0
 10
22.9524670529
 20
16.1442386355
 30
0.0
 10
22.958295652
 20
16.1645252686
 30
0.0
 10
22.9617951275
 20
16.1776478466
 30
0.0
 10
22.9644756527
 20
16.1883498392
 30
0.0
 10
22.9670915671
 20
16.1992782871
 30
0.0
 10
22.969551335
 20
16.2103410866
 30
0.0
 10
22.9718421946
 20
16.2215309536
 30
0.0
 10
22.9734812322
 20
16.2300364444
 30
0.0
 10
22.975029534
 20
16.238618287
 30
0.0
 10
22.9769723983
 20
16.2501888896
 30
0.0
 10
22.9787106289
 20
16.2618586894
 30
0.0
 10
22.980233995
 20
16.2736169794
 30
0.0
 10
22.9812692116
 20
16.2825098098
 30
0.0
 10
22.9821905361
 20
16.2914498689
 30
0.0
 10
22.9829941178
 20
16.3004319203
 30
0.0
 10
22.9836783309
 20
16.3094502025
 30
0.0
 10
22.9842416158
 20
16.3184987431
 30
0.0
 10
22.984682383
 20
16.32757152
 30
0.0
 10
22.9849990514
 20
16.3366624973
 30
0.0
 10
22.9851581805
 20
16.3442474455
 30
0.0
 10
22.9852218897
 20
16.3503194985
 30
0.0
 10
22.9852428733
 20
16.3563933215
 30
0.0
 10
22.9851892679
 20
16.3639843648
 30
0.0
 10
22.9849350314
 20
16.3761150925
 30
0.0
 10
22.9844307272
 20
16.3882250242
 30
0.0
 10
22.9836797895
 20
16.4003001428
 30
0.0
 10
22.9829955926
 20
16.4093182252
 30
0.0
 10
22.9821909939
 20
16.4182999505
 30
0.0
 10
22.9809645635
 20
16.4301959256
 30
0.0
 10
22.979510173
 20
16.4420186478
 30
0.0
 10
22.9778378918
 20
16.4537567017
 30
0.0
 10
22.9764837953
 20
16.4624776276
 30
0.0
 10
22.9750303528
 20
16.471131085
 30
0.0
 10
22.9729724519
 20
16.482533829
 30
0.0
 10
22.9701783703
 20
16.4965887868
 30
0.0
 10
22.9664905158
 20
16.5131763627
 30
0.0
 10
22.9625163671
 20
16.529397066
 30
0.0
 10
22.958296105
 20
16.5452226891
 30
0.0
 10
22.952467671
 20
16.5655091749
 30
0.0
 10
22.9462586216
 20
16.5851302476
 30
0.0
 10
22.9397684503
 20
16.6040495391
 30
0.0
 10
22.9349295188
 20
16.6175077195
 30
0.0
 10
22.9300900239
 20
16.6304124472
 30
0.0
 10
22.9252907977
 20
16.6427346634
 30
0.0
 10
22.9205730812
 20
16.6544435612
 30
0.0
 10
22.9159778907
 20
16.6655064267
 30
0.0
 10
22.9115464431
 20
16.6758884657
 30
0.0
 10
22.9073198685
 20
16.6855530313
 30
0.0
 10
22.9039314868
 20
16.6931355762
 30
0.0
 10
22.9013562514
 20
16.6988151345
 30
0.0
 10
22.8995441067
 20
16.7027763218
 30
0.0
 10
22.8978130557
 20
16.7065288882
 30
0.0
 10
22.8961679136
 20
16.7100679415
 30
0.0
 10
22.8946132099
 20
16.7133885715
 30
0.0
 10
22.8931533813
 20
16.7164859567
 30
0.0
 10
22.891792812
 20
16.7193554788
 30
0.0
 10
22.890535495
 20
16.7219925953
 30
0.0
 10
22.889385262
 20
16.724392968
 30
0.0
 10
22.8884947596
 20
16.7262431759
 30
0.0
 10
22.8878387355
 20
16.7276020147
 30
0.0
 10
22.8873902289
 20
16.7285292642
 30
0.0
 10
22.8869709805
 20
16.7293945035
 30
0.0
 10
22.8865813589
 20
16.7301973076
 30
0.0
 10
22.8862217206
 20
16.7309372953
 30
0.0
 10
22.8858923489
 20
16.7316141224
 30
0.0
 10
22.8855934847
 20
16.7322274921
 30
0.0
 10
22.8853253632
 20
16.7327771277
 30
0.0
 10
22.8851212149
 20
16.7331951821
 30
0.0
 10
22.8849734549
 20
16.7334975568
 30
0.0
 10
22.884874386
 20
16.7337002122
 30
0.0
 10
22.8847831768
 20
16.733886732
 30
0.0
 10
22.8846998469
 20
16.734057094
 30
0.0
 10
22.8846244075
 20
16.7342112828
 30
0.0
 10
22.8845568684
 20
16.7343492882
 30
0.0
 10
22.884497239
 20
16.7344710998
 30
0.0
 10
22.8844455289
 20
16.7345767073
 30
0.0
 10
22.8844073896
 20
16.7346545808
 30
0.0
 10
22.8843808453
 20
16.73470877
 30
0.0
 10
22.884363916
 20
16.734743327
 30
0.0
 10
22.8843489736
 20
16.7347738254
 30
0.0
 10
22.8843360194
 20
16.7348002638
 30
0.0
 10
22.8843250546
 20
16.7348226409
 30
0.0
 10
22.8843171611
 20
16.7348387496
 30
0.0
 10
22.8843118421
 20
16.734849605
 30
0.0
 10
22.8843085996
 20
16.7348562224
 30
0.0
 10
22.8843058561
 20
16.7348618238
 30
0.0
 10
22.8843036088
 20
16.734866408
 30
0.0
 10
22.8843018656
 20
16.7348699773
 30
0.0
 10
22.884300713
 20
16.7348723129
 30
0.0
 10
22.8843000584
 20
16.7348736782
 30
0.0
 10
22.8842997272
 20
16.7348743129
 30
0.0
 10
22.8842995724
 20
16.7348747082
 30
0.0
 10
22.8842994542
 20
16.7348748707
 30
0.0
 10
22.8842994481
 20
16.7348749189
 30
0.0
 11
22.8842994543
 21
15.9748749189
 31
0.0
 11
22.8842995171
 21
15.9748750497
 31
0.0
 11
22.8842997047
 21
15.9748754347
 31
0.0
 11
22.884300017
 21
15.9748760741
 31
0.0
 11
22.884300454
 21
15.9748769677
 31
0.0
 11
22.8843017022
 21
15.9748795177
 31
0.0
 11
22.884303449
 21
15.9748830845
 31
0.0
 11
22.8843056942
 21
15.974887668
 31
0.0
 11
22.8843084379
 21
15.974893268
 31
0.0
 11
22.8843116798
 21
15.9748998844
 31
0.0
 11
22.8843154197
 21
15.974907517
 31
0.0
 11
22.8843243932
 21
15.97492583
 31
0.0
 11
22.8843353573
 21
15.9749482059
 31
0.0
 11
22.8843483106
 21
15.9749746434
 31
0.0
 11
22.8843632521
 21
15.9750051411
 31
0.0
 11
22.8843801806
 21
15.9750396978
 31
0.0
 11
22.8843990949
 21
15.9750783121
 31
0.0
 11
22.8844428762
 21
15.9751677086
 31
0.0
 11
22.8844945867
 21
15.9752733202
 31
0.0
 11
22.8845542168
 21
15.9753951366
 31
0.0
 11
22.8846217573
 21
15.9755331474
 31
0.0
 11
22.8846971987
 21
15.9756873423
 31
0.0
 11
22.8847805316
 21
15.975857711
 31
0.0
 11
22.8848717455
 21
15.9760442417
 31
0.0
 11
22.8849708186
 21
15.9762469091
 31
0.0
 11
22.8850777221
 21
15.9764656793
 31
0.0
 11
22.8853149052
 21
15.9769513925
 31
0.0
 11
22.8855830645
 21
15.9775011103
 31
0.0
 11
22.8858819694
 21
15.9781145613
 31
0.0
 11
22.8862113895
 21
15.9787914746
 31
0.0
 11
22.8865710916
 21
15.9795315757
 31
0.0
 11
22.8869607778
 21
15.9803345191
 31
0.0
 11
22.8873800848
 21
15.9811998875
 31
0.0
 11
22.8878286465
 21
15.9821272603
 31
0.0
 11
22.888306097
 21
15.9831162167
 31
0.0
 11
22.8893461958
 21
15.9852771941
 31
0.0
 11
22.8904971472
 21
15.9876791361
 31
0.0
 11
22.8917552049
 21
15.9903178246
 31
0.0
 11
22.8931165678
 21
15.9931889851
 31
0.0
 11
22.8945771934
 21
15.9962881407
 31
0.0
 11
22.8961327016
 21
15.9996105313
 31
0.0
 11
22.8977786805
 21
16.0031513723
 31
0.0
 11
22.8995105383
 21
16.006905789
 31
0.0
 11
22.901323488
 21
16.0108688095
 31
0.0
 11
22.9032127277
 21
16.0150354576
 31
0.0
 11
22.9072003032
 21
16.0239598553
 31
0.0
 11
22.9114330954
 21
16.0336396382
 31
0.0
 11
22.9158702696
 21
16.0440365875
 31
0.0
 11
22.9204706442
 21
16.0551137065
 31
0.0
 11
22.9251930089
 21
16.0668363265
 31
0.0
 11
22.9299961981
 21
16.0791715006
 31
0.0
 11
22.9348391515
 21
16.0920885564
 31
0.0
 11
22.9396808302
 21
16.1055583392
 31
0.0
 11
22.944480206
 21
16.1195532523
 31
0.0
 11
22.9537880093
 21
16.149012897
 31
0.0
 11
22.9582145205
 21
16.1644263825
 31
0.0
 11
22.9624350711
 21
16.1802611676
 31
0.0
 11
22.9644553934
 21
16.188328431
 31
0.0
 11
22.9664090448
 21
16.1964911227
 31
0.0
 11
22.9700970703
 21
16.2130876939
 31
0.0
 11
22.9718218505
 21
16.2215139495
 31
0.0
 11
22.9734607465
 21
16.2300204357
 31
0.0
 11
22.9750089697
 21
16.2386033314
 31
0.0
 11
22.9764621315
 21
16.2472583573
 31
0.0
 11
22.9790680624
 21
16.2647650014
 31
0.0
 11
22.9802132935
 21
16.2736066441
 31
0.0
 11
22.9812483432
 21
16.2825005169
 31
0.0
 11
22.9821694426
 21
16.2914416321
 31
0.0
 11
22.9829731362
 21
16.3004248525
 31
0.0
 11
22.9836574203
 21
16.3094443492
 31
0.0
 11
22.9842207113
 21
16.3184940933
 31
0.0
 11
22.9846614255
 21
16.3275680556
 31
0.0
 11
22.9849779795
 21
16.3366602071
 31
0.0
 11
22.9851687896
 21
16.3457645187
 31
0.0
 11
22.9852165458
 21
16.3503193504
 31
0.0
 11
22.9852323042
 21
16.3548749604
 31
0.0
 11
22.9851681582
 21
16.3639854695
 31
0.0
 11
22.9849774936
 21
16.3730899417
 31
0.0
 11
22.9842215654
 21
16.3912563468
 31
0.0
 11
22.9836587806
 21
16.4003060656
 31
0.0
 11
22.9829744344
 21
16.4093253191
 31
0.0
 11
22.9821700219
 21
16.4183081062
 31
0.0
 11
22.9812485481
 21
16.4272490511
 31
0.0
 11
22.9790686438
 21
16.4449848256
 31
0.0
 11
22.9778173284
 21
16.4537693613
 31
0.0
 11
22.9764631808
 21
16.4624914669
 31
0.0
 11
22.9750097772
 21
16.4711460148
 31
0.0
 11
22.9734612199
 21
16.4797284236
 31
0.0
 11
22.9700974251
 21
16.4966609624
 31
0.0
 11
22.9664095122
 21
16.5132575182
 31
0.0
 11
22.9624354593
 21
16.5294869959
 31
0.0
 11
22.958214981
 21
16.5453215791
 31
0.0
 11
22.9537885793
 21
16.5607349376
 31
0.0
 11
22.9444809147
 21
16.5901943129
 31
0.0
 11
22.9396816077
 21
16.6041891781
 31
0.0
 11
22.9348399919
 21
16.6176588726
 31
0.0
 11
22.9299970835
 21
16.6305759605
 31
0.0
 11
22.9251939253
 21
16.6429111367
 31
0.0
 11
22.9204715842
 21
16.6546337718
 31
0.0
 11
22.9158711734
 21
16.6657110844
 31
0.0
 11
22.9114338897
 21
16.6761083023
 31
0.0
 11
22.907200993
 21
16.6857884253
 31
0.0
 11
22.9032132893
 21
16.6947131083
 31
0.0
 11
22.9013240041
 21
16.6988799051
 31
0.0
 11
22.8995109852
 21
16.7028430659
 31
0.0
 11
22.8977790709
 21
16.7065976056
 31
0.0
 11
22.896133056
 21
16.7101385585
 31
0.0
 11
22.8945774853
 21
16.7134610691
 31
0.0
 11
22.8931168147
 21
16.7165603213
 31
0.0
 11
22.8917554294
 21
16.7194315564
 31
0.0
 11
22.8904973189
 21
16.7220703401
 31
0.0
 11
22.8893463344
 21
16.7244723513
 31
0.0
 11
22.8883062243
 21
16.7266333752
 31
0.0
 11
22.8878287527
 21
16.7276223708
 31
0.0
 11
22.8873801673
 21
16.7285497847
 31
0.0
 11
22.8869608409
 21
16.7294151889
 31
0.0
 11
22.8865711463
 21
16.7302181553
 31
0.0
 11
22.8862114467
 21
16.7309582664
 31
0.0
 11
22.8858820208
 21
16.7316351976
 31
0.0
 11
22.8855831038
 21
16.7322486717
 31
0.0
 11
22.8853149304
 21
16.7327984123
 31
0.0
 11
22.8850777353
 21
16.7332841427
 31
0.0
 11
22.8849708281
 21
16.7335029177
 31
0.0
 11
22.8848717535
 21
16.7337055864
 31
0.0
 11
22.8847805404
 21
16.7338921149
 31
0.0
 11
22.8846972081
 21
16.7340624808
 31
0.0
 11
22.8846217665
 21
16.7342166736
 31
0.0
 11
22.8845542252
 21
16.7343546829
 31
0.0
 11
22.8844945936
 21
16.7344764984
 31
0.0
 11
22.8844428814
 21
16.7345821099
 31
0.0
 11
22.884399098
 21
16.7346715071
 31
0.0
 11
22.8843801827
 21
16.7347101221
 31
0.0
 11
22.8843632531
 21
16.7347446797
 31
0.0
 11
22.8843483105
 21
16.7347751785
 31
0.0
 11
22.8843353561
 21
16.7348016174
 31
0.0
 11
22.884324391
 21
16.734823995
 31
0.0
 11
22.8843154165
 21
16.7348423101
 31
0.0
 11
22.8843116761
 21
16.7348499437
 31
0.0
 11
22.8843084338
 21
16.7348565613
 31
0.0
 11
22.8843056897
 21
16.7348621625
 31
0.0
 11
22.884303444
 21
16.7348667473
 31
0.0
 11
22.8843016969
 21
16.7348703155
 31
0.0
 11
22.8843004484
 21
16.734872867
 31
0.0
 11
22.8843000112
 21
16.7348737614
 31
0.0
 11
22.8842996987
 21
16.7348744015
 31
0.0
 11
22.884299511
 21
16.7348747874
 31
0.0
 11
22.8842994481
 21
16.7348749189
 31
0.0
  0
SPLINE
  5
254
100
AcDbEntity
  8
0
100
AcDbSpline
 62
7
  6
CONTINUOUS
 70
0
 71
3
 72
48
 73
44
 74
42
 42
0.0000001
 43
0.0000001
 44
0.0000000001
 12
0.218178657
 22
0.0
 32
0.0
 13
0.1831276659
 23
-0.1186010305
 33
0.0
 40
0.0
 40
0.0
 40
0.0
 40
0.0
 40
0.0468882859
 40
0.0703138872
 40
0.093701019
 40
0.1170303909
 40
0.1402832032
 40
0.1634466911
 40
0.1865106293
 40
0.2322927585
 40
0.2549884282
 40
0.27753576
 40
0.2999246661
 40
0.3221479233
 40
0.3660637758
 40
0.4092123654
 40
0.4515144075
 40
0.4929069543
 40
0.5132434198
 40
0.5333286296
 40
0.5531536723
 40
0.5727092846
 40
0.610974931
 40
0.6480502682
 40
0.6838554484
 40
0.7183052653
 40
0.7513043273
 40
0.7672288034
 40
0.7827530129
 40
0.7978641703
 40
0.8125490797
 40
0.8405824049
 40
0.8667358313
 40
0.8908908173
 40
0.9129283751
 40
0.9327299735
 40
0.9501767424
 40
0.9651541355
 40
0.9775668894
 40
0.9873245997
 40
0.9943442234
 40
0.9985804884
 40
1.0
 40
1.0
 40
1.0
 40
1.0
 10
21.6852994293
 20
16.1164378203
 30
0.0
 10
21.6887094371
 20
16.1164378203
 30
0.0
 10
21.6938239664
 20
16.1163265819
 30
0.0
 10
21.7006290548
 20
16.1159620292
 30
0.0
 10
21.7057164732
 20
16.1155822078
 30
0.0
 10
21.7107823124
 20
16.1150976057
 30
0.0
 10
21.715820799
 20
16.1145094608
 30
0.0
 10
21.7208271331
 20
16.1138214228
 30
0.0
 10
21.7274373389
 20
16.1127793744
 30
0.0
 10
21.7339828814
 20
16.1115534397
 30
0.0
 10
21.7404539981
 20
16.1101565539
 30
0.0
 10
21.7452428658
 20
16.1090330884
 30
0.0
 10
21.749978242
 20
16.1078353837
 30
0.0
 10
21.7561930816
 20
16.1061529069
 30
0.0
 10
21.763814386
 20
16.1038924113
 30
0.0
 10
21.7727522743
 20
16.1009506388
 30
0.0
 10
21.7814338575
 20
16.097828657
 30
0.0
 10
21.7884873918
 20
16.0950899227
 30
0.0
 10
21.7939957752
 20
16.0928400675
 30
0.0
 10
21.7980336036
 20
16.0911387729
 30
0.0
 10
21.8020012768
 20
16.0894178729
 30
0.0
 10
21.8071594006
 20
16.0871195391
 30
0.0
 10
21.8134233233
 20
16.084221364
 30
0.0
 10
21.8206992986
 20
16.0806993173
 30
0.0
 10
21.8276705835
 20
16.0771871645
 30
0.0
 10
21.8343284877
 20
16.0737137048
 30
0.0
 10
21.8396675666
 20
16.0708394325
 30
0.0
 10
21.8437745202
 20
16.068580788
 30
0.0
 10
21.8467323993
 20
16.0669324894
 30
0.0
 10
21.8496030363
 20
16.0653129302
 30
0.0
 10
21.8532557659
 20
16.0632282949
 30
0.0
 10
21.8575885979
 20
16.0607152991
 30
0.0
 10
21.8624925609
 20
16.0578147271
 30
0.0
 10
21.8670008203
 20
16.0551019984
 30
0.0
 10
21.8710970573
 20
16.0526007236
 30
0.0
 10
21.8747636366
 20
16.0503321033
 30
0.0
 10
21.8779833479
 20
16.0483172226
 30
0.0
 10
21.8807405469
 20
16.0465762903
 30
0.0
 10
21.8830197739
 20
16.0451258006
 30
0.0
 10
21.8848073064
 20
16.0439806474
 30
0.0
 10
21.8860927132
 20
16.0431540601
 30
0.0
 10
21.8868674346
 20
16.0426544748
 30
0.0
 10
21.8872127787
 20
16.0424310374
 30
0.0
 10
21.8872994293
 20
16.0423749189
 30
0.0
 11
21.6852994293
 21
16.1164378203
 31
0.0
 11
21.6955270751
 21
16.1162172811
 31
0.0
 11
21.7006307305
 21
16.1159440095
 31
0.0
 11
21.7057191487
 21
16.1155642054
 31
0.0
 11
21.7107859857
 21
16.1150794704
 31
0.0
 11
21.7158250761
 21
16.1144915846
 31
0.0
 11
21.7208318516
 21
16.1138039231
 31
0.0
 11
21.7258025839
 21
16.1130206997
 31
0.0
 11
21.7356210356
 21
16.1111844526
 31
0.0
 11
21.7404613135
 21
16.1101398718
 31
0.0
 11
21.7452507076
 21
16.1090166287
 31
0.0
 11
21.7499864672
 21
16.107819269
 31
0.0
 11
21.7546667409
 21
16.1065526387
 31
0.0
 11
21.7638535714
 21
16.1038309994
 31
0.0
 11
21.7727966817
 21
16.1008905775
 31
0.0
 11
21.7814823963
 21
16.097769642
 31
0.0
 11
21.789901877
 21
16.0945030279
 31
0.0
 11
21.7940095569
 21
16.0928255947
 31
0.0
 11
21.7980480112
 21
16.0911243454
 31
0.0
 11
21.8020163511
 21
16.0894034813
 31
0.0
 11
21.8059136751
 21
16.0876671379
 31
0.0
 11
21.8134913058
 21
16.0841626986
 31
0.0
 11
21.8207728007
 21
16.0806395582
 31
0.0
 11
21.8277500241
 21
16.077126078
 31
0.0
 11
21.8344142457
 21
16.0736502133
 31
0.0
 11
21.8407540284
 21
16.0702380723
 31
0.0
 11
21.8437984406
 21
16.0685638929
 31
0.0
 11
21.8467571654
 21
16.0669152381
 31
0.0
 11
21.8496286771
 21
16.0652953056
 31
0.0
 11
21.8524113548
 21
16.0637072574
 31
0.0
 11
21.8577023027
 21
16.0606389242
 31
0.0
 11
21.8626138262
 21
16.0577343182
 31
0.0
 11
21.8671296666
 21
16.0550174882
 31
0.0
 11
21.8712332424
 21
16.052511749
 31
0.0
 11
21.8749072112
 21
16.0502386838
 31
0.0
 11
21.8781341209
 21
16.0482196264
 31
0.0
 11
21.8808971232
 21
16.0464749225
 31
0.0
 11
21.8831818563
 21
16.0450208485
 31
0.0
 11
21.8849745978
 21
16.0438726343
 31
0.0
 11
21.8862627523
 21
16.0430442332
 31
0.0
 11
21.8870394055
 21
16.0425431632
 31
0.0
 11
21.8872994293
 21
16.0423749189
 31
0.0
  0
SPLINE
  5
255
100
AcDbEntity
  8
0
100
AcDbSpline
 62
7
  6
CONTINUOUS
 70
0
 71
3
 72
47
 73
43
 74
41
 42
0.0000001
 43
0.0000001
 44
0.0000000001
 12
0.1831275487
 22
0.1186005853
 32
0.0
 13
0.2181783166
 23
0.0
 33
0.0
 40
0.0
 40
0.0
 40
0.0
 40
0.0
 40
0.0014195016
 40
0.005655754
 40
0.0126753878
 40
0.0224331045
 40
0.0348458442
 40
0.0498232227
 40
0.067269958
 40
0.0870714903
 40
0.1091089755
 40
0.1332638996
 40
0.1594172601
 40
0.1874504956
 40
0.2021353449
 40
0.2172464454
 40
0.2327706151
 40
0.2486950617
 40
0.2816940684
 40
0.316143788
 40
0.3519488706
 40
0.3890241482
 40
0.4272897292
 40
0.4468452907
 40
0.4666702514
 40
0.4867553583
 40
0.5070917217
 40
0.5484841502
 40
0.5907863122
 40
0.6339348529
 40
0.6778505139
 40
0.7224612415
 40
0.7450088353
 40
0.7677046852
 40
0.8134870274
 40
0.8365511223
 40
0.8597148896
 40
0.8829681635
 40
0.9062980071
 40
0.9296855292
 40
0.953111428
 40
1.0
 40
1.0
 40
1.0
 40
1.0
 10
21.4832994293
 20
16.0423749189
 30
0.0
 10
21.4833860793
 20
16.0424310368
 30
0.0
 10
21.4837314217
 20
16.0426544726
 30
0.0
 10
21.4845061413
 20
16.0431540563
 30
0.0
 10
21.4857915456
 20
16.0439806437
 30
0.0
 10
21.4875790754
 20
16.0451257952
 30
0.0
 10
21.4898582981
 20
16.0465762807
 30
0.0
 10
21.4926154884
 20
16.0483172088
 30
0.0
 10
21.4958351878
 20
16.0503320818
 30
0.0
 10
21.4995017519
 20
16.0526006899
 30
0.0
 10
21.5035979688
 20
16.0551019552
 30
0.0
 10
21.5081062067
 20
16.0578146756
 30
0.0
 10
21.5130101507
 20
16.060715231
 30
0.0
 10
21.5173429627
 20
16.0632282146
 30
0.0
 10
21.5209956703
 20
16.0653128448
 30
0.0
 10
21.5238662908
 20
16.0669323998
 30
0.0
 10
21.5268241577
 20
16.0685806905
 30
0.0
 10
21.5309310984
 20
16.0708393244
 30
0.0
 10
21.5362701601
 20
16.0737135806
 30
0.0
 10
21.5429280288
 20
16.0771870435
 30
0.0
 10
21.5498992833
 20
16.0806991888
 30
0.0
 10
21.5571752382
 20
16.0842212116
 30
0.0
 10
21.5634391393
 20
16.0871193769
 30
0.0
 10
21.5685972314
 20
16.0894177247
 30
0.0
 10
21.5725648779
 20
16.0911386262
 30
0.0
 10
21.5766026807
 20
16.0928399105
 30
0.0
 10
21.5821110356
 20
16.095089748
 30
0.0
 10
21.5891645599
 20
16.0978284638
 30
0.0
 10
21.5978461028
 20
16.100950462
 30
0.0
 10
21.6067840053
 20
16.1038922901
 30
0.0
 10
21.6159662928
 20
16.1066157892
 30
0.0
 10
21.6237820317
 20
16.1086638247
 30
0.0
 10
21.6301443556
 20
16.110156398
 30
0.0
 10
21.636615516
 20
16.1115533164
 30
0.0
 10
21.6431610718
 20
16.1127793113
 30
0.0
 10
21.64977131
 20
16.1138213977
 30
0.0
 10
21.6547777006
 20
16.1145094472
 30
0.0
 10
21.6598162727
 20
16.1150975536
 30
0.0
 10
21.6648822014
 20
16.1155821434
 30
0.0
 10
21.6699696954
 20
16.1159619771
 30
0.0
 10
21.6767748424
 20
16.1163265587
 30
0.0
 10
21.6818894061
 20
16.1164378203
 30
0.0
 10
21.6852994293
 20
16.1164378203
 30
0.0
 11
21.4832994293
 21
16.0423749189
 31
0.0
 11
21.4835594511
 21
16.0425431614
 31
0.0
 11
21.484336101
 21
16.0430442289
 31
0.0
 11
21.4856242549
 21
16.0438726306
 31
0.0
 11
21.4874169946
 21
16.045020844
 31
0.0
 11
21.4897017219
 21
16.0464749134
 31
0.0
 11
21.492464717
 21
16.0482196133
 31
0.0
 11
21.4956916155
 21
16.0502386634
 31
0.0
 11
21.499365567
 21
16.0525117164
 31
0.0
 11
21.503469122
 21
16.0550174449
 31
0.0
 11
21.5079849425
 21
16.0577342658
 31
0.0
 11
21.5128964472
 21
16.0606388578
 31
0.0
 11
21.5181873696
 21
16.0637071771
 31
0.0
 11
21.5209700294
 21
16.06529522
 31
0.0
 11
21.523841524
 21
16.066915147
 31
0.0
 11
21.5268002368
 21
16.0685637949
 31
0.0
 11
21.5298446396
 21
16.0702379667
 31
0.0
 11
21.536184403
 21
16.0736500944
 31
0.0
 11
21.5428485894
 21
16.0771259551
 31
0.0
 11
21.5498257802
 21
16.0806394258
 31
0.0
 11
21.5571072552
 21
16.0841625485
 31
0.0
 11
21.5646848585
 21
16.087666982
 31
0.0
 11
21.5685821598
 21
16.0894033328
 31
0.0
 11
21.5725504726
 21
16.0911241976
 31
0.0
 11
21.5765888993
 21
16.092825437
 31
0.0
 11
21.5806965535
 21
16.0945028557
 31
0.0
 11
21.5891159996
 21
16.0977694489
 31
0.0
 11
21.597801717
 21
16.1008904111
 31
0.0
 11
21.6067447908
 21
16.103830863
 31
0.0
 11
21.6159315616
 21
16.106552504
 31
0.0
 11
21.6253476072
 21
16.1090164831
 31
0.0
 11
21.6301370525
 21
16.1101397245
 31
0.0
 11
21.6349773584
 21
16.1111843255
 31
0.0
 11
21.6447958284
 21
16.1130206428
 31
0.0
 11
21.6497665831
 21
16.1138038931
 31
0.0
 11
21.6547734113
 21
16.1144915606
 31
0.0
 11
21.6598125979
 21
16.1150794225
 31
0.0
 11
21.6648795315
 21
16.1155641458
 31
0.0
 11
21.6699680264
 21
16.1159439597
 31
0.0
 11
21.6750717377
 21
16.1162172517
 31
0.0
 11
21.6852994293
 21
16.1164378203
 31
0.0
  0
SPLINE
  5
256
100
AcDbEntity
  8
0
100
AcDbSpline
 62
7
  6
CONTINUOUS
 70
0
 71
3
 72
47
 73
43
 74
41
 42
0.0000001
 43
0.0000001
 44
0.0000000001
 12
-0.2181783168
 22
0.0
 32
0.0
 13
-0.1831274933
 23
0.1186006711
 33
0.0
 40
0.0
 40
0.0
 40
0.0
 40
0.0
 40
0.0468885304
 40
0.0703143839
 40
0.0937018494
 40
0.1170316295
 40
0.1402848493
 40
0.1634486001
 40
0.186512707
 40
0.2322951157
 40
0.2549909998
 40
0.2775386188
 40
0.3221494151
 40
0.3660651614
 40
0.4092137828
 40
0.4515159971
 40
0.4929084459
 40
0.5132448123
 40
0.5333299203
 40
0.5531548823
 40
0.5727104465
 40
0.6109760328
 40
0.6480513112
 40
0.6838563852
 40
0.7183060905
 40
0.7513050831
 40
0.7672295213
 40
0.7827536807
 40
0.7978647686
 40
0.8125496047
 40
0.8405828168
 40
0.8667361567
 40
0.8908910618
 40
0.9129285287
 40
0.9327300445
 40
0.9501767671
 40
0.9651541424
 40
0.9775668861
 40
0.9873246036
 40
0.9943442369
 40
0.9985804947
 40
1.0
 40
1.0
 40
1.0
 40
1.0
 10
21.6852994293
 20
16.5933120176
 30
0.0
 10
21.6818894091
 20
16.5933120176
 30
0.0
 10
21.6767748517
 20
16.5934232749
 30
0.0
 10
21.6699697148
 20
16.5937878514
 30
0.0
 10
21.6648822328
 20
16.5941676831
 30
0.0
 10
21.6598163169
 20
16.5946522753
 30
0.0
 10
21.6547777556
 20
16.5952403896
 30
0.0
 10
21.6497713694
 20
16.59592844
 30
0.0
 10
21.6431611265
 20
16.596970525
 30
0.0
 10
21.6366155614
 20
16.5981965144
 30
0.0
 10
21.6301443909
 20
16.5995934296
 30
0.0
 10
21.6237820578
 20
16.6010860048
 30
0.0
 10
21.6159663064
 20
16.6031340439
 30
0.0
 10
21.6067840027
 20
16.6058575486
 30
0.0
 10
21.5978460853
 20
16.6087993822
 30
0.0
 10
21.5891645318
 20
16.6119213839
 30
0.0
 10
21.5821110022
 20
16.6146601014
 30
0.0
 10
21.5766026459
 20
16.6169099399
 30
0.0
 10
21.572564843
 20
16.618611225
 30
0.0
 10
21.5685971967
 20
16.620332128
 30
0.0
 10
21.5634391048
 20
16.622630478
 30
0.0
 10
21.5571752032
 20
16.6255286436
 30
0.0
 10
21.5498992479
 20
16.6290506654
 30
0.0
 10
21.5429279954
 20
16.6325628109
 30
0.0
 10
21.5362701301
 20
16.6360362746
 30
0.0
 10
21.5309310705
 20
16.638910529
 30
0.0
 10
21.5268241317
 20
16.6411691615
 30
0.0
 10
21.5238662667
 20
16.642817451
 30
0.0
 10
21.5209956488
 20
16.6444370052
 30
0.0
 10
21.5173429447
 20
16.6465216343
 30
0.0
 10
21.5130101363
 20
16.6490346158
 30
0.0
 10
21.508106196
 20
16.6519351685
 30
0.0
 10
21.5035979618
 20
16.6546478869
 30
0.0
 10
21.4995017485
 20
16.6571491505
 30
0.0
 10
21.4958351873
 20
16.6594177568
 30
0.0
 10
21.4926154897
 20
16.6614326282
 30
0.0
 10
21.4898583001
 20
16.6631735557
 30
0.0
 10
21.4875790774
 20
16.6646240416
 30
0.0
 10
21.4857915473
 20
16.6657691932
 30
0.0
 10
21.4845061425
 20
16.6665957804
 30
0.0
 10
21.4837314224
 20
16.6670953646
 30
0.0
 10
21.4833860795
 20
16.6673188008
 30
0.0
 10
21.4832994293
 20
16.6673749189
 30
0.0
 11
21.6852994293
 21
16.5933120176
 31
0.0
 11
21.6750717466
 21
16.5935325808
 31
0.0
 11
21.669968045
 21
16.5938058692
 31
0.0
 11
21.6648795624
 21
16.5941856815
 31
0.0
 11
21.659812643
 21
16.5946704073
 31
0.0
 11
21.6547734689
 21
16.5952582746
 31
0.0
 11
21.6497666446
 21
16.5959459438
 31
0.0
 11
21.644795887
 21
16.596729193
 31
0.0
 11
21.6349774012
 21
16.5985655047
 31
0.0
 11
21.6301370873
 21
16.5996101039
 31
0.0
 11
21.6253476365
 21
16.6007333458
 31
0.0
 11
21.6159315764
 21
16.603197329
 31
0.0
 11
21.6067447879
 21
16.6059189758
 31
0.0
 11
21.5978016975
 21
16.6088594337
 31
0.0
 11
21.5891159693
 21
16.6119803997
 31
0.0
 11
21.5806965191
 21
16.6152469944
 31
0.0
 11
21.5765888643
 21
16.6169244135
 31
0.0
 11
21.5725504377
 21
16.6186256538
 31
0.0
 11
21.5685821252
 21
16.6203465199
 31
0.0
 11
21.5646848239
 21
16.6220828722
 31
0.0
 11
21.5571072198
 21
16.6255873067
 31
0.0
 11
21.5498257444
 21
16.629110429
 31
0.0
 11
21.5428485558
 21
16.6326238997
 31
0.0
 11
21.5361843727
 21
16.6360997603
 31
0.0
 11
21.529844612
 21
16.6395118865
 31
0.0
 11
21.5268002107
 21
16.6411860572
 31
0.0
 11
21.5238414998
 21
16.6428347039
 31
0.0
 11
21.5209700078
 21
16.64445463
 31
0.0
 11
21.5181873508
 21
16.6460426719
 31
0.0
 11
21.512896433
 21
16.6491109888
 31
0.0
 11
21.507984932
 21
16.6520155784
 31
0.0
 11
21.5034691151
 21
16.6547323972
 31
0.0
 11
21.4993655636
 21
16.6572381239
 31
0.0
 11
21.4956916152
 21
16.659511175
 31
0.0
 11
21.4924647189
 21
16.6615302234
 31
0.0
 11
21.4897017243
 21
16.6632749228
 31
0.0
 11
21.4874169964
 21
16.6647289929
 31
0.0
 11
21.4856242565
 21
16.6658772063
 31
0.0
 11
21.4843361025
 21
16.6667056077
 31
0.0
 11
21.4835594517
 21
16.6672066759
 31
0.0
 11
21.4832994293
 21
16.6673749189
 31
0.0
  0
SPLINE
  5
257
100
AcDbEntity
  8
0
100
AcDbSpline
 62
6
  6
CONTINUOUS
 70
0
 71
3
 72
43
 73
39
 74
37
 42
0.0000001
 43
0.0000001
 44
0.0000000001
 12
0.4088409823
 22
0.6258155539
 32
0.0
 13
-0.4392655024
 23
0.6048486378
 33
0.0
 40
0.0
 40
0.0
 40
0.0
 40
0.0
 40
0.0312527424
 40
0.0625049095
 40
0.0937565263
 40
0.1250076205
 40
0.156258223
 40
0.1875083673
 40
0.2187580897
 40
0.2500074286
 40
0.2812564249
 40
0.3125051212
 40
0.3437535621
 40
0.3593783956
 40
0.3750031825
 40
0.4062512512
 40
0.4374992053
 40
0.4531238492
 40
0.4687484828
 40
0.499996354
 40
0.5312442575
 40
0.5468689312
 40
0.5624936313
 40
0.5937417454
 40
0.6249900369
 40
0.6406149583
 40
0.6562399415
 40
0.6874887265
 40
0.7187378249
 40
0.7499872789
 40
0.7812371284
 40
0.8124874116
 40
0.8437381636
 40
0.8749894172
 40
0.9062412025
 40
0.9374935461
 40
0.9687464717
 40
1.0
 40
1.0
 40
1.0
 40
1.0
 10
25.9894843261
 20
16.0039837495
 30
0.0
 10
25.99374346
 20
16.0105032336
 30
0.0
 10
26.0020166704
 20
16.0237040336
 30
0.0
 10
26.013670444
 20
16.0439576968
 30
0.0
 10
26.0245523887
 20
16.0646362234
 30
0.0
 10
26.0346468027
 20
16.0857098679
 30
0.0
 10
26.0439394054
 20
16.1071487867
 30
0.0
 10
26.0524169745
 20
16.1289224916
 30
0.0
 10
26.060067468
 20
16.1510000565
 30
0.0
 10
26.0668800108
 20
16.173350096
 30
0.0
 10
26.07284493
 20
16.1959409094
 30
0.0
 10
26.0779537189
 20
16.2187401919
 30
0.0
 10
26.0814916822
 20
16.2378871675
 30
0.0
 10
26.083887206
 20
16.2532756087
 30
0.0
 10
26.085992131
 20
16.2687064103
 30
0.0
 10
26.0880770716
 20
16.2880651574
 30
0.0
 10
26.0894304893
 20
16.3074887265
 30
0.0
 10
26.09007317
 20
16.3230490491
 30
0.0
 10
26.0904223231
 20
16.3386187033
 30
0.0
 10
26.0903081047
 20
16.3580889678
 30
0.0
 10
26.0894597178
 20
16.3775410853
 30
0.0
 10
26.0883413435
 20
16.3930744776
 30
0.0
 10
26.0869302601
 20
16.4085840719
 30
0.0
 10
26.0846183368
 20
16.4279171017
 30
0.0
 10
26.0815789914
 20
16.4471492483
 30
0.0
 10
26.0787138553
 20
16.4624572617
 30
0.0
 10
26.0755605665
 20
16.4777086322
 30
0.0
 10
26.0710804394
 20
16.4966575374
 30
0.0
 10
26.0648508659
 20
16.5191767165
 30
0.0
 10
26.0577765143
 20
16.5414454077
 30
0.0
 10
26.049867478
 20
16.5634317656
 30
0.0
 10
26.0411349852
 20
16.5851046065
 30
0.0
 10
26.0315914492
 20
16.6064331202
 30
0.0
 10
26.0212504263
 20
16.6273870133
 30
0.0
 10
26.0101266296
 20
16.647936488
 30
0.0
 10
25.9982357977
 20
16.6680524424
 30
0.0
 10
25.9855950836
 20
16.687705943
 30
0.0
 10
25.9766794441
 20
16.7004821116
 30
0.0
 10
25.9721032452
 20
16.7067833296
 30
0.0
 11
25.9894843261
 21
16.0039837495
 31
0.0
 11
26.0018907546
 21
16.0237795972
 31
0.0
 11
26.013541905
 21
16.0440286875
 31
0.0
 11
26.0244212212
 21
16.0647022508
 31
0.0
 11
26.0345132438
 21
16.0857709141
 31
0.0
 11
26.0438036316
 21
16.1072047427
 31
0.0
 11
26.0522791831
 21
16.1289732829
 31
0.0
 11
26.059927854
 21
16.1510456051
 31
0.0
 11
26.0667387752
 21
16.1733903481
 31
0.0
 11
26.0727022682
 21
16.1959757631
 31
0.0
 11
26.0778098584
 21
16.2187697594
 31
0.0
 11
26.0820542876
 21
16.2417399497
 31
0.0
 11
26.0838508837
 21
16.2532809268
 31
0.0
 11
26.0854295241
 21
16.2648536963
 31
0.0
 11
26.0879307715
 21
16.2880781572
 31
0.0
 11
26.0895544753
 21
16.3113803333
 31
0.0
 11
26.0900364784
 21
16.3230502208
 31
0.0
 11
26.090298328
 21
16.3347271148
 31
0.0
 11
26.0901612726
 21
16.3580853284
 31
0.0
 11
26.0891435039
 21
16.3814217849
 31
0.0
 11
26.0883047552
 21
16.3930714897
 31
0.0
 11
26.0872464682
 21
16.4047033258
 31
0.0
 11
26.0844728613
 21
16.4278968705
 31
0.0
 11
26.0808266247
 21
16.4509694639
 31
0.0
 11
26.0786778413
 21
16.462450151
 31
0.0
 11
26.0763129401
 21
16.4738883225
 31
0.0
 11
26.0709382218
 21
16.4966208816
 31
0.0
 11
26.0647101074
 21
16.5191348412
 31
0.0
 11
26.0576374476
 21
16.5413982122
 31
0.0
 11
26.049730293
 21
16.5633793615
 31
0.0
 11
26.0409998799
 21
16.5850470575
 31
0.0
 11
26.0314586145
 21
16.6063705139
 31
0.0
 11
26.0211200552
 21
16.6273194339
 31
0.0
 11
26.0099988932
 21
16.6478640531
 31
0.0
 11
25.9981109315
 21
16.6679751818
 31
0.0
 11
25.9854730629
 21
16.6876242461
 31
0.0
 11
25.9721032452
 21
16.7067833296
 31
0.0
  0
SPLINE
  5
258
100
AcDbEntity
  8
0
100
AcDbSpline
 62
9
  6
CONTINUOUS
 70
0
 71
3
 72
26
 73
22
 74
20
 42
0.0000001
 43
0.0000001
 44
0.0000000001
 12
-0.0076228843
 22
0.3742879148
 32
0.0
 13
-0.2199867948
 23
0.302911475
 33
0.0
 40
0.0
 40
0.0
 40
0.0
 40
0.0
 40
0.0624854323
 40
0.1249816181
 40
0.1874749832
 40
0.2499657332
 40
0.3124578733
 40
0.3749518532
 40
0.4062006003
 40
0.4374495193
 40
0.4999455204
 40
0.5311956588
 40
0.5624464101
 40
0.6249464017
 40
0.687446887
 40
0.7499484655
 40
0.8124563813
 40
0.843715947
 40
0.8749779583
 40
0.9374976571
 40
1.0
 40
1.0
 40
1.0
 40
1.0
 10
26.0867827282
 20
16.3548749189
 30
0.0
 10
26.0866239552
 20
16.3626707663
 30
0.0
 10
26.0860098858
 20
16.3782593808
 30
0.0
 10
26.0842021154
 20
16.4015895232
 30
0.0
 10
26.0815091059
 20
16.4248351326
 30
0.0
 10
26.0779354154
 20
16.4479611637
 30
0.0
 10
26.0734857556
 20
16.4709346754
 30
0.0
 10
26.0690533417
 20
16.4899256827
 30
0.0
 10
26.0650767618
 20
16.5050086283
 30
0.0
 10
26.0608143061
 20
16.52001347
 30
0.0
 10
26.0561250832
 20
16.534894548
 30
0.0
 10
26.0510150099
 20
16.5496327135
 30
0.0
 10
26.0456255858
 20
16.5642716522
 30
0.0
 10
26.0383688789
 20
16.582374805
 30
0.0
 10
26.0288427113
 20
16.6037519497
 30
0.0
 10
26.0185110009
 20
16.6247527117
 30
0.0
 10
26.0092421621
 20
16.6419154645
 30
0.0
 10
26.0014394685
 20
16.6554274262
 30
0.0
 10
25.9933806285
 20
16.6687899581
 30
0.0
 10
25.9828348645
 20
16.685200978
 30
0.0
 10
25.9739063394
 20
16.6980001057
 30
0.0
 10
25.9693231094
 20
16.704310998
 30
0.0
 11
26.0867827282
 21
16.3548749189
 31
0.0
 11
26.0858621905
 21
16.3782491915
 31
0.0
 11
26.0840545471
 21
16.4015756742
 31
0.0
 11
26.0813622724
 21
16.4248156099
 31
0.0
 11
26.0777894542
 21
16.4479355606
 31
0.0
 11
26.0733409525
 21
16.4709036326
 31
0.0
 11
26.0680234011
 21
16.4936869022
 31
0.0
 11
26.0650410406
 21
16.504998814
 31
0.0
 11
26.0618443137
 21
16.516252092
 31
0.0
 11
26.0548126345
 21
16.5385667647
 31
0.0
 11
26.050980137
 21
16.5496201792
 31
0.0
 11
26.0469382371
 21
16.5605989962
 31
0.0
 11
26.0382325552
 21
16.5823169643
 31
0.0
 11
26.0287085841
 21
16.6036889475
 31
0.0
 11
26.0183796719
 21
16.6246841948
 31
0.0
 11
26.0072598142
 21
16.6452741592
 31
0.0
 11
26.0014076968
 21
16.6554083252
 31
0.0
 11
25.9953636059
 21
16.6654302509
 31
0.0
 11
25.982710593
 21
16.6851204921
 31
0.0
 11
25.9693231094
 21
16.704310998
 31
0.0
  0
SPLINE
  5
259
100
AcDbEntity
  8
0
100
AcDbSpline
 62
9
  6
CONTINUOUS
 70
0
 71
3
 72
31
 73
27
 74
25
 42
0.0000001
 43
0.0000001
 44
0.0000000001
 12
0.2018104429
 22
0.3089125692
 32
0.0
 13
-0.0075134493
 23
0.368914595
 33
0.0
 40
0.0
 40
0.0
 40
0.0
 40
0.0
 40
0.0625026923
 40
0.1250169427
 40
0.1562744689
 40
0.1875297087
 40
0.2500327954
 40
0.2812846099
 40
0.3125363713
 40
0.3750367576
 40
0.4062878246
 40
0.4375384103
 40
0.5000355775
 40
0.5312850245
 40
0.562534224
 40
0.6250293373
 40
0.6562780689
 40
0.6875266879
 40
0.7187750919
 40
0.7500231579
 40
0.7812707766
 40
0.8125181464
 40
0.8437657909
 40
0.8750142485
 40
0.9375109099
 40
1.0
 40
1.0
 40
1.0
 40
1.0
 10
25.9866075288
 20
16.0054388502
 30
0.0
 10
25.9908120941
 20
16.011874806
 30
0.0
 10
25.9989815792
 20
16.0249067061
 30
0.0
 10
26.0085769989
 20
16.0415669701
 30
0.0
 10
26.0158751694
 20
16.0551037118
 30
0.0
 10
26.0229178351
 20
16.0687734527
 30
0.0
 10
26.0295752016
 20
16.0826381018
 30
0.0
 10
26.0358390787
 20
16.0966805612
 30
0.0
 10
26.0418388162
 20
16.1108375316
 30
0.0
 10
26.0474400793
 20
16.1251605314
 30
0.0
 10
26.0526358211
 20
16.1396316633
 30
0.0
 10
26.057559526
 20
16.1541971823
 30
0.0
 10
26.0620733397
 20
16.1688983806
 30
0.0
 10
26.0661716619
 20
16.1837169374
 30
0.0
 10
26.0699917221
 20
16.1986093879
 30
0.0
 10
26.0733929703
 20
16.2136065976
 30
0.0
 10
26.0763710715
 20
16.2286897788
 30
0.0
 10
26.0783924841
 20
16.2400423881
 30
0.0
 10
26.0802010369
 20
16.2514307051
 30
0.0
 10
26.0817961257
 20
16.2628507676
 30
0.0
 10
26.0831771083
 20
16.2742985649
 30
0.0
 10
26.0843434889
 20
16.2857701535
 30
0.0
 10
26.0852949446
 20
16.2972617013
 30
0.0
 10
26.086276514
 20
16.3126048398
 30
0.0
 10
26.0869643402
 20
16.3318135421
 30
0.0
 10
26.0869392311
 20
16.3471905398
 30
0.0
 10
26.0867827282
 20
16.3548749189
 30
0.0
 11
25.9866075288
 21
16.0054388502
 31
0.0
 11
25.998857519
 21
16.0249794952
 31
0.0
 11
26.0103699869
 21
16.0449684643
 31
0.0
 11
26.0158434414
 21
16.0551207379
 31
0.0
 11
26.0211254264
 21
16.0653729834
 31
0.0
 11
26.0311083754
 21
16.0861635223
 31
0.0
 11
26.0358060799
 21
16.0966949194
 31
0.0
 11
26.04030579
 21
16.1073124007
 31
0.0
 11
26.048705175
 21
16.1287905326
 31
0.0
 11
26.0526018515
 21
16.1396435646
 31
0.0
 11
26.0562945677
 21
16.1505674898
 31
0.0
 11
26.0630632585
 21
16.1726126674
 31
0.0
 11
26.0661368944
 21
16.1837262342
 31
0.0
 11
26.0690018828
 21
16.1948953139
 31
0.0
 11
26.0741021918
 21
16.217384354
 31
0.0
 11
26.0763357078
 21
16.228696468
 31
0.0
 11
26.0783570141
 21
16.2400483789
 31
0.0
 11
26.0801654687
 21
16.2514360574
 31
0.0
 11
26.0817604512
 21
16.2628554656
 31
0.0
 11
26.0831413458
 21
16.2743025691
 31
0.0
 11
26.0843076636
 21
16.2857734293
 31
0.0
 11
26.0852590558
 21
16.2972642134
 31
0.0
 11
26.0859951808
 21
16.3087710942
 31
0.0
 11
26.0868205154
 21
16.3318170319
 31
0.0
 11
26.0867827282
 21
16.3548749189
 31
0.0
  0
SPLINE
  5
25A
100
AcDbEntity
  8
0
100
AcDbSpline
 62
9
  6
CONTINUOUS
 70
0
 71
3
 72
240
 73
236
 74
234
 42
0.0000001
 43
0.0000001
 44
0.0000000001
 12
-1.3591356434
 22
-0.5868460362
 32
0.0
 13
1.3600640093
 23
-0.5846913419
 33
0.0
 40
0.0
 40
0.0
 40
0.0
 40
0.0
 40
0.0000002382
 40
0.0000009008
 40
0.0000019878
 40
0.0000034991
 40
0.0000054345
 40
0.0000077939
 40
0.0000137845
 40
0.0000214699
 40
0.0000308493
 40
0.0000419216
 40
0.000054686
 40
0.0000691416
 40
0.0000852874
 40
0.000122646
 40
0.0001667547
 40
0.0002176059
 40
0.0002751925
 40
0.0003395069
 40
0.000410542
 40
0.0004882903
 40
0.0006638974
 40
0.0008662694
 40
0.0010953476
 40
0.0013510733
 40
0.0016333877
 40
0.0019422322
 40
0.0022775479
 40
0.0026392762
 40
0.0034417356
 40
0.0043491364
 40
0.0053607102
 40
0.0064751962
 40
0.007691287
 40
0.0090076752
 40
0.0104230534
 40
0.0119361143
 40
0.0135455505
 40
0.0152500549
 40
0.0170483185
 40
0.0209201479
 40
0.0251478955
 40
0.0297181113
 40
0.0346173465
 40
0.0398321559
 40
0.0453492286
 40
0.0511554667
 40
0.0572377932
 40
0.0635831346
 40
0.0701784203
 40
0.0770110252
 40
0.0913444084
 40
0.0988238501
 40
0.1064975733
 40
0.1143549243
 40
0.1223857994
 40
0.1305820128
 40
0.1389358112
 40
0.1474394564
 40
0.1560852266
 40
0.1648654176
 40
0.1737724078
 40
0.1827997415
 40
0.1919419868
 40
0.2011937855
 40
0.2105498242
 40
0.2200048378
 40
0.2247678331
 40
0.229553629
 40
0.2391914377
 40
0.248914235
 40
0.2587181571
 40
0.268599476
 40
0.2735680448
 40
0.2785546334
 40
0.2835588186
 40
0.2885801737
 40
0.2986726947
 40
0.3088291237
 40
0.319046769
 40
0.3241778578
 40
0.3293234504
 40
0.3344833271
 40
0.3396571085
 40
0.3448443503
 40
0.3500446775
 40
0.3552577915
 40
0.3604834745
 40
0.3657215946
 40
0.3709721106
 40
0.3762350762
 40
0.3815104727
 40
0.3867976662
 40
0.3920960106
 40
0.3974050718
 40
0.4027246423
 40
0.4080547567
 40
0.413395707
 40
0.4187480435
 40
0.4241116257
 40
0.4294850442
 40
0.4348671801
 40
0.4402573973
 40
0.445655577
 40
0.4510621525
 40
0.4537689473
 40
0.4564781062
 40
0.4619023114
 40
0.4673329106
 40
0.4727684051
 40
0.4782078641
 40
0.4809290493
 40
0.4836511587
 40
0.4863742451
 40
0.4890982455
 40
0.4945480748
 40
0.4999993755
 40
0.5054506467
 40
0.5081759037
 40
0.5109005963
 40
0.5136245448
 40
0.5163475835
 40
0.5190696845
 40
0.5217908962
 40
0.5272304711
 40
0.5326661001
 40
0.5380967818
 40
0.5435209551
 40
0.546230038
 40
0.5489367443
 40
0.55434327
 40
0.5597415259
 40
0.5651318876
 40
0.5705141778
 40
0.5758877015
 40
0.5812512808
 40
0.5866035227
 40
0.5919444401
 40
0.5972745756
 40
0.6025942028
 40
0.6079033365
 40
0.6132017478
 40
0.61848898
 40
0.623764364
 40
0.6290273013
 40
0.6342778098
 40
0.6395159394
 40
0.6447416445
 40
0.6499547879
 40
0.6551551466
 40
0.6603424159
 40
0.6655162142
 40
0.6706760923
 40
0.6758216857
 40
0.680952779
 40
0.6911704429
 40
0.7013268993
 40
0.7114194495
 40
0.7164408173
 40
0.7214450126
 40
0.7264316099
 40
0.7314001867
 40
0.7412815209
 40
0.7510854605
 40
0.7608082805
 40
0.7704461198
 40
0.7752319344
 40
0.7799949477
 40
0.7894499926
 40
0.7988060581
 40
0.8080578808
 40
0.8172001489
 40
0.826227506
 40
0.8351345209
 40
0.8439147328
 40
0.8525605189
 40
0.8610641752
 40
0.8694179804
 40
0.8776141963
 40
0.8856450702
 40
0.8935024157
 40
0.9011761305
 40
0.9086555634
 40
0.9229889379
 40
0.9298215479
 40
0.9364168442
 40
0.9427621967
 40
0.9488445329
 40
0.9546507773
 40
0.9601678512
 40
0.965382655
 40
0.9702818797
 40
0.9748520847
 40
0.979079826
 40
0.9829516581
 40
0.9847499279
 40
0.9864544414
 40
0.9880638883
 40
0.9895769595
 40
0.9909923462
 40
0.9923087395
 40
0.9935248303
 40
0.9946393095
 40
0.9956508682
 40
0.9965582447
 40
0.997360674
 40
0.9977223866
 40
0.9980576872
 40
0.9983665175
 40
0.9986488195
 40
0.9989045351
 40
0.9991336062
 40
0.9993359746
 40
0.9995115823
 40
0.9995893328
 40
0.9996603712
 40
0.9997246904
 40
0.9997822831
 40
0.9998331421
 40
0.99987726
 40
0.9999146297
 40
0.9999307816
 40
0.9999452438
 40
0.9999580152
 40
0.9999690951
 40
0.9999784824
 40
0.9999861763
 40
0.9999921759
 40
0.99999454
 40
0.9999964803
 40
0.9999979965
 40
0.9999990885
 40
0.9999997564
 40
1.0
 40
1.0
 40
1.0
 40
1.0
 10
24.2642994293
 20
16.9398749189
 30
0.0
 10
24.2642993214
 20
16.9398748723
 30
0.0
 10
24.2642990345
 20
16.9398745051
 30
0.0
 10
24.2642982837
 20
16.9398738932
 30
0.0
 10
24.2642971378
 20
16.9398727509
 30
0.0
 10
24.2642955103
 20
16.9398712211
 30
0.0
 10
24.2642934437
 20
16.9398692346
 30
0.0
 10
24.2642897778
 20
16.9398657252
 30
0.0
 10
24.2642840714
 20
16.9398602424
 30
0.0
 10
24.2642758699
 20
16.9398523575
 30
0.0
 10
24.2642658657
 20
16.939842729
 30
0.0
 10
24.2642540589
 20
16.9398313593
 30
0.0
 10
24.2642404509
 20
16.9398182486
 30
0.0
 10
24.2642250426
 20
16.9398033981
 30
0.0
 10
24.2642008991
 20
16.9397801219
 30
0.0
 10
24.2641662273
 20
16.939746683
 30
0.0
 10
24.2641192358
 20
16.9397013475
 30
0.0
 10
24.2640650673
 20
16.9396490744
 30
0.0
 10
24.2640037298
 20
16.9395898711
 30
0.0
 10
24.2639352315
 20
16.9395237449
 30
0.0
 10
24.2638595803
 20
16.9394507031
 30
0.0
 10
24.2637444265
 20
16.9393395073
 30
0.0
 10
24.2635826631
 20
16.9391832776
 30
0.0
 10
24.2633672023
 20
16.9389751513
 30
0.0
 10
24.2631233229
 20
16.9387395385
 30
0.0
 10
24.262851089
 20
16.938476498
 30
0.0
 10
24.262550565
 20
16.9381860883
 30
0.0
 10
24.262221815
 20
16.937868368
 30
0.0
 10
24.2618649034
 20
16.9375233959
 30
0.0
 10
24.2613328708
 20
16.9370091118
 30
0.0
 10
24.2605979098
 20
16.9362985675
 30
0.0
 10
24.2596324715
 20
16.935365051
 30
0.0
 10
24.2585564393
 20
16.9343244001
 30
0.0
 10
24.257371073
 20
16.9331776804
 30
0.0
 10
24.2560778152
 20
16.9319261514
 30
0.0
 10
24.2546781279
 20
16.9305710859
 30
0.0
 10
24.2531734722
 20
16.9291137572
 30
0.0
 10
24.2515653097
 20
16.9275554383
 30
0.0
 10
24.2498551018
 20
16.9258974024
 30
0.0
 10
24.2480443113
 20
16.9241409225
 30
0.0
 10
24.2454328551
 20
16.9216064002
 30
0.0
 10
24.2419294022
 20
16.918203115
 30
0.0
 10
24.2374477523
 20
16.9138436662
 30
0.0
 10
24.2326062583
 20
16.9091270305
 30
0.0
 10
24.2274200655
 20
16.9040661982
 30
0.0
 10
24.2219042466
 20
16.8986741383
 30
0.0
 10
24.2160738614
 20
16.892963589
 30
0.0
 10
24.2099440635
 20
16.8869469374
 30
0.0
 10
24.2035298845
 20
16.8806365338
 30
0.0
 10
24.1968463628
 20
16.8740447087
 30
0.0
 10
24.1899083751
 20
16.867183645
 30
0.0
 10
24.180181226
 20
16.8575370344
 30
0.0
 10
24.1701677988
 20
16.8475594954
 30
0.0
 10
24.159887644
 20
16.8372616984
 30
0.0
 10
24.1518806546
 20
16.8292102551
 30
0.0
 10
24.1436985177
 20
16.820949254
 30
0.0
 10
24.1353531
 20
16.8124871142
 30
0.0
 10
24.1268559712
 20
16.8038305593
 30
0.0
 10
24.1182178615
 20
16.7949855311
 30
0.0
 10
24.109449368
 20
16.7859578119
 30
0.0
 10
24.1005610719
 20
16.7767531993
 30
0.0
 10
24.0915635863
 20
16.7673774171
 30
0.0
 10
24.0824669101
 20
16.7578359494
 30
0.0
 10
24.0732813414
 20
16.748132489
 30
0.0
 10
24.0640172485
 20
16.7382691952
 30
0.0
 10
24.0546844664
 20
16.7282480397
 30
0.0
 10
24.0452928747
 20
16.7180709341
 30
0.0
 10
24.037445434
 20
16.7094832034
 30
0.0
 10
24.0311464683
 20
16.702535724
 30
0.0
 10
24.0248057585
 20
16.6955043786
 30
0.0
 10
24.0168635275
 20
16.6866215822
 30
0.0
 10
24.0073382759
 20
16.6758327296
 30
0.0
 10
23.9978087142
 20
16.664887821
 30
0.0
 10
23.9898888236
 20
16.6556525732
 30
0.0
 10
23.9835617635
 20
16.6481833958
 30
0.0
 10
23.9788140686
 20
16.6425306032
 30
0.0
 10
23.9740743107
 20
16.6368372143
 30
0.0
 10
23.967757419
 20
16.6291784319
 30
0.0
 10
23.9598933824
 20
16.6195001581
 30
0.0
 10
23.9505402471
 20
16.6077288999
 30
0.0
 10
23.9428297637
 20
16.5977806426
 30
0.0
 10
23.936713684
 20
16.5897261039
 30
0.0
 10
23.9321489412
 20
16.5836276836
 30
0.0
 10
23.9276154438
 20
16.5774797999
 30
0.0
 10
23.9231168433
 20
16.5712809083
 30
0.0
 10
23.9186575045
 20
16.5650291636
 30
0.0
 10
23.9142416838
 20
16.5587228804
 30
0.0
 10
23.9098736786
 20
16.5523603453
 30
0.0
 10
23.9055577754
 20
16.5459398526
 30
0.0
 10
23.9012982651
 20
16.5394596939
 30
0.0
 10
23.8970994336
 20
16.532918163
 30
0.0
 10
23.8929656301
 20
16.5263136182
 30
0.0
 10
23.8889013632
 20
16.5196448246
 30
0.0
 10
23.884914153
 20
16.5129093404
 30
0.0
 10
23.8810118604
 20
16.5061051084
 30
0.0
 10
23.8772023811
 20
16.4992301679
 30
0.0
 10
23.8734936214
 20
16.4922825534
 30
0.0
 10
23.8698934728
 20
16.4852603064
 30
0.0
 10
23.8664098881
 20
16.4781614474
 30
0.0
 10
23.8630508184
 20
16.47098454
 30
0.0
 10
23.8598255513
 20
16.4637289096
 30
0.0
 10
23.8567461272
 20
16.4563941558
 30
0.0
 10
23.8538246595
 20
16.4489808585
 30
0.0
 10
23.8510733803
 20
16.4414896123
 30
0.0
 10
23.8485045216
 20
16.4339210693
 30
0.0
 10
23.8465268115
 20
16.4275526351
 30
0.0
 10
23.8450481765
 20
16.4224206245
 30
0.0
 10
23.8436394659
 20
16.4172599658
 30
0.0
 10
23.8420153624
 20
16.410765497
 30
0.0
 10
23.8402964982
 20
16.4029113624
 30
0.0
 10
23.8388179806
 20
16.3950007217
 30
0.0
 10
23.8377955423
 20
16.3883684578
 30
0.0
 10
23.837108818
 20
16.3830419939
 30
0.0
 10
23.8366606573
 20
16.3790369045
 30
0.0
 10
23.83628102
 20
16.3750233366
 30
0.0
 10
23.8358668786
 20
16.36966176
 30
0.0
 10
23.8355216676
 20
16.3629455499
 30
0.0
 10
23.835383462
 20
16.3548757729
 30
0.0
 10
23.835498364
 20
16.3481503493
 30
0.0
 10
23.8357284281
 20
16.3427756011
 30
0.0
 10
23.8359700569
 20
16.3387490408
 30
0.0
 10
23.8362807463
 20
16.3347283279
 30
0.0
 10
23.836660671
 20
16.3307148498
 30
0.0
 10
23.8371090013
 20
16.3267097925
 30
0.0
 10
23.8377958551
 20
16.3213832799
 30
0.0
 10
23.8388182816
 20
16.314750878
 30
0.0
 10
23.8402966163
 20
16.3068400371
 30
0.0
 10
23.842015239
 20
16.2989857561
 30
0.0
 10
23.8436391882
 20
16.29249126
 30
0.0
 10
23.8450478693
 20
16.2873306933
 30
0.0
 10
23.8465265441
 20
16.2821988041
 30
0.0
 10
23.8485043127
 20
16.2758304205
 30
0.0
 10
23.8510732595
 20
16.2682618185
 30
0.0
 10
23.8538246123
 20
16.2607704027
 30
0.0
 10
23.8567460997
 20
16.2533568995
 30
0.0
 10
23.8598254509
 20
16.2460219784
 30
0.0
 10
23.8630505147
 20
16.2387662542
 30
0.0
 10
23.8664093159
 20
16.2315892916
 30
0.0
 10
23.8698928128
 20
16.2244904468
 30
0.0
 10
23.8734929818
 20
16.2174681851
 30
0.0
 10
23.8772018346
 20
16.2105205359
 30
0.0
 10
23.8810114242
 20
16.203645546
 30
0.0
 10
23.8849137897
 20
16.1968412548
 30
0.0
 10
23.8889009959
 20
16.1901057156
 30
0.0
 10
23.8929650971
 20
16.1834368227
 30
0.0
 10
23.8970987365
 20
16.1768322028
 30
0.0
 10
23.9012975141
 20
16.1702906522
 30
0.0
 10
23.9055570356
 20
16.1638104864
 30
0.0
 10
23.9098729984
 20
16.1573899974
 30
0.0
 10
23.9142410846
 20
16.1510274682
 30
0.0
 10
23.9186569836
 20
16.1447211867
 30
0.0
 10
23.9231163715
 20
16.1384694311
 30
0.0
 10
23.9276149738
 20
16.1322705132
 30
0.0
 10
23.9321483837
 20
16.1261225533
 30
0.0
 10
23.9367130736
 20
16.1200240891
 30
0.0
 10
23.9428291314
 20
16.111969519
 30
0.0
 10
23.9505396546
 20
16.1020212605
 30
0.0
 10
23.9598928789
 20
16.0902500257
 30
0.0
 10
23.9677569716
 20
16.0805717537
 30
0.0
 10
23.974073868
 20
16.0729129419
 30
0.0
 10
23.9788135951
 20
16.0672195071
 30
0.0
 10
23.9835612761
 20
16.0615666854
 30
0.0
 10
23.9898883314
 20
16.0540974834
 30
0.0
 10
23.997808241
 20
16.0448622252
 30
0.0
 10
24.0073378475
 20
16.0339173192
 30
0.0
 10
24.0168631495
 20
16.0231284644
 30
0.0
 10
24.0248054136
 20
16.0142456501
 30
0.0
 10
24.0311461316
 20
16.0072142675
 30
0.0
 10
24.0374451094
 20
16.0002667537
 30
0.0
 10
24.0452925706
 20
15.9916789909
 30
0.0
 10
24.0546841934
 20
15.9815018588
 30
0.0
 10
24.0640170103
 20
15.9714806861
 30
0.0
 10
24.0732811402
 20
15.9616173794
 30
0.0
 10
24.0824667467
 20
15.9519139065
 30
0.0
 10
24.0915634561
 20
15.9423724236
 30
0.0
 10
24.1005609735
 20
15.9329966299
 30
0.0
 10
24.1094492972
 20
15.9237920111
 30
0.0
 10
24.1182178133
 20
15.9147642905
 30
0.0
 10
24.1268559404
 20
15.9059192652
 30
0.0
 10
24.1353530812
 20
15.8972627166
 30
0.0
 10
24.1436985049
 20
15.8888005856
 30
0.0
 10
24.1518806421
 20
15.8805395952
 30
0.0
 10
24.1598876277
 20
15.872488164
 30
0.0
 10
24.1701677777
 20
15.8621903803
 30
0.0
 10
24.180181204
 20
15.852212849
 30
0.0
 10
24.1899083595
 20
15.84256624
 30
0.0
 10
24.1968463608
 20
15.8357051712
 30
0.0
 10
24.2035298982
 20
15.8291133399
 30
0.0
 10
24.2099440904
 20
15.8228029307
 30
0.0
 10
24.2160738956
 20
15.8167862744
 30
0.0
 10
24.2219042789
 20
15.8110757218
 30
0.0
 10
24.2274200841
 20
15.8056836585
 30
0.0
 10
24.2326062555
 20
15.8006228232
 30
0.0
 10
24.2374477275
 20
15.7959061844
 30
0.0
 10
24.2419293629
 20
15.7915467309
 30
0.0
 10
24.2454328137
 20
15.7881434417
 30
0.0
 10
24.2480442788
 20
15.785608916
 30
0.0
 10
24.2498550825
 20
15.7838524312
 30
0.0
 10
24.2515653062
 20
15.7821943903
 30
0.0
 10
24.2531734846
 20
15.7806360669
 30
0.0
 10
24.2546781539
 20
15.7791787352
 30
0.0
 10
24.2560778499
 20
15.7778236691
 30
0.0
 10
24.2573711091
 20
15.7765721428
 30
0.0
 10
24.2585564669
 20
15.7754254298
 30
0.0
 10
24.2596324788
 20
15.7743847905
 30
0.0
 10
24.2605978838
 20
15.7734512891
 30
0.0
 10
24.2613328098
 20
15.7727407582
 30
0.0
 10
24.2618648121
 20
15.7722264861
 30
0.0
 10
24.2622217016
 20
15.771881523
 30
0.0
 10
24.2625504309
 20
15.771563811
 30
0.0
 10
24.2628509366
 20
15.7712734083
 30
0.0
 10
24.2631231555
 20
15.7710103734
 30
0.0
 10
24.2633670242
 20
15.7707747643
 30
0.0
 10
24.2635824795
 20
15.7705666393
 30
0.0
 10
24.2637442423
 20
15.7704104097
 30
0.0
 10
24.2638593991
 20
15.7702992127
 30
0.0
 10
24.263935055
 20
15.7702261685
 30
0.0
 10
24.2640035601
 20
15.7701600391
 30
0.0
 10
24.2640649063
 20
15.7701008317
 30
0.0
 10
24.2641190859
 20
15.7700485536
 30
0.0
 10
24.2641660908
 20
15.7700032121
 30
0.0
 10
24.2642007756
 20
15.7699697679
 30
0.0
 10
24.2642249308
 20
15.7699464869
 30
0.0
 10
24.2642403486
 20
15.7699316323
 30
0.0
 10
24.2642539669
 20
15.7699185172
 30
0.0
 10
24.2642657845
 20
15.7699071427
 30
0.0
 10
24.2642758003
 20
15.7698975092
 30
0.0
 10
24.2642840141
 20
15.7698896189
 30
0.0
 10
24.2642897315
 20
15.7698841317
 30
0.0
 10
24.2642934064
 20
15.7698806186
 30
0.0
 10
24.2642954803
 20
15.7698786293
 30
0.0
 10
24.2642971143
 20
15.7698770958
 30
0.0
 10
24.2642982687
 20
15.7698759515
 30
0.0
 10
24.2642990249
 20
15.769875334
 30
0.0
 10
24.2642993189
 20
15.7698749664
 30
0.0
 10
24.2642994293
 20
15.7698749189
 30
0.0
 11
24.2642994293
 21
16.9398749189
 31
0.0
 11
24.2642991659
 21
16.9398746844
 31
0.0
 11
24.2642984506
 21
16.9398740132
 31
0.0
 11
24.2642972834
 21
16.9398729054
 31
0.0
 11
24.2642956646
 21
16.9398713611
 31
0.0
 11
24.2642935942
 21
16.9398693805
 31
0.0
 11
24.2642910724
 21
16.9398669636
 31
0.0
 11
24.2642846748
 21
16.9398608217
 31
0.0
 11
24.2642764731
 21
16.9398529361
 31
0.0
 11
24.2642664681
 21
16.9398433079
 31
0.0
 11
24.2642546608
 21
16.939831938
 31
0.0
 11
24.2642410523
 21
16.9398188272
 31
0.0
 11
24.2642256435
 21
16.9398039766
 31
0.0
 11
24.2642084355
 21
16.9397873869
 31
0.0
 11
24.2641686258
 21
16.9397489943
 31
0.0
 11
24.2641216313
 21
16.9397036567
 31
0.0
 11
24.2640674598
 21
16.9396513815
 31
0.0
 11
24.2640061194
 21
16.939592176
 31
0.0
 11
24.2639376183
 21
16.9395260475
 31
0.0
 11
24.2638619643
 21
16.9394530034
 31
0.0
 11
24.2637791656
 21
16.9393730509
 31
0.0
 11
24.2635921659
 21
16.9391924505
 31
0.0
 11
24.2633766835
 21
16.9389843049
 31
0.0
 11
24.2631327825
 21
16.9387486727
 31
0.0
 11
24.2628605272
 21
16.9384856126
 31
0.0
 11
24.2625599819
 21
16.9381951832
 31
0.0
 11
24.2622312107
 21
16.9378774433
 31
0.0
 11
24.2618742778
 21
16.9375324515
 31
0.0
 11
24.2614892475
 21
16.9371602664
 31
0.0
 11
24.2606351516
 21
16.936334551
 31
0.0
 11
24.2596694412
 21
16.9354007704
 31
0.0
 11
24.2585929681
 21
16.9343596803
 31
0.0
 11
24.2574071411
 21
16.933212509
 31
0.0
 11
24.2561134219
 21
16.9319605292
 31
0.0
 11
24.2547132721
 21
16.9306050139
 31
0.0
 11
24.2532081533
 21
16.929147236
 31
0.0
 11
24.2515995272
 21
16.9275884685
 31
0.0
 11
24.2498888555
 21
16.9259299842
 31
0.0
 11
24.2480775998
 21
16.9241730562
 31
0.0
 11
24.2461672237
 21
16.9223189588
 31
0.0
 11
24.2420558169
 21
16.9183250484
 31
0.0
 11
24.2375694232
 21
16.9139609582
 31
0.0
 11
24.2327231855
 21
16.9092396823
 31
0.0
 11
24.2275322466
 21
16.9041742149
 31
0.0
 11
24.222011749
 21
16.8987775462
 31
0.0
 11
24.2161767965
 21
16.8930624248
 31
0.0
 11
24.2100424318
 21
16.8870412163
 31
0.0
 11
24.2036236924
 21
16.880726252
 31
0.0
 11
24.1969356159
 21
16.8741298634
 31
0.0
 11
24.1899932397
 21
16.8672643819
 31
0.0
 11
24.1828112011
 21
16.8601416134
 31
0.0
 11
24.1677806231
 21
16.8451634713
 31
0.0
 11
24.1599578439
 21
16.8373270913
 31
0.0
 11
24.1519472447
 21
16.8292718342
 31
0.0
 11
24.1437617056
 21
16.821007197
 31
0.0
 11
24.1354136749
 21
16.8125419746
 31
0.0
 11
24.1269140819
 21
16.8038824944
 31
0.0
 11
24.1182735222
 21
16.7950345414
 31
0.0
 11
24.1095025914
 21
16.7860039007
 31
0.0
 11
24.1006118851
 21
16.7767963574
 31
0.0
 11
24.0916119988
 21
16.7674176966
 31
0.0
 11
24.0825135076
 21
16.7578735928
 31
0.0
 11
24.0733266135
 21
16.7481677386
 31
0.0
 11
24.0640611966
 21
16.7383021119
 31
0.0
 11
24.0547271263
 21
16.7282786341
 31
0.0
 11
24.0453342718
 21
16.7180992265
 31
0.0
 11
24.0358925027
 21
16.7077658104
 31
0.0
 11
24.0311563592
 21
16.7025419496
 31
0.0
 11
24.026411703
 21
16.6972802795
 31
0.0
 11
24.0169025928
 21
16.6866429725
 31
0.0
 11
24.0073771546
 21
16.6758518794
 31
0.0
 11
23.9978474759
 21
16.6649047946
 31
0.0
 11
23.9883256441
 21
16.653799513
 31
0.0
 11
23.9835714482
 21
16.6481868591
 31
0.0
 11
23.9788237467
 21
16.642533829
 31
0.0
 11
23.9740840717
 21
16.6368401311
 31
0.0
 11
23.9693543815
 21
16.6311051497
 31
0.0
 11
23.9599343994
 21
16.6195076515
 31
0.0
 11
23.9505827638
 21
16.6077339064
 31
0.0
 11
23.9413184533
 21
16.5957764745
 31
0.0
 11
23.9367249758
 21
16.5897265512
 31
0.0
 11
23.9321604466
 21
16.5836279163
 31
0.0
 11
23.9276273339
 21
16.5774796011
 31
0.0
 11
23.9231292095
 21
16.5712801916
 31
0.0
 11
23.9186703516
 21
16.5650279887
 31
0.0
 11
23.91425505
 21
16.5587212886
 31
0.0
 11
23.9098875945
 21
16.5523583873
 31
0.0
 11
23.9055722748
 21
16.5459375812
 31
0.0
 11
23.9013133808
 21
16.5394571664
 31
0.0
 11
23.8971152021
 21
16.5329154391
 31
0.0
 11
23.8929820285
 21
16.5263106954
 31
0.0
 11
23.8889187025
 21
16.5196411939
 31
0.0
 11
23.8849324709
 21
16.5129050288
 31
0.0
 11
23.8810312345
 21
16.5061002499
 31
0.0
 11
23.8772228943
 21
16.4992249067
 31
0.0
 11
23.8735153511
 21
16.492277049
 31
0.0
 11
23.8699165057
 21
16.4852547263
 31
0.0
 11
23.8664342589
 21
16.4781559885
 31
0.0
 11
23.8630765319
 21
16.4709788974
 31
0.0
 11
23.8598527581
 21
16.4637224271
 31
0.0
 11
23.8567749018
 21
16.4563870784
 31
0.0
 11
23.853855168
 21
16.4489734973
 31
0.0
 11
23.8511057619
 21
16.4414823299
 31
0.0
 11
23.8485388886
 21
16.4339142223
 31
0.0
 11
23.8461667535
 21
16.4262698206
 31
0.0
 11
23.8450575264
 21
16.4224192137
 31
0.0
 11
23.8440015134
 21
16.4185500462
 31
0.0
 11
23.842054677
 21
16.4107595257
 31
0.0
 11
23.8403372886
 21
16.4029055412
 31
0.0
 11
23.8388603821
 21
16.3949954325
 31
0.0
 11
23.8376349916
 21
16.3870365392
 31
0.0
 11
23.837120063
 21
16.3830410921
 31
0.0
 11
23.8366721512
 21
16.3790362013
 31
0.0
 11
23.836292588
 21
16.375022803
 31
0.0
 11
23.8359819757
 21
16.3710021233
 31
0.0
 11
23.8355677079
 21
16.3629447392
 31
0.0
 11
23.8354294794
 21
16.3548757182
 31
0.0
 11
23.8355674063
 21
16.3468067356
 31
0.0
 11
23.8357399644
 21
16.3427759074
 31
0.0
 11
23.8359816049
 21
16.338749467
 31
0.0
 11
23.8362923423
 21
16.334728874
 31
0.0
 11
23.8366721426
 21
16.3307155691
 31
0.0
 11
23.8371202309
 21
16.3267107105
 31
0.0
 11
23.8376352563
 21
16.3227152363
 31
0.0
 11
23.8388606535
 21
16.3147561705
 31
0.0
 11
23.8403374045
 21
16.3068458302
 31
0.0
 11
23.8420545798
 21
16.2989916741
 31
0.0
 11
23.8440012497
 21
16.2912011607
 31
0.0
 11
23.8450572297
 21
16.2873321008
 31
0.0
 11
23.8461664619
 21
16.2834816316
 31
0.0
 11
23.8485386573
 21
16.2758373258
 31
0.0
 11
23.851105622
 21
16.2682691301
 31
0.0
 11
23.8538551093
 21
16.2607777647
 31
0.0
 11
23.8567748726
 21
16.2533639497
 31
0.0
 11
23.8598526651
 21
16.2460284053
 31
0.0
 11
23.8630762404
 21
16.2387718516
 31
0.0
 11
23.8664337025
 21
16.2315947911
 31
0.0
 11
23.8699158461
 21
16.2244960569
 31
0.0
 11
23.8735147115
 21
16.2174737094
 31
0.0
 11
23.8772223452
 21
16.2105258048
 31
0.0
 11
23.8810307943
 21
16.2036503993
 31
0.0
 11
23.8849321053
 21
16.1968455491
 31
0.0
 11
23.8889183252
 21
16.1901093104
 31
0.0
 11
23.8929815017
 21
16.1834397395
 31
0.0
 11
23.8971145167
 21
16.176834946
 31
0.0
 11
23.9013126337
 21
16.1702931923
 31
0.0
 11
23.905571538
 21
16.1638127673
 31
0.0
 11
23.9098869148
 21
16.1573919603
 31
0.0
 11
23.9142544496
 21
16.1510290605
 31
0.0
 11
23.9186698276
 21
16.144722357
 31
0.0
 11
23.9231287342
 21
16.138470139
 31
0.0
 11
23.9276268547
 21
16.1322706958
 31
0.0
 11
23.9321598956
 21
16.1261223248
 31
0.0
 11
23.9367243698
 21
16.1200236474
 31
0.0
 11
23.9413178281
 21
16.1139737012
 31
0.0
 11
23.950582175
 21
16.1020162626
 31
0.0
 11
23.9599338915
 21
16.0902425301
 31
0.0
 11
23.9693539331
 21
16.0786450246
 31
0.0
 11
23.9740836244
 21
16.0729100197
 31
0.0
 11
23.9788232767
 21
16.0672162832
 31
0.0
 11
23.9835709628
 21
16.0615632234
 31
0.0
 11
23.9883251549
 21
16.055950551
 31
0.0
 11
23.9978470054
 21
16.0448452554
 31
0.0
 11
24.0073767248
 21
16.0338981716
 31
0.0
 11
24.0169022097
 21
16.0231070748
 31
0.0
 11
24.0264113567
 21
16.0124697401
 31
0.0
 11
24.0311560232
 21
16.007208042
 31
0.0
 11
24.0358921767
 21
16.0019841545
 31
0.0
 11
24.0453339708
 21
15.9916506983
 31
0.0
 11
24.0547268553
 21
15.9814712645
 31
0.0
 11
24.0640609594
 21
15.9714477695
 31
0.0
 11
24.0733264123
 21
15.9615821302
 31
0.0
 11
24.0825133431
 21
15.9518762631
 31
0.0
 11
24.0916118703
 21
15.942332143
 31
0.0
 11
24.1006117885
 21
15.9329534702
 31
0.0
 11
24.1095025222
 21
15.9237459207
 31
0.0
 11
24.1182734755
 21
15.9147152787
 31
0.0
 11
24.1269140525
 21
15.9058673286
 31
0.0
 11
24.1354136573
 21
15.8972078546
 31
0.0
 11
24.1437616941
 21
15.8887426409
 31
0.0
 11
24.151947233
 21
15.8804780149
 31
0.0
 11
24.1599578276
 21
15.8724227709
 31
0.0
 11
24.1677806009
 21
15.8645864033
 31
0.0
 11
24.1828111753
 21
15.8496082759
 31
0.0
 11
24.1899932224
 21
15.8424855053
 31
0.0
 11
24.1969356139
 21
15.8356200168
 31
0.0
 11
24.2036237065
 21
15.8290236212
 31
0.0
 11
24.2100424595
 21
15.8227086504
 31
0.0
 11
24.2161768318
 21
15.8166874361
 31
0.0
 11
24.2220117825
 21
15.8109723104
 31
0.0
 11
24.2275322661
 21
15.8055756392
 31
0.0
 11
24.2327231823
 21
15.8005101708
 31
0.0
 11
24.2375693969
 21
15.7957888939
 31
0.0
 11
24.2420557751
 21
15.7914248013
 31
0.0
 11
24.2461671822
 21
15.7874308855
 31
0.0
 11
24.2480775668
 21
15.7855767837
 31
0.0
 11
24.249888836
 21
15.7838198502
 31
0.0
 11
24.251599524
 21
15.7821613602
 31
0.0
 11
24.2532081664
 21
15.7806025876
 31
0.0
 11
24.2547132992
 21
15.779144806
 31
0.0
 11
24.2561134582
 21
15.7777892894
 31
0.0
 11
24.2574071792
 21
15.7765373115
 31
0.0
 11
24.2585929981
 21
15.775390146
 31
0.0
 11
24.2596694506
 21
15.7743490668
 31
0.0
 11
24.2606351265
 21
15.7734153023
 31
0.0
 11
24.2614891788
 21
15.772589606
 31
0.0
 11
24.2618741862
 21
15.7722174305
 31
0.0
 11
24.2622310967
 21
15.7718724479
 31
0.0
 11
24.262559847
 21
15.7715547164
 31
0.0
 11
24.2628603739
 21
15.7712642945
 31
0.0
 11
24.2631326141
 21
15.7710012402
 31
0.0
 11
24.2633765042
 21
15.770765612
 31
0.0
 11
24.263591981
 21
15.7705574681
 31
0.0
 11
24.2637789812
 21
15.7703768669
 31
0.0
 11
24.2638617828
 21
15.7702969129
 31
0.0
 11
24.2639374415
 21
15.7702238665
 31
0.0
 11
24.2640059494
 21
15.7701577349
 31
0.0
 11
24.2640672986
 21
15.7700985254
 31
0.0
 11
24.2641214811
 21
15.7700462453
 31
0.0
 11
24.2641684892
 21
15.7700009018
 31
0.0
 11
24.2642083148
 21
15.7699625023
 31
0.0
 11
24.2642255317
 21
15.7699459088
 31
0.0
 11
24.26424095
 21
15.769931054
 31
0.0
 11
24.2642545688
 21
15.7699179388
 31
0.0
 11
24.264266387
 21
15.7699065642
 31
0.0
 11
24.2642764037
 21
15.7698969311
 31
0.0
 11
24.2642846178
 21
15.7698890403
 31
0.0
 11
24.2642910285
 21
15.7698828927
 31
0.0
 11
24.2642935571
 21
15.769880473
 31
0.0
 11
24.2642956346
 21
15.7698784894
 31
0.0
 11
24.2642972606
 21
15.7698769421
 31
0.0
 11
24.2642984352
 21
15.7698758312
 31
0.0
 11
24.2642991581
 21
15.7698751567
 31
0.0
 11
24.2642994293
 21
15.7698749189
 31
0.0
  0
SPLINE
  5
25B
100
AcDbEntity
  8
0
100
AcDbSpline
 62
9
  6
CONTINUOUS
 70
0
 71
3
 72
25
 73
21
 74
19
 42
0.0000001
 43
0.0000001
 44
0.0000000001
 12
-0.0277468736
 22
0.0468306247
 32
0.0
 13
-0.0544334113
 23
0.00001219
 33
0.0
 40
0.0
 40
0.0
 40
0.0
 40
0.0
 40
0.0636275094
 40
0.1271834039
 40
0.1906005331
 40
0.253820982
 40
0.3168505336
 40
0.3797030084
 40
0.4423844565
 40
0.5049014915
 40
0.5672549462
 40
0.6294406896
 40
0.691474349
 40
0.7533844609
 40
0.7843050448
 40
0.8152038577
 40
0.8460803436
 40
0.8769314846
 40
0.9385368027
 40
1.0
 40
1.0
 40
1.0
 40
1.0
 10
25.9693231019
 20
16.7043110092
 30
0.0
 10
25.9687346137
 20
16.7053042478
 30
0.0
 10
25.9674894346
 20
16.7072496886
 30
0.0
 10
25.9654305303
 20
16.710031458
 30
0.0
 10
25.963194316
 20
16.712663308
 30
0.0
 10
25.9607933995
 20
16.7151324065
 30
0.0
 10
25.9582419381
 20
16.7174302237
 30
0.0
 10
25.9555531445
 20
16.719549881
 30
0.0
 10
25.9527396898
 20
16.721484601
 30
0.0
 10
25.9498152151
 20
16.7232292986
 30
0.0
 10
25.9467932816
 20
16.7247794657
 30
0.0
 10
25.9436867944
 20
16.7261305154
 30
0.0
 10
25.9405085212
 20
16.727279029
 30
0.0
 10
25.9378088629
 20
16.7280657964
 30
0.0
 10
25.9356259151
 20
16.7285913117
 30
0.0
 10
25.9339788197
 20
16.7289332161
 30
0.0
 10
25.9323230183
 20
16.7292228515
 30
0.0
 10
25.9301073438
 20
16.7295390617
 30
0.0
 10
25.92732518
 20
16.7298034106
 30
0.0
 10
25.9250915959
 20
16.7298746679
 30
0.0
 10
25.9239763787
 20
16.7298749176
 30
0.0
 11
25.9693231019
 21
16.7043110092
 31
0.0
 11
25.967456527
 21
16.7072284516
 31
0.0
 11
25.9653986381
 21
16.7100094007
 31
0.0
 11
25.9631633896
 21
16.7126399981
 31
0.0
 11
25.9607645834
 21
16.7151074476
 31
0.0
 11
25.958215347
 21
16.7174036536
 31
0.0
 11
25.9555286216
 21
16.7195218196
 31
0.0
 11
25.9527174045
 21
16.7214553563
 31
0.0
 11
25.9497950636
 21
16.7231990418
 31
0.0
 11
25.9467751174
 21
16.7247482081
 31
0.0
 11
25.943671021
 21
16.7260982786
 31
0.0
 11
25.9404953336
 21
16.7272459448
 31
0.0
 11
25.9372599497
 21
16.728188838
 31
0.0
 11
25.9356235838
 21
16.7285827613
 31
0.0
 11
25.9339767645
 21
16.7289246199
 31
0.0
 11
25.9323211927
 21
16.7292142347
 31
0.0
 11
25.9306587051
 21
16.7294514983
 31
0.0
 11
25.9273203389
 21
16.7297685471
 31
0.0
 11
25.9239763787
 21
16.7298749176
 31
0.0
  0
SPLINE
  5
25C
100
AcDbEntity
  8
0
100
AcDbSpline
 62
9
  6
CONTINUOUS
 70
0
 71
3
 72
151
 73
147
 74
145
 42
0.0000001
 43
0.0000001
 44
0.0000000001
 12
0.6171403857
 22
0.3001609505
 32
0.0
 13
-0.4385381963
 23
0.5278665461
 33
0.0
 40
0.0
 40
0.0
 40
0.0
 40
0.0
 40
0.0000001762
 40
0.0000006967
 40
0.0000015615
 40
0.0000027704
 40
0.0000043236
 40
0.000006221
 40
0.000011048
 40
0.0000172514
 40
0.0000248308
 40
0.0000337861
 40
0.0000441169
 40
0.0000689044
 40
0.0000991914
 40
0.0001349758
 40
0.0001762559
 40
0.0002230296
 40
0.000275295
 40
0.0003330503
 40
0.0003962934
 40
0.0005392356
 40
0.0007041061
 40
0.0008908895
 40
0.0010995705
 40
0.0013301336
 40
0.0015825632
 40
0.0018568327
 40
0.0021528952
 40
0.0028102041
 40
0.003554099
 40
0.0043841893
 40
0.0053000842
 40
0.0063013934
 40
0.00738768
 40
0.0085583605
 40
0.0098128231
 40
0.0111504558
 40
0.014072786
 40
0.0173202488
 40
0.0208868536
 40
0.0247663869
 40
0.0289525231
 40
0.0334383991
 40
0.0382170131
 40
0.0432813214
 40
0.0486240417
 40
0.0542378428
 40
0.0662493893
 40
0.0792574844
 40
0.0932046314
 40
0.1005128474
 40
0.1080350199
 40
0.1236953539
 40
0.1401352349
 40
0.1573075717
 40
0.1751679021
 40
0.19367478
 40
0.2127890154
 40
0.2324736619
 40
0.2734125624
 40
0.2946018876
 40
0.3162260194
 40
0.3271895907
 40
0.3382479918
 40
0.3493970805
 40
0.3606327978
 40
0.3719494629
 40
0.3833406633
 40
0.3948002393
 40
0.4063223094
 40
0.4179012887
 40
0.4237105193
 40
0.4295319235
 40
0.4412073111
 40
0.4529198427
 40
0.4646618665
 40
0.476425859
 40
0.4882044457
 40
0.4940970215
 40
0.4999905579
 40
0.5117767733
 40
0.5235558863
 40
0.5470616679
 40
0.5587740112
 40
0.5704485989
 40
0.5820782596
 40
0.5936573002
 40
0.6166393589
 40
0.6393462617
 40
0.6617289424
 40
0.6837509741
 40
0.7053752297
 40
0.7265642126
 40
0.7472859336
 40
0.7675063525
 40
0.7871913077
 40
0.7968223179
 40
0.8063061902
 40
0.8248134492
 40
0.8426743276
 40
0.8598472267
 40
0.8681619634
 40
0.8762879033
 40
0.8919489194
 40
0.9067803311
 40
0.9207286077
 40
0.9337379538
 40
0.9457507413
 40
0.9567085373
 40
0.9617734685
 40
0.9665527309
 40
0.9710392662
 40
0.9752260166
 40
0.9791061917
 40
0.9826734632
 40
0.9859215399
 40
0.9888445066
 40
0.9914372795
 40
0.9926082876
 40
0.9936948799
 40
0.9946964932
 40
0.995612708
 40
0.996443126
 40
0.9971873488
 40
0.9978449778
 40
0.9984156143
 40
0.9986681904
 40
0.9988989008
 40
0.9991077301
 40
0.9992946629
 40
0.9994596838
 40
0.9996027773
 40
0.999723928
 40
0.9998231205
 40
0.9998644776
 40
0.9999003394
 40
0.9999307039
 40
0.9999555692
 40
0.9999749334
 40
0.999982552
 40
0.9999887945
 40
0.9999936609
 40
0.9999971507
 40
0.9999992638
 40
1.0
 40
1.0
 40
1.0
 40
1.0
 10
22.8242994293
 20
16.0348749189
 30
0.0
 10
22.8242994656
 20
16.0348749366
 30
0.0
 10
22.8242995191
 20
16.0348751084
 30
0.0
 10
22.8242997436
 20
16.0348753727
 30
0.0
 10
22.8243000454
 20
16.0348758932
 30
0.0
 10
22.8243004999
 20
16.0348765834
 30
0.0
 10
22.8243010701
 20
16.0348774855
 30
0.0
 10
22.8243020896
 20
16.0348790804
 30
0.0
 10
22.8243036777
 20
16.0348815756
 30
0.0
 10
22.8243059649
 20
16.0348851659
 30
0.0
 10
22.824308758
 20
16.0348895538
 30
0.0
 10
22.8243120577
 20
16.0348947385
 30
0.0
 10
22.82431747
 20
16.0349032446
 30
0.0
 10
22.8243255004
 20
16.0349158687
 30
0.0
 10
22.8243366539
 20
16.034933407
 30
0.0
 10
22.8243498298
 20
16.0349541301
 30
0.0
 10
22.8243650272
 20
16.0349780372
 30
0.0
 10
22.824382245
 20
16.0350051273
 30
0.0
 10
22.8244014822
 20
16.0350353995
 30
0.0
 10
22.8244227377
 20
16.0350688529
 30
0.0
 10
22.8244551139
 20
16.0351198161
 30
0.0
 10
22.8245006223
 20
16.0351914662
 30
0.0
 10
22.8245612709
 20
16.035286979
 30
0.0
 10
22.824629968
 20
16.0353951947
 30
0.0
 10
22.8247067054
 20
16.035516106
 30
0.0
 10
22.8247914747
 20
16.0356497058
 30
0.0
 10
22.8248842666
 20
16.0357959842
 30
0.0
 10
22.8249850659
 20
16.0359549269
 30
0.0
 10
22.8251354316
 20
16.0361921081
 30
0.0
 10
22.8253432269
 20
16.0365200795
 30
0.0
 10
22.8256162137
 20
16.0369513637
 30
0.0
 10
22.825920601
 20
16.037432779
 30
0.0
 10
22.8262561754
 20
16.0379641431
 30
0.0
 10
22.826622719
 20
16.0385452639
 30
0.0
 10
22.8270199859
 20
16.0391759145
 30
0.0
 10
22.8274476607
 20
16.0398558521
 30
0.0
 10
22.8279054104
 20
16.0405847974
 30
0.0
 10
22.8285754043
 20
16.0416536136
 30
0.0
 10
22.8294856575
 20
16.0431098987
 30
0.0
 10
22.830662708
 20
16.0450007163
 30
0.0
 10
22.831951105
 20
16.0470801391
 30
0.0
 10
22.8333473527
 20
16.0493453323
 30
0.0
 10
22.8348478436
 20
16.0517932879
 30
0.0
 10
22.8364485938
 20
16.0544210074
 30
0.0
 10
22.8381455247
 20
16.0572253452
 30
0.0
 10
22.8399345036
 20
16.0602030633
 30
0.0
 10
22.8418111007
 20
16.0633510005
 30
0.0
 10
22.8444849366
 20
16.06787381
 30
0.0
 10
22.8480152437
 20
16.0739272274
 30
0.0
 10
22.8524383333
 20
16.0816664117
 30
0.0
 10
22.8562610543
 20
16.0885090978
 30
0.0
 10
22.859425585
 20
16.0942816212
 30
0.0
 10
22.862743769
 20
16.1004167112
 30
0.0
 10
22.8669831562
 20
16.1084282579
 30
0.0
 10
22.8721242438
 20
16.11845921
 30
0.0
 10
22.8773438367
 20
16.1290141737
 30
0.0
 10
22.8826008076
 20
16.1400765981
 30
0.0
 10
22.887852021
 20
16.1516316399
 30
0.0
 10
22.8930546137
 20
16.163664997
 30
0.0
 10
22.8999559552
 20
16.1805503317
 30
0.0
 10
22.9064660254
 20
16.1981054201
 30
0.0
 10
22.9124544291
 20
16.2163060312
 30
0.0
 10
22.9159842385
 20
16.228092391
 30
0.0
 10
22.9186433733
 20
16.237716325
 30
0.0
 10
22.9205558837
 20
16.2450597019
 30
0.0
 10
22.9223708704
 20
16.2524918933
 30
0.0
 10
22.9240816659
 20
16.2600093844
 30
0.0
 10
22.9256825712
 20
16.267607666
 30
0.0
 10
22.9271680527
 20
16.2752815368
 30
0.0
 10
22.9285324431
 20
16.2830255982
 30
0.0
 10
22.9297700898
 20
16.2908344255
 30
0.0
 10
22.9306901061
 20
16.2973838714
 30
0.0
 10
22.9313574108
 20
16.3026511444
 30
0.0
 10
22.9319791316
 20
16.307946198
 30
0.0
 10
22.932667218
 20
16.3145928558
 30
0.0
 10
22.9333477838
 20
16.3226005745
 30
0.0
 10
22.9338814397
 20
16.3306397629
 30
0.0
 10
22.9342656281
 20
16.3387025992
 30
0.0
 10
22.9344590582
 20
16.345433695
 30
0.0
 10
22.934536576
 20
16.3508237488
 30
0.0
 10
22.9345620715
 20
16.3562160405
 30
0.0
 10
22.9344967841
 20
16.362955056
 30
0.0
 10
22.9341880906
 20
16.3737188398
 30
0.0
 10
22.9335772704
 20
16.3844553269
 30
0.0
 10
22.9326700726
 20
16.3951442837
 30
0.0
 10
22.9318450196
 20
16.4031123815
 30
0.0
 10
22.9308769906
 20
16.4110336225
 30
0.0
 10
22.9294070326
 20
16.4214977037
 30
0.0
 10
22.9272441343
 20
16.4344211165
 30
0.0
 10
22.9241584374
 20
16.4496868478
 30
0.0
 10
22.9206307908
 20
16.4646307892
 30
0.0
 10
22.9167137766
 20
16.4792207632
 30
0.0
 10
22.912458755
 20
16.4934306639
 30
0.0
 10
22.9079159699
 20
16.5072381172
 30
0.0
 10
22.9031358141
 20
16.5206244251
 30
0.0
 10
22.8981679264
 20
16.533574091
 30
0.0
 10
22.8938804899
 20
16.544064327
 30
0.0
 10
22.8903983349
 20
16.5522285069
 30
0.0
 10
22.8869458921
 20
16.5601120387
 30
0.0
 10
22.8826061209
 20
16.569661673
 30
0.0
 10
22.8773492803
 20
16.5807245007
 30
0.0
 10
22.8729535987
 20
16.5896136305
 30
0.0
 10
22.869470305
 20
16.5964687222
 30
0.0
 10
22.8660989479
 20
16.6029925589
 30
0.0
 10
22.8619669528
 20
16.6108010846
 30
0.0
 10
22.8571052856
 20
16.6197294977
 30
0.0
 10
22.8524429965
 20
16.6280751102
 30
0.0
 10
22.8480195972
 20
16.635815079
 30
0.0
 10
22.8438732162
 20
16.6429250379
 30
0.0
 10
22.8405994773
 20
16.6484398638
 30
0.0
 10
22.8381488956
 20
16.6525189029
 30
0.0
 10
22.8364517545
 20
16.6553236302
 30
0.0
 10
22.834850771
 20
16.6579517222
 30
0.0
 10
22.8333500761
 20
16.6604000666
 30
0.0
 10
22.8319536095
 20
16.6626656417
 30
0.0
 10
22.8306649735
 20
16.6647454336
 30
0.0
 10
22.8294877076
 20
16.6666366337
 30
0.0
 10
22.8284251306
 20
16.6683366387
 30
0.0
 10
22.8276121971
 20
16.6696323609
 30
0.0
 10
22.8270214433
 20
16.6705715642
 30
0.0
 10
22.8266240665
 20
16.6712023991
 30
0.0
 10
22.8262574141
 20
16.6717837027
 30
0.0
 10
22.8259217239
 20
16.6723152511
 30
0.0
 10
22.8256172166
 20
16.6727968545
 30
0.0
 10
22.8253441093
 20
16.6732283266
 30
0.0
 10
22.8251026197
 20
16.6736094811
 30
0.0
 10
22.8249212201
 20
16.6738955677
 30
0.0
 10
22.8247920811
 20
16.6740991543
 30
0.0
 10
22.8247072606
 20
16.6742328413
 30
0.0
 10
22.8246304715
 20
16.6743538404
 30
0.0
 10
22.8245617219
 20
16.6744621443
 30
0.0
 10
22.8245010202
 20
16.6745577455
 30
0.0
 10
22.8244483745
 20
16.6746406369
 30
0.0
 10
22.8244037931
 20
16.674710811
 30
0.0
 10
22.8243716843
 20
16.6747613369
 30
0.0
 10
22.8243500354
 20
16.6747953934
 30
0.0
 10
22.8243368309
 20
16.6748161613
 30
0.0
 10
22.8243256489
 20
16.6748337445
 30
0.0
 10
22.8243164896
 20
16.6748481416
 30
0.0
 10
22.8243101228
 20
16.6748581485
 30
0.0
 10
22.8243060392
 20
16.6748645586
 30
0.0
 10
22.8243037409
 20
16.6748681742
 30
0.0
 10
22.8243019377
 20
16.6748709842
 30
0.0
 10
22.8243006684
 20
16.6748730172
 30
0.0
 10
22.824299854
 20
16.6748742142
 30
0.0
 10
22.8242995373
 20
16.674874789
 30
0.0
 10
22.8242994297
 20
16.6748749185
 30
0.0
 11
22.8242994293
 21
16.0348749189
 31
0.0
 11
22.8242994956
 21
16.0348750201
 31
0.0
 11
22.8242996887
 21
16.0348753206
 31
0.0
 11
22.8243000086
 21
16.0348758204
 31
0.0
 11
22.8243004552
 21
16.0348765196
 31
0.0
 11
22.8243010285
 21
16.0348774182
 31
0.0
 11
22.8243017286
 21
16.0348785161
 31
0.0
 11
22.8243035088
 21
16.0348813098
 31
0.0
 11
22.8243057956
 21
16.0348849005
 31
0.0
 11
22.8243085889
 21
16.0348892884
 31
0.0
 11
22.8243118887
 21
16.0348944731
 31
0.0
 11
22.8243156947
 21
16.0349004545
 31
0.0
 11
22.8243248249
 21
16.0349148074
 31
0.0
 11
22.8243359787
 21
16.034932346
 31
0.0
 11
22.824349155
 21
16.0349530694
 31
0.0
 11
22.8243643527
 21
16.0349769768
 31
0.0
 11
22.8243815708
 21
16.0350040673
 31
0.0
 11
22.8244008083
 21
16.0350343398
 31
0.0
 11
22.8244220642
 21
16.0350677935
 31
0.0
 11
22.8244453373
 21
16.0351044276
 31
0.0
 11
22.8244979313
 21
16.0351872328
 31
0.0
 11
22.8245585821
 21
16.0352827484
 31
0.0
 11
22.8246272814
 21
16.0353909669
 31
0.0
 11
22.824704021
 21
16.0355118811
 31
0.0
 11
22.8247887926
 21
16.0356454836
 31
0.0
 11
22.8248815877
 21
16.0357917672
 31
0.0
 11
22.824982392
 21
16.0359507193
 31
0.0
 11
22.8250911799
 21
16.0361223181
 31
0.0
 11
22.8253326001
 21
16.0365033646
 31
0.0
 11
22.8256056348
 21
16.0369347242
 31
0.0
 11
22.8259100709
 21
16.0374162144
 31
0.0
 11
22.826245695
 21
16.0379476527
 31
0.0
 11
22.8266122938
 21
16.0385288567
 31
0.0
 11
22.8270096279
 21
16.0391596227
 31
0.0
 11
22.8274373757
 21
16.0398396798
 31
0.0
 11
22.8278951992
 21
16.0405687438
 31
0.0
 11
22.8283827605
 21
16.0413465307
 31
0.0
 11
22.8294457444
 21
16.0430471366
 31
0.0
 11
22.8306234937
 21
16.0449391316
 31
0.0
 11
22.8319126323
 21
16.0470197646
 31
0.0
 11
22.8333096437
 21
16.0492861839
 31
0.0
 11
22.8348109258
 21
16.0517354921
 31
0.0
 11
22.8364124925
 21
16.0543645847
 31
0.0
 11
22.8381102504
 21
16.0571702994
 31
0.0
 11
22.8399000475
 21
16.0601494622
 31
0.0
 11
22.8417774733
 21
16.0632988482
 31
0.0
 11
22.8437380456
 21
16.0666152186
 31
0.0
 11
22.8478903966
 21
16.0737360772
 31
0.0
 11
22.8523195592
 21
16.0814868009
 31
0.0
 11
22.8569870781
 21
16.0898430292
 31
0.0
 11
22.8593979541
 21
16.0942409376
 31
0.0
 11
22.8618536555
 21
16.098781624
 31
0.0
 11
22.8668794649
 21
16.1082812051
 31
0.0
 11
22.8720242244
 21
16.1183219893
 31
0.0
 11
22.8772469928
 21
16.1288862377
 31
0.0
 11
22.8825062692
 21
16.1399574542
 31
0.0
 11
22.8877593801
 21
16.1515207739
 31
0.0
 11
22.8929629383
 21
16.1635619397
 31
0.0
 11
22.8980717903
 21
16.1760675091
 31
0.0
 11
22.9078198159
 21
16.202417082
 31
0.0
 11
22.9123618495
 21
16.2162310084
 31
0.0
 11
22.9166163484
 21
16.2304479365
 31
0.0
 11
22.9186197535
 21
16.2377002169
 31
0.0
 11
22.9205320136
 21
16.2450443293
 31
0.0
 11
22.9223466921
 21
16.2524772394
 31
0.0
 11
22.9240574077
 21
16.2599957452
 31
0.0
 11
22.925658261
 21
16.2675951867
 31
0.0
 11
22.9271435998
 21
16.2752701543
 31
0.0
 11
22.9285077744
 21
16.2830152321
 31
0.0
 11
22.9297451349
 21
16.2908250041
 31
0.0
 11
22.9308500314
 21
16.2986940546
 31
0.0
 11
22.9313510406
 21
16.3026491164
 31
0.0
 11
22.9318169267
 21
16.3066168809
 31
0.0
 11
22.9326419553
 21
16.3145866945
 31
0.0
 11
22.9333225294
 21
16.322595724
 31
0.0
 11
22.9338560938
 21
16.3306361728
 31
0.0
 11
22.9342400931
 21
16.3387002446
 31
0.0
 11
22.9344719721
 21
16.3467801429
 31
0.0
 11
22.934530068
 21
16.3508235907
 31
0.0
 11
22.9345492192
 21
16.3548680696
 31
0.0
 11
22.9344711739
 21
16.3629561532
 31
0.0
 11
22.9342396753
 21
16.3710364238
 31
0.0
 11
22.9333243803
 21
16.387141617
 31
0.0
 11
22.9326446155
 21
16.3951505854
 31
0.0
 11
22.931819463
 21
16.4031198344
 31
0.0
 11
22.9308518497
 21
16.4110419831
 31
0.0
 11
22.9297468579
 21
16.4189110628
 31
0.0
 11
22.9271463222
 21
16.4344669591
 31
0.0
 11
22.9240610219
 21
16.4497414123
 31
0.0
 11
22.9205355794
 21
16.4646918065
 31
0.0
 11
22.9166201164
 21
16.479288724
 31
0.0
 11
22.9123660506
 21
16.4935058703
 31
0.0
 11
22.9078243265
 21
16.5073196514
 31
0.0
 11
22.9030447532
 21
16.5207129543
 31
0.0
 11
22.8980768207
 21
16.5336697438
 31
0.0
 11
22.8929680719
 21
16.5461755841
 31
0.0
 11
22.8903753294
 21
16.5522552316
 31
0.0
 11
22.8877646766
 21
16.5582171387
 31
0.0
 11
22.8825116399
 21
16.5697807793
 31
0.0
 11
22.8772524124
 21
16.5808524353
 31
0.0
 11
22.8720296153
 21
16.5914171
 31
0.0
 11
22.8694448803
 21
16.5965042221
 31
0.0
 11
22.8668848095
 21
16.6014583995
 31
0.0
 11
22.8618588752
 21
16.6109584441
 31
0.0
 11
22.8569920833
 21
16.6198977683
 31
0.0
 11
22.8523242464
 21
16.6282547069
 31
0.0
 11
22.8478947469
 21
16.636006227
 31
0.0
 11
22.8437420278
 21
16.6431278568
 31
0.0
 11
22.8399036119
 21
16.649594397
 31
0.0
 11
22.8381136226
 21
16.652573943
 31
0.0
 11
22.8364156507
 21
16.6553800482
 31
0.0
 11
22.8348138529
 21
16.65800953
 31
0.0
 11
22.8333123688
 21
16.6604592087
 31
0.0
 11
22.8319151366
 21
16.6627260093
 31
0.0
 11
22.8306257569
 21
16.6648070311
 31
0.0
 11
22.8294477967
 21
16.6666993912
 31
0.0
 11
22.8283845881
 21
16.6684003716
 31
0.0
 11
22.8274389517
 21
16.6699076139
 31
0.0
 11
22.8270110837
 21
16.6705878609
 31
0.0
 11
22.8266136413
 21
16.6712188067
 31
0.0
 11
22.826246935
 21
16.6718001897
 31
0.0
 11
22.8259111945
 21
16.6723318141
 31
0.0
 11
22.8256066376
 21
16.6728134939
 31
0.0
 11
22.8253334819
 21
16.6732450432
 31
0.0
 11
22.8250919451
 21
16.6736262758
 31
0.0
 11
22.824882245
 21
16.6739570058
 31
0.0
 11
22.8247893991
 21
16.6741033763
 31
0.0
 11
22.8247045764
 21
16.6742370662
 31
0.0
 11
22.8246277851
 21
16.6743580681
 31
0.0
 11
22.8245590334
 21
16.6744663747
 31
0.0
 11
22.8244983295
 21
16.6745619787
 31
0.0
 11
22.8244456815
 21
16.6746448728
 31
0.0
 11
22.8244010978
 21
16.6747150496
 31
0.0
 11
22.8243645865
 21
16.6747725019
 31
0.0
 11
22.8243493606
 21
16.674796454
 31
0.0
 11
22.8243361558
 21
16.6748172222
 31
0.0
 11
22.8243249733
 21
16.6748348056
 31
0.0
 11
22.824315814
 21
16.6748492033
 31
0.0
 11
22.824308679
 21
16.6748604144
 31
0.0
 11
22.8243058709
 21
16.6748648246
 31
0.0
 11
22.8243035692
 21
16.6748684379
 31
0.0
 11
22.8243017741
 21
16.674871254
 31
0.0
 11
22.8243004858
 21
16.6748732729
 31
0.0
 11
22.8242997043
 21
16.6748744944
 31
0.0
 11
22.8242994297
 21
16.6748749185
 31
0.0
  0
SPLINE
  5
25D
100
AcDbEntity
  8
0
100
AcDbSpline
 62
9
  6
CONTINUOUS
 70
0
 71
3
 72
25
 73
21
 74
19
 42
0.0000001
 43
0.0000001
 44
0.0000000001
 12
0.0536142638
 22
0.0000068573
 32
0.0
 13
0.0262787599
 23
0.0467323882
 33
0.0
 40
0.0
 40
0.0
 40
0.0
 40
0.0
 40
0.0617620826
 40
0.1236189835
 40
0.1545777852
 40
0.1855497591
 40
0.2165320609
 40
0.2475242908
 40
0.3095421419
 40
0.3716378539
 40
0.4338426121
 40
0.4961756138
 40
0.5586364076
 40
0.6212296463
 40
0.6839663438
 40
0.7468575835
 40
0.8099216497
 40
0.8731687229
 40
0.9365485628
 40
1.0
 40
1.0
 40
1.0
 40
1.0
 10
25.9422958932
 20
15.9798749194
 30
0.0
 10
25.9433996694
 20
15.9798750605
 30
0.0
 10
25.9456095024
 20
15.979945882
 30
0.0
 10
25.9483613404
 20
15.9802097567
 30
0.0
 10
25.9505512292
 20
15.9805258399
 30
0.0
 10
25.9521865579
 20
15.9808154775
 30
0.0
 10
25.9538123385
 20
15.9811575804
 30
0.0
 10
25.9559652519
 20
15.9816835641
 30
0.0
 10
25.9586250816
 20
15.9824714181
 30
0.0
 10
25.9617520724
 20
15.9836222959
 30
0.0
 10
25.9648027613
 20
15.9849766149
 30
0.0
 10
25.9677640356
 20
15.986530754
 30
0.0
 10
25.9706228267
 20
15.9882796208
 30
0.0
 10
25.973365384
 20
15.9902182867
 30
0.0
 10
25.9759779488
 20
15.9923411513
 30
0.0
 10
25.9784479895
 20
15.9946406983
 30
0.0
 10
25.9807624365
 20
15.9971093915
 30
0.0
 10
25.9829074333
 20
15.9997380279
 30
0.0
 10
25.9848714503
 20
16.0025127729
 30
0.0
 10
25.9860517073
 20
16.0044504163
 30
0.0
 10
25.9866075157
 20
16.0054388287
 30
0.0
 11
25.9422958932
 21
15.9798749194
 31
0.0
 11
25.9456055278
 21
15.979980825
 31
0.0
 11
25.9489067965
 21
15.9802973927
 31
0.0
 11
25.9505496024
 21
15.9805345327
 31
0.0
 11
25.9521846875
 21
15.9808241678
 31
0.0
 11
25.9538101776
 21
15.9811662395
 31
0.0
 11
25.9554243276
 21
15.9815605992
 31
0.0
 11
25.9586124219
 21
15.982505033
 31
0.0
 11
25.9617366809
 21
15.983655113
 31
0.0
 11
25.964784817
 21
15.9850084448
 31
0.0
 11
25.967743962
 21
15.9865615098
 31
0.0
 11
25.9706004732
 21
15.9883092898
 31
0.0
 11
25.9733406549
 21
15.9902466604
 31
0.0
 11
25.9759510544
 21
15.9923678623
 31
0.0
 11
25.9784187939
 21
15.9946656335
 31
0.0
 11
25.9807310791
 21
15.997132494
 31
0.0
 11
25.9828751258
 21
15.9997595787
 31
0.0
 11
25.984838185
 21
16.0025332466
 31
0.0
 11
25.9866075157
 21
16.0054388287
 31
0.0
  0
LINE
  5
25E
100
AcDbEntity
  8
0
100
AcDbLine
 62
9
  6
CONTINUOUS
 10
25.9866075157
 20
16.0054388287
 11
25.9894842531
 21
16.0039837878
  0
LINE
  5
25F
100
AcDbEntity
  8
0
100
AcDbLine
 62
9
  6
CONTINUOUS
 10
25.9693231019
 20
16.7043110091
 11
25.9721031405
 21
16.7067832538
  0
LINE
  5
260
100
AcDbEntity
  8
0
100
AcDbLine
 62
9
  6
CONTINUOUS
 10
24.629891544
 20
15.7255620715
 11
24.6298915958
 21
16.9533877211
  0
LINE
  5
261
100
AcDbEntity
  8
0
100
AcDbLine
 62
9
  6
CONTINUOUS
 10
24.6298915958
 20
16.9533877211
 11
24.6298915449
 21
16.9841877667
  0
LINE
  5
262
100
AcDbEntity
  8
0
100
AcDbLine
 62
9
  6
CONTINUOUS
 10
24.7922635087
 20
15.9915894317
 11
24.79226349
 21
16.700380487
  0
LINE
  5
263
100
AcDbEntity
  8
0
100
AcDbLine
 62
9
  6
CONTINUOUS
 10
24.7922634901
 20
16.7003804871
 11
24.7922635086
 21
16.7181604061
  0
ENDSEC
  0
SECTION
  2
OBJECTS
  0
DICTIONARY
  5
C
100
AcDbDictionary
280
0
281
1
  3
ACAD_GROUP
350
D
  3
ACAD_MLINESTYLE
350
17
  3
ACAD_LAYOUT
350
1A
  3
ACAD_PLOTSETTINGS
350
19
  3
ACAD_PLOTSTYLENAME
350
E
  0
DICTIONARY
  5
D
102
{ACAD_REACTORS
330
C
102
}
100
AcDbDictionary
280
0
281
1
  0
ACDBDICTIONARYWDFLT
  5
E
102
{ACAD_REACTORS
330
C
102
}
100
AcDbDictionary
281
1
  3
Normal
350
F
100
AcDbDictionaryWithDefault
340
F
  0
DICTIONARY
  5
17
102
{ACAD_REACTORS
330
C
102
}
100
AcDbDictionary
280
0
281
1
  3
Standard
350
18
  0
DICTIONARY
  5
19
102
{ACAD_REACTORS
330
C
102
}
100
AcDbDictionary
281
1
  0
DICTIONARY
  5
1A
102
{ACAD_REACTORS
330
C
102
}
100
AcDbDictionary
281
1
  3
Model
350
264
  3
Layout1
350
265
  0
ACDBPLACEHOLDER
  5
F
102
{ACAD_REACTORS
330
E
102
}
  0
MLINESTYLE
  5
18
102
{ACAD_REACTORS
330
17
102
}
100
AcDbMlineStyle
  2
STANDARD
 70
0
  3

 62
256
 51
90.0
 52
90.0
 71
2
 49
0.5
 62
256
  6
BYLAYER
 49
-0.5
 62
256
  6
BYLAYER
  0
LAYOUT
  5
264
102
{ACAD_REACTORS
330
1A
102
}
100
AcDbPlotSettings
  1

  2
none_device
  4
ISO_A0_(1189.00_x_841.00_MM)
  6

 40
0.0
 41
0.0
 42
0.0
 43
0.0
 44
1189.0
 45
841.0
 46
0.0
 47
0.0
 48
0.0
 49
0.0
140
0.0
141
0.0
142
1.0
143
1.0
 70
1024
 72
0
 73
0
 74
0
  7

 75
0
147
1.0
148
0.0
149
0.0
100
AcDbLayout
  1
Model
 70
0
 71
0
 10
0.0
 20
0.0
 11
46.811023622
 21
33.1102362205
 12
0.0
 22
0.0
 32
0.0
 14
0.0
 24
0.0
 34
0.0
 15
0.0
 25
0.0
 35
0.0
146
0.0
 13
0.0
 23
0.0
 33
0.0
 16
1.0
 26
0.0
 36
0.0
 17
0.0
 27
1.0
 37
0.0
 76
0
330
204
345
0
346
0
  0
LAYOUT
  5
265
102
{ACAD_REACTORS
330
1A
102
}
100
AcDbPlotSettings
  1

  2
none_device
  4
ISO_A0_(1189.00_x_841.00_MM)
  6

 40
0.0
 41
0.0
 42
0.0
 43
0.0
 44
1189.0
 45
841.0
 46
0.0
 47
0.0
 48
0.0
 49
0.0
140
0.0
141
0.0
142
1.0
143
1.0
 70
0
 72
0
 73
0
 74
0
  7

 75
0
147
1.0
148
0.0
149
0.0
100
AcDbLayout
  1
Layout1
 70
0
 71
1
 10
0.0
 20
0.0
 11
46.811023622
 21
33.1102362205
 12
0.0
 22
0.0
 32
0.0
 14
0.0
 24
0.0
 34
0.0
 15
0.0
 25
0.0
 35
0.0
146
0.0
 13
0.0
 23
0.0
 33
0.0
 16
1.0
 26
0.0
 36
0.0
 17
0.0
 27
1.0
 37
0.0
 76
0
330
205
345
0
346
0
  0
ENDSEC
  0
EOF
