999
DXF file: E:\BT Custom\CADOUTPUT\_RIGHT.dxf
999
Pro/ENGINEER 2018400 by Parametric Technology Corporation
  0
SECTION
  2
HEADER
  9
$ACADVER
  1
AC1018
  9
$DWGCODEPAGE
  3
ANSI_1252
  9
$EXTMAX
 10
22.0
 20
17.0
 30
0.0
  9
$EXTMIN
 10
0.0
 20
0.0
 30
0.0
  9
$LIMMIN
 10
0.0
 20
0.0
  9
$LIMMAX
 10
22.0
 20
17.0
  9
$VIEWCTR
 10
11.0
 20
8.5
  9
$VIEWSIZE
 40
17.0
  9
$CLAYER
  8
0
  9
$LTSCALE
 40
1.21
  9
$CELTYPE
  6
BYLAYER
  9
$DIMSCALE
 40
1.0
  9
$DIMASZ
 40
0.1
  9
$DIMEXO
 40
0.0625
  9
$DIMDLI
 40
0.836
  9
$DIMEXE
 40
0.125
  9
$DIMCEN
 40
0.198
  9
$DIMLFAC
 40
1.0
  9
$DIMBLK
  1
_FILLED
  9
$DIMALT
 70
1
  9
$DIMALTD
 70
2
  9
$DIMALTTD
 70
2
  9
$DIMALTF
 40
25.4
  9
$DIMTXT
 40
0.08
  9
$DIMTOL
 70
1
  9
$DIMLIM
 70
0
  9
$DIMTFAC
 40
1.0
  9
$DIMTP
 40
0.001
  9
$DIMTM
 40
0.001
  9
$DIMGAP
 40
0.09
  9
$DIMDSEP
 70
46
  9
$AUNITS
 70
0
  9
$PDMODE
 70
3
  9
$PDSIZE
 40
0.06
  9
$HANDSEED
  5
273
  9
$TILEMODE
 70
1
  9
$MEASUREMENT
 70
0
  9
$INSUNITS
 70
1
  0
ENDSEC
  0
SECTION
  2
CLASSES
  0
CLASS
  1
ACDBDICTIONARYWDFLT
  2
AcDbDictionaryWithDefault
  3
AutoCAD 2000
 90
0
 91
1
280
0
281
0
  0
CLASS
  1
ACDBPLACEHOLDER
  2
AcDbPlaceHolder
  3
AutoCAD 2000
 90
0
 91
1
280
0
281
0
  0
CLASS
  1
LAYOUT
  2
AcDbLayout
  3
AutoCAD 2000
 90
0
 91
0
280
0
281
0
  0
ENDSEC
  0
SECTION
  2
TABLES
  0
TABLE
  2
VPORT
  5
8
100
AcDbSymbolTable
 70
2
  0
VPORT
  5
1F4
100
AcDbSymbolTableRecord
100
AcDbViewportTableRecord
  2
*ACTIVE
 70
0
 10
0.0
 20
0.0
 11
1.0
 21
1.0
 12
11.0
 22
8.5
 13
0.0
 23
0.0
 14
1.0
 24
1.0
 15
0.0
 25
0.0
 16
0.0
 26
0.0
 36
1.0
 17
0.0
 27
0.0
 37
0.0
 40
17.0
 41
1.2941176471
 42
50.0
 43
0.0
 44
0.0
 50
0.0
 51
0.0
 71
0
 72
100
 73
1
 74
1
 75
0
 76
0
 77
0
 78
0
  0
ENDTAB
  0
TABLE
  2
LTYPE
  5
5
100
AcDbSymbolTable
 70
6
  0
LTYPE
  5
14
100
AcDbSymbolTableRecord
100
AcDbLinetypeTableRecord
  2
BYBLOCK
 70
0
  3

 72
65
 73
0
 40
0.0
  0
LTYPE
  5
15
100
AcDbSymbolTableRecord
100
AcDbLinetypeTableRecord
  2
BYLAYER
 70
0
  3

 72
65
 73
0
 40
0.0
  0
LTYPE
  5
16
100
AcDbSymbolTableRecord
100
AcDbLinetypeTableRecord
  2
CONTINUOUS
 70
64
  3
Solid line
 72
65
 73
0
 40
0.0
  0
LTYPE
  5
1F5
100
AcDbSymbolTableRecord
100
AcDbLinetypeTableRecord
  2
CENTER
 70
64
  3
____ _ ____ _ ____ _ ____ _ ____ _ ____ _ ____
 72
65
 73
4
 40
0.6
 49
0.375
 74
0
 49
-0.075
 74
0
 49
0.075
 74
0
 49
-0.075
 74
0
  0
LTYPE
  5
1F6
100
AcDbSymbolTableRecord
100
AcDbLinetypeTableRecord
  2
HIDDEN
 70
64
  3
- - - - - - - - - - - - - - - - - - - -
 72
65
 73
2
 40
0.2
 49
0.1
 74
0
 49
-0.1
 74
0
  0
LTYPE
  5
1F7
100
AcDbSymbolTableRecord
100
AcDbLinetypeTableRecord
  2
PHANTOM
 70
64
  3
_____ _ _ _____ _ _ _____ _ _ _____
 72
65
 73
6
 40
0.8
 49
0.45
 74
0
 49
-0.05
 74
0
 49
0.1
 74
0
 49
-0.05
 74
0
 49
0.1
 74
0
 49
-0.05
 74
0
  0
LTYPE
  5
1F8
100
AcDbSymbolTableRecord
100
AcDbLinetypeTableRecord
  2
DOT
 70
64
  3
. . . . . . . . . . . . . . . . . . . .
 72
65
 73
2
 40
0.2
 49
0.1
 74
0
 49
-0.1
 74
0
  0
LTYPE
  5
1F9
100
AcDbSymbolTableRecord
100
AcDbLinetypeTableRecord
  2
DASHED
 70
64
  3
- - - - - - - - - - - - - - - - - - - -
 72
65
 73
2
 40
0.2
 49
0.1
 74
0
 49
-0.1
 74
0
  0
ENDTAB
  0
TABLE
  2
LAYER
  5
2
100
AcDbSymbolTable
 70
36
  0
LAYER
  5
10
100
AcDbSymbolTableRecord
100
AcDbLayerTableRecord
  2
0
 70
0
 62
7
  6
CONTINUOUS
370
-3
390
F
  0
LAYER
  5
1FA
100
AcDbSymbolTableRecord
100
AcDbLayerTableRecord
  2
DEFAULT_1
 70
0
 62
7
  6
CENTER
370
-3
390
F
  0
LAYER
  5
1FB
100
AcDbSymbolTableRecord
100
AcDbLayerTableRecord
  2
DEFAULT_2
 70
0
 62
8
  6
HIDDEN
370
-3
390
F
  0
LAYER
  5
1FC
100
AcDbSymbolTableRecord
100
AcDbLayerTableRecord
  2
DEFAULT_3
 70
0
 62
7
  6
PHANTOM
370
-3
390
F
  0
LAYER
  5
1FD
100
AcDbSymbolTableRecord
100
AcDbLayerTableRecord
  2
ALL_FEATURES
 70
0
 62
7
  6
CONTINUOUS
370
-3
390
F
  0
LAYER
  5
1FE
100
AcDbSymbolTableRecord
100
AcDbLayerTableRecord
  2
AXES_FEATURES
 70
0
 62
7
  6
CONTINUOUS
370
-3
390
F
  0
LAYER
  5
1FF
100
AcDbSymbolTableRecord
100
AcDbLayerTableRecord
  2
DIMENSIONS
 70
0
 62
7
  6
CONTINUOUS
370
-3
390
F
  0
ENDTAB
  0
TABLE
  2
STYLE
  5
3
100
AcDbSymbolTable
 70
1
  0
STYLE
  5
11
100
AcDbSymbolTableRecord
100
AcDbTextStyleTableRecord
  2
STANDARD
 70
0
 40
0.0
 41
0.8
 50
0.0
 71
0
 42
0.2
  3
txt
  4

  0
STYLE
  5
200
100
AcDbSymbolTableRecord
100
AcDbTextStyleTableRecord
  2
TEXTSTYLE_1
 70
0
 40
0.0
 41
0.8
 50
0.0
 71
0
 42
0.2
  3
gdt
  4

  0
ENDTAB
  0
TABLE
  2
VIEW
  5
6
100
AcDbSymbolTable
 70
0
  0
ENDTAB
  0
TABLE
  2
UCS
  5
7
100
AcDbSymbolTable
 70
0
  0
ENDTAB
  0
TABLE
  2
APPID
  5
9
100
AcDbSymbolTable
 70
1
  0
APPID
  5
201
100
AcDbSymbolTableRecord
100
AcDbRegAppTableRecord
  2
ACAD
 70
0
  0
ENDTAB
  0
TABLE
  2
BLOCK_RECORD
  5
1
100
AcDbSymbolTable
 70
0
  0
BLOCK_RECORD
  5
202
100
AcDbSymbolTableRecord
100
AcDbBlockTableRecord
  2
*Model_Space
  0
BLOCK_RECORD
  5
203
100
AcDbSymbolTableRecord
100
AcDbBlockTableRecord
  2
*Paper_Space
  0
BLOCK_RECORD
  5
204
100
AcDbSymbolTableRecord
100
AcDbBlockTableRecord
  2
_FILLED
  0
ENDTAB
  0
TABLE
  2
DIMSTYLE
  5
A
100
AcDbSymbolTable
 70
1
100
AcDbDimStyleTable
 71
0
  0
DIMSTYLE
105
205
100
AcDbSymbolTableRecord
100
AcDbDimStyleTableRecord
  2
STANDARD
 70
0
  3

  4

 40
1.0
 41
0.1
 42
0.0625
 43
0.38
 44
0.125
 45
0.0
 46
0.0
 47
0.001
 48
0.001
140
0.08
141
0.09
142
0.0
143
25.4
144
1.0
145
0.0
146
1.0
147
0.09
 71
1.0
 72
0.0
 73
1
 74
1
 75
0
 76
0
 77
0
 78
4
 79
1
170
1
171
2
172
0
173
0
174
0
175
0
176
0
177
0
178
0
270
2
179
3
271
3
272
3
273
2
274
2
275
0
280
0
281
0
282
0
283
1
284
4
285
0
286
0
287
3
288
0
340
11
278
46
341
204
342
204
343
204
344
204
  0
ENDTAB
  0
ENDSEC
  0
SECTION
  2
BLOCKS
  0
BLOCK
  5
20
100
AcDbEntity
  8
0
100
AcDbBlockBegin
  2
*Model_Space
 70
0
 10
0.0
 20
0.0
 30
0.0
  3
*Model_Space
  1

  0
ENDBLK
  5
21
100
AcDbEntity
  8
0
100
AcDbBlockEnd
  0
BLOCK
  5
1C
100
AcDbEntity
  8
0
100
AcDbBlockBegin
  2
*Paper_Space
 70
0
 10
0.0
 20
0.0
 30
0.0
  3
*Paper_Space
  1

  0
ENDBLK
  5
1D
100
AcDbEntity
  8
0
100
AcDbBlockEnd
  0
BLOCK
  5
206
100
AcDbEntity
  8
0
100
AcDbBlockBegin
  2
_FILLED
 70
64
 10
0.0
 20
0.0
  3
_FILLED
  1

  0
SOLID
  5
207
100
AcDbEntity
  8
0
  6
BYBLOCK
 62
0
100
AcDbTrace
 10
0.0
 20
0.0
 11
-1.0
 21
0.2
 12
-1.0
 22
-0.2
 13
-1.0
 23
-0.2
  0
ENDBLK
  5
208
100
AcDbEntity
  8
0
  6
BYBLOCK
 62
0
100
AcDbBlockEnd
  0
ENDSEC
  0
SECTION
  2
ENTITIES
  0
LINE
  5
209
100
AcDbEntity
  8
0
100
AcDbLine
 62
7
  6
CONTINUOUS
 10
6.7099834891
 20
9.050141804
 11
6.7099834891
 21
10.611641804
  0
LINE
  5
20A
100
AcDbEntity
  8
0
100
AcDbLine
 62
7
  6
CONTINUOUS
 10
12.0849834891
 20
5.470641804
 11
14.4599834891
 21
5.470641804
  0
LINE
  5
20B
100
AcDbEntity
  8
0
100
AcDbLine
 62
7
  6
CONTINUOUS
 10
14.4599834891
 20
5.845641804
 11
12.0849834891
 21
5.845641804
  0
LINE
  5
20C
100
AcDbEntity
  8
0
100
AcDbLine
 62
7
  6
CONTINUOUS
 10
7.5849834891
 20
9.050141804
 11
7.5849834891
 21
10.611641804
  0
LINE
  5
20D
100
AcDbEntity
  8
0
100
AcDbLine
 62
9
  6
CONTINUOUS
 10
8.6474834891
 20
12.549141804
 11
8.6474834891
 21
11.674141804
  0
LINE
  5
20E
100
AcDbEntity
  8
0
100
AcDbLine
 62
7
  6
CONTINUOUS
 10
13.9287334891
 20
6.953641804
 11
12.6162334891
 21
6.953641804
  0
LINE
  5
20F
100
AcDbEntity
  8
0
100
AcDbLine
 62
7
  6
CONTINUOUS
 10
12.9574834891
 20
6.973641804
 11
13.5874834891
 21
6.973641804
  0
LINE
  5
210
100
AcDbEntity
  8
0
100
AcDbLine
 62
7
  6
CONTINUOUS
 10
13.9148571857
 20
7.433141804
 11
14.3744834891
 21
7.433141804
  0
LINE
  5
211
100
AcDbEntity
  8
0
100
AcDbLine
 62
7
  6
CONTINUOUS
 10
12.8974834891
 20
7.573641804
 11
13.6474834891
 21
7.573641804
  0
LINE
  5
212
100
AcDbEntity
  8
0
100
AcDbLine
 62
7
  6
CONTINUOUS
 10
13.9148571857
 20
7.808141804
 11
14.3744834891
 21
7.808141804
  0
LINE
  5
213
100
AcDbEntity
  8
0
100
AcDbLine
 62
7
  6
CONTINUOUS
 10
12.7325982331
 20
8.1736418041
 11
12.732760304
 21
8.1736418154
  0
LINE
  5
214
100
AcDbEntity
  8
0
100
AcDbLine
 62
7
  6
CONTINUOUS
 10
12.0349834891
 20
8.173641804
 11
12.5780864414
 21
8.173641804
  0
LINE
  5
215
100
AcDbEntity
  8
0
100
AcDbLine
 62
7
  6
CONTINUOUS
 10
12.7325979852
 20
8.173641804
 11
14.5075850311
 21
8.1736430363
  0
LINE
  5
216
100
AcDbEntity
  8
0
100
AcDbLine
 62
7
  6
CONTINUOUS
 10
12.5780916948
 20
8.1736418041
 11
12.5780888584
 21
8.1736418042
  0
LINE
  5
217
100
AcDbEntity
  8
0
100
AcDbLine
 62
7
  6
CONTINUOUS
 10
12.0349834891
 20
8.573641804
 11
14.5099834891
 21
8.573641804
  0
LINE
  5
218
100
AcDbEntity
  8
0
100
AcDbLine
 62
9
  6
CONTINUOUS
 10
13.9524834891
 20
8.625641804
 11
12.5924834891
 21
8.625641804
  0
LINE
  5
219
100
AcDbEntity
  8
0
100
AcDbLine
 62
7
  6
CONTINUOUS
 10
13.9224834891
 20
8.655641804
 11
12.6224847628
 21
8.655641804
  0
LINE
  5
21A
100
AcDbEntity
  8
0
100
AcDbLine
 62
7
  6
CONTINUOUS
 10
12.5760905052
 20
8.173641804
 11
12.5802059728
 21
8.1729569381
  0
LINE
  5
21B
100
AcDbEntity
  8
0
100
AcDbLine
 62
7
  6
CONTINUOUS
 10
6.7099837314
 20
9.050141804
 11
7.5849832469
 21
9.050141804
  0
LINE
  5
21C
100
AcDbEntity
  8
0
100
AcDbLine
 62
7
  6
CONTINUOUS
 10
12.5801323484
 20
8.1729733602
 11
12.5904904376
 21
8.1695227646
  0
LINE
  5
21D
100
AcDbEntity
  8
0
100
AcDbLine
 62
7
  6
CONTINUOUS
 10
12.590456201
 20
8.1695431149
 11
12.6042407268
 21
8.161341346
  0
LINE
  5
21E
100
AcDbEntity
  8
0
100
AcDbLine
 62
7
  6
CONTINUOUS
 10
12.6042172078
 20
8.1613635373
 11
12.6143417321
 21
8.1518105988
  0
LINE
  5
21F
100
AcDbEntity
  8
0
100
AcDbLine
 62
9
  6
CONTINUOUS
 10
11.7724834891
 20
11.674141804
 11
11.7724834891
 21
12.549141804
  0
LINE
  5
220
100
AcDbEntity
  8
0
100
AcDbLine
 62
7
  6
CONTINUOUS
 10
7.5849832469
 20
9.860141804
 11
6.7099837314
 21
9.860141804
  0
LINE
  5
221
100
AcDbEntity
  8
0
100
AcDbLine
 62
7
  6
CONTINUOUS
 10
12.6143444105
 20
8.1518074788
 11
12.9746246178
 21
7.7357917972
  0
LINE
  5
222
100
AcDbEntity
  8
0
100
AcDbLine
 62
7
  6
CONTINUOUS
 10
12.614347753
 20
8.1518036601
 11
12.6143504963
 21
8.1518004518
  0
LINE
  5
223
100
AcDbEntity
  8
0
100
AcDbLine
 62
7
  6
CONTINUOUS
 10
12.0849834891
 20
5.845641804
 11
12.0849834891
 21
5.470641804
  0
LINE
  5
224
100
AcDbEntity
  8
0
100
AcDbLine
 62
7
  6
CONTINUOUS
 10
13.0584418096
 20
8.173641804
 11
13.1389760241
 21
8.0806489032
  0
LINE
  5
225
100
AcDbEntity
  8
0
100
AcDbLine
 62
9
  6
CONTINUOUS
 10
13.7099834891
 20
10.611641804
 11
12.8349834891
 21
10.611641804
  0
LINE
  5
226
100
AcDbEntity
  8
0
100
AcDbLine
 62
9
  6
CONTINUOUS
 10
7.5849834891
 20
10.611641804
 11
6.7099834891
 21
10.611641804
  0
LINE
  5
227
100
AcDbEntity
  8
0
100
AcDbLine
 62
7
  6
CONTINUOUS
 10
12.5924834891
 20
8.625641804
 11
12.5924834891
 21
8.573641804
  0
LINE
  5
228
100
AcDbEntity
  8
0
100
AcDbLine
 62
7
  6
CONTINUOUS
 10
12.5924834891
 20
8.1683480927
 11
12.5924834891
 21
5.845641804
  0
LINE
  5
229
100
AcDbEntity
  8
0
100
AcDbLine
 62
7
  6
CONTINUOUS
 10
12.6162334891
 20
6.953641804
 11
12.6162334891
 21
5.845641804
  0
LINE
  5
22A
100
AcDbEntity
  8
0
100
AcDbLine
 62
7
  6
CONTINUOUS
 10
12.8349834891
 20
10.611641804
 11
12.8349834891
 21
8.655641804
  0
LINE
  5
22B
100
AcDbEntity
  8
0
100
AcDbLine
 62
7
  6
CONTINUOUS
 10
12.8974834891
 20
7.8248666323
 11
12.8974834891
 21
7.573641804
  0
LINE
  5
22C
100
AcDbEntity
  8
0
100
AcDbLine
 62
7
  6
CONTINUOUS
 10
12.9574834891
 20
7.573641804
 11
12.9574834891
 21
6.973641804
  0
LINE
  5
22D
100
AcDbEntity
  8
0
100
AcDbLine
 62
7
  6
CONTINUOUS
 10
13.0887343622
 20
6.953641804
 11
13.0887343622
 21
6.973641804
  0
LINE
  5
22E
100
AcDbEntity
  8
0
100
AcDbLine
 62
7
  6
CONTINUOUS
 10
13.0945025679
 20
6.973641804
 11
13.0945025679
 21
6.953641804
  0
LINE
  5
22F
100
AcDbEntity
  8
0
100
AcDbLine
 62
7
  6
CONTINUOUS
 10
13.1109402954
 20
6.953641804
 11
13.1109402954
 21
6.973641804
  0
LINE
  5
230
100
AcDbEntity
  8
0
100
AcDbLine
 62
7
  6
CONTINUOUS
 10
13.1273667555
 20
6.973641804
 11
13.1273667555
 21
6.953641804
  0
LINE
  5
231
100
AcDbEntity
  8
0
100
AcDbLine
 62
7
  6
CONTINUOUS
 10
13.1502678147
 20
6.953641804
 11
13.1502678147
 21
6.973641804
  0
LINE
  5
232
100
AcDbEntity
  8
0
100
AcDbLine
 62
7
  6
CONTINUOUS
 10
13.1577397154
 20
6.953641804
 11
13.1577397154
 21
6.973641804
  0
LINE
  5
233
100
AcDbEntity
  8
0
100
AcDbLine
 62
7
  6
CONTINUOUS
 10
13.1823236502
 20
6.973641804
 11
13.1823236502
 21
6.953641804
  0
LINE
  5
234
100
AcDbEntity
  8
0
100
AcDbLine
 62
7
  6
CONTINUOUS
 10
13.201133202
 20
6.953641804
 11
13.201133202
 21
6.973641804
  0
LINE
  5
235
100
AcDbEntity
  8
0
100
AcDbLine
 62
7
  6
CONTINUOUS
 10
13.2189131996
 20
6.973641804
 11
13.2189131996
 21
6.953641804
  0
LINE
  5
236
100
AcDbEntity
  8
0
100
AcDbLine
 62
7
  6
CONTINUOUS
 10
13.2220078349
 20
6.953641804
 11
13.2220078349
 21
6.973641804
  0
LINE
  5
237
100
AcDbEntity
  8
0
100
AcDbLine
 62
7
  6
CONTINUOUS
 10
13.7824834891
 20
8.1556920774
 11
13.8135733276
 21
8.173641804
  0
LINE
  5
238
100
AcDbEntity
  8
0
100
AcDbLine
 62
7
  6
CONTINUOUS
 10
13.2510065632
 20
6.973641804
 11
13.2510065632
 21
6.953641804
  0
LINE
  5
239
100
AcDbEntity
  8
0
100
AcDbLine
 62
7
  6
CONTINUOUS
 10
13.2628610238
 20
6.953641804
 11
13.2628610238
 21
6.973641804
  0
LINE
  5
23A
100
AcDbEntity
  8
0
100
AcDbLine
 62
7
  6
CONTINUOUS
 10
13.2821059545
 20
6.973641804
 11
13.2821059545
 21
6.953641804
  0
LINE
  5
23B
100
AcDbEntity
  8
0
100
AcDbLine
 62
7
  6
CONTINUOUS
 10
13.2939604151
 20
6.953641804
 11
13.2939604151
 21
6.973641804
  0
LINE
  5
23C
100
AcDbEntity
  8
0
100
AcDbLine
 62
7
  6
CONTINUOUS
 10
13.3229591434
 20
6.973641804
 11
13.3229591434
 21
6.953641804
  0
LINE
  5
23D
100
AcDbEntity
  8
0
100
AcDbLine
 62
7
  6
CONTINUOUS
 10
13.3260537786
 20
6.953641804
 11
13.3260537786
 21
6.973641804
  0
LINE
  5
23E
100
AcDbEntity
  8
0
100
AcDbLine
 62
7
  6
CONTINUOUS
 10
13.3438337762
 20
6.973641804
 11
13.3438337762
 21
6.953641804
  0
LINE
  5
23F
100
AcDbEntity
  8
0
100
AcDbLine
 62
7
  6
CONTINUOUS
 10
13.362643328
 20
6.953641804
 11
13.362643328
 21
6.973641804
  0
LINE
  5
240
100
AcDbEntity
  8
0
100
AcDbLine
 62
7
  6
CONTINUOUS
 10
13.3872272629
 20
6.973641804
 11
13.3872272629
 21
6.953641804
  0
LINE
  5
241
100
AcDbEntity
  8
0
100
AcDbLine
 62
7
  6
CONTINUOUS
 10
13.3946991635
 20
6.973641804
 11
13.3946991635
 21
6.953641804
  0
LINE
  5
242
100
AcDbEntity
  8
0
100
AcDbLine
 62
7
  6
CONTINUOUS
 10
13.4176002228
 20
6.953641804
 11
13.4176002228
 21
6.973641804
  0
LINE
  5
243
100
AcDbEntity
  8
0
100
AcDbLine
 62
7
  6
CONTINUOUS
 10
13.4340266829
 20
6.973641804
 11
13.4340266829
 21
6.953641804
  0
LINE
  5
244
100
AcDbEntity
  8
0
100
AcDbLine
 62
7
  6
CONTINUOUS
 10
13.4504644104
 20
6.953641804
 11
13.4504644104
 21
6.973641804
  0
LINE
  5
245
100
AcDbEntity
  8
0
100
AcDbLine
 62
7
  6
CONTINUOUS
 10
13.4562326161
 20
6.973641804
 11
13.4562326161
 21
6.953641804
  0
LINE
  5
246
100
AcDbEntity
  8
0
100
AcDbLine
 62
7
  6
CONTINUOUS
 10
13.5874834891
 20
7.573641804
 11
13.5874834891
 21
6.973641804
  0
LINE
  5
247
100
AcDbEntity
  8
0
100
AcDbLine
 62
7
  6
CONTINUOUS
 10
13.6924834891
 20
7.6995853648
 11
14.4954724603
 21
8.1631912634
  0
LINE
  5
248
100
AcDbEntity
  8
0
100
AcDbLine
 62
7
  6
CONTINUOUS
 10
8.6474834891
 20
11.674141804
 11
11.7724834891
 21
11.674141804
  0
LINE
  5
249
100
AcDbEntity
  8
0
100
AcDbLine
 62
7
  6
CONTINUOUS
 10
13.6474834891
 20
7.6216430784
 11
13.6474834891
 21
7.573641804
  0
LINE
  5
24A
100
AcDbEntity
  8
0
100
AcDbLine
 62
7
  6
CONTINUOUS
 10
13.7099834891
 20
10.611641804
 11
13.7099834891
 21
8.655641804
  0
LINE
  5
24B
100
AcDbEntity
  8
0
100
AcDbLine
 62
7
  6
CONTINUOUS
 10
13.9148571857
 20
7.8279728783
 11
13.9148571857
 21
6.953641804
  0
LINE
  5
24C
100
AcDbEntity
  8
0
100
AcDbLine
 62
7
  6
CONTINUOUS
 10
13.9287334891
 20
6.953641804
 11
13.9287334891
 21
5.845641804
  0
LINE
  5
24D
100
AcDbEntity
  8
0
100
AcDbLine
 62
7
  6
CONTINUOUS
 10
13.9524834891
 20
8.625641804
 11
13.9524834891
 21
8.573641804
  0
LINE
  5
24E
100
AcDbEntity
  8
0
100
AcDbLine
 62
7
  6
CONTINUOUS
 10
13.9524834891
 20
5.9336405237
 11
13.9524834891
 21
5.845641804
  0
LINE
  5
24F
100
AcDbEntity
  8
0
100
AcDbLine
 62
7
  6
CONTINUOUS
 10
8.6474834891
 20
12.549141804
 11
11.7724834891
 21
12.549141804
  0
LINE
  5
250
100
AcDbEntity
  8
0
100
AcDbLine
 62
7
  6
CONTINUOUS
 10
14.3744834891
 20
7.433141804
 11
14.3744834891
 21
7.808141804
  0
LINE
  5
251
100
AcDbEntity
  8
0
100
AcDbLine
 62
7
  6
CONTINUOUS
 10
14.4599834891
 20
5.845641804
 11
14.4599834891
 21
5.470641804
  0
ARC
  5
252
100
AcDbEntity
  8
0
100
AcDbCircle
 62
7
  6
CONTINUOUS
 10
11.7724834891
 20
10.611641804
 40
1.9375
100
AcDbArc
 50
0.0
 51
90.0
  0
ARC
  5
253
100
AcDbEntity
  8
0
100
AcDbCircle
 62
7
  6
CONTINUOUS
 10
8.6474834891
 20
10.611641804
 40
1.9375
100
AcDbArc
 50
90.0
 51
180.0
  0
ARC
  5
254
100
AcDbEntity
  8
0
100
AcDbCircle
 62
7
  6
CONTINUOUS
 10
11.7724834891
 20
10.611641804
 40
1.0625
100
AcDbArc
 50
0.0
 51
90.0
  0
ARC
  5
255
100
AcDbEntity
  8
0
100
AcDbCircle
 62
7
  6
CONTINUOUS
 10
8.6474834891
 20
10.611641804
 40
1.0625
100
AcDbArc
 50
90.0
 51
180.0
  0
ARC
  5
256
100
AcDbEntity
  8
0
100
AcDbCircle
 62
9
  6
CONTINUOUS
 10
14.5067979801
 20
8.442515827
 40
0.268873859
100
AcDbArc
 50
270.1679232277
 51
270.6499157224
  0
ARC
  5
257
100
AcDbEntity
  8
0
100
AcDbCircle
 62
7
  6
CONTINUOUS
 10
12.0349834891
 20
8.373641804
 40
0.2
100
AcDbArc
 50
90.0
 51
270.0
  0
ARC
  5
258
100
AcDbEntity
  8
0
100
AcDbCircle
 62
7
  6
CONTINUOUS
 10
14.5099834891
 20
8.373641804
 40
0.2
100
AcDbArc
 50
276.0349090181
 51
90.0
  0
ARC
  5
259
100
AcDbEntity
  8
0
100
AcDbCircle
 62
7
  6
CONTINUOUS
 10
14.5408661033
 20
8.0840945042
 40
0.0912066145
100
AcDbArc
 50
110.5038752448
 51
110.9946136027
  0
ARC
  5
25A
100
AcDbEntity
  8
0
100
AcDbCircle
 62
7
  6
CONTINUOUS
 10
14.5405794064
 20
8.0850138458
 40
0.0902451088
100
AcDbArc
 50
96.0867344772
 51
110.5378318427
  0
ARC
  5
25B
100
AcDbEntity
  8
0
100
AcDbCircle
 62
7
  6
CONTINUOUS
 10
14.5401786748
 20
8.0856840295
 40
0.0894763484
100
AcDbArc
 50
110.9483181625
 51
119.9763715105
  0
ARC
  5
25C
100
AcDbEntity
  8
0
100
AcDbCircle
 62
7
  6
CONTINUOUS
 10
12.6224834891
 20
8.625641804
 40
0.03
100
AcDbArc
 50
90.0
 51
180.0
  0
ARC
  5
25D
100
AcDbEntity
  8
0
100
AcDbCircle
 62
7
  6
CONTINUOUS
 10
13.9224834891
 20
8.625641804
 40
0.03
100
AcDbArc
 50
0.0
 51
90.0
  0
SPLINE
  5
25E
100
AcDbEntity
  8
0
100
AcDbSpline
 62
7
  6
CONTINUOUS
 70
0
 71
3
 72
36
 73
32
 74
0
 42
0.0000001
 43
0.0000001
 44
0.0000000001
 40
0.0
 40
0.0
 40
0.0
 40
0.0
 40
0.2193308559
 40
0.3207538161
 40
0.4162532099
 40
0.5055264186
 40
0.5882692399
 40
0.6641739355
 40
0.7329593552
 40
0.7943752978
 40
0.8481708486
 40
0.872132194
 40
0.8940995895
 40
0.9140532783
 40
0.931973753
 40
0.947841463
 40
0.9616368156
 40
0.9733401791
 40
0.9784012204
 40
0.9829318887
 40
0.9869303254
 40
0.9903961751
 40
0.9933293138
 40
0.9957296174
 40
0.9975969618
 40
0.9983307356
 40
0.998931223
 40
0.9993984085
 40
0.9997322768
 40
0.9999328122
 40
1.0
 40
1.0
 40
1.0
 40
1.0
 10
13.9286889208
 20
6.0200621737
 30
0.0
 10
13.9300392744
 20
6.013645744
 30
0.0
 10
13.9321489148
 20
6.0042899061
 30
0.0
 10
13.9351290741
 20
5.9922077796
 30
0.0
 10
13.9372777211
 20
5.9839258146
 30
0.0
 10
13.9393724273
 20
5.9762073787
 30
0.0
 10
13.9413869408
 20
5.9690745944
 30
0.0
 10
13.9432948561
 20
5.9625484856
 30
0.0
 10
13.9450723717
 20
5.9566487557
 30
0.0
 10
13.9466987474
 20
5.9513939792
 30
0.0
 10
13.9479550531
 20
5.9474275286
 30
0.0
 10
13.9488668189
 20
5.9445890732
 30
0.0
 10
13.9494735005
 20
5.9427152548
 30
0.0
 10
13.9500284056
 20
5.9410145019
 30
0.0
 10
13.9505300163
 20
5.9394881778
 30
0.0
 10
13.950976845
 20
5.9381376466
 30
0.0
 10
13.951367398
 20
5.9369642703
 30
0.0
 10
13.9516572277
 20
5.9360978657
 30
0.0
 10
13.951859677
 20
5.9354942886
 30
0.0
 10
13.9519889971
 20
5.9351091368
 30
0.0
 10
13.9521031649
 20
5.934769202
 30
0.0
 10
13.9522021633
 20
5.934474555
 30
0.0
 10
13.9522859582
 20
5.9342251948
 30
0.0
 10
13.9523545972
 20
5.9340211738
 30
0.0
 10
13.9524022007
 20
5.933879404
 30
0.0
 10
13.9524328437
 20
5.9337887753
 30
0.0
 10
13.9524498046
 20
5.9337375622
 30
0.0
 10
13.9524637729
 20
5.9336983077
 30
0.0
 10
13.9524720143
 20
5.9336689147
 30
0.0
 10
13.9524801094
 20
5.9336536703
 30
0.0
 10
13.9524802581
 20
5.9336442299
 30
0.0
 10
13.9524819191
 20
5.9336431004
 30
0.0
  0
LINE
  5
25F
100
AcDbEntity
  8
0
100
AcDbLine
 62
7
  6
CONTINUOUS
 10
13.9524819191
 20
5.9336431004
 11
13.9521328797
 21
5.934681429
  0
SPLINE
  5
260
100
AcDbEntity
  8
0
100
AcDbSpline
 62
7
  6
CONTINUOUS
 70
0
 71
3
 72
19
 73
15
 74
0
 42
0.0000001
 43
0.0000001
 44
0.0000000001
 40
0.0
 40
0.0
 40
0.0
 40
0.0
 40
0.1053678428
 40
0.1610273586
 40
0.2186339238
 40
0.3390625269
 40
0.4657572379
 40
0.5310274537
 40
0.5972664181
 40
0.6642430749
 40
0.7316529663
 40
0.799211894
 40
0.8666681736
 40
1.0
 40
1.0
 40
1.0
 40
1.0
 10
13.7824834891
 20
8.1556920774
 30
0.0
 10
13.778770106
 20
8.1535481547
 30
0.0
 10
13.7728494004
 20
8.1506726632
 30
0.0
 10
13.7644638737
 20
8.1476800931
 30
0.0
 10
13.7552789253
 20
8.1451822029
 30
0.0
 10
13.7429519288
 20
8.1433718967
 30
0.0
 10
13.7301753812
 20
8.1436742308
 30
0.0
 10
13.7197785202
 20
8.1452702066
 30
0.0
 10
13.7119264503
 20
8.1472131867
 30
0.0
 10
13.7042012781
 20
8.1498882394
 30
0.0
 10
13.6966976661
 20
8.1532664805
 30
0.0
 10
13.6895182803
 20
8.1573317625
 30
0.0
 10
13.6805460656
 20
8.1635741441
 30
0.0
 10
13.6744797016
 20
8.1691351837
 30
0.0
 10
13.6708343176
 20
8.1731539682
 30
0.0
  0
SPLINE
  5
261
100
AcDbEntity
  8
0
100
AcDbSpline
 62
7
  6
CONTINUOUS
 70
0
 71
3
 72
14
 73
10
 74
0
 42
0.0000001
 43
0.0000001
 44
0.0000000001
 40
0.0
 40
0.0
 40
0.0
 40
0.0
 40
0.1067030041
 40
0.2197104816
 40
0.463054687
 40
0.5926757487
 40
0.7261300828
 40
0.8623595142
 40
1.0
 40
1.0
 40
1.0
 40
1.0
 10
13.6924834891
 20
7.6995853648
 30
0.0
 10
13.6895840146
 20
7.6979113524
 30
0.0
 10
13.6838002652
 20
7.6941266134
 30
0.0
 10
13.6726160692
 20
7.684816095
 30
0.0
 10
13.6627824661
 20
7.6729012072
 30
0.0
 10
13.6552409553
 20
7.6588727847
 30
0.0
 10
13.650840571
 20
7.6470950611
 30
0.0
 10
13.6481145403
 20
7.6345668577
 30
0.0
 10
13.6474834891
 20
7.6259618299
 30
0.0
 10
13.6474834891
 20
7.6216430784
 30
0.0
  0
SPLINE
  5
262
100
AcDbEntity
  8
0
100
AcDbSpline
 62
9
  6
CONTINUOUS
 70
0
 71
3
 72
48
 73
44
 74
0
 42
0.0000001
 43
0.0000001
 44
0.0000000001
 40
0.0
 40
0.0
 40
0.0
 40
0.0
 40
0.0000367379
 40
0.0000824757
 40
0.0001464452
 40
0.0003290368
 40
0.0005844278
 40
0.000912533
 40
0.0013132675
 40
0.0017865463
 40
0.0023322806
 40
0.0036401863
 40
0.0052344744
 40
0.0071124863
 40
0.0092715566
 40
0.0117085891
 40
0.0144199229
 40
0.020650713
 40
0.0279306082
 40
0.0362188007
 40
0.045472608
 40
0.0556473155
 40
0.0666969724
 40
0.0785731787
 40
0.1046095163
 40
0.1333654415
 40
0.1644566718
 40
0.1975130581
 40
0.2321799808
 40
0.2681335312
 40
0.3050783143
 40
0.3427481552
 40
0.3809238139
 40
0.4194174122
 40
0.4580760689
 40
0.4967789355
 40
0.5354306415
 40
0.5739517347
 40
0.6503400793
 40
0.7254882197
 40
0.7989094564
 40
0.8699425109
 40
1.0
 40
1.0
 40
1.0
 40
1.0
 10
13.6474834891
 20
7.6216430784
 30
0.0
 10
13.6474818116
 20
7.6216498381
 30
0.0
 10
13.6474715306
 20
7.6216624473
 30
0.0
 10
13.6474594018
 20
7.6216872449
 30
0.0
 10
13.6474316571
 20
7.6217353496
 30
0.0
 10
13.6473859601
 20
7.6218187264
 30
0.0
 10
13.6473150876
 20
7.6219455406
 30
0.0
 10
13.6472245657
 20
7.6221086838
 30
0.0
 10
13.6471139089
 20
7.6223079187
 30
0.0
 10
13.6469833749
 20
7.6225432995
 30
0.0
 10
13.6467695589
 20
7.6229291544
 30
0.0
 10
13.6464531952
 20
7.6235011502
 30
0.0
 10
13.6460156928
 20
7.6242947757
 30
0.0
 10
13.6455018005
 20
7.625230546
 30
0.0
 10
13.6449128567
 20
7.6263073718
 30
0.0
 10
13.6442505392
 20
7.6275241303
 30
0.0
 10
13.6432238472
 20
7.6294214041
 30
0.0
 10
13.641771863
 20
7.6321324354
 30
0.0
 10
13.6398444063
 20
7.6357880737
 30
0.0
 10
13.6376808743
 20
7.6399669918
 30
0.0
 10
13.6353043198
 20
7.6446534234
 30
0.0
 10
13.6327407371
 20
7.6498317228
 30
0.0
 10
13.6300165864
 20
7.6554849216
 30
0.0
 10
13.6260854741
 20
7.6638938025
 30
0.0
 10
13.6209586724
 20
7.6754481314
 30
0.0
 10
13.6147956966
 20
7.6905212238
 30
0.0
 10
13.6086736476
 20
7.7070394475
 30
0.0
 10
13.6028107754
 20
7.7248362954
 30
0.0
 10
13.5973925152
 20
7.7437352352
 30
0.0
 10
13.5925863236
 20
7.7635591359
 30
0.0
 10
13.5885134247
 20
7.784127422
 30
0.0
 10
13.5852443113
 20
7.8052652046
 30
0.0
 10
13.5828382964
 20
7.8268138361
 30
0.0
 10
13.5812855403
 20
7.8486279676
 30
0.0
 10
13.5805623496
 20
7.8705848901
 30
0.0
 10
13.5806345043
 20
7.8925828824
 30
0.0
 10
13.5814357228
 20
7.9145396685
 30
0.0
 10
13.5833847347
 20
7.9435900936
 30
0.0
 10
13.5873019347
 20
7.9794251597
 30
0.0
 10
13.5938800304
 20
8.0215735991
 30
0.0
 10
13.6018322038
 20
8.0624474878
 30
0.0
 10
13.6133248744
 20
8.1132100414
 30
0.0
 10
13.6230584581
 20
8.1500828718
 30
0.0
 10
13.6297520276
 20
8.173813113
 30
0.0
  0
SPLINE
  5
263
100
AcDbEntity
  8
0
100
AcDbSpline
 62
9
  6
CONTINUOUS
 70
0
 71
3
 72
26
 73
22
 74
0
 42
0.0000001
 43
0.0000001
 44
0.0000000001
 40
0.0
 40
0.0
 40
0.0
 40
0.0
 40
0.0028609714
 40
0.0063376919
 40
0.0109360562
 40
0.016878313
 40
0.0242642368
 40
0.0331440995
 40
0.0435464104
 40
0.0554892886
 40
0.0840525341
 40
0.1190788157
 40
0.1609694633
 40
0.2101772069
 40
0.2674095019
 40
0.3336120937
 40
0.409877967
 40
0.497800513
 40
0.7164685129
 40
0.849966479
 40
1.0
 40
1.0
 40
1.0
 40
1.0
 10
12.61433766
 20
8.1518101783
 30
0.0
 10
12.6143675606
 20
8.1517746325
 30
0.0
 10
12.614459267
 20
8.1517160361
 30
0.0
 10
12.6146400875
 20
8.1517020348
 30
0.0
 10
12.6148653449
 20
8.1517396962
 30
0.0
 10
12.6151436195
 20
8.1518271419
 30
0.0
 10
12.6154778783
 20
8.1519627841
 30
0.0
 10
12.6158705097
 20
8.1521455831
 30
0.0
 10
12.6163231611
 20
8.1523739557
 30
0.0
 10
12.6170536278
 20
8.1527607689
 30
0.0
 10
12.618126618
 20
8.1533545821
 30
0.0
 10
12.6196268033
 20
8.1541805638
 30
0.0
 10
12.6214393496
 20
8.155133739
 30
0.0
 10
12.6236008487
 20
8.1561965019
 30
0.0
 10
12.6261626979
 20
8.1573360185
 30
0.0
 10
12.6291849709
 20
8.158513315
 30
0.0
 10
12.6327346991
 20
8.1596984438
 30
0.0
 10
12.6387401373
 20
8.1613167869
 30
0.0
 10
12.6458177215
 20
8.1624502594
 30
0.0
 10
12.6539483888
 20
8.1630808573
 30
0.0
 10
12.6585532856
 20
8.1631911359
 30
0.0
 10
12.6609891612
 20
8.1631910814
 30
0.0
  0
SPLINE
  5
264
100
AcDbEntity
  8
0
100
AcDbSpline
 62
9
  6
CONTINUOUS
 70
0
 71
3
 72
46
 73
42
 74
0
 42
0.0000001
 43
0.0000001
 44
0.0000000001
 40
0.0
 40
0.0
 40
0.0
 40
0.0
 40
0.0005958912
 40
0.0013374383
 40
0.0023724877
 40
0.0053164539
 40
0.0094146225
 40
0.0146500122
 40
0.0209902247
 40
0.0283999859
 40
0.0368453623
 40
0.0566916089
 40
0.0801888198
 40
0.1070084145
 40
0.1368014962
 40
0.1692665331
 40
0.2040747594
 40
0.2409430319
 40
0.2795625034
 40
0.319628018
 40
0.3608662013
 40
0.402985759
 40
0.4457391395
 40
0.5322295764
 40
0.6190042874
 40
0.7045196153
 40
0.786971692
 40
0.8264023779
 40
0.8640580218
 40
0.8993423969
 40
0.9313888976
 40
0.9458879846
 40
0.9591206881
 40
0.9708639018
 40
0.980894441
 40
0.9889980528
 40
0.9949964178
 40
0.9971532124
 40
0.9987201885
 40
0.9996761751
 40
1.0
 40
1.0
 40
1.0
 40
1.0
 10
13.6924832108
 20
7.6995852041
 30
0.0
 10
13.6924247738
 20
7.6996644884
 30
0.0
 10
13.6922889767
 20
7.6998389628
 30
0.0
 10
13.6920541436
 20
7.7001530149
 30
0.0
 10
13.6915860797
 20
7.7007772776
 30
0.0
 10
13.6907925876
 20
7.7018509539
 30
0.0
 10
13.6895961715
 20
7.7034900833
 30
0.0
 10
13.6880840132
 20
7.7055936902
 30
0.0
 10
13.6862826614
 20
7.7081633145
 30
0.0
 10
13.6842204745
 20
7.7111976542
 30
0.0
 10
13.6809835804
 20
7.7161318616
 30
0.0
 10
13.6764936435
 20
7.7234230748
 30
0.0
 10
13.670902186
 20
7.7335895329
 30
0.0
 10
13.665206369
 20
7.7455529505
 30
0.0
 10
13.6598142213
 20
7.7592685812
 30
0.0
 10
13.6551499438
 20
7.7746384172
 30
0.0
 10
13.651557876
 20
7.7914959704
 30
0.0
 10
13.6493946637
 20
7.8096222012
 30
0.0
 10
13.6487697995
 20
7.8287347999
 30
0.0
 10
13.6498006841
 20
7.8485511524
 30
0.0
 10
13.6523758035
 20
7.8688052019
 30
0.0
 10
13.6563909956
 20
7.889273423
 30
0.0
 10
13.6634288858
 20
7.9167218166
 30
0.0
 10
13.6748268996
 20
7.9506104127
 30
0.0
 10
13.6913498397
 20
7.9900881392
 30
0.0
 10
13.7095515798
 20
8.0280712876
 30
0.0
 10
13.7255464393
 20
8.0583984285
 30
0.0
 10
13.7383389746
 20
8.0814577474
 30
0.0
 10
13.7475439287
 20
8.0975902374
 30
0.0
 10
13.7563002082
 20
8.112572215
 30
0.0
 10
13.7632258456
 20
8.124190176
 30
0.0
 10
13.7683324469
 20
8.1326488229
 30
0.0
 10
13.7717221723
 20
8.1382239185
 30
0.0
 10
13.7747415115
 20
8.1431597843
 30
0.0
 10
13.7773280641
 20
8.1473665635
 30
0.0
 10
13.7794228871
 20
8.1507609989
 30
0.0
 10
13.7808381358
 20
8.1530455139
 30
0.0
 10
13.7816854451
 20
8.1544109178
 30
0.0
 10
13.7820946545
 20
8.1550673181
 30
0.0
 10
13.7823421604
 20
8.1554674945
 30
0.0
 10
13.7824554201
 20
8.1556461729
 30
0.0
 10
13.7824832108
 20
8.1556919167
 30
0.0
  0
SPLINE
  5
265
100
AcDbEntity
  8
0
100
AcDbSpline
 62
9
  6
CONTINUOUS
 70
0
 71
3
 72
44
 73
40
 74
0
 42
0.0000001
 43
0.0000001
 44
0.0000000001
 40
0.0
 40
0.0
 40
0.0
 40
0.0
 40
0.0787260018
 40
0.1568554195
 40
0.2342579818
 40
0.3108094596
 40
0.3864232732
 40
0.4609418321
 40
0.5341254132
 40
0.6056402717
 40
0.6751097906
 40
0.7089516173
 40
0.7420895699
 40
0.774396157
 40
0.8057405055
 40
0.835962727
 40
0.8648243534
 40
0.8920716565
 40
0.9174270695
 40
0.9292535125
 40
0.9404164032
 40
0.9508433462
 40
0.9604618242
 40
0.9691992123
 40
0.9769833707
 40
0.9837471633
 40
0.9867262498
 40
0.9894260345
 40
0.9918384431
 40
0.9939553988
 40
0.9957688219
 40
0.9972706304
 40
0.99845274
 40
0.9989213808
 40
0.9993070643
 40
0.9996087792
 40
0.9998255145
 40
0.9999562585
 40
1.0
 40
1.0
 40
1.0
 40
1.0
 10
14.2846386255
 20
8.173399252
 30
0.0
 10
14.2897636647
 20
8.171064516
 30
0.0
 10
14.3001935405
 20
8.1668816565
 30
0.0
 10
14.3162023135
 20
8.161881222
 30
0.0
 10
14.3323595386
 20
8.1580131017
 30
0.0
 10
14.3485391061
 20
8.1551480882
 30
0.0
 10
14.364644531
 20
8.1531945784
 30
0.0
 10
14.3805843528
 20
8.152049244
 30
0.0
 10
14.3962650235
 20
8.1516139227
 30
0.0
 10
14.4115884389
 20
8.1518148281
 30
0.0
 10
14.4240815829
 20
8.1524553978
 30
0.0
 10
14.4338130826
 20
8.1532203871
 30
0.0
 10
14.4408834773
 20
8.1538998113
 30
0.0
 10
14.4477640536
 20
8.154676219
 30
0.0
 10
14.4544244263
 20
8.1555360497
 30
0.0
 10
14.4608267297
 20
8.1564637383
 30
0.0
 10
14.4669254781
 20
8.157437735
 30
0.0
 10
14.4726672855
 20
8.158435506
 30
0.0
 10
14.4771974454
 20
8.1592852951
 30
0.0
 10
14.480590663
 20
8.159953738
 30
0.0
 10
14.4829335489
 20
8.1604284593
 30
0.0
 10
14.4851193794
 20
8.1608827663
 30
0.0
 10
14.4871333779
 20
8.1613110336
 30
0.0
 10
14.4889607997
 20
8.1617076759
 30
0.0
 10
14.4905873099
 20
8.1620671332
 30
0.0
 10
14.4918106393
 20
8.1623419872
 30
0.0
 10
14.492678583
 20
8.162539378
 30
0.0
 10
14.4932427816
 20
8.162668657
 30
0.0
 10
14.4937466885
 20
8.1627849647
 30
0.0
 10
14.4941886291
 20
8.1628876817
 30
0.0
 10
14.4945670629
 20
8.1629762579
 30
0.0
 10
14.494880058
 20
8.1630499411
 30
0.0
 10
14.4950998688
 20
8.163102149
 30
0.0
 10
14.4952410148
 20
8.1631356114
 30
0.0
 10
14.4953226552
 20
8.163155453
 30
0.0
 10
14.4953824183
 20
8.1631688982
 30
0.0
 10
14.4954347202
 20
8.16318345
 30
0.0
 10
14.4954493193
 20
8.1631834661
 30
0.0
 10
14.495474558
 20
8.1631931834
 30
0.0
 10
14.4954722077
 20
8.1631911176
 30
0.0
  0
SPLINE
  5
266
100
AcDbEntity
  8
0
100
AcDbSpline
 62
9
  6
CONTINUOUS
 70
0
 71
3
 72
34
 73
30
 74
0
 42
0.0000001
 43
0.0000001
 44
0.0000000001
 40
0.0
 40
0.0
 40
0.0
 40
0.0
 40
0.034070374
 40
0.0681167741
 40
0.1359966183
 40
0.2034746687
 40
0.2370101735
 40
0.2703556675
 40
0.3362993967
 40
0.3688721728
 40
0.4011687403
 40
0.4647638306
 40
0.4960453142
 40
0.5269487361
 40
0.5574965581
 40
0.5877434665
 40
0.6177475488
 40
0.6476009614
 40
0.677402228
 40
0.7072221862
 40
0.7371113391
 40
0.7670843025
 40
0.8270588263
 40
0.856943875
 40
0.8865826344
 40
0.9158458807
 40
0.9445949714
 40
0.9726907784
 40
1.0
 40
1.0
 40
1.0
 40
1.0
 10
13.1389752333
 20
8.080648554
 30
0.0
 10
13.1427425329
 20
8.0762978034
 30
0.0
 10
13.1500793581
 20
8.0674285101
 30
0.0
 10
13.1639885451
 20
8.0491395539
 30
0.0
 10
13.1799397083
 20
8.0253435833
 30
0.0
 10
13.1939433842
 20
8.0004534432
 30
0.0
 10
13.2039143286
 20
7.9800591386
 30
0.0
 10
13.2129485894
 20
7.9595171146
 30
0.0
 10
13.2205779554
 20
7.9385484513
 30
0.0
 10
13.2265166215
 20
7.9172539487
 30
0.0
 10
13.2311885997
 20
7.8960562645
 30
0.0
 10
13.2339123212
 20
7.8746663415
 30
0.0
 10
13.2341593202
 20
7.8534010318
 30
0.0
 10
13.2330245697
 20
7.8377568808
 30
0.0
 10
13.2304672674
 20
7.8224551104
 30
0.0
 10
13.2264269045
 20
7.8076314328
 30
0.0
 10
13.220904509
 20
7.7934165165
 30
0.0
 10
13.2138827749
 20
7.7799628074
 30
0.0
 10
13.2054638854
 20
7.7673759846
 30
0.0
 10
13.1957595046
 20
7.755745433
 30
0.0
 10
13.1848950592
 20
7.7451511209
 30
0.0
 10
13.1691048502
 20
7.732446847
 30
0.0
 10
13.1516722807
 20
7.721931672
 30
0.0
 10
13.1332561046
 20
7.7136350331
 30
0.0
 10
13.1191361635
 20
7.7085327376
 30
0.0
 10
13.1048609099
 20
7.70455434
 30
0.0
 10
13.0905834695
 20
7.7017033319
 30
0.0
 10
13.0764593656
 20
7.6999833092
 30
0.0
 10
13.0670966367
 20
7.6995854636
 30
0.0
 10
13.0624835893
 20
7.6995852491
 30
0.0
  0
SPLINE
  5
267
100
AcDbEntity
  8
0
100
AcDbSpline
 62
9
  6
CONTINUOUS
 70
0
 71
3
 72
31
 73
27
 74
0
 42
0.0000001
 43
0.0000001
 44
0.0000000001
 40
0.0
 40
0.0
 40
0.0
 40
0.0
 40
0.0278688808
 40
0.0566306613
 40
0.0861908014
 40
0.1164152314
 40
0.1782004691
 40
0.2095658381
 40
0.2410840621
 40
0.272684808
 40
0.3043227241
 40
0.3359730707
 40
0.3676243816
 40
0.3992749585
 40
0.4309248511
 40
0.4941863114
 40
0.557463701
 40
0.6207487556
 40
0.6840363337
 40
0.7473280516
 40
0.8106227144
 40
0.8738969224
 40
0.9055156947
 40
0.9370940571
 40
0.9686033867
 40
1.0
 40
1.0
 40
1.0
 40
1.0
 10
13.0849834891
 20
7.6216430784
 30
0.0
 10
13.0914433498
 20
7.6216434132
 30
0.0
 10
13.1045811833
 20
7.6224562038
 30
0.0
 10
13.1242895348
 20
7.62595184
 30
0.0
 10
13.1440405634
 20
7.6316768753
 30
0.0
 10
13.1702048334
 20
7.6422390066
 30
0.0
 10
13.1950522803
 20
7.6568118204
 30
0.0
 10
13.217730139
 20
7.6747700877
 30
0.0
 10
13.2335895093
 20
7.6899231957
 30
0.0
 10
13.2480205245
 20
7.7065218356
 30
0.0
 10
13.260883652
 20
7.7244010961
 30
0.0
 10
13.2720793854
 20
7.7433813897
 30
0.0
 10
13.2815427463
 20
7.76328367
 30
0.0
 10
13.2892587678
 20
7.7839245109
 30
0.0
 10
13.2972583249
 20
7.8121780092
 30
0.0
 10
13.3030778231
 20
7.8485271253
 30
0.0
 10
13.3041249819
 20
7.8926248999
 30
0.0
 10
13.300029386
 20
7.9365277713
 30
0.0
 10
13.2915208318
 20
7.979774434
 30
0.0
 10
13.2790990543
 20
8.0220571661
 30
0.0
 10
13.2630664903
 20
8.0630976501
 30
0.0
 10
13.2467768576
 20
8.0960091422
 30
0.0
 10
13.2319377556
 20
8.121303052
 30
0.0
 10
13.2198709568
 20
8.1396547451
 30
0.0
 10
13.2068272633
 20
8.1572621732
 30
0.0
 10
13.1974219699
 20
8.1684220628
 30
0.0
 10
13.192532935
 20
8.1738128301
 30
0.0
  0
SPLINE
  5
268
100
AcDbEntity
  8
0
100
AcDbSpline
 62
9
  6
CONTINUOUS
 70
0
 71
3
 72
15
 73
11
 74
0
 42
0.0000001
 43
0.0000001
 44
0.0000000001
 40
0.0
 40
0.0
 40
0.0
 40
0.0
 40
0.1366644829
 40
0.2689679389
 40
0.3968969999
 40
0.5208920552
 40
0.6418983529
 40
0.761072528
 40
0.8799100418
 40
1.0
 40
1.0
 40
1.0
 40
1.0
 10
13.0624835955
 20
7.6995852419
 30
0.0
 10
13.0580153463
 20
7.6995854565
 30
0.0
 10
13.049216118
 20
7.6999480787
 30
0.0
 10
13.0363320276
 20
7.7016371112
 30
0.0
 10
13.0240705585
 20
7.7044666682
 30
0.0
 10
13.0125189561
 20
7.7084426562
 30
0.0
 10
13.001738153
 20
7.7135581818
 30
0.0
 10
12.9917748059
 20
7.7198175139
 30
0.0
 10
12.9826574031
 20
7.7272055944
 30
0.0
 10
12.9772001557
 20
7.7328241062
 30
0.0
 10
12.9746276114
 20
7.7357902819
 30
0.0
  0
SPLINE
  5
269
100
AcDbEntity
  8
0
100
AcDbSpline
 62
9
  6
CONTINUOUS
 70
0
 71
3
 72
11
 73
7
 74
0
 42
0.0000001
 43
0.0000001
 44
0.0000000001
 40
0.0
 40
0.0
 40
0.0
 40
0.0
 40
0.2621936823
 40
0.5160777061
 40
0.7612197964
 40
1.0
 40
1.0
 40
1.0
 40
1.0
 10
12.6609889799
 20
8.1631912634
 30
0.0
 10
12.6597562379
 20
8.1646147102
 30
0.0
 10
12.6571702737
 20
8.1672845871
 30
0.0
 10
12.652867999
 20
8.1706880509
 30
0.0
 10
12.6482251022
 20
8.1732927807
 30
0.0
 10
12.6448978125
 20
8.174395445
 30
0.0
 10
12.6432200162
 20
8.174750199
 30
0.0
  0
SPLINE
  5
26A
100
AcDbEntity
  8
0
100
AcDbSpline
 62
9
  6
CONTINUOUS
 70
0
 71
3
 72
11
 73
7
 74
0
 42
0.0000001
 43
0.0000001
 44
0.0000000001
 40
0.0
 40
0.0
 40
0.0
 40
0.0
 40
0.2351241421
 40
0.4838422847
 40
0.7401968401
 40
1.0
 40
1.0
 40
1.0
 40
1.0
 10
12.6432200513
 20
8.1747501993
 30
0.0
 10
12.6502256552
 20
8.1747508317
 30
0.0
 10
12.6646419117
 20
8.1746217501
 30
0.0
 10
12.6866924032
 20
8.1742057153
 30
0.0
 10
12.7094781283
 20
8.1737781916
 30
0.0
 10
12.7248572519
 20
8.1736416719
 30
0.0
 10
12.7325981757
 20
8.1736419481
 30
0.0
  0
SPLINE
  5
26B
100
AcDbEntity
  8
0
100
AcDbSpline
 62
9
  6
CONTINUOUS
 70
0
 71
3
 72
9
 73
5
 74
0
 42
0.0000001
 43
0.0000001
 44
0.0000000001
 40
0.0
 40
0.0
 40
0.0
 40
0.0
 40
0.2417022527
 40
1.0
 40
1.0
 40
1.0
 40
1.0
 10
13.0676733562
 20
8.162696761
 30
0.0
 10
13.0681897009
 20
8.163503125
 30
0.0
 10
13.0702584449
 20
8.1668823822
 30
0.0
 10
13.072067452
 20
8.1704181671
 30
0.0
 10
13.0733082592
 20
8.1731539681
 30
0.0
  0
SPLINE
  5
26C
100
AcDbEntity
  8
0
100
AcDbSpline
 62
9
  6
CONTINUOUS
 70
0
 71
3
 72
11
 73
7
 74
0
 42
0.0000001
 43
0.0000001
 44
0.0000000001
 40
0.0
 40
0.0
 40
0.0
 40
0.0
 40
0.2954429213
 40
0.5595352544
 40
0.7930870389
 40
1.0
 40
1.0
 40
1.0
 40
1.0
 10
12.6432200513
 20
8.1747501993
 30
0.0
 10
12.6368049804
 20
8.1747507463
 30
0.0
 10
12.6246552725
 20
8.1746491951
 30
0.0
 10
12.6074391388
 20
8.1742414352
 30
0.0
 10
12.5921473814
 20
8.1738021063
 30
0.0
 10
12.5825837242
 20
8.1736416272
 30
0.0
 10
12.57809094
 20
8.1736419391
 30
0.0
  0
SPLINE
  5
26D
100
AcDbEntity
  8
0
100
AcDbSpline
 62
9
  6
CONTINUOUS
 70
0
 71
3
 72
23
 73
19
 74
0
 42
0.0000001
 43
0.0000001
 44
0.0000000001
 40
0.0
 40
0.0
 40
0.0
 40
0.0
 40
0.0011313221
 40
0.0045664364
 40
0.0102785599
 40
0.0182409103
 40
0.0284267129
 40
0.0408092011
 40
0.0720530755
 40
0.1116922019
 40
0.1593985313
 40
0.2148434444
 40
0.2776891635
 40
0.3475445714
 40
0.4240013331
 40
0.5950968773
 40
0.7879789174
 40
1.0
 40
1.0
 40
1.0
 40
1.0
 10
14.5310103658
 20
8.1747501993
 30
0.0
 10
14.5310180172
 20
8.1747525122
 30
0.0
 10
14.530947584
 20
8.1747421786
 30
0.0
 10
14.5309124721
 20
8.17474257
 30
0.0
 10
14.5307709282
 20
8.1747273444
 30
0.0
 10
14.5306123605
 20
8.1747136991
 30
0.0
 10
14.5303939531
 20
8.1746934688
 30
0.0
 10
14.5300169645
 20
8.1746597367
 30
0.0
 10
14.5294298403
 20
8.174607772
 30
0.0
 10
14.5285954535
 20
8.1745366449
 30
0.0
 10
14.52758973
 20
8.1744547646
 30
0.0
 10
14.5264203968
 20
8.1743647566
 30
0.0
 10
14.5250944818
 20
8.174269087
 30
0.0
 10
14.5236199578
 20
8.1741707524
 30
0.0
 10
14.5213814295
 20
8.1740349311
 30
0.0
 10
14.5182734022
 20
8.1738781062
 30
0.0
 10
14.5142061539
 20
8.1737328286
 30
0.0
 10
14.511345726
 20
8.1736762681
 30
0.0
 10
14.5098477963
 20
8.1736592654
 30
0.0
  0
SPLINE
  5
26E
100
AcDbEntity
  8
0
100
AcDbSpline
 62
9
  6
CONTINUOUS
 70
0
 71
3
 72
25
 73
21
 74
0
 42
0.0000001
 43
0.0000001
 44
0.0000000001
 40
0.0
 40
0.0
 40
0.0
 40
0.0
 40
0.0272333988
 40
0.0563778162
 40
0.1187484911
 40
0.1843086131
 40
0.2176774133
 40
0.2511795275
 40
0.3182711285
 40
0.3850635688
 40
0.4512503026
 40
0.5166295543
 40
0.6444696226
 40
0.7068004514
 40
0.7679265164
 40
0.8277760999
 40
0.857232458
 40
0.8863848977
 40
0.9437560481
 40
1.0
 40
1.0
 40
1.0
 40
1.0
 10
12.6609891275
 20
8.1631911204
 30
0.0
 10
12.6632719124
 20
8.1631911801
 30
0.0
 10
12.6679978433
 20
8.1630866438
 30
0.0
 10
12.6779384034
 20
8.1625522184
 30
0.0
 10
12.6910551591
 20
8.1613669998
 30
0.0
 10
12.7044851719
 20
8.1598033263
 30
0.0
 10
12.7155055186
 20
8.1584695108
 30
0.0
 10
12.7266545094
 20
8.1571304484
 30
0.0
 10
12.7405931659
 20
8.1555222478
 30
0.0
 10
12.7572827575
 20
8.1538672014
 30
0.0
 10
12.7738637949
 20
8.1526011356
 30
0.0
 10
12.7955851625
 20
8.1515749185
 30
0.0
 10
12.8170332945
 20
8.1516452328
 30
0.0
 10
12.8380506111
 20
8.1531684293
 30
0.0
 10
12.8533015978
 20
8.1551084286
 30
0.0
 10
12.8656945019
 20
8.1574959976
 30
0.0
 10
12.8753263547
 20
8.1599187354
 30
0.0
 10
12.8846542118
 20
8.162666233
 30
0.0
 10
12.8959024235
 20
8.1668041151
 30
0.0
 10
12.9044625076
 20
8.1710385955
 30
0.0
 10
12.9085422818
 20
8.1734012835
 30
0.0
  0
SPLINE
  5
26F
100
AcDbEntity
  8
0
100
AcDbSpline
 62
9
  6
CONTINUOUS
 70
0
 71
3
 72
15
 73
11
 74
0
 42
0.0000001
 43
0.0000001
 44
0.0000000001
 40
0.0
 40
0.0
 40
0.0
 40
0.0
 40
0.0837631965
 40
0.1798555059
 40
0.2891269061
 40
0.4114319005
 40
0.5460780587
 40
0.690985786
 40
0.8435076155
 40
1.0
 40
1.0
 40
1.0
 40
1.0
 10
13.0624834888
 20
7.6995853648
 30
0.0
 10
13.0639938289
 20
7.6978413742
 30
0.0
 10
13.0669912492
 20
7.6938803049
 30
0.0
 10
13.0710692347
 20
7.6870242441
 30
0.0
 10
13.0748864611
 20
7.678830881
 30
0.0
 10
13.0783055869
 20
7.669327598
 30
0.0
 10
13.0811604294
 20
7.6586212263
 30
0.0
 10
13.083330819
 20
7.6469082797
 30
0.0
 10
13.0846734327
 20
7.6344674353
 30
0.0
 10
13.0849834888
 20
7.6259533349
 30
0.0
 10
13.0849834888
 20
7.6216430784
 30
0.0
  0
SPLINE
  5
270
100
AcDbEntity
  8
0
100
AcDbSpline
 62
9
  6
CONTINUOUS
 70
0
 71
3
 72
22
 73
18
 74
0
 42
0.0000001
 43
0.0000001
 44
0.0000000001
 40
0.0
 40
0.0
 40
0.0
 40
0.0
 40
0.0638921099
 40
0.1261411437
 40
0.1869026338
 40
0.2464547201
 40
0.3051559176
 40
0.3634282449
 40
0.4217275444
 40
0.4805028796
 40
0.540161632
 40
0.6010455424
 40
0.663410922
 40
0.727420184
 40
0.7931419623
 40
0.8605563129
 40
1.0
 40
1.0
 40
1.0
 40
1.0
 10
13.0849834891
 20
7.6216430784
 30
0.0
 10
13.0800804359
 20
7.6216433425
 30
0.0
 10
13.0703929791
 20
7.622098285
 30
0.0
 10
13.0561815734
 20
7.6242075958
 30
0.0
 10
13.0425896712
 20
7.6277140874
 30
0.0
 10
13.0297149652
 20
7.6325860574
 30
0.0
 10
13.0176358889
 20
7.6387812013
 30
0.0
 10
13.0064078933
 20
7.6462376967
 30
0.0
 10
12.9960697431
 20
7.6548925383
 30
0.0
 10
12.9866386477
 20
7.6646728065
 30
0.0
 10
12.9781138945
 20
7.6755023152
 30
0.0
 10
12.97048085
 20
7.6873035094
 30
0.0
 10
12.9637111276
 20
7.6999964004
 30
0.0
 10
12.9577678187
 20
7.7135000329
 30
0.0
 10
12.9526073392
 20
7.7277323753
 30
0.0
 10
12.9466390957
 20
7.7477897049
 30
0.0
 10
12.9432980349
 20
7.7633380627
 30
0.0
 10
12.9414482634
 20
7.7738778215
 30
0.0
  0
ENDSEC
  0
SECTION
  2
OBJECTS
  0
DICTIONARY
  5
C
100
AcDbDictionary
280
0
281
1
  3
ACAD_GROUP
350
D
  3
ACAD_MLINESTYLE
350
17
  3
ACAD_LAYOUT
350
1A
  3
ACAD_PLOTSETTINGS
350
19
  3
ACAD_PLOTSTYLENAME
350
E
  0
DICTIONARY
  5
D
102
{ACAD_REACTORS
330
C
102
}
100
AcDbDictionary
280
0
281
1
  0
ACDBDICTIONARYWDFLT
  5
E
102
{ACAD_REACTORS
330
C
102
}
100
AcDbDictionary
281
1
  3
Normal
350
F
100
AcDbDictionaryWithDefault
340
F
  0
DICTIONARY
  5
17
102
{ACAD_REACTORS
330
C
102
}
100
AcDbDictionary
280
0
281
1
  3
Standard
350
18
  0
DICTIONARY
  5
19
102
{ACAD_REACTORS
330
C
102
}
100
AcDbDictionary
281
1
  0
DICTIONARY
  5
1A
102
{ACAD_REACTORS
330
C
102
}
100
AcDbDictionary
281
1
  3
Model
350
271
  3
Layout1
350
272
  0
ACDBPLACEHOLDER
  5
F
102
{ACAD_REACTORS
330
E
102
}
  0
MLINESTYLE
  5
18
102
{ACAD_REACTORS
330
17
102
}
100
AcDbMlineStyle
  2
STANDARD
 70
0
  3

 62
256
 51
90.0
 52
90.0
 71
2
 49
0.5
 62
256
  6
BYLAYER
 49
-0.5
 62
256
  6
BYLAYER
  0
LAYOUT
  5
271
102
{ACAD_REACTORS
330
1A
102
}
100
AcDbPlotSettings
  1

  2
none_device
  4
ANSI_C_(22.00_x_17.00_Inches)
  6

 40
0.0
 41
0.0
 42
0.0
 43
0.0
 44
558.8
 45
431.8
 46
0.0
 47
0.0
 48
0.0
 49
0.0
140
0.0
141
0.0
142
1.0
143
1.0
 70
1024
 72
0
 73
0
 74
0
  7

 75
0
147
1.0
148
0.0
149
0.0
100
AcDbLayout
  1
Model
 70
0
 71
0
 10
0.0
 20
0.0
 11
22.0
 21
17.0
 12
0.0
 22
0.0
 32
0.0
 14
0.0
 24
0.0
 34
0.0
 15
0.0
 25
0.0
 35
0.0
146
0.0
 13
0.0
 23
0.0
 33
0.0
 16
1.0
 26
0.0
 36
0.0
 17
0.0
 27
1.0
 37
0.0
 76
0
330
202
345
0
346
0
  0
LAYOUT
  5
272
102
{ACAD_REACTORS
330
1A
102
}
100
AcDbPlotSettings
  1

  2
none_device
  4
ANSI_C_(22.00_x_17.00_Inches)
  6

 40
0.0
 41
0.0
 42
0.0
 43
0.0
 44
558.8
 45
431.8
 46
0.0
 47
0.0
 48
0.0
 49
0.0
140
0.0
141
0.0
142
1.0
143
1.0
 70
0
 72
0
 73
0
 74
0
  7

 75
0
147
1.0
148
0.0
149
0.0
100
AcDbLayout
  1
Layout1
 70
0
 71
1
 10
0.0
 20
0.0
 11
22.0
 21
17.0
 12
0.0
 22
0.0
 32
0.0
 14
0.0
 24
0.0
 34
0.0
 15
0.0
 25
0.0
 35
0.0
146
0.0
 13
0.0
 23
0.0
 33
0.0
 16
1.0
 26
0.0
 36
0.0
 17
0.0
 27
1.0
 37
0.0
 76
0
330
203
345
0
346
0
  0
ENDSEC
  0
EOF
