  0
SECTION
  2
HEADER
  9
$ACADVER
  1
AC1015
  9
$DWGCODEPAGE
  3
ANSI_1252
  9
$EXTMAX
 10
11.6929133858
 20
8.2677165354
 30
0.0
  9
$EXTMIN
 10
0.0
 20
0.0
 30
0.0
  9
$LIMMIN
 10
0.0
 20
0.0
  9
$LIMMAX
 10
11.6929133858
 20
8.2677165354
  9
$VIEWCTR
 10
5.8464566929
 20
4.1338582677
  9
$VIEWSIZE
 40
8.2677165354
  9
$CLAYER
  8
0
  9
$LTSCALE
 40
0.6431102362
  9
$CELTYPE
  6
BYLAYER
  9
$DIMSCALE
 40
1.0
  9
$DIMASZ
 40
0.1
  9
$DIMEXO
 40
0.0730807087
  9
$DIMDLI
 40
0.4443307087
  9
$DIMEXE
 40
0.2104724409
  9
$DIMCEN
 40
0.1052362205
  9
$DIMLFAC
 40
1.0
  9
$DIMBLK
  1
_FILLED
  9
$DIMTXT
 40
0.08
  9
$DIMTOL
 70
1
  9
$DIMLIM
 70
0
  9
$DIMTFAC
 40
1.0
  9
$DIMTP
 40
0.01
  9
$DIMTM
 40
0.01
  9
$PDMODE
 70
3
  9
$PDSIZE
 40
0.06
  9
$HANDSEED
  5
251
  9
$TILEMODE
 70
1
  9
$MEASUREMENT
 70
0
  9
$INSUNITS
 70
1
  0
ENDSEC
  0
SECTION
  2
CLASSES
  0
CLASS
  1
ACDBDICTIONARYWDFLT
  2
AcDbDictionaryWithDefault
  3
AutoCAD 2000
 90
0
280
0
281
0
  0
CLASS
  1
ACDBPLACEHOLDER
  2
AcDbPlaceHolder
  3
AutoCAD 2000
 90
0
280
0
281
0
  0
CLASS
  1
LAYOUT
  2
AcDbLayout
  3
AutoCAD 2000
 90
0
280
0
281
0
  0
ENDSEC
  0
SECTION
  2
TABLES
  0
TABLE
  2
VPORT
  5
8
100
AcDbSymbolTable
 70
2
  0
VPORT
  5
1F4
100
AcDbSymbolTableRecord
100
AcDbViewportTableRecord
  2
*ACTIVE
 70
0
 10
0.0
 20
0.0
 11
1.0
 21
1.0
 12
5.8464566929
 22
4.1338582677
 13
0.0
 23
0.0
 14
1.0
 24
1.0
 15
0.0
 25
0.0
 16
0.0
 26
0.0
 36
1.0
 17
0.0
 27
0.0
 37
0.0
 40
8.2677165354
 41
1.4142857143
 42
50.0
 43
0.0
 44
0.0
 50
0.0
 51
0.0
 71
0
 72
100
 73
1
 74
1
 75
0
 76
0
 77
0
 78
0
  0
ENDTAB
  0
TABLE
  2
LTYPE
  5
5
100
AcDbSymbolTable
 70
6
  0
LTYPE
  5
14
100
AcDbSymbolTableRecord
100
AcDbLinetypeTableRecord
  2
BYBLOCK
 70
0
  3

 72
65
 73
0
 40
0.0
  0
LTYPE
  5
15
100
AcDbSymbolTableRecord
100
AcDbLinetypeTableRecord
  2
BYLAYER
 70
0
  3

 72
65
 73
0
 40
0.0
  0
LTYPE
  5
16
100
AcDbSymbolTableRecord
100
AcDbLinetypeTableRecord
  2
CONTINUOUS
 70
64
  3
Solid line
 72
65
 73
0
 40
0.0
  0
LTYPE
  5
1F5
100
AcDbSymbolTableRecord
100
AcDbLinetypeTableRecord
  2
CENTER
 70
64
  3
____ _ ____ _ ____ _ ____ _ ____ _ ____ _ ____
 72
65
 73
4
 40
0.6
 49
0.375
 74
0
 49
-0.075
 74
0
 49
0.075
 74
0
 49
-0.075
 74
0
  0
LTYPE
  5
1F6
100
AcDbSymbolTableRecord
100
AcDbLinetypeTableRecord
  2
HIDDEN
 70
64
  3
- - - - - - - - - - - - - - - - - - - -
 72
65
 73
2
 40
0.2
 49
0.1
 74
0
 49
-0.1
 74
0
  0
LTYPE
  5
1F7
100
AcDbSymbolTableRecord
100
AcDbLinetypeTableRecord
  2
PHANTOM
 70
64
  3
_____ _ _ _____ _ _ _____ _ _ _____
 72
65
 73
6
 40
0.8
 49
0.45
 74
0
 49
-0.05
 74
0
 49
0.1
 74
0
 49
-0.05
 74
0
 49
0.1
 74
0
 49
-0.05
 74
0
  0
LTYPE
  5
1F8
100
AcDbSymbolTableRecord
100
AcDbLinetypeTableRecord
  2
DOT
 70
64
  3
. . . . . . . . . . . . . . . . . . . .
 72
65
 73
2
 40
0.2
 49
0.1
 74
0
 49
-0.1
 74
0
  0
LTYPE
  5
1F9
100
AcDbSymbolTableRecord
100
AcDbLinetypeTableRecord
  2
DASHED
 70
64
  3
- - - - - - - - - - - - - - - - - - - -
 72
65
 73
2
 40
0.2
 49
0.1
 74
0
 49
-0.1
 74
0
  0
ENDTAB
  0
TABLE
  2
LAYER
  5
2
100
AcDbSymbolTable
 70
36
  0
LAYER
  5
10
100
AcDbSymbolTableRecord
100
AcDbLayerTableRecord
  2
0
 70
0
 62
7
  6
CONTINUOUS
370
-3
390
F
  0
LAYER
  5
1FA
100
AcDbSymbolTableRecord
100
AcDbLayerTableRecord
  2
DEFAULT_1
 70
0
 62
7
  6
CENTER
370
-3
390
F
  0
LAYER
  5
1FB
100
AcDbSymbolTableRecord
100
AcDbLayerTableRecord
  2
DEFAULT_2
 70
0
 62
8
  6
HIDDEN
370
-3
390
F
  0
LAYER
  5
1FC
100
AcDbSymbolTableRecord
100
AcDbLayerTableRecord
  2
DEFAULT_3
 70
0
 62
7
  6
PHANTOM
370
-3
390
F
  0
LAYER
  5
1FD
100
AcDbSymbolTableRecord
100
AcDbLayerTableRecord
  2
3_ALL_SYMBOLS
 70
0
 62
7
  6
CONTINUOUS
370
-3
390
F
  0
LAYER
  5
1FE
100
AcDbSymbolTableRecord
100
AcDbLayerTableRecord
  2
DEFAULT_COORDINATE_SYSTEM
 70
0
 62
7
  6
CONTINUOUS
370
-3
390
F
  0
LAYER
  5
1FF
100
AcDbSymbolTableRecord
100
AcDbLayerTableRecord
  2
DEFAULT_DATUM_AXES
 70
0
 62
7
  6
CONTINUOUS
370
-3
390
F
  0
LAYER
  5
200
100
AcDbSymbolTableRecord
100
AcDbLayerTableRecord
  2
DEFAULT_DATUM_CURVES
 70
0
 62
7
  6
CONTINUOUS
370
-3
390
F
  0
LAYER
  5
201
100
AcDbSymbolTableRecord
100
AcDbLayerTableRecord
  2
DEFAULT_DATUM_PLANES
 70
0
 62
7
  6
CONTINUOUS
370
-3
390
F
  0
ENDTAB
  0
TABLE
  2
STYLE
  5
3
100
AcDbSymbolTable
 70
1
  0
STYLE
  5
11
100
AcDbSymbolTableRecord
100
AcDbTextStyleTableRecord
  2
STANDARD
 70
0
 40
0.0
 41
0.8
 50
0.0
 71
0
 42
0.2
  3
txt
  4

  0
STYLE
  5
202
100
AcDbSymbolTableRecord
100
AcDbTextStyleTableRecord
  2
TEXTSTYLE_1
 70
0
 40
0.0
 41
0.8
 50
0.0
 71
0
 42
0.2
  3
gdt
  4

  0
ENDTAB
  0
TABLE
  2
VIEW
  5
6
100
AcDbSymbolTable
 70
0
  0
ENDTAB
  0
TABLE
  2
UCS
  5
7
100
AcDbSymbolTable
 70
0
  0
ENDTAB
  0
TABLE
  2
APPID
  5
9
100
AcDbSymbolTable
 70
1
  0
APPID
  5
203
100
AcDbSymbolTableRecord
100
AcDbRegAppTableRecord
  2
ACAD
 70
0
  0
ENDTAB
  0
TABLE
  2
BLOCK_RECORD
  5
1
100
AcDbSymbolTable
 70
0
  0
BLOCK_RECORD
  5
204
100
AcDbSymbolTableRecord
100
AcDbBlockTableRecord
  2
*Model_Space
  0
BLOCK_RECORD
  5
205
100
AcDbSymbolTableRecord
100
AcDbBlockTableRecord
  2
*Paper_Space
  0
ENDTAB
  0
TABLE
  2
DIMSTYLE
  5
A
100
AcDbSymbolTable
 70
1
100
AcDbDimStyleTable
 71
0
  0
DIMSTYLE
105
206
100
AcDbSymbolTableRecord
100
AcDbDimStyleTableRecord
  2
STANDARD
 70
0
  3

  4

 40
1.0
 41
0.1
 42
0.0625
 43
0.38
 44
0.18
 45
0.0
 46
0.0
 47
0.01
 48
0.01
140
0.08
141
0.09
142
0.0
143
25.4
144
1.0
145
0.0
146
1.0
147
0.09
 71
1.0
 72
0.0
 73
1
 74
1
 75
0
 76
0
 77
0
 78
4
170
0
171
2
172
0
173
0
174
0
175
0
176
0
177
0
178
0
270
2
271
2
272
2
273
2
274
2
275
0
280
0
281
0
282
0
283
1
284
4
285
0
286
0
287
3
288
0
340
11
  0
ENDTAB
  0
ENDSEC
  0
SECTION
  2
BLOCKS
  0
BLOCK
  5
20
100
AcDbEntity
  8
0
100
AcDbBlockBegin
  2
*Model_Space
 70
0
 10
0.0
 20
0.0
 30
0.0
  3
*Model_Space
  1

  0
ENDBLK
  5
21
100
AcDbEntity
  8
0
100
AcDbBlockEnd
  0
BLOCK
  5
1C
100
AcDbEntity
  8
0
100
AcDbBlockBegin
  2
*Paper_Space
 70
0
 10
0.0
 20
0.0
 30
0.0
  3
*Paper_Space
  1

  0
ENDBLK
  5
1D
100
AcDbEntity
  8
0
100
AcDbBlockEnd
  0
ENDSEC
  0
SECTION
  2
ENTITIES
  0
LINE
  5
207
100
AcDbEntity
  8
0
100
AcDbLine
 62
6
  6
CONTINUOUS
 10
4.0866180404
 20
3.9450099379
 11
4.0905779528
 21
3.93978731
  0
LWPOLYLINE
  5
208
100
AcDbEntity
  8
0
100
AcDbPolyline
 62
6
  6
CONTINUOUS
 90
6
 70
0
 10
4.0866178874
 20
3.9450101843
 10
4.0904602493
 20
3.9398949184
 10
4.0995465204
 20
3.9315879457
 10
4.1108527628
 20
3.9253521692
 10
4.1238814072
 20
3.9216965127
 10
4.1338052752
 20
3.9209005044
  0
LWPOLYLINE
  5
209
100
AcDbEntity
  8
0
100
AcDbPolyline
 62
6
  6
CONTINUOUS
 90
3
 70
0
 10
4.1174511845
 20
4.6606626691
 10
4.1080386835
 20
4.6526950955
 10
4.1039987732
 20
4.6478086166
  0
LINE
  5
20A
100
AcDbEntity
  8
0
100
AcDbLine
 62
6
  6
CONTINUOUS
 10
4.0952584242
 20
3.9355082666
 11
4.099904448
 21
3.9313335101
  0
LINE
  5
20B
100
AcDbEntity
  8
0
100
AcDbLine
 62
6
  6
CONTINUOUS
 10
6.5148951808
 20
3.2959005653
 11
6.5648951808
 21
3.2959005653
  0
LINE
  5
20C
100
AcDbEntity
  8
0
100
AcDbLine
 62
6
  6
CONTINUOUS
 10
6.7648951808
 20
3.2959005653
 11
6.8398951808
 21
3.2959005653
  0
LINE
  5
20D
100
AcDbEntity
  8
0
100
AcDbLine
 62
6
  6
CONTINUOUS
 10
4.099904448
 20
3.9313335101
 11
4.111058556
 21
3.9252944264
  0
LINE
  5
20E
100
AcDbEntity
  8
0
100
AcDbLine
 62
6
  6
CONTINUOUS
 10
4.1235616012
 20
4.6638285658
 11
4.1174511845
 21
4.6606626691
  0
LINE
  5
20F
100
AcDbEntity
  8
0
100
AcDbLine
 62
6
  6
CONTINUOUS
 10
4.1241190341
 20
3.9216774523
 11
4.1242814648
 21
3.9216330981
  0
LINE
  5
210
100
AcDbEntity
  8
0
100
AcDbLine
 62
6
  6
CONTINUOUS
 10
5.6348951808
 20
3.6459005653
 11
5.5998951808
 21
3.6459005653
  0
LINE
  5
211
100
AcDbEntity
  8
0
100
AcDbLine
 62
6
  6
CONTINUOUS
 10
5.4850039278
 20
3.6459005653
 11
5.4572486273
 21
3.6459005653
  0
LINE
  5
212
100
AcDbEntity
  8
0
100
AcDbLine
 62
6
  6
CONTINUOUS
 10
6.1098951808
 20
3.7259005653
 11
5.6498951808
 21
3.7259005653
  0
LINE
  5
213
100
AcDbEntity
  8
0
100
AcDbLine
 62
9
  6
CONTINUOUS
 10
4.1338124172
 20
3.9209005653
 11
5.1859739778
 21
3.9209005653
  0
LINE
  5
214
100
AcDbEntity
  8
0
100
AcDbLine
 62
9
  6
CONTINUOUS
 10
4.0894939702
 20
3.946464496
 11
5.2294944155
 21
3.9464644751
  0
LINE
  5
215
100
AcDbEntity
  8
0
100
AcDbLine
 62
9
  6
CONTINUOUS
 10
5.2294944155
 20
3.9464644751
 11
5.2295861796
 21
3.9464629045
  0
LINE
  5
216
100
AcDbEntity
  8
0
100
AcDbLine
 62
6
  6
CONTINUOUS
 10
5.2488951808
 20
4.6232180338
 11
5.2488951808
 21
4.6084005653
  0
LINE
  5
217
100
AcDbEntity
  8
0
100
AcDbLine
 62
6
  6
CONTINUOUS
 10
5.2488951808
 20
3.9834005653
 11
5.2488951808
 21
3.9685830969
  0
LINE
  5
218
100
AcDbEntity
  8
0
100
AcDbLine
 62
7
  6
CONTINUOUS
 10
5.2488951808
 20
3.9834005653
 11
5.2488951808
 21
4.6084005653
  0
LINE
  5
219
100
AcDbEntity
  8
0
100
AcDbLine
 62
9
  6
CONTINUOUS
 10
5.4572486273
 20
4.9459005653
 11
5.4572486273
 21
3.6459005653
  0
LINE
  5
21A
100
AcDbEntity
  8
0
100
AcDbLine
 62
6
  6
CONTINUOUS
 10
5.4850039278
 20
4.9459005653
 11
5.4850039278
 21
3.6459005653
  0
LINE
  5
21B
100
AcDbEntity
  8
0
100
AcDbLine
 62
6
  6
CONTINUOUS
 10
5.5998951808
 20
4.9459005653
 11
5.5998951808
 21
3.6459005653
  0
LINE
  5
21C
100
AcDbEntity
  8
0
100
AcDbLine
 62
9
  6
CONTINUOUS
 10
5.6348951808
 20
3.6459005653
 11
5.6348951808
 21
4.9459005653
  0
LINE
  5
21D
100
AcDbEntity
  8
0
100
AcDbLine
 62
6
  6
CONTINUOUS
 10
5.6498951808
 20
3.6609005653
 11
5.6498951808
 21
4.9309005653
  0
LINE
  5
21E
100
AcDbEntity
  8
0
100
AcDbLine
 62
9
  6
CONTINUOUS
 10
5.2295963949
 20
4.6453367389
 11
4.1067783899
 21
4.6453366453
  0
LINE
  5
21F
100
AcDbEntity
  8
0
100
AcDbLine
 62
6
  6
CONTINUOUS
 10
4.1423620043
 20
4.67015107
 11
4.1421230595
 21
4.6701327205
  0
LWPOLYLINE
  5
220
100
AcDbEntity
  8
0
100
AcDbPolyline
 62
6
  6
CONTINUOUS
 90
6
 70
0
 10
4.1521234099
 20
4.6709006999
 10
4.1425268556
 20
4.6701938138
 10
4.1293643582
 20
4.6667809539
 10
4.1178196952
 20
4.6609071381
 10
4.1083478746
 20
4.6530225157
 10
4.1039989683
 20
4.6478088975
  0
LINE
  5
221
100
AcDbEntity
  8
0
100
AcDbLine
 62
9
  6
CONTINUOUS
 10
5.1859744696
 20
4.6709005653
 11
4.1521372263
 21
4.6709005653
  0
LINE
  5
222
100
AcDbEntity
  8
0
100
AcDbLine
 62
6
  6
CONTINUOUS
 10
6.1098951808
 20
4.8659005653
 11
5.6498951808
 21
4.8659005653
  0
LINE
  5
223
100
AcDbEntity
  8
0
100
AcDbLine
 62
9
  6
CONTINUOUS
 10
6.1098951808
 20
3.7259005653
 11
6.1098951808
 21
4.8659005653
  0
LINE
  5
224
100
AcDbEntity
  8
0
100
AcDbLine
 62
6
  6
CONTINUOUS
 10
4.1421230595
 20
4.6701327205
 11
4.1291719055
 21
4.6666830357
  0
LINE
  5
225
100
AcDbEntity
  8
0
100
AcDbLine
 62
6
  6
CONTINUOUS
 10
5.6348951808
 20
4.9459005653
 11
5.5998951808
 21
4.9459005653
  0
LINE
  5
226
100
AcDbEntity
  8
0
100
AcDbLine
 62
6
  6
CONTINUOUS
 10
5.4850039278
 20
4.9459005653
 11
5.4572486273
 21
4.9459005653
  0
LINE
  5
227
100
AcDbEntity
  8
0
100
AcDbLine
 62
9
  6
CONTINUOUS
 10
6.4898951808
 20
3.3209005863
 11
6.4898951808
 21
5.2709005443
  0
LINE
  5
228
100
AcDbEntity
  8
0
100
AcDbLine
 62
6
  6
CONTINUOUS
 10
6.5148951808
 20
5.2959005653
 11
6.5648951808
 21
5.2959005653
  0
LINE
  5
229
100
AcDbEntity
  8
0
100
AcDbLine
 62
6
  6
CONTINUOUS
 10
6.7648951808
 20
5.2959005653
 11
6.8398951808
 21
5.2959005653
  0
LINE
  5
22A
100
AcDbEntity
  8
0
100
AcDbLine
 62
9
  6
CONTINUOUS
 10
6.5148951808
 20
3.2959005653
 11
6.5148951808
 21
5.2959005653
  0
LINE
  5
22B
100
AcDbEntity
  8
0
100
AcDbLine
 62
6
  6
CONTINUOUS
 10
6.5648951808
 20
3.2959005653
 11
6.5648951808
 21
5.2959005653
  0
LINE
  5
22C
100
AcDbEntity
  8
0
100
AcDbLine
 62
6
  6
CONTINUOUS
 10
6.7648951808
 20
3.2959005653
 11
6.7648951808
 21
5.2959005653
  0
LINE
  5
22D
100
AcDbEntity
  8
0
100
AcDbLine
 62
6
  6
CONTINUOUS
 10
6.8398951808
 20
3.2959005653
 11
6.8398951808
 21
5.2959005653
  0
ARC
  5
22E
100
AcDbEntity
  8
0
100
AcDbCircle
 62
6
  6
CONTINUOUS
 10
4.605185884
 20
4.2838125679
 40
0.6194352263
100
AcDbArc
 50
144.0657283606
 51
213.1582803005
  0
ARC
  5
22F
100
AcDbEntity
  8
0
100
AcDbCircle
 62
9
  6
CONTINUOUS
 10
4.6051604957
 20
4.2833738602
 40
0.6159698031
100
AcDbArc
 50
144.0088238159
 51
213.1584872175
  0
ARC
  5
230
100
AcDbEntity
  8
0
100
AcDbCircle
 62
6
  6
CONTINUOUS
 10
5.1859744575
 20
3.9709005653
 40
0.05
100
AcDbArc
 50
270.0
 51
330.7433959328
  0
ARC
  5
231
100
AcDbEntity
  8
0
100
AcDbCircle
 62
6
  6
CONTINUOUS
 10
5.2788951808
 20
3.9685831805
 40
0.03
100
AcDbArc
 50
180.0001595408
 51
248.1239911057
  0
ARC
  5
232
100
AcDbEntity
  8
0
100
AcDbCircle
 62
6
  6
CONTINUOUS
 10
4.6058020693
 20
4.2959005653
 40
0.715
100
AcDbArc
 50
330.7203897997
 51
334.083365412
  0
ARC
  5
233
100
AcDbEntity
  8
0
100
AcDbCircle
 62
6
  6
CONTINUOUS
 10
4.6058020693
 20
4.2959005653
 40
0.715
100
AcDbArc
 50
25.916634588
 51
29.2633597929
  0
ARC
  5
234
100
AcDbEntity
  8
0
100
AcDbCircle
 62
9
  6
CONTINUOUS
 10
4.150017669
 20
4.6197177038
 40
0.0502589829
100
AcDbArc
 50
148.9769401986
 51
149.3535695518
  0
ARC
  5
235
100
AcDbEntity
  8
0
100
AcDbCircle
 62
6
  6
CONTINUOUS
 10
5.1859744575
 20
4.6209005653
 40
0.05
100
AcDbArc
 50
29.2566040672
 51
90.0
  0
ARC
  5
236
100
AcDbEntity
  8
0
100
AcDbCircle
 62
6
  6
CONTINUOUS
 10
5.2788951808
 20
4.6232179502
 40
0.03
100
AcDbArc
 50
111.8760088331
 51
179.9998403473
  0
ARC
  5
237
100
AcDbEntity
  8
0
100
AcDbCircle
 62
6
  6
CONTINUOUS
 10
6.1098951808
 20
3.3459005653
 40
0.38
100
AcDbArc
 50
0.0000004135
 51
90.0
  0
ARC
  5
238
100
AcDbEntity
  8
0
100
AcDbCircle
 62
6
  6
CONTINUOUS
 10
6.6648951808
 20
3.3782304141
 40
0.1295307068
100
AcDbArc
 50
219.4645749469
 51
320.5354250531
  0
ARC
  5
239
100
AcDbEntity
  8
0
100
AcDbCircle
 62
6
  6
CONTINUOUS
 10
5.5424495543
 20
3.6632210734
 40
0.06
100
AcDbArc
 50
196.778654881
 51
343.221345119
  0
ARC
  5
23A
100
AcDbEntity
  8
0
100
AcDbCircle
 62
6
  6
CONTINUOUS
 10
5.4572486269
 20
3.6759005692
 40
0.03
100
AcDbArc
 50
197.2397818676
 51
270.0000008217
  0
ARC
  5
23B
100
AcDbEntity
  8
0
100
AcDbCircle
 62
6
  6
CONTINUOUS
 10
6.5148951808
 20
3.3209005653
 40
0.025
100
AcDbArc
 50
179.9999892156
 51
270.0
  0
ARC
  5
23C
100
AcDbEntity
  8
0
100
AcDbCircle
 62
6
  6
CONTINUOUS
 10
5.6348951808
 20
3.6609005653
 40
0.015
100
AcDbArc
 50
270.0
 51
360.0
  0
ARC
  5
23D
100
AcDbEntity
  8
0
100
AcDbCircle
 62
6
  6
CONTINUOUS
 10
6.1098951808
 20
5.2459005653
 40
0.38
100
AcDbArc
 50
270.0
 51
359.9999995865
  0
ARC
  5
23E
100
AcDbEntity
  8
0
100
AcDbCircle
 62
6
  6
CONTINUOUS
 10
6.6648951808
 20
5.2135707165
 40
0.1295307068
100
AcDbArc
 50
39.4645749469
 51
140.5354250531
  0
ARC
  5
23F
100
AcDbEntity
  8
0
100
AcDbCircle
 62
6
  6
CONTINUOUS
 10
5.5424495543
 20
4.9285800572
 40
0.06
100
AcDbArc
 50
16.778654881
 51
163.221345119
  0
ARC
  5
240
100
AcDbEntity
  8
0
100
AcDbCircle
 62
6
  6
CONTINUOUS
 10
5.4572486268
 20
4.9159005614
 40
0.03
100
AcDbArc
 50
89.9999991803
 51
162.7602181688
  0
ARC
  5
241
100
AcDbEntity
  8
0
100
AcDbCircle
 62
6
  6
CONTINUOUS
 10
6.5148951808
 20
5.2709005653
 40
0.025
100
AcDbArc
 50
90.0
 51
180.0000107844
  0
ARC
  5
242
100
AcDbEntity
  8
0
100
AcDbCircle
 62
6
  6
CONTINUOUS
 10
5.6348951808
 20
4.9309005653
 40
0.015
100
AcDbArc
 50
0.0
 51
90.0
  0
SPLINE
  5
243
100
AcDbEntity
  8
0
100
AcDbSpline
 62
6
  6
CONTINUOUS
 70
0
 71
3
 72
28
 73
24
 74
22
 42
0.0000001
 43
0.0000001
 44
0.0000000001
 12
0.3019802615
 22
0.1212487956
 32
0.0
 13
0.0964428944
 23
0.3107927233
 33
0.0
 40
0.0
 40
0.0
 40
0.0
 40
0.0
 40
0.0624868244
 40
0.0937618357
 40
0.1250311941
 40
0.1562928442
 40
0.1875548746
 40
0.2188169994
 40
0.2500714812
 40
0.2813268019
 40
0.3125797994
 40
0.3438303526
 40
0.3750818806
 40
0.4063318865
 40
0.4375802517
 40
0.5000751195
 40
0.5625676695
 40
0.5938150402
 40
0.6250617005
 40
0.6875532409
 40
0.7500446283
 40
0.8750223928
 40
1.0
 40
1.0
 40
1.0
 40
1.0
 10
5.2677171746
 20
4.6510577927
 30
0.0
 10
5.2740071038
 20
4.6535832768
 30
0.0
 10
5.2830339157
 20
4.6584578264
 30
0.0
 10
5.2940418762
 20
4.666388576
 30
0.0
 10
5.3018377612
 20
4.6729429928
 30
0.0
 10
5.3092002969
 20
4.6799720239
 30
0.0
 10
5.316163948
 20
4.6873943811
 30
0.0
 10
5.3227656308
 20
4.6951376365
 30
0.0
 10
5.3290433089
 20
4.7031440386
 30
0.0
 10
5.3350218726
 20
4.7113742812
 30
0.0
 10
5.3407347805
 20
4.7197900027
 30
0.0
 10
5.3462059326
 20
4.7283640618
 30
0.0
 10
5.3514540325
 20
4.7370757605
 30
0.0
 10
5.3565017295
 20
4.7459046018
 30
0.0
 10
5.3629860574
 20
4.7578125059
 30
0.0
 10
5.3706648077
 20
4.7729242767
 30
0.0
 10
5.3778646389
 20
4.7882683867
 30
0.0
 10
5.3833720511
 20
4.8006570918
 30
0.0
 10
5.3887249224
 20
4.8131132209
 30
0.0
 10
5.3951429599
 20
4.8287988577
 30
0.0
 10
5.4048974575
 20
4.8540984162
 30
0.0
 10
5.4162391305
 20
4.8860425255
 30
0.0
 10
5.4245787076
 20
4.9118443222
 30
0.0
 10
5.4285964417
 20
4.9247916992
 30
0.0
 11
5.2677171746
 21
4.6510577927
 31
0.0
 11
5.2856959794
 21
4.6605569554
 31
0.0
 11
5.2939651916
 21
4.6664896783
 31
0.0
 11
5.3017663363
 21
4.6730228074
 31
0.0
 11
5.3091338819
 21
4.6800376391
 31
0.0
 11
5.316103697
 21
4.6874479554
 31
0.0
 11
5.3227122319
 21
4.6951822299
 31
0.0
 11
5.3289935025
 21
4.7031814034
 31
0.0
 11
5.3349777815
 21
4.7114054593
 31
0.0
 11
5.340694672
 21
4.7198166706
 31
0.0
 11
5.3461687302
 21
4.7283869577
 31
0.0
 11
5.3514207351
 21
4.737095461
 31
0.0
 11
5.3564711181
 21
4.7459218502
 31
0.0
 11
5.3613366435
 21
4.7548508656
 31
0.0
 11
5.3705691443
 21
4.7729709895
 31
0.0
 11
5.3792203934
 21
4.7913748798
 31
0.0
 11
5.3833527695
 21
4.8006656031
 31
0.0
 11
5.3873685719
 21
4.8100070539
 31
0.0
 11
5.3950787036
 21
4.8288242746
 31
0.0
 11
5.4024022253
 21
4.8477952505
 31
0.0
 11
5.4160557141
 21
4.886104221
 31
0.0
 11
5.4285964417
 21
4.9247916992
 31
0.0
  0
SPLINE
  5
244
100
AcDbEntity
  8
0
100
AcDbSpline
 62
6
  6
CONTINUOUS
 70
0
 71
3
 72
28
 73
24
 74
22
 42
0.0000001
 43
0.0000001
 44
0.0000000001
 12
0.3019802615
 22
-0.1212487957
 32
0.0
 13
0.0964428946
 23
-0.3107927233
 33
0.0
 40
0.0
 40
0.0
 40
0.0
 40
0.0
 40
0.0624868244
 40
0.0937618357
 40
0.1250311941
 40
0.1562928442
 40
0.1875548746
 40
0.2188169994
 40
0.2500714812
 40
0.2813268019
 40
0.3125797994
 40
0.3438303526
 40
0.3750818806
 40
0.4063318865
 40
0.4375802517
 40
0.5000751195
 40
0.5625676695
 40
0.5938150402
 40
0.6250617005
 40
0.6875532409
 40
0.7500446283
 40
0.8750223928
 40
1.0
 40
1.0
 40
1.0
 40
1.0
 10
5.2677171746
 20
3.9407433379
 30
0.0
 10
5.2740071038
 20
3.9382178539
 30
0.0
 10
5.2830339157
 20
3.9333433043
 30
0.0
 10
5.2940418762
 20
3.9254125547
 30
0.0
 10
5.3018377612
 20
3.9188581379
 30
0.0
 10
5.3092002969
 20
3.9118291068
 30
0.0
 10
5.316163948
 20
3.9044067495
 30
0.0
 10
5.3227656308
 20
3.8966634941
 30
0.0
 10
5.3290433088
 20
3.888657092
 30
0.0
 10
5.3350218726
 20
3.8804268494
 30
0.0
 10
5.3407347804
 20
3.872011128
 30
0.0
 10
5.3462059326
 20
3.8634370689
 30
0.0
 10
5.3514540325
 20
3.8547253701
 30
0.0
 10
5.3565017294
 20
3.8458965289
 30
0.0
 10
5.3629860574
 20
3.8339886247
 30
0.0
 10
5.3706648077
 20
3.8188768539
 30
0.0
 10
5.3778646389
 20
3.803532744
 30
0.0
 10
5.3833720511
 20
3.7911440388
 30
0.0
 10
5.3887249224
 20
3.7786879098
 30
0.0
 10
5.3951429599
 20
3.7630022729
 30
0.0
 10
5.4048974575
 20
3.7377027144
 30
0.0
 10
5.4162391306
 20
3.7057586051
 30
0.0
 10
5.4245787077
 20
3.6799568084
 30
0.0
 10
5.4285964417
 20
3.6670094314
 30
0.0
 11
5.2677171746
 21
3.9407433379
 31
0.0
 11
5.2856959794
 21
3.9312441753
 31
0.0
 11
5.2939651916
 21
3.9253114524
 31
0.0
 11
5.3017663362
 21
3.9187783233
 31
0.0
 11
5.3091338819
 21
3.9117634916
 31
0.0
 11
5.3161036969
 21
3.9043531753
 31
0.0
 11
5.3227122319
 21
3.8966189008
 31
0.0
 11
5.3289935025
 21
3.8886197273
 31
0.0
 11
5.3349777815
 21
3.8803956714
 31
0.0
 11
5.340694672
 21
3.8719844601
 31
0.0
 11
5.3461687302
 21
3.8634141729
 31
0.0
 11
5.3514207351
 21
3.8547056696
 31
0.0
 11
5.3564711181
 21
3.8458792805
 31
0.0
 11
5.3613366435
 21
3.836950265
 31
0.0
 11
5.3705691443
 21
3.8188301411
 31
0.0
 11
5.3792203934
 21
3.8004262509
 31
0.0
 11
5.3833527695
 21
3.7911355275
 31
0.0
 11
5.387368572
 21
3.7817940768
 31
0.0
 11
5.3950787036
 21
3.7629768561
 31
0.0
 11
5.4024022253
 21
3.7440058801
 31
0.0
 11
5.4160557142
 21
3.7056969096
 31
0.0
 11
5.4285964417
 21
3.6670094314
 31
0.0
  0
LINE
  5
245
100
AcDbEntity
  8
0
100
AcDbLine
 62
6
  6
CONTINUOUS
 10
4.1039984541
 20
4.6478092522
 11
4.1036385263
 21
4.6473131312
  0
SPLINE
  5
246
100
AcDbEntity
  8
0
100
AcDbSpline
 62
7
  6
CONTINUOUS
 70
0
 71
3
 72
15
 73
11
 74
9
 42
0.0000001
 43
0.0000001
 44
0.0000000001
 12
0.1903867696
 22
0.0302943439
 32
0.0
 13
0.1897932836
 23
-0.0338088399
 33
0.0
 40
0.0
 40
0.0
 40
0.0
 40
0.0
 40
0.105190332
 40
0.250191256
 40
0.4193057445
 40
0.5940915118
 40
0.7553152149
 40
0.8855251267
 40
0.9704352109
 40
1.0
 40
1.0
 40
1.0
 40
1.0
 10
5.649518042
 20
3.7277758272
 30
0.0
 10
5.6561936578
 20
3.7288380512
 30
0.0
 10
5.672114978
 20
3.7310975264
 30
0.0
 10
5.6989358354
 20
3.7337859739
 30
0.0
 10
5.7303362996
 20
3.735256328
 30
0.0
 10
5.762813173
 20
3.7348529142
 30
0.0
 10
5.7927145766
 20
3.73275921
 30
0.0
 10
5.8167358958
 20
3.7298945207
 30
0.0
 10
5.8322765297
 20
3.7274901643
 30
0.0
 10
5.8395247813
 20
3.7262337491
 30
0.0
 10
5.8413951808
 20
3.7259005653
 30
0.0
 11
5.649518042
 21
3.7277758272
 31
0.0
 11
5.6695960877
 21
3.7306221544
 31
0.0
 11
5.6974109294
 21
3.7334035064
 31
0.0
 11
5.7299777285
 21
3.734922745
 31
0.0
 11
5.7636706922
 21
3.7345063899
 31
0.0
 11
5.7946762245
 21
3.7323415622
 31
0.0
 11
5.8196024518
 21
3.7293751722
 31
0.0
 11
5.8357793575
 21
3.7268739497
 31
0.0
 11
5.8413951808
 21
3.7259005653
 31
0.0
  0
LINE
  5
247
100
AcDbEntity
  8
0
100
AcDbLine
 62
9
  6
CONTINUOUS
 10
4.089493983
 20
3.9464644751
 11
4.0866170944
 21
3.9450096655
  0
LINE
  5
248
100
AcDbEntity
  8
0
100
AcDbLine
 62
9
  6
CONTINUOUS
 10
4.1067783967
 20
4.6453366555
 11
4.1039985586
 21
4.6478091763
  0
SPLINE
  5
249
100
AcDbEntity
  8
0
100
AcDbSpline
 62
9
  6
CONTINUOUS
 70
0
 71
3
 72
15
 73
11
 74
9
 42
0.0000001
 43
0.0000001
 44
0.0000000001
 12
-0.0540738908
 22
-0.0000125917
 32
0.0
 13
-0.0278687188
 23
-0.0463391879
 33
0.0
 40
0.0
 40
0.0
 40
0.0
 40
0.0
 40
0.1230859011
 40
0.2466331398
 40
0.3705879893
 40
0.4951309564
 40
0.6203278624
 40
0.7462006564
 40
0.8728203422
 40
1.0
 40
1.0
 40
1.0
 40
1.0
 10
4.1521246355
 20
4.6709005639
 30
0.0
 10
4.1499060577
 20
4.6709000473
 30
0.0
 10
4.1454557677
 20
4.6706187894
 30
0.0
 10
4.1388772699
 20
4.6693684118
 30
0.0
 10
4.132480673
 20
4.6672960773
 30
0.0
 10
4.12636872
 20
4.6644228005
 30
0.0
 10
4.1206406641
 20
4.6607791004
 30
0.0
 10
4.1154007634
 20
4.6564023102
 30
0.0
 10
4.1107574946
 20
4.6513491387
 30
0.0
 10
4.1081291786
 20
4.6475847974
 30
0.0
 10
4.1069477339
 20
4.64562033
 30
0.0
 11
4.1521246355
 21
4.6709005639
 31
0.0
 11
4.1454820693
 21
4.6704821074
 31
0.0
 11
4.1389189458
 21
4.6692343507
 31
0.0
 11
4.132542574
 21
4.6671683513
 31
0.0
 11
4.1264480807
 21
4.6643028756
 31
0.0
 11
4.1207368955
 21
4.6606678113
 31
0.0
 11
4.11551428
 21
4.6563029742
 31
0.0
 11
4.110882711
 21
4.6512604051
 31
0.0
 11
4.1069477339
 21
4.64562033
 31
0.0
  0
LINE
  5
24A
100
AcDbEntity
  8
0
100
AcDbLine
 62
9
  6
CONTINUOUS
 10
5.2677171746
 20
4.6510577927
 11
5.2677171757
 21
4.2959005653
  0
LINE
  5
24B
100
AcDbEntity
  8
0
100
AcDbLine
 62
9
  6
CONTINUOUS
 10
5.4285964417
 20
4.9247916992
 11
5.4285964354
 21
4.2959005653
  0
LINE
  5
24C
100
AcDbEntity
  8
0
100
AcDbLine
 62
9
  6
CONTINUOUS
 10
5.2677171756
 20
4.2959005653
 11
5.2677171746
 21
3.9407433376
  0
LINE
  5
24D
100
AcDbEntity
  8
0
100
AcDbLine
 62
9
  6
CONTINUOUS
 10
5.4285964354
 20
4.2959005653
 11
5.4285964418
 21
3.6670094314
  0
SPLINE
  5
24E
100
AcDbEntity
  8
0
100
AcDbSpline
 62
9
  6
CONTINUOUS
 70
0
 71
3
 72
17
 73
13
 74
11
 42
0.0000001
 43
0.0000001
 44
0.0000000001
 12
0.0262678611
 22
-0.0467128194
 32
0.0
 13
0.0535918649
 23
-0.0000066049
 33
0.0
 40
0.0
 40
0.0
 40
0.0
 40
0.0
 40
0.1268095474
 40
0.190083352
 40
0.2531740683
 40
0.3787838026
 40
0.5038219306
 40
0.5661812988
 40
0.6284123551
 40
0.7525133572
 40
0.8763912908
 40
1.0
 40
1.0
 40
1.0
 40
1.0
 10
4.089493983
 20
3.9464644751
 30
0.0
 10
4.0906043215
 20
3.9444899313
 30
0.0
 10
4.0924779815
 20
3.9416410305
 30
0.0
 10
4.0953390543
 20
3.9381351028
 30
0.0
 10
4.0984198323
 20
3.9348488793
 30
0.0
 10
4.1026619843
 20
3.9311585162
 30
0.0
 10
4.1073477717
 20
3.9280757073
 30
0.0
 10
4.1112988917
 20
3.9260022185
 30
0.0
 10
4.1153618093
 20
3.9241984578
 30
0.0
 10
4.1206378513
 20
3.9224484729
 30
0.0
 10
4.1271714819
 20
3.9211837776
 30
0.0
 10
4.1315977239
 20
3.9209008379
 30
0.0
 10
4.1338058643
 20
3.9209005657
 30
0.0
 11
4.089493983
 21
3.9464644751
 31
0.0
 11
4.093226396
 21
3.9407851998
 31
0.0
 11
4.0953704535
 21
3.9381581034
 31
0.0
 11
4.097682751
 21
3.935691233
 31
0.0
 11
4.1027609203
 21
3.9312722463
 31
0.0
 11
4.1083576507
 21
3.9275870917
 31
0.0
 11
4.1113168152
 21
3.9260340278
 31
0.0
 11
4.1143649701
 21
3.9246806987
 31
0.0
 11
4.1206773591
 21
3.922586196
 31
0.0
 11
4.1271949266
 21
3.9213230104
 31
0.0
 11
4.1338058643
 21
3.9209005657
 31
0.0
  0
ENDSEC
  0
SECTION
  2
OBJECTS
  0
DICTIONARY
  5
C
100
AcDbDictionary
280
0
281
1
  3
ACAD_GROUP
350
D
  3
ACAD_MLINESTYLE
350
17
  3
ACAD_LAYOUT
350
1A
  3
ACAD_PLOTSETTINGS
350
19
  3
ACAD_PLOTSTYLENAME
350
E
  0
DICTIONARY
  5
D
102
{ACAD_REACTORS
330
C
102
}
100
AcDbDictionary
280
0
281
1
  0
ACDBDICTIONARYWDFLT
  5
E
102
{ACAD_REACTORS
330
C
102
}
100
AcDbDictionary
281
1
  3
Normal
350
F
100
AcDbDictionaryWithDefault
340
F
  0
DICTIONARY
  5
17
102
{ACAD_REACTORS
330
C
102
}
100
AcDbDictionary
280
0
281
1
  3
Standard
350
18
  0
DICTIONARY
  5
19
102
{ACAD_REACTORS
330
C
102
}
100
AcDbDictionary
281
1
  0
DICTIONARY
  5
1A
102
{ACAD_REACTORS
330
C
102
}
100
AcDbDictionary
281
1
  3
Model
350
24F
  3
Layout1
350
250
  0
ACDBPLACEHOLDER
  5
F
102
{ACAD_REACTORS
330
E
102
}
  0
MLINESTYLE
  5
18
102
{ACAD_REACTORS
330
17
102
}
100
AcDbMlineStyle
  2
STANDARD
 70
0
  3

 62
256
 51
90.0
 52
90.0
 71
2
 49
0.5
 62
256
  6
BYLAYER
 49
-0.5
 62
256
  6
BYLAYER
  0
LAYOUT
  5
24F
102
{ACAD_REACTORS
330
1A
102
}
100
AcDbPlotSettings
  1

  2
none_device
  4
ISO_A4_(297.00_x_210.00_MM)
  6

 40
0.0
 41
0.0
 42
0.0
 43
0.0
 44
297.0
 45
210.0
 46
0.0
 47
0.0
 48
0.0
 49
0.0
140
0.0
141
0.0
142
1.0
143
1.0
 70
1024
 72
0
 73
0
 74
0
  7

 75
0
147
1.0
148
0.0
149
0.0
100
AcDbLayout
  1
Model
 70
0
 71
0
 10
0.0
 20
0.0
 11
11.6929133858
 21
8.2677165354
 12
0.0
 22
0.0
 32
0.0
 14
0.0
 24
0.0
 34
0.0
 15
0.0
 25
0.0
 35
0.0
146
0.0
 13
0.0
 23
0.0
 33
0.0
 16
1.0
 26
0.0
 36
0.0
 17
0.0
 27
1.0
 37
0.0
 76
0
330
204
345
0
346
0
  0
LAYOUT
  5
250
102
{ACAD_REACTORS
330
1A
102
}
100
AcDbPlotSettings
  1

  2
none_device
  4
ISO_A4_(297.00_x_210.00_MM)
  6

 40
0.0
 41
0.0
 42
0.0
 43
0.0
 44
297.0
 45
210.0
 46
0.0
 47
0.0
 48
0.0
 49
0.0
140
0.0
141
0.0
142
1.0
143
1.0
 70
0
 72
0
 73
0
 74
0
  7

 75
0
147
1.0
148
0.0
149
0.0
100
AcDbLayout
  1
Layout1
 70
0
 71
1
 10
0.0
 20
0.0
 11
11.6929133858
 21
8.2677165354
 12
0.0
 22
0.0
 32
0.0
 14
0.0
 24
0.0
 34
0.0
 15
0.0
 25
0.0
 35
0.0
146
0.0
 13
0.0
 23
0.0
 33
0.0
 16
1.0
 26
0.0
 36
0.0
 17
0.0
 27
1.0
 37
0.0
 76
0
330
205
345
0
346
0
  0
ENDSEC
  0
EOF
