999
DXF file: E:\BT Custom\CADOUTPUT\_FRONT.dxf
999
Pro/ENGINEER 2018400 by Parametric Technology Corporation
  0
SECTION
  2
HEADER
  9
$ACADVER
  1
AC1018
  9
$DWGCODEPAGE
  3
ANSI_1252
  9
$EXTMAX
 10
22.0
 20
17.0
 30
0.0
  9
$EXTMIN
 10
0.0
 20
0.0
 30
0.0
  9
$LIMMIN
 10
0.0
 20
0.0
  9
$LIMMAX
 10
22.0
 20
17.0
  9
$VIEWCTR
 10
11.0
 20
8.5
  9
$VIEWSIZE
 40
17.0
  9
$CLAYER
  8
0
  9
$LTSCALE
 40
1.21
  9
$CELTYPE
  6
BYLAYER
  9
$DIMSCALE
 40
1.0
  9
$DIMASZ
 40
0.1
  9
$DIMEXO
 40
0.0625
  9
$DIMDLI
 40
0.836
  9
$DIMEXE
 40
0.125
  9
$DIMCEN
 40
0.198
  9
$DIMLFAC
 40
1.0
  9
$DIMBLK
  1
_FILLED
  9
$DIMALT
 70
1
  9
$DIMALTD
 70
2
  9
$DIMALTTD
 70
2
  9
$DIMALTF
 40
25.4
  9
$DIMTXT
 40
0.08
  9
$DIMTOL
 70
1
  9
$DIMLIM
 70
0
  9
$DIMTFAC
 40
1.0
  9
$DIMTP
 40
0.001
  9
$DIMTM
 40
0.001
  9
$DIMGAP
 40
0.09
  9
$DIMDSEP
 70
46
  9
$AUNITS
 70
0
  9
$PDMODE
 70
3
  9
$PDSIZE
 40
0.06
  9
$HANDSEED
  5
2EA
  9
$TILEMODE
 70
1
  9
$MEASUREMENT
 70
0
  9
$INSUNITS
 70
1
  0
ENDSEC
  0
SECTION
  2
CLASSES
  0
CLASS
  1
ACDBDICTIONARYWDFLT
  2
AcDbDictionaryWithDefault
  3
AutoCAD 2000
 90
0
 91
1
280
0
281
0
  0
CLASS
  1
ACDBPLACEHOLDER
  2
AcDbPlaceHolder
  3
AutoCAD 2000
 90
0
 91
1
280
0
281
0
  0
CLASS
  1
LAYOUT
  2
AcDbLayout
  3
AutoCAD 2000
 90
0
 91
0
280
0
281
0
  0
ENDSEC
  0
SECTION
  2
TABLES
  0
TABLE
  2
VPORT
  5
8
100
AcDbSymbolTable
 70
2
  0
VPORT
  5
1F4
100
AcDbSymbolTableRecord
100
AcDbViewportTableRecord
  2
*ACTIVE
 70
0
 10
0.0
 20
0.0
 11
1.0
 21
1.0
 12
11.0
 22
8.5
 13
0.0
 23
0.0
 14
1.0
 24
1.0
 15
0.0
 25
0.0
 16
0.0
 26
0.0
 36
1.0
 17
0.0
 27
0.0
 37
0.0
 40
17.0
 41
1.2941176471
 42
50.0
 43
0.0
 44
0.0
 50
0.0
 51
0.0
 71
0
 72
100
 73
1
 74
1
 75
0
 76
0
 77
0
 78
0
  0
ENDTAB
  0
TABLE
  2
LTYPE
  5
5
100
AcDbSymbolTable
 70
6
  0
LTYPE
  5
14
100
AcDbSymbolTableRecord
100
AcDbLinetypeTableRecord
  2
BYBLOCK
 70
0
  3

 72
65
 73
0
 40
0.0
  0
LTYPE
  5
15
100
AcDbSymbolTableRecord
100
AcDbLinetypeTableRecord
  2
BYLAYER
 70
0
  3

 72
65
 73
0
 40
0.0
  0
LTYPE
  5
16
100
AcDbSymbolTableRecord
100
AcDbLinetypeTableRecord
  2
CONTINUOUS
 70
64
  3
Solid line
 72
65
 73
0
 40
0.0
  0
LTYPE
  5
1F5
100
AcDbSymbolTableRecord
100
AcDbLinetypeTableRecord
  2
CENTER
 70
64
  3
____ _ ____ _ ____ _ ____ _ ____ _ ____ _ ____
 72
65
 73
4
 40
0.6
 49
0.375
 74
0
 49
-0.075
 74
0
 49
0.075
 74
0
 49
-0.075
 74
0
  0
LTYPE
  5
1F6
100
AcDbSymbolTableRecord
100
AcDbLinetypeTableRecord
  2
HIDDEN
 70
64
  3
- - - - - - - - - - - - - - - - - - - -
 72
65
 73
2
 40
0.2
 49
0.1
 74
0
 49
-0.1
 74
0
  0
LTYPE
  5
1F7
100
AcDbSymbolTableRecord
100
AcDbLinetypeTableRecord
  2
PHANTOM
 70
64
  3
_____ _ _ _____ _ _ _____ _ _ _____
 72
65
 73
6
 40
0.8
 49
0.45
 74
0
 49
-0.05
 74
0
 49
0.1
 74
0
 49
-0.05
 74
0
 49
0.1
 74
0
 49
-0.05
 74
0
  0
LTYPE
  5
1F8
100
AcDbSymbolTableRecord
100
AcDbLinetypeTableRecord
  2
DOT
 70
64
  3
. . . . . . . . . . . . . . . . . . . .
 72
65
 73
2
 40
0.2
 49
0.1
 74
0
 49
-0.1
 74
0
  0
LTYPE
  5
1F9
100
AcDbSymbolTableRecord
100
AcDbLinetypeTableRecord
  2
DASHED
 70
64
  3
- - - - - - - - - - - - - - - - - - - -
 72
65
 73
2
 40
0.2
 49
0.1
 74
0
 49
-0.1
 74
0
  0
ENDTAB
  0
TABLE
  2
LAYER
  5
2
100
AcDbSymbolTable
 70
36
  0
LAYER
  5
10
100
AcDbSymbolTableRecord
100
AcDbLayerTableRecord
  2
0
 70
0
 62
7
  6
CONTINUOUS
370
-3
390
F
  0
LAYER
  5
1FA
100
AcDbSymbolTableRecord
100
AcDbLayerTableRecord
  2
DEFAULT_1
 70
0
 62
7
  6
CENTER
370
-3
390
F
  0
LAYER
  5
1FB
100
AcDbSymbolTableRecord
100
AcDbLayerTableRecord
  2
DEFAULT_2
 70
0
 62
8
  6
HIDDEN
370
-3
390
F
  0
LAYER
  5
1FC
100
AcDbSymbolTableRecord
100
AcDbLayerTableRecord
  2
DEFAULT_3
 70
0
 62
7
  6
PHANTOM
370
-3
390
F
  0
LAYER
  5
1FD
100
AcDbSymbolTableRecord
100
AcDbLayerTableRecord
  2
ALL_FEATURES
 70
0
 62
7
  6
CONTINUOUS
370
-3
390
F
  0
LAYER
  5
1FE
100
AcDbSymbolTableRecord
100
AcDbLayerTableRecord
  2
AXES_FEATURES
 70
0
 62
7
  6
CONTINUOUS
370
-3
390
F
  0
LAYER
  5
1FF
100
AcDbSymbolTableRecord
100
AcDbLayerTableRecord
  2
DIMENSIONS
 70
0
 62
7
  6
CONTINUOUS
370
-3
390
F
  0
ENDTAB
  0
TABLE
  2
STYLE
  5
3
100
AcDbSymbolTable
 70
1
  0
STYLE
  5
11
100
AcDbSymbolTableRecord
100
AcDbTextStyleTableRecord
  2
STANDARD
 70
0
 40
0.0
 41
0.8
 50
0.0
 71
0
 42
0.2
  3
txt
  4

  0
STYLE
  5
200
100
AcDbSymbolTableRecord
100
AcDbTextStyleTableRecord
  2
TEXTSTYLE_1
 70
0
 40
0.0
 41
0.8
 50
0.0
 71
0
 42
0.2
  3
gdt
  4

  0
ENDTAB
  0
TABLE
  2
VIEW
  5
6
100
AcDbSymbolTable
 70
0
  0
ENDTAB
  0
TABLE
  2
UCS
  5
7
100
AcDbSymbolTable
 70
0
  0
ENDTAB
  0
TABLE
  2
APPID
  5
9
100
AcDbSymbolTable
 70
1
  0
APPID
  5
201
100
AcDbSymbolTableRecord
100
AcDbRegAppTableRecord
  2
ACAD
 70
0
  0
ENDTAB
  0
TABLE
  2
BLOCK_RECORD
  5
1
100
AcDbSymbolTable
 70
0
  0
BLOCK_RECORD
  5
202
100
AcDbSymbolTableRecord
100
AcDbBlockTableRecord
  2
*Model_Space
  0
BLOCK_RECORD
  5
203
100
AcDbSymbolTableRecord
100
AcDbBlockTableRecord
  2
*Paper_Space
  0
BLOCK_RECORD
  5
204
100
AcDbSymbolTableRecord
100
AcDbBlockTableRecord
  2
_FILLED
  0
ENDTAB
  0
TABLE
  2
DIMSTYLE
  5
A
100
AcDbSymbolTable
 70
1
100
AcDbDimStyleTable
 71
0
  0
DIMSTYLE
105
205
100
AcDbSymbolTableRecord
100
AcDbDimStyleTableRecord
  2
STANDARD
 70
0
  3

  4

 40
1.0
 41
0.1
 42
0.0625
 43
0.38
 44
0.125
 45
0.0
 46
0.0
 47
0.001
 48
0.001
140
0.08
141
0.09
142
0.0
143
25.4
144
1.0
145
0.0
146
1.0
147
0.09
 71
1.0
 72
0.0
 73
1
 74
1
 75
0
 76
0
 77
0
 78
4
 79
1
170
1
171
2
172
0
173
0
174
0
175
0
176
0
177
0
178
0
270
2
179
3
271
3
272
3
273
2
274
2
275
0
280
0
281
0
282
0
283
1
284
4
285
0
286
0
287
3
288
0
340
11
278
46
341
204
342
204
343
204
344
204
  0
ENDTAB
  0
ENDSEC
  0
SECTION
  2
BLOCKS
  0
BLOCK
  5
20
100
AcDbEntity
  8
0
100
AcDbBlockBegin
  2
*Model_Space
 70
0
 10
0.0
 20
0.0
 30
0.0
  3
*Model_Space
  1

  0
ENDBLK
  5
21
100
AcDbEntity
  8
0
100
AcDbBlockEnd
  0
BLOCK
  5
1C
100
AcDbEntity
  8
0
100
AcDbBlockBegin
  2
*Paper_Space
 70
0
 10
0.0
 20
0.0
 30
0.0
  3
*Paper_Space
  1

  0
ENDBLK
  5
1D
100
AcDbEntity
  8
0
100
AcDbBlockEnd
  0
BLOCK
  5
206
100
AcDbEntity
  8
0
100
AcDbBlockBegin
  2
_FILLED
 70
64
 10
0.0
 20
0.0
  3
_FILLED
  1

  0
SOLID
  5
207
100
AcDbEntity
  8
0
  6
BYBLOCK
 62
0
100
AcDbTrace
 10
0.0
 20
0.0
 11
-1.0
 21
0.2
 12
-1.0
 22
-0.2
 13
-1.0
 23
-0.2
  0
ENDBLK
  5
208
100
AcDbEntity
  8
0
  6
BYBLOCK
 62
0
100
AcDbBlockEnd
  0
ENDSEC
  0
SECTION
  2
ENTITIES
  0
LINE
  5
209
100
AcDbEntity
  8
0
100
AcDbLine
 62
7
  6
CONTINUOUS
 10
5.4946923427
 20
10.1361695021
 11
5.4946923427
 21
10.4511695021
  0
LINE
  5
20A
100
AcDbEntity
  8
0
100
AcDbLine
 62
9
  6
CONTINUOUS
 10
5.5231222639
 20
10.4511695021
 11
5.5231222638
 21
10.1361695021
  0
LINE
  5
20B
100
AcDbEntity
  8
0
100
AcDbLine
 62
7
  6
CONTINUOUS
 10
5.8376923427
 20
7.7681695021
 11
5.8376923427
 21
7.6111695021
  0
LINE
  5
20C
100
AcDbEntity
  8
0
100
AcDbLine
 62
7
  6
CONTINUOUS
 10
6.1876923427
 20
7.8548434472
 11
6.1876923427
 21
7.8081695021
  0
LINE
  5
20D
100
AcDbEntity
  8
0
100
AcDbLine
 62
7
  6
CONTINUOUS
 10
6.3001923427
 20
7.8081695021
 11
6.3001923427
 21
7.7981695021
  0
LINE
  5
20E
100
AcDbEntity
  8
0
100
AcDbLine
 62
7
  6
CONTINUOUS
 10
6.3261835986
 20
9.6263211855
 11
6.2681821685
 21
7.9653775426
  0
LINE
  5
20F
100
AcDbEntity
  8
0
100
AcDbLine
 62
9
  6
CONTINUOUS
 10
6.5301401265
 20
10.1361695021
 11
6.5301401264
 21
10.4511695021
  0
LINE
  5
210
100
AcDbEntity
  8
0
100
AcDbLine
 62
7
  6
CONTINUOUS
 10
6.6251923427
 20
10.0661695021
 11
6.6251923427
 21
9.6891695021
  0
LINE
  5
211
100
AcDbEntity
  8
0
100
AcDbLine
 62
9
  6
CONTINUOUS
 10
6.6484268238
 20
10.4511695021
 11
6.6484268238
 21
10.1361695021
  0
LINE
  5
212
100
AcDbEntity
  8
0
100
AcDbLine
 62
7
  6
CONTINUOUS
 10
6.6751923427
 20
9.6891695021
 11
6.6751923427
 21
9.6581695021
  0
LINE
  5
213
100
AcDbEntity
  8
0
100
AcDbLine
 62
9
  6
CONTINUOUS
 10
6.7012023937
 20
10.1361695021
 11
6.7012023937
 21
10.4511695021
  0
LINE
  5
214
100
AcDbEntity
  8
0
100
AcDbLine
 62
9
  6
CONTINUOUS
 10
6.7311612797
 20
10.4811695021
 11
6.7311612797
 21
10.1061695021
  0
LINE
  5
215
100
AcDbEntity
  8
0
100
AcDbLine
 62
9
  6
CONTINUOUS
 10
7.1442234057
 20
10.1061695021
 11
7.1442234057
 21
10.4811695021
  0
LINE
  5
216
100
AcDbEntity
  8
0
100
AcDbLine
 62
9
  6
CONTINUOUS
 10
7.1741822918
 20
10.4511695021
 11
7.1741822918
 21
10.1361695021
  0
LINE
  5
217
100
AcDbEntity
  8
0
100
AcDbLine
 62
7
  6
CONTINUOUS
 10
7.5492010869
 20
9.6263211855
 11
7.607202517
 21
7.9653775426
  0
LINE
  5
218
100
AcDbEntity
  8
0
100
AcDbLine
 62
7
  6
CONTINUOUS
 10
7.2001923427
 20
9.6891695021
 11
7.2001923427
 21
9.6581695021
  0
LINE
  5
219
100
AcDbEntity
  8
0
100
AcDbLine
 62
9
  6
CONTINUOUS
 10
7.2269578616
 20
10.1361695021
 11
7.2269578616
 21
10.4511695021
  0
LINE
  5
21A
100
AcDbEntity
  8
0
100
AcDbLine
 62
7
  6
CONTINUOUS
 10
7.2501923427
 20
10.0661695021
 11
7.2501923427
 21
9.6891695021
  0
LINE
  5
21B
100
AcDbEntity
  8
0
100
AcDbLine
 62
9
  6
CONTINUOUS
 10
7.345244559
 20
10.4511695021
 11
7.3452445591
 21
10.1361695021
  0
LINE
  5
21C
100
AcDbEntity
  8
0
100
AcDbLine
 62
7
  6
CONTINUOUS
 10
7.5751923427
 20
7.8081695021
 11
7.5751923427
 21
7.7981695021
  0
LINE
  5
21D
100
AcDbEntity
  8
0
100
AcDbLine
 62
7
  6
CONTINUOUS
 10
7.6876923427
 20
7.8548434472
 11
7.6876923427
 21
7.8081695021
  0
LINE
  5
21E
100
AcDbEntity
  8
0
100
AcDbLine
 62
7
  6
CONTINUOUS
 10
8.0376923427
 20
7.7681695021
 11
8.0376923427
 21
7.6111695021
  0
LINE
  5
21F
100
AcDbEntity
  8
0
100
AcDbLine
 62
9
  6
CONTINUOUS
 10
8.3522624215
 20
10.1361695021
 11
8.3522624215
 21
10.4511695021
  0
LINE
  5
220
100
AcDbEntity
  8
0
100
AcDbLine
 62
7
  6
CONTINUOUS
 10
8.3806923427
 20
10.4511695021
 11
8.3806923427
 21
10.1361695021
  0
LINE
  5
221
100
AcDbEntity
  8
0
100
AcDbLine
 62
7
  6
CONTINUOUS
 10
5.8376923427
 20
7.6111695021
 11
8.0376923427
 21
7.6111695021
  0
LINE
  5
222
100
AcDbEntity
  8
0
100
AcDbLine
 62
7
  6
CONTINUOUS
 10
9.6686923427
 20
7.6111695021
 11
12.2066923427
 21
7.6111695021
  0
LINE
  5
223
100
AcDbEntity
  8
0
100
AcDbLine
 62
7
  6
CONTINUOUS
 10
13.8376923427
 20
7.6111695021
 11
16.0376923427
 21
7.6111695021
  0
LINE
  5
224
100
AcDbEntity
  8
0
100
AcDbLine
 62
9
  6
CONTINUOUS
 10
12.2066923427
 20
7.7581695021
 11
9.6686923427
 21
7.7581695021
  0
LINE
  5
225
100
AcDbEntity
  8
0
100
AcDbLine
 62
9
  6
CONTINUOUS
 10
16.0376923427
 20
7.7681695021
 11
13.8376923427
 21
7.7681695021
  0
LINE
  5
226
100
AcDbEntity
  8
0
100
AcDbLine
 62
9
  6
CONTINUOUS
 10
8.0376923427
 20
7.7681695021
 11
5.8376923427
 21
7.7681695021
  0
LINE
  5
227
100
AcDbEntity
  8
0
100
AcDbLine
 62
7
  6
CONTINUOUS
 10
16.0076923235
 20
7.7981695021
 11
13.867692362
 21
7.7981695021
  0
LINE
  5
228
100
AcDbEntity
  8
0
100
AcDbLine
 62
7
  6
CONTINUOUS
 10
12.1666923427
 20
7.7981695021
 11
9.7086923427
 21
7.7981695021
  0
LINE
  5
229
100
AcDbEntity
  8
0
100
AcDbLine
 62
7
  6
CONTINUOUS
 10
8.0076923235
 20
7.7981695021
 11
5.867692362
 21
7.7981695021
  0
LINE
  5
22A
100
AcDbEntity
  8
0
100
AcDbLine
 62
7
  6
CONTINUOUS
 10
9.6686923427
 20
7.7581695021
 11
9.6686923427
 21
7.6111695021
  0
LINE
  5
22B
100
AcDbEntity
  8
0
100
AcDbLine
 62
7
  6
CONTINUOUS
 10
6.1876923427
 20
7.8081695021
 11
7.6876923427
 21
7.8081695021
  0
LINE
  5
22C
100
AcDbEntity
  8
0
100
AcDbLine
 62
7
  6
CONTINUOUS
 10
14.1876923427
 20
7.8081695021
 11
15.6876923427
 21
7.8081695021
  0
LINE
  5
22D
100
AcDbEntity
  8
0
100
AcDbLine
 62
9
  6
CONTINUOUS
 10
15.6876923427
 20
7.8548434472
 11
14.1876923427
 21
7.8548434472
  0
LINE
  5
22E
100
AcDbEntity
  8
0
100
AcDbLine
 62
9
  6
CONTINUOUS
 10
7.6876923427
 20
7.8548434472
 11
6.1876923427
 21
7.8548434472
  0
LINE
  5
22F
100
AcDbEntity
  8
0
100
AcDbLine
 62
9
  6
CONTINUOUS
 10
11.8855504752
 20
7.8595045647
 11
9.9898342103
 21
7.8595045647
  0
LINE
  5
230
100
AcDbEntity
  8
0
100
AcDbLine
 62
9
  6
CONTINUOUS
 10
15.6608461562
 20
7.8926187989
 11
14.2145385293
 21
7.8926187989
  0
LINE
  5
231
100
AcDbEntity
  8
0
100
AcDbLine
 62
9
  6
CONTINUOUS
 10
7.6608461562
 20
7.8926187989
 11
6.2145385293
 21
7.8926187989
  0
LINE
  5
232
100
AcDbEntity
  8
0
100
AcDbLine
 62
7
  6
CONTINUOUS
 10
11.8455678888
 20
7.8981085848
 11
10.0298291387
 21
7.8981085848
  0
LINE
  5
233
100
AcDbEntity
  8
0
100
AcDbLine
 62
9
  6
CONTINUOUS
 10
10.0932044155
 20
7.956014615
 11
11.7821802699
 21
7.956014615
  0
LINE
  5
234
100
AcDbEntity
  8
0
100
AcDbLine
 62
9
  6
CONTINUOUS
 10
6.2681821685
 20
7.9653775426
 11
7.6071872637
 21
7.9653775426
  0
LINE
  5
235
100
AcDbEntity
  8
0
100
AcDbLine
 62
9
  6
CONTINUOUS
 10
14.2681821685
 20
7.9653775426
 11
15.6071872637
 21
7.9653775426
  0
LINE
  5
236
100
AcDbEntity
  8
0
100
AcDbLine
 62
7
  6
CONTINUOUS
 10
9.9898342103
 20
7.8595045647
 11
9.9876923427
 21
7.7981695021
  0
LINE
  5
237
100
AcDbEntity
  8
0
100
AcDbLine
 62
7
  6
CONTINUOUS
 10
10.194832545
 20
10.8662634719
 11
10.0932044155
 21
7.956014615
  0
LINE
  5
238
100
AcDbEntity
  8
0
100
AcDbLine
 62
9
  6
CONTINUOUS
 10
10.1958455358
 20
10.8662634719
 11
10.1586386669
 21
9.799343232
  0
LINE
  5
239
100
AcDbEntity
  8
0
100
AcDbLine
 62
9
  6
CONTINUOUS
 10
10.5335038838
 20
9.9862634719
 11
10.5335038838
 21
9.9241695021
  0
LINE
  5
23A
100
AcDbEntity
  8
0
100
AcDbLine
 62
9
  6
CONTINUOUS
 10
10.5626696432
 20
10.9241695021
 11
10.5626696432
 21
10.8662634719
  0
LINE
  5
23B
100
AcDbEntity
  8
0
100
AcDbLine
 62
9
  6
CONTINUOUS
 10
10.5027879619
 20
10.8662634719
 11
10.4736222025
 21
9.9862634719
  0
LINE
  5
23C
100
AcDbEntity
  8
0
100
AcDbLine
 62
9
  6
CONTINUOUS
 10
10.5335038833
 20
9.986263472
 11
10.562669643
 21
10.8662634719
  0
LINE
  5
23D
100
AcDbEntity
  8
0
100
AcDbLine
 62
9
  6
CONTINUOUS
 10
10.4273797193
 20
9.9862606522
 11
10.4272774969
 21
9.9855549312
  0
LWPOLYLINE
  5
23E
100
AcDbEntity
  8
0
100
AcDbPolyline
 62
7
  6
CONTINUOUS
 90
16
 70
0
 10
10.4249734584
 20
10.177284395
 10
10.4248694327
 20
10.1777315746
 10
10.4249646532
 20
10.1771072668
 10
10.4254262394
 20
10.1734708197
 10
10.4260015429
 20
10.167336901
 10
10.4265824544
 20
10.1590084797
 10
10.4271179667
 20
10.1486628279
 10
10.4275815865
 20
10.1363648056
 10
10.4279549158
 20
10.1221332591
 10
10.4282234482
 20
10.1059844669
 10
10.4283735943
 20
10.0879326938
 10
10.4283923562
 20
10.0680048688
 10
10.4282677311
 20
10.04625803
 10
10.4279874549
 20
10.0227490904
 10
10.4275407415
 20
9.9975925391
 10
10.4272775746
 20
9.9855582933
  0
LINE
  5
23F
100
AcDbEntity
  8
0
100
AcDbLine
 62
9
  6
CONTINUOUS
 10
11.3127150425
 20
10.8662634719
 11
11.3418808018
 21
9.9862634719
  0
LINE
  5
240
100
AcDbEntity
  8
0
100
AcDbLine
 62
9
  6
CONTINUOUS
 10
11.3127150423
 20
10.8662634719
 11
11.3127150423
 21
10.9241695021
  0
LINE
  5
241
100
AcDbEntity
  8
0
100
AcDbLine
 62
9
  6
CONTINUOUS
 10
11.3418808017
 20
9.9241695021
 11
11.3418808017
 21
9.9862634719
  0
LINE
  5
242
100
AcDbEntity
  8
0
100
AcDbLine
 62
9
  6
CONTINUOUS
 10
15.5492010869
 20
9.6263211855
 11
14.3261835986
 21
9.6263211855
  0
LINE
  5
243
100
AcDbEntity
  8
0
100
AcDbLine
 62
9
  6
CONTINUOUS
 10
7.5492010869
 20
9.6263211855
 11
6.3261835986
 21
9.6263211855
  0
LINE
  5
244
100
AcDbEntity
  8
0
100
AcDbLine
 62
7
  6
CONTINUOUS
 10
15.5162211896
 20
9.6581695021
 11
14.3591634959
 21
9.6581695021
  0
LINE
  5
245
100
AcDbEntity
  8
0
100
AcDbLine
 62
7
  6
CONTINUOUS
 10
7.5162211896
 20
9.6581695021
 11
6.3591634959
 21
9.6581695021
  0
LINE
  5
246
100
AcDbEntity
  8
0
100
AcDbLine
 62
7
  6
CONTINUOUS
 10
6.6251929333
 20
9.6891695021
 11
7.2501917522
 21
9.6891695021
  0
LINE
  5
247
100
AcDbEntity
  8
0
100
AcDbLine
 62
7
  6
CONTINUOUS
 10
14.6251929333
 20
9.6891695021
 11
15.2501917522
 21
9.6891695021
  0
LINE
  5
248
100
AcDbEntity
  8
0
100
AcDbLine
 62
7
  6
CONTINUOUS
 10
11.6805521404
 20
10.8662634719
 11
11.7821802699
 21
7.956014615
  0
LINE
  5
249
100
AcDbEntity
  8
0
100
AcDbLine
 62
9
  6
CONTINUOUS
 10
11.7167460194
 20
9.7993432151
 11
11.6795391497
 21
10.8662634719
  0
LINE
  5
24A
100
AcDbEntity
  8
0
100
AcDbLine
 62
9
  6
CONTINUOUS
 10
11.4017624829
 20
9.986263472
 11
11.3725967236
 21
10.8662634719
  0
LWPOLYLINE
  5
24B
100
AcDbEntity
  8
0
100
AcDbPolyline
 62
7
  6
CONTINUOUS
 90
14
 70
0
 10
11.4481071138
 20
9.9855581653
 10
11.4477857827
 20
10.000465041
 10
11.4473342826
 20
10.0271453067
 10
11.4470708586
 20
10.0519728852
 10
11.446983214
 20
10.0747899827
 10
11.4470570285
 20
10.095503088
 10
11.4472769055
 20
10.1140223539
 10
11.4476258149
 20
10.1303058352
 10
11.4480854852
 20
10.1443290328
 10
11.4486334641
 20
10.1560778047
 10
11.4492396884
 20
10.1655030907
 10
11.4498531402
 20
10.1724828507
 10
11.4503684665
 20
10.1767593749
 10
11.4504783114
 20
10.1774785839
  0
LINE
  5
24C
100
AcDbEntity
  8
0
100
AcDbLine
 62
7
  6
CONTINUOUS
 10
10.4872614996
 20
9.9241695021
 11
11.3881231858
 21
9.9241695021
  0
LINE
  5
24D
100
AcDbEntity
  8
0
100
AcDbLine
 62
9
  6
CONTINUOUS
 10
10.4273802489
 20
9.9862634719
 11
10.4736222025
 21
9.9862634719
  0
LINE
  5
24E
100
AcDbEntity
  8
0
100
AcDbLine
 62
9
  6
CONTINUOUS
 10
10.5335038833
 20
9.986263472
 11
11.3418808018
 21
9.9862634719
  0
LINE
  5
24F
100
AcDbEntity
  8
0
100
AcDbLine
 62
9
  6
CONTINUOUS
 10
11.4017624829
 20
9.986263472
 11
11.4480044385
 21
9.9862634719
  0
LINE
  5
250
100
AcDbEntity
  8
0
100
AcDbLine
 62
9
  6
CONTINUOUS
 10
15.2501923427
 20
10.0661695021
 11
14.6251923427
 21
10.0661695021
  0
LINE
  5
251
100
AcDbEntity
  8
0
100
AcDbLine
 62
9
  6
CONTINUOUS
 10
7.2501923427
 20
10.0661695021
 11
6.6251923427
 21
10.0661695021
  0
LINE
  5
252
100
AcDbEntity
  8
0
100
AcDbLine
 62
9
  6
CONTINUOUS
 10
11.4480049545
 20
9.9862609867
 11
11.4481071741
 21
9.9855555578
  0
LINE
  5
253
100
AcDbEntity
  8
0
100
AcDbLine
 62
7
  6
CONTINUOUS
 10
11.8855504752
 20
7.8595045647
 11
11.8876923427
 21
7.7981695021
  0
LINE
  5
254
100
AcDbEntity
  8
0
100
AcDbLine
 62
7
  6
CONTINUOUS
 10
5.5246923427
 20
10.1061695021
 11
8.3506923427
 21
10.1061695021
  0
LINE
  5
255
100
AcDbEntity
  8
0
100
AcDbLine
 62
7
  6
CONTINUOUS
 10
13.5246923427
 20
10.1061695021
 11
16.3506923427
 21
10.1061695021
  0
LINE
  5
256
100
AcDbEntity
  8
0
100
AcDbLine
 62
9
  6
CONTINUOUS
 10
5.4946923427
 20
10.1361695021
 11
8.3806923427
 21
10.1361695021
  0
LINE
  5
257
100
AcDbEntity
  8
0
100
AcDbLine
 62
9
  6
CONTINUOUS
 10
13.4946923427
 20
10.1361695021
 11
16.3806923427
 21
10.1361695021
  0
LINE
  5
258
100
AcDbEntity
  8
0
100
AcDbLine
 62
9
  6
CONTINUOUS
 10
16.3806923427
 20
10.4511695021
 11
13.4946923427
 21
10.4511695021
  0
LINE
  5
259
100
AcDbEntity
  8
0
100
AcDbLine
 62
9
  6
CONTINUOUS
 10
8.3806923427
 20
10.4511695021
 11
5.4946923427
 21
10.4511695021
  0
LINE
  5
25A
100
AcDbEntity
  8
0
100
AcDbLine
 62
7
  6
CONTINUOUS
 10
12.2066923427
 20
7.7581695021
 11
12.2066923427
 21
7.6111695021
  0
LINE
  5
25B
100
AcDbEntity
  8
0
100
AcDbLine
 62
7
  6
CONTINUOUS
 10
5.5246923427
 20
10.4811695021
 11
8.3506923427
 21
10.4811695021
  0
LINE
  5
25C
100
AcDbEntity
  8
0
100
AcDbLine
 62
7
  6
CONTINUOUS
 10
13.5246923427
 20
10.4811695021
 11
16.3506923427
 21
10.4811695021
  0
LINE
  5
25D
100
AcDbEntity
  8
0
100
AcDbLine
 62
9
  6
CONTINUOUS
 10
11.6805521404
 20
10.8662634719
 11
11.3725967236
 21
10.8662634719
  0
LINE
  5
25E
100
AcDbEntity
  8
0
100
AcDbLine
 62
9
  6
CONTINUOUS
 10
11.3127150425
 20
10.8662634719
 11
10.562669643
 21
10.8662634719
  0
LINE
  5
25F
100
AcDbEntity
  8
0
100
AcDbLine
 62
9
  6
CONTINUOUS
 10
10.5027879619
 20
10.8662634719
 11
10.194832545
 21
10.8662634719
  0
LINE
  5
260
100
AcDbEntity
  8
0
100
AcDbLine
 62
7
  6
CONTINUOUS
 10
10.2547959965
 20
10.9241695021
 11
11.620574372
 21
10.9241695021
  0
LINE
  5
261
100
AcDbEntity
  8
0
100
AcDbLine
 62
7
  6
CONTINUOUS
 10
13.4946923427
 20
10.1361695021
 11
13.4946923427
 21
10.4511695021
  0
LINE
  5
262
100
AcDbEntity
  8
0
100
AcDbLine
 62
9
  6
CONTINUOUS
 10
13.5231222639
 20
10.4511695021
 11
13.5231222638
 21
10.1361695021
  0
LINE
  5
263
100
AcDbEntity
  8
0
100
AcDbLine
 62
7
  6
CONTINUOUS
 10
13.8376923427
 20
7.7681695021
 11
13.8376923427
 21
7.6111695021
  0
LINE
  5
264
100
AcDbEntity
  8
0
100
AcDbLine
 62
7
  6
CONTINUOUS
 10
14.1876923427
 20
7.8548434472
 11
14.1876923427
 21
7.8081695021
  0
LINE
  5
265
100
AcDbEntity
  8
0
100
AcDbLine
 62
7
  6
CONTINUOUS
 10
14.3001923427
 20
7.8081695021
 11
14.3001923427
 21
7.7981695021
  0
LINE
  5
266
100
AcDbEntity
  8
0
100
AcDbLine
 62
7
  6
CONTINUOUS
 10
14.3261835986
 20
9.6263211855
 11
14.2681821685
 21
7.9653775426
  0
LINE
  5
267
100
AcDbEntity
  8
0
100
AcDbLine
 62
9
  6
CONTINUOUS
 10
14.5301401265
 20
10.1361695021
 11
14.5301401264
 21
10.4511695021
  0
LINE
  5
268
100
AcDbEntity
  8
0
100
AcDbLine
 62
7
  6
CONTINUOUS
 10
14.6251923427
 20
10.0661695021
 11
14.6251923427
 21
9.6891695021
  0
LINE
  5
269
100
AcDbEntity
  8
0
100
AcDbLine
 62
9
  6
CONTINUOUS
 10
14.6484268238
 20
10.4511695021
 11
14.6484268238
 21
10.1361695021
  0
LINE
  5
26A
100
AcDbEntity
  8
0
100
AcDbLine
 62
7
  6
CONTINUOUS
 10
14.6751923427
 20
9.6891695021
 11
14.6751923427
 21
9.6581695021
  0
LINE
  5
26B
100
AcDbEntity
  8
0
100
AcDbLine
 62
9
  6
CONTINUOUS
 10
14.7012023937
 20
10.1361695021
 11
14.7012023937
 21
10.4511695021
  0
LINE
  5
26C
100
AcDbEntity
  8
0
100
AcDbLine
 62
9
  6
CONTINUOUS
 10
14.7311612797
 20
10.4811695021
 11
14.7311612797
 21
10.1061695021
  0
LINE
  5
26D
100
AcDbEntity
  8
0
100
AcDbLine
 62
9
  6
CONTINUOUS
 10
15.1442234057
 20
10.1061695021
 11
15.1442234057
 21
10.4811695021
  0
LINE
  5
26E
100
AcDbEntity
  8
0
100
AcDbLine
 62
9
  6
CONTINUOUS
 10
15.1741822918
 20
10.4511695021
 11
15.1741822918
 21
10.1361695021
  0
LINE
  5
26F
100
AcDbEntity
  8
0
100
AcDbLine
 62
7
  6
CONTINUOUS
 10
15.2001923427
 20
9.6891695021
 11
15.2001923427
 21
9.6581695021
  0
LINE
  5
270
100
AcDbEntity
  8
0
100
AcDbLine
 62
9
  6
CONTINUOUS
 10
15.2269578616
 20
10.1361695021
 11
15.2269578616
 21
10.4511695021
  0
LINE
  5
271
100
AcDbEntity
  8
0
100
AcDbLine
 62
7
  6
CONTINUOUS
 10
15.2501923427
 20
10.0661695021
 11
15.2501923427
 21
9.6891695021
  0
LINE
  5
272
100
AcDbEntity
  8
0
100
AcDbLine
 62
9
  6
CONTINUOUS
 10
15.345244559
 20
10.4511695021
 11
15.3452445591
 21
10.1361695021
  0
LINE
  5
273
100
AcDbEntity
  8
0
100
AcDbLine
 62
7
  6
CONTINUOUS
 10
15.5492010869
 20
9.6263211855
 11
15.607202517
 21
7.9653775426
  0
LINE
  5
274
100
AcDbEntity
  8
0
100
AcDbLine
 62
7
  6
CONTINUOUS
 10
15.5751923427
 20
7.8081695021
 11
15.5751923427
 21
7.7981695021
  0
LINE
  5
275
100
AcDbEntity
  8
0
100
AcDbLine
 62
7
  6
CONTINUOUS
 10
15.6876923427
 20
7.8548434472
 11
15.6876923427
 21
7.8081695021
  0
LINE
  5
276
100
AcDbEntity
  8
0
100
AcDbLine
 62
7
  6
CONTINUOUS
 10
16.0376923427
 20
7.7681695021
 11
16.0376923427
 21
7.6111695021
  0
LINE
  5
277
100
AcDbEntity
  8
0
100
AcDbLine
 62
9
  6
CONTINUOUS
 10
16.3522624215
 20
10.1361695021
 11
16.3522624215
 21
10.4511695021
  0
LINE
  5
278
100
AcDbEntity
  8
0
100
AcDbLine
 62
7
  6
CONTINUOUS
 10
16.3806923427
 20
10.4511695021
 11
16.3806923427
 21
10.1361695021
  0
ARC
  5
279
100
AcDbEntity
  8
0
100
AcDbCircle
 62
7
  6
CONTINUOUS
 10
7.6871537832
 20
7.9681695021
 40
0.08
100
AcDbArc
 50
181.9999998674
 51
250.8012928748
  0
ARC
  5
27A
100
AcDbEntity
  8
0
100
AcDbCircle
 62
7
  6
CONTINUOUS
 10
6.1882309023
 20
7.9681695021
 40
0.08
100
AcDbArc
 50
289.1987071252
 51
358.0000001326
  0
ARC
  5
27B
100
AcDbEntity
  8
0
100
AcDbCircle
 62
7
  6
CONTINUOUS
 10
10.0332409659
 20
7.9581085848
 40
0.06
100
AcDbArc
 50
270.0
 51
358.0
  0
ARC
  5
27C
100
AcDbEntity
  8
0
100
AcDbCircle
 62
7
  6
CONTINUOUS
 10
9.7086923427
 20
7.7581695021
 40
0.04
100
AcDbArc
 50
90.0
 51
180.0
  0
ARC
  5
27D
100
AcDbEntity
  8
0
100
AcDbCircle
 62
7
  6
CONTINUOUS
 10
6.2276923427
 20
7.8548434472
 40
0.04
100
AcDbArc
 50
109.1987071253
 51
180.0
  0
ARC
  5
27E
100
AcDbEntity
  8
0
100
AcDbCircle
 62
7
  6
CONTINUOUS
 10
7.6476923427
 20
7.8548434472
 40
0.04
100
AcDbArc
 50
0.0
 51
70.8012928747
  0
ARC
  5
27F
100
AcDbEntity
  8
0
100
AcDbCircle
 62
7
  6
CONTINUOUS
 10
10.0298098434
 20
7.8581085848
 40
0.04
100
AcDbArc
 50
90.0
 51
178.0
  0
ARC
  5
280
100
AcDbEntity
  8
0
100
AcDbCircle
 62
7
  6
CONTINUOUS
 10
8.0076923427
 20
7.7681695021
 40
0.03
100
AcDbArc
 50
0.0
 51
90.0000367056
  0
ARC
  5
281
100
AcDbEntity
  8
0
100
AcDbCircle
 62
7
  6
CONTINUOUS
 10
5.8676923427
 20
7.7681695021
 40
0.03
100
AcDbArc
 50
89.9999632944
 51
180.0
  0
ARC
  5
282
100
AcDbEntity
  8
0
100
AcDbCircle
 62
7
  6
CONTINUOUS
 10
7.2901923427
 20
10.0661695021
 40
0.04
100
AcDbArc
 50
90.0
 51
180.0
  0
ARC
  5
283
100
AcDbEntity
  8
0
100
AcDbCircle
 62
7
  6
CONTINUOUS
 10
6.5851923427
 20
10.0661695021
 40
0.04
100
AcDbArc
 50
0.0
 51
90.0
  0
ARC
  5
284
100
AcDbEntity
  8
0
100
AcDbCircle
 62
7
  6
CONTINUOUS
 10
7.5162211896
 20
9.6251695021
 40
0.033
100
AcDbArc
 50
1.9999999997
 51
90.0
  0
ARC
  5
285
100
AcDbEntity
  8
0
100
AcDbCircle
 62
7
  6
CONTINUOUS
 10
6.3591634959
 20
9.6251695021
 40
0.033
100
AcDbArc
 50
90.0
 51
178.0000000003
  0
ARC
  5
286
100
AcDbEntity
  8
0
100
AcDbCircle
 62
7
  6
CONTINUOUS
 10
5.5246923427
 20
10.1361695021
 40
0.03
100
AcDbArc
 50
180.0
 51
270.0
  0
ARC
  5
287
100
AcDbEntity
  8
0
100
AcDbCircle
 62
9
  6
CONTINUOUS
 10
6.7311840338
 20
10.1361464292
 40
0.0299788058
100
AcDbArc
 50
179.9559069423
 51
269.956509417
  0
ARC
  5
288
100
AcDbEntity
  8
0
100
AcDbCircle
 62
9
  6
CONTINUOUS
 10
7.1442006517
 20
10.1361464291
 40
0.0299788057
100
AcDbArc
 50
270.0434904715
 51
0.044093296
  0
ARC
  5
289
100
AcDbEntity
  8
0
100
AcDbCircle
 62
9
  6
CONTINUOUS
 10
6.6784084639
 20
10.1361464291
 40
0.0299788057
100
AcDbArc
 50
179.9559066911
 51
269.9565095417
  0
ARC
  5
28A
100
AcDbEntity
  8
0
100
AcDbCircle
 62
9
  6
CONTINUOUS
 10
7.1969762216
 20
10.1361464291
 40
0.0299788057
100
AcDbArc
 50
270.0434904635
 51
0.0440933038
  0
ARC
  5
28B
100
AcDbEntity
  8
0
100
AcDbCircle
 62
7
  6
CONTINUOUS
 10
5.5246923427
 20
10.4511695021
 40
0.03
100
AcDbArc
 50
90.0
 51
180.0
  0
ARC
  5
28C
100
AcDbEntity
  8
0
100
AcDbCircle
 62
9
  6
CONTINUOUS
 10
7.144200648
 20
10.4511925761
 40
0.029978808
100
AcDbArc
 50
359.9559050497
 51
89.9565023899
  0
ARC
  5
28D
100
AcDbEntity
  8
0
100
AcDbCircle
 62
9
  6
CONTINUOUS
 10
7.1969762179
 20
10.4511925761
 40
0.029978808
100
AcDbArc
 50
359.9559050488
 51
89.9565024406
  0
ARC
  5
28E
100
AcDbEntity
  8
0
100
AcDbCircle
 62
9
  6
CONTINUOUS
 10
6.7311840355
 20
10.4511925754
 40
0.0299788069
100
AcDbArc
 50
90.0434938059
 51
180.0440936331
  0
ARC
  5
28F
100
AcDbEntity
  8
0
100
AcDbCircle
 62
9
  6
CONTINUOUS
 10
6.6784084656
 20
10.4511925755
 40
0.0299788067
100
AcDbArc
 50
90.0434936961
 51
180.0440938455
  0
ARC
  5
290
100
AcDbEntity
  8
0
100
AcDbCircle
 62
9
  6
CONTINUOUS
 10
10.4815500024
 20
10.1960449017
 40
0.0603195955
100
AcDbArc
 50
177.9680083971
 51
196.2113810086
  0
ARC
  5
291
100
AcDbEntity
  8
0
100
AcDbCircle
 62
9
  6
CONTINUOUS
 10
10.4876258093
 20
9.9841950155
 40
0.0602814892
100
AcDbArc
 50
178.0336070762
 51
195.1833165284
  0
ARC
  5
292
100
AcDbEntity
  8
0
100
AcDbCircle
 62
9
  6
CONTINUOUS
 10
10.4874936498
 20
9.984279031
 40
0.0601977333
100
AcDbArc
 50
214.1930073046
 51
232.421356031
  0
ARC
  5
293
100
AcDbEntity
  8
0
100
AcDbCircle
 62
9
  6
CONTINUOUS
 10
10.4873095779
 20
9.9843067954
 40
0.0601373124
100
AcDbArc
 50
251.6396233725
 51
269.9541934935
  0
ARC
  5
294
100
AcDbEntity
  8
0
100
AcDbCircle
 62
9
  6
CONTINUOUS
 10
10.4873763599
 20
9.9841542526
 40
0.0600306054
100
AcDbArc
 50
196.4198517955
 51
214.1574109002
  0
ARC
  5
295
100
AcDbEntity
  8
0
100
AcDbCircle
 62
7
  6
CONTINUOUS
 10
10.4872610789
 20
9.9841690911
 40
0.0599985391
100
AcDbArc
 50
178.6736561851
 51
270.0004017441
  0
ARC
  5
296
100
AcDbEntity
  8
0
100
AcDbCircle
 62
9
  6
CONTINUOUS
 10
10.5335512769
 20
9.984126675
 40
0.0599611364
100
AcDbArc
 50
177.9579594141
 51
269.9547106399
  0
ARC
  5
297
100
AcDbEntity
  8
0
100
AcDbCircle
 62
9
  6
CONTINUOUS
 10
10.487278711
 20
9.984055546
 40
0.0598895469
100
AcDbArc
 50
232.4539317281
 51
250.4729595053
  0
ARC
  5
298
100
AcDbEntity
  8
0
100
AcDbCircle
 62
9
  6
CONTINUOUS
 10
10.4869648401
 20
9.9840119103
 40
0.0595956359
100
AcDbArc
 50
195.1798551811
 51
196.4004205539
  0
ARC
  5
299
100
AcDbEntity
  8
0
100
AcDbCircle
 62
9
  6
CONTINUOUS
 10
10.4870790395
 20
9.9835363674
 40
0.0593334907
100
AcDbArc
 50
250.4871071544
 51
251.6165667395
  0
ARC
  5
29A
100
AcDbEntity
  8
0
100
AcDbCircle
 62
9
  6
CONTINUOUS
 10
10.4798622495
 20
10.1955938996
 40
0.0585730514
100
AcDbArc
 50
196.2486702614
 51
199.6064261089
  0
ARC
  5
29B
100
AcDbEntity
  8
0
100
AcDbCircle
 62
7
  6
CONTINUOUS
 10
8.3506923427
 20
10.1361695021
 40
0.03
100
AcDbArc
 50
270.0
 51
360.0
  0
ARC
  5
29C
100
AcDbEntity
  8
0
100
AcDbCircle
 62
7
  6
CONTINUOUS
 10
10.2547959947
 20
10.8641695021
 40
0.06
100
AcDbArc
 50
90.0
 51
178.0
  0
ARC
  5
29D
100
AcDbEntity
  8
0
100
AcDbCircle
 62
9
  6
CONTINUOUS
 10
10.5627128176
 20
10.8642185864
 40
0.0599544232
100
AcDbArc
 50
90.0412623026
 51
178.0455878354
  0
ARC
  5
29E
100
AcDbEntity
  8
0
100
AcDbCircle
 62
9
  6
CONTINUOUS
 10
10.2557703912
 20
10.8642185867
 40
0.0599544228
100
AcDbArc
 50
90.0412620575
 51
178.0455881438
  0
ARC
  5
29F
100
AcDbEntity
  8
0
100
AcDbCircle
 62
7
  6
CONTINUOUS
 10
8.3506923427
 20
10.4511695021
 40
0.03
100
AcDbArc
 50
0.0
 51
90.0
  0
ARC
  5
2A0
100
AcDbEntity
  8
0
100
AcDbCircle
 62
7
  6
CONTINUOUS
 10
15.6871537832
 20
7.9681695021
 40
0.08
100
AcDbArc
 50
181.9999998674
 51
250.8012928748
  0
ARC
  5
2A1
100
AcDbEntity
  8
0
100
AcDbCircle
 62
7
  6
CONTINUOUS
 10
14.1882309023
 20
7.9681695021
 40
0.08
100
AcDbArc
 50
289.1987071252
 51
358.0000001326
  0
ARC
  5
2A2
100
AcDbEntity
  8
0
100
AcDbCircle
 62
7
  6
CONTINUOUS
 10
11.8421437196
 20
7.9581085848
 40
0.06
100
AcDbArc
 50
182.0
 51
270.0
  0
ARC
  5
2A3
100
AcDbEntity
  8
0
100
AcDbCircle
 62
7
  6
CONTINUOUS
 10
12.1666923427
 20
7.7581695021
 40
0.04
100
AcDbArc
 50
0.0
 51
90.0
  0
ARC
  5
2A4
100
AcDbEntity
  8
0
100
AcDbCircle
 62
7
  6
CONTINUOUS
 10
14.2276923427
 20
7.8548434472
 40
0.04
100
AcDbArc
 50
109.1987071253
 51
180.0
  0
ARC
  5
2A5
100
AcDbEntity
  8
0
100
AcDbCircle
 62
7
  6
CONTINUOUS
 10
15.6476923427
 20
7.8548434472
 40
0.04
100
AcDbArc
 50
0.0
 51
70.8012928747
  0
ARC
  5
2A6
100
AcDbEntity
  8
0
100
AcDbCircle
 62
7
  6
CONTINUOUS
 10
11.8455748421
 20
7.8581085848
 40
0.04
100
AcDbArc
 50
2.0
 51
90.0
  0
ARC
  5
2A7
100
AcDbEntity
  8
0
100
AcDbCircle
 62
7
  6
CONTINUOUS
 10
16.0076923427
 20
7.7681695021
 40
0.03
100
AcDbArc
 50
0.0
 51
90.0000367056
  0
ARC
  5
2A8
100
AcDbEntity
  8
0
100
AcDbCircle
 62
7
  6
CONTINUOUS
 10
13.8676923427
 20
7.7681695021
 40
0.03
100
AcDbArc
 50
89.9999632944
 51
180.0
  0
ARC
  5
2A9
100
AcDbEntity
  8
0
100
AcDbCircle
 62
9
  6
CONTINUOUS
 10
11.3938245677
 20
10.1960466556
 40
0.0603296508
100
AcDbArc
 50
343.7974579798
 51
2.0190103471
  0
ARC
  5
2AA
100
AcDbEntity
  8
0
100
AcDbCircle
 62
7
  6
CONTINUOUS
 10
11.3881235108
 20
9.9841691846
 40
0.059998661
100
AcDbArc
 50
269.9996896832
 51
1.3262482582
  0
ARC
  5
2AB
100
AcDbEntity
  8
0
100
AcDbCircle
 62
9
  6
CONTINUOUS
 10
11.3418334088
 20
9.9841266748
 40
0.0599611361
100
AcDbArc
 50
270.0452891836
 51
2.042040849
  0
ARC
  5
2AC
100
AcDbEntity
  8
0
100
AcDbCircle
 62
9
  6
CONTINUOUS
 10
11.3880758007
 20
9.9841266502
 40
0.0599611128
100
AcDbArc
 50
270.0452817659
 51
2.0420645871
  0
ARC
  5
2AD
100
AcDbEntity
  8
0
100
AcDbCircle
 62
9
  6
CONTINUOUS
 10
11.3955045432
 20
10.1955948146
 40
0.0585903333
100
AcDbArc
 50
340.3912415288
 51
343.7633532253
  0
ARC
  5
2AE
100
AcDbEntity
  8
0
100
AcDbCircle
 62
7
  6
CONTINUOUS
 10
13.5246923427
 20
10.1361695021
 40
0.03
100
AcDbArc
 50
180.0
 51
270.0
  0
ARC
  5
2AF
100
AcDbEntity
  8
0
100
AcDbCircle
 62
7
  6
CONTINUOUS
 10
11.6205886908
 20
10.8641695021
 40
0.06
100
AcDbArc
 50
2.0
 51
90.0
  0
ARC
  5
2B0
100
AcDbEntity
  8
0
100
AcDbCircle
 62
9
  6
CONTINUOUS
 10
11.6196142942
 20
10.8642185867
 40
0.0599544228
100
AcDbArc
 50
1.9544118777
 51
89.9587379194
  0
ARC
  5
2B1
100
AcDbEntity
  8
0
100
AcDbCircle
 62
9
  6
CONTINUOUS
 10
11.3126718681
 20
10.8642185867
 40
0.0599544228
100
AcDbArc
 50
1.9544118586
 51
89.9587379448
  0
ARC
  5
2B2
100
AcDbEntity
  8
0
100
AcDbCircle
 62
7
  6
CONTINUOUS
 10
13.5246923427
 20
10.4511695021
 40
0.03
100
AcDbArc
 50
90.0
 51
180.0
  0
ARC
  5
2B3
100
AcDbEntity
  8
0
100
AcDbCircle
 62
7
  6
CONTINUOUS
 10
15.2901923427
 20
10.0661695021
 40
0.04
100
AcDbArc
 50
90.0
 51
180.0
  0
ARC
  5
2B4
100
AcDbEntity
  8
0
100
AcDbCircle
 62
7
  6
CONTINUOUS
 10
14.5851923427
 20
10.0661695021
 40
0.04
100
AcDbArc
 50
0.0
 51
90.0
  0
ARC
  5
2B5
100
AcDbEntity
  8
0
100
AcDbCircle
 62
7
  6
CONTINUOUS
 10
15.5162211896
 20
9.6251695021
 40
0.033
100
AcDbArc
 50
1.9999999997
 51
90.0
  0
ARC
  5
2B6
100
AcDbEntity
  8
0
100
AcDbCircle
 62
7
  6
CONTINUOUS
 10
14.3591634959
 20
9.6251695021
 40
0.033
100
AcDbArc
 50
90.0
 51
178.0000000003
  0
ARC
  5
2B7
100
AcDbEntity
  8
0
100
AcDbCircle
 62
7
  6
CONTINUOUS
 10
16.3506923427
 20
10.1361695021
 40
0.03
100
AcDbArc
 50
270.0
 51
360.0
  0
ARC
  5
2B8
100
AcDbEntity
  8
0
100
AcDbCircle
 62
9
  6
CONTINUOUS
 10
14.7311840338
 20
10.1361464292
 40
0.0299788058
100
AcDbArc
 50
179.9559069388
 51
269.9565094206
  0
ARC
  5
2B9
100
AcDbEntity
  8
0
100
AcDbCircle
 62
9
  6
CONTINUOUS
 10
15.1442006517
 20
10.1361464291
 40
0.0299788057
100
AcDbArc
 50
270.0434904671
 51
0.0440933004
  0
ARC
  5
2BA
100
AcDbEntity
  8
0
100
AcDbCircle
 62
9
  6
CONTINUOUS
 10
14.6784084639
 20
10.1361464291
 40
0.0299788057
100
AcDbArc
 50
179.9559066975
 51
269.9565095353
  0
ARC
  5
2BB
100
AcDbEntity
  8
0
100
AcDbCircle
 62
9
  6
CONTINUOUS
 10
15.1969762216
 20
10.1361464291
 40
0.0299788057
100
AcDbArc
 50
270.0434904667
 51
0.0440933006
  0
ARC
  5
2BC
100
AcDbEntity
  8
0
100
AcDbCircle
 62
7
  6
CONTINUOUS
 10
16.3506923427
 20
10.4511695021
 40
0.03
100
AcDbArc
 50
0.0
 51
90.0
  0
ARC
  5
2BD
100
AcDbEntity
  8
0
100
AcDbCircle
 62
9
  6
CONTINUOUS
 10
15.1442006479
 20
10.4511925761
 40
0.029978808
100
AcDbArc
 50
359.9559050613
 51
89.9565023788
  0
ARC
  5
2BE
100
AcDbEntity
  8
0
100
AcDbCircle
 62
9
  6
CONTINUOUS
 10
15.1969762179
 20
10.4511925761
 40
0.029978808
100
AcDbArc
 50
359.9559050445
 51
89.9565024464
  0
ARC
  5
2BF
100
AcDbEntity
  8
0
100
AcDbCircle
 62
9
  6
CONTINUOUS
 10
14.7311840355
 20
10.4511925754
 40
0.0299788069
100
AcDbArc
 50
90.0434938003
 51
180.0440936355
  0
ARC
  5
2C0
100
AcDbEntity
  8
0
100
AcDbCircle
 62
9
  6
CONTINUOUS
 10
14.6784084656
 20
10.4511925755
 40
0.0299788067
100
AcDbArc
 50
90.0434937008
 51
180.0440938417
  0
SPLINE
  5
2C1
100
AcDbEntity
  8
0
100
AcDbSpline
 62
9
  6
CONTINUOUS
 70
0
 71
3
 72
25
 73
21
 74
0
 42
0.0000001
 43
0.0000001
 44
0.0000000001
 40
0.0
 40
0.0
 40
0.0
 40
0.0
 40
0.0028178664
 40
0.0047880674
 40
0.0072439402
 40
0.0137435832
 40
0.022461572
 40
0.0334379074
 40
0.0466823183
 40
0.0621907224
 40
0.0799345864
 40
0.1219404938
 40
0.1723086066
 40
0.2306212917
 40
0.2963174093
 40
0.3687266796
 40
0.4471726875
 40
0.6192084196
 40
0.8060711184
 40
1.0
 40
1.0
 40
1.0
 40
1.0
 10
15.3436744803
 20
10.4811695021
 30
0.0
 10
15.3437028042
 20
10.4811695021
 30
0.0
 10
15.3437488312
 20
10.4811413065
 30
0.0
 10
15.3437935824
 20
10.4810848221
 30
0.0
 10
15.3438498381
 20
10.4809897223
 30
0.0
 10
15.3439151233
 20
10.4808239652
 30
0.0
 10
15.3439892015
 20
10.4805711436
 30
0.0
 10
15.3440628446
 20
10.4802481935
 30
0.0
 10
15.3441361547
 20
10.4798555792
 30
0.0
 10
15.3442085173
 20
10.4793937983
 30
0.0
 10
15.3443092449
 20
10.4786440315
 30
0.0
 10
15.3444278132
 20
10.4775433794
 30
0.0
 10
15.3445574133
 20
10.4760342355
 30
0.0
 10
15.3446790612
 20
10.474285642
 30
0.0
 10
15.3447916293
 20
10.4723145132
 30
0.0
 10
15.344893978
 20
10.4701402153
 30
0.0
 10
15.3450189428
 20
10.466897041
 30
0.0
 10
15.3451388365
 20
10.4625025475
 30
0.0
 10
15.345225063
 20
10.4569463566
 30
0.0
 10
15.345244559
 20
10.453118785
 30
0.0
 10
15.345244559
 20
10.4511695021
 30
0.0
  0
SPLINE
  5
2C2
100
AcDbEntity
  8
0
100
AcDbSpline
 62
9
  6
CONTINUOUS
 70
0
 71
3
 72
25
 73
21
 74
0
 42
0.0000001
 43
0.0000001
 44
0.0000000001
 40
0.0
 40
0.0
 40
0.0
 40
0.0
 40
0.1939288637
 40
0.3807915304
 40
0.5528272644
 40
0.6312732784
 40
0.7036825577
 40
0.7693786836
 40
0.8276913733
 40
0.8780594921
 40
0.9200654058
 40
0.9378092721
 40
0.9533176776
 40
0.9665620897
 40
0.977538426
 40
0.9862564157
 40
0.9927560594
 40
0.9952119324
 40
0.9971821335
 40
1.0
 40
1.0
 40
1.0
 40
1.0
 10
16.3522624214
 20
10.4511695021
 30
0.0
 10
16.3522624214
 20
10.4531187848
 30
0.0
 10
16.3522429255
 20
10.4569463559
 30
0.0
 10
16.352156699
 20
10.4625025463
 30
0.0
 10
16.3520368053
 20
10.4668970396
 30
0.0
 10
16.3519118406
 20
10.4701402141
 30
0.0
 10
16.3518094918
 20
10.4723145122
 30
0.0
 10
16.3516969238
 20
10.4742856412
 30
0.0
 10
16.3515752758
 20
10.4760342349
 30
0.0
 10
16.3514456757
 20
10.477543379
 30
0.0
 10
16.3513271074
 20
10.4786440312
 30
0.0
 10
16.3512263798
 20
10.4793937981
 30
0.0
 10
16.3511540171
 20
10.4798555791
 30
0.0
 10
16.3510807071
 20
10.4802481934
 30
0.0
 10
16.3510070639
 20
10.4805711435
 30
0.0
 10
16.3509329858
 20
10.4808239652
 30
0.0
 10
16.3508677006
 20
10.4809897223
 30
0.0
 10
16.3508114449
 20
10.4810848221
 30
0.0
 10
16.3507666937
 20
10.4811413065
 30
0.0
 10
16.3507206666
 20
10.4811695021
 30
0.0
 10
16.3506923427
 20
10.4811695021
 30
0.0
  0
SPLINE
  5
2C3
100
AcDbEntity
  8
0
100
AcDbSpline
 62
9
  6
CONTINUOUS
 70
0
 71
3
 72
25
 73
21
 74
0
 42
0.0000001
 43
0.0000001
 44
0.0000000001
 40
0.0
 40
0.0
 40
0.0
 40
0.0
 40
0.0028178664
 40
0.0047880674
 40
0.0072439402
 40
0.0137435832
 40
0.022461572
 40
0.0334379074
 40
0.0466823183
 40
0.0621907224
 40
0.0799345864
 40
0.1219404938
 40
0.1723086066
 40
0.2306212917
 40
0.2963174093
 40
0.3687266796
 40
0.4471726875
 40
0.6192084196
 40
0.8060711184
 40
1.0
 40
1.0
 40
1.0
 40
1.0
 10
13.5246923427
 20
10.4811695021
 30
0.0
 10
13.5246640189
 20
10.4811695021
 30
0.0
 10
13.5246179918
 20
10.4811413065
 30
0.0
 10
13.5245732406
 20
10.4810848221
 30
0.0
 10
13.5245169849
 20
10.4809897223
 30
0.0
 10
13.5244516997
 20
10.4808239652
 30
0.0
 10
13.5243776216
 20
10.4805711436
 30
0.0
 10
13.5243039784
 20
10.4802481935
 30
0.0
 10
13.5242306684
 20
10.4798555792
 30
0.0
 10
13.5241583057
 20
10.4793937983
 30
0.0
 10
13.5240575781
 20
10.4786440315
 30
0.0
 10
13.5239390098
 20
10.4775433794
 30
0.0
 10
13.5238094097
 20
10.4760342355
 30
0.0
 10
13.5236877618
 20
10.474285642
 30
0.0
 10
13.5235751938
 20
10.4723145132
 30
0.0
 10
13.523472845
 20
10.4701402153
 30
0.0
 10
13.5233478802
 20
10.466897041
 30
0.0
 10
13.5232279865
 20
10.4625025475
 30
0.0
 10
13.52314176
 20
10.4569463566
 30
0.0
 10
13.5231222641
 20
10.453118785
 30
0.0
 10
13.5231222641
 20
10.4511695021
 30
0.0
  0
SPLINE
  5
2C4
100
AcDbEntity
  8
0
100
AcDbSpline
 62
9
  6
CONTINUOUS
 70
0
 71
3
 72
25
 73
21
 74
0
 42
0.0000001
 43
0.0000001
 44
0.0000000001
 40
0.0
 40
0.0
 40
0.0
 40
0.0
 40
0.1939288816
 40
0.3807915804
 40
0.5528273125
 40
0.6312733204
 40
0.7036825907
 40
0.7693787083
 40
0.8276913934
 40
0.8780595062
 40
0.9200654136
 40
0.9378092776
 40
0.9533176817
 40
0.9665620926
 40
0.977538428
 40
0.9862564168
 40
0.9927560598
 40
0.9952119326
 40
0.9971821336
 40
1.0
 40
1.0
 40
1.0
 40
1.0
 10
14.5301401265
 20
10.4511695021
 30
0.0
 10
14.5301401265
 20
10.453118785
 30
0.0
 10
14.5301596225
 20
10.4569463566
 30
0.0
 10
14.530245849
 20
10.4625025475
 30
0.0
 10
14.5303657427
 20
10.466897041
 30
0.0
 10
14.5304907074
 20
10.4701402153
 30
0.0
 10
14.5305930562
 20
10.4723145132
 30
0.0
 10
14.5307056242
 20
10.474285642
 30
0.0
 10
14.5308272721
 20
10.4760342355
 30
0.0
 10
14.5309568723
 20
10.4775433794
 30
0.0
 10
14.5310754406
 20
10.4786440315
 30
0.0
 10
14.5311761681
 20
10.4793937983
 30
0.0
 10
14.5312485308
 20
10.4798555792
 30
0.0
 10
14.5313218408
 20
10.4802481935
 30
0.0
 10
14.531395484
 20
10.4805711436
 30
0.0
 10
14.5314695622
 20
10.4808239652
 30
0.0
 10
14.5315348473
 20
10.4809897223
 30
0.0
 10
14.5315911031
 20
10.4810848221
 30
0.0
 10
14.5316358542
 20
10.4811413065
 30
0.0
 10
14.5316818813
 20
10.4811695021
 30
0.0
 10
14.5317102052
 20
10.4811695021
 30
0.0
  0
SPLINE
  5
2C5
100
AcDbEntity
  8
0
100
AcDbSpline
 62
9
  6
CONTINUOUS
 70
0
 71
3
 72
25
 73
21
 74
0
 42
0.0000001
 43
0.0000001
 44
0.0000000001
 40
0.0
 40
0.0
 40
0.0
 40
0.0
 40
0.0028178664
 40
0.0047880674
 40
0.0072439402
 40
0.0137435832
 40
0.022461572
 40
0.0334379074
 40
0.0466823183
 40
0.0621907224
 40
0.0799345864
 40
0.1219404938
 40
0.1723086066
 40
0.2306212917
 40
0.2963174093
 40
0.3687266796
 40
0.4471726875
 40
0.6192084196
 40
0.8060711184
 40
1.0
 40
1.0
 40
1.0
 40
1.0
 10
14.5317102052
 20
10.1061695021
 30
0.0
 10
14.5316818813
 20
10.1061695021
 30
0.0
 10
14.5316358542
 20
10.1061976978
 30
0.0
 10
14.5315911031
 20
10.1062541822
 30
0.0
 10
14.5315348473
 20
10.106349282
 30
0.0
 10
14.5314695622
 20
10.1065150391
 30
0.0
 10
14.531395484
 20
10.1067678607
 30
0.0
 10
14.5313218408
 20
10.1070908108
 30
0.0
 10
14.5312485308
 20
10.1074834251
 30
0.0
 10
14.5311761681
 20
10.107945206
 30
0.0
 10
14.5310754406
 20
10.1086949728
 30
0.0
 10
14.5309568723
 20
10.1097956248
 30
0.0
 10
14.5308272721
 20
10.1113047688
 30
0.0
 10
14.5307056242
 20
10.1130533623
 30
0.0
 10
14.5305930562
 20
10.1150244911
 30
0.0
 10
14.5304907074
 20
10.117198789
 30
0.0
 10
14.5303657427
 20
10.1204419633
 30
0.0
 10
14.530245849
 20
10.1248364568
 30
0.0
 10
14.5301596225
 20
10.1303926477
 30
0.0
 10
14.5301401265
 20
10.1342202193
 30
0.0
 10
14.5301401265
 20
10.1361695021
 30
0.0
  0
SPLINE
  5
2C6
100
AcDbEntity
  8
0
100
AcDbSpline
 62
9
  6
CONTINUOUS
 70
0
 71
3
 72
25
 73
21
 74
0
 42
0.0000001
 43
0.0000001
 44
0.0000000001
 40
0.0
 40
0.0
 40
0.0
 40
0.0
 40
0.1939288816
 40
0.3807915804
 40
0.5528273125
 40
0.6312733203
 40
0.7036825907
 40
0.7693787083
 40
0.8276913934
 40
0.8780595062
 40
0.9200654136
 40
0.9378092776
 40
0.9533176816
 40
0.9665620926
 40
0.977538428
 40
0.9862564168
 40
0.9927560598
 40
0.9952119326
 40
0.9971821336
 40
1.0
 40
1.0
 40
1.0
 40
1.0
 10
13.5231222641
 20
10.1361695021
 30
0.0
 10
13.5231222641
 20
10.1342202193
 30
0.0
 10
13.52314176
 20
10.1303926477
 30
0.0
 10
13.5232279865
 20
10.1248364568
 30
0.0
 10
13.5233478802
 20
10.1204419633
 30
0.0
 10
13.523472845
 20
10.117198789
 30
0.0
 10
13.5235751938
 20
10.1150244911
 30
0.0
 10
13.5236877618
 20
10.1130533623
 30
0.0
 10
13.5238094097
 20
10.1113047688
 30
0.0
 10
13.5239390098
 20
10.1097956248
 30
0.0
 10
13.5240575781
 20
10.1086949728
 30
0.0
 10
13.5241583057
 20
10.107945206
 30
0.0
 10
13.5242306684
 20
10.1074834251
 30
0.0
 10
13.5243039784
 20
10.1070908108
 30
0.0
 10
13.5243776216
 20
10.1067678607
 30
0.0
 10
13.5244516997
 20
10.1065150391
 30
0.0
 10
13.5245169849
 20
10.106349282
 30
0.0
 10
13.5245732406
 20
10.1062541822
 30
0.0
 10
13.5246179918
 20
10.1061976978
 30
0.0
 10
13.5246640189
 20
10.1061695021
 30
0.0
 10
13.5246923427
 20
10.1061695021
 30
0.0
  0
SPLINE
  5
2C7
100
AcDbEntity
  8
0
100
AcDbSpline
 62
9
  6
CONTINUOUS
 70
0
 71
3
 72
25
 73
21
 74
0
 42
0.0000001
 43
0.0000001
 44
0.0000000001
 40
0.0
 40
0.0
 40
0.0
 40
0.0
 40
0.0028178664
 40
0.0047880675
 40
0.0072439405
 40
0.0137435842
 40
0.0224615739
 40
0.0334379104
 40
0.0466823227
 40
0.0621907282
 40
0.0799345946
 40
0.1219405084
 40
0.1723086272
 40
0.2306213169
 40
0.2963174429
 40
0.3687267222
 40
0.4471727362
 40
0.6192084701
 40
0.8060711365
 40
1.0
 40
1.0
 40
1.0
 40
1.0
 10
16.3506923427
 20
10.1061695021
 30
0.0
 10
16.3507206666
 20
10.1061695021
 30
0.0
 10
16.3507666937
 20
10.1061976977
 30
0.0
 10
16.3508114449
 20
10.1062541822
 30
0.0
 10
16.3508677006
 20
10.106349282
 30
0.0
 10
16.3509329858
 20
10.1065150391
 30
0.0
 10
16.3510070639
 20
10.1067678608
 30
0.0
 10
16.3510807071
 20
10.1070908109
 30
0.0
 10
16.3511540171
 20
10.1074834252
 30
0.0
 10
16.3512263798
 20
10.1079452061
 30
0.0
 10
16.3513271074
 20
10.1086949731
 30
0.0
 10
16.3514456757
 20
10.1097956253
 30
0.0
 10
16.3515752758
 20
10.1113047694
 30
0.0
 10
16.3516969238
 20
10.1130533631
 30
0.0
 10
16.3518094918
 20
10.1150244921
 30
0.0
 10
16.3519118406
 20
10.1171987902
 30
0.0
 10
16.3520368053
 20
10.1204419647
 30
0.0
 10
16.352156699
 20
10.1248364579
 30
0.0
 10
16.3522429255
 20
10.1303926484
 30
0.0
 10
16.3522624214
 20
10.1342202195
 30
0.0
 10
16.3522624214
 20
10.1361695021
 30
0.0
  0
SPLINE
  5
2C8
100
AcDbEntity
  8
0
100
AcDbSpline
 62
9
  6
CONTINUOUS
 70
0
 71
3
 72
25
 73
21
 74
0
 42
0.0000001
 43
0.0000001
 44
0.0000000001
 40
0.0
 40
0.0
 40
0.0
 40
0.0
 40
0.1939288816
 40
0.3807915804
 40
0.5528273125
 40
0.6312733204
 40
0.7036825907
 40
0.7693787083
 40
0.8276913934
 40
0.8780595062
 40
0.9200654136
 40
0.9378092776
 40
0.9533176817
 40
0.9665620926
 40
0.977538428
 40
0.9862564168
 40
0.9927560598
 40
0.9952119326
 40
0.9971821336
 40
1.0
 40
1.0
 40
1.0
 40
1.0
 10
15.345244559
 20
10.1361695021
 30
0.0
 10
15.345244559
 20
10.1342202193
 30
0.0
 10
15.345225063
 20
10.1303926477
 30
0.0
 10
15.3451388365
 20
10.1248364568
 30
0.0
 10
15.3450189428
 20
10.1204419633
 30
0.0
 10
15.344893978
 20
10.117198789
 30
0.0
 10
15.3447916293
 20
10.1150244911
 30
0.0
 10
15.3446790612
 20
10.1130533623
 30
0.0
 10
15.3445574133
 20
10.1113047688
 30
0.0
 10
15.3444278132
 20
10.1097956248
 30
0.0
 10
15.3443092449
 20
10.1086949728
 30
0.0
 10
15.3442085173
 20
10.107945206
 30
0.0
 10
15.3441361547
 20
10.1074834251
 30
0.0
 10
15.3440628446
 20
10.1070908108
 30
0.0
 10
15.3439892015
 20
10.1067678607
 30
0.0
 10
15.3439151233
 20
10.1065150391
 30
0.0
 10
15.3438498381
 20
10.106349282
 30
0.0
 10
15.3437935824
 20
10.1062541822
 30
0.0
 10
15.3437488312
 20
10.1061976978
 30
0.0
 10
15.3437028042
 20
10.1061695021
 30
0.0
 10
15.3436744803
 20
10.1061695021
 30
0.0
  0
SPLINE
  5
2C9
100
AcDbEntity
  8
0
100
AcDbSpline
 62
9
  6
CONTINUOUS
 70
0
 71
3
 72
25
 73
21
 74
0
 42
0.0000001
 43
0.0000001
 44
0.0000000001
 40
0.0
 40
0.0
 40
0.0
 40
0.0
 40
0.0028178664
 40
0.0047880674
 40
0.0072439402
 40
0.0137435832
 40
0.022461572
 40
0.0334379074
 40
0.0466823183
 40
0.0621907224
 40
0.0799345864
 40
0.1219404938
 40
0.1723086066
 40
0.2306212917
 40
0.2963174093
 40
0.3687266796
 40
0.4471726875
 40
0.6192084196
 40
0.8060711184
 40
1.0
 40
1.0
 40
1.0
 40
1.0
 10
7.3436744803
 20
10.4811695021
 30
0.0
 10
7.3437028042
 20
10.4811695021
 30
0.0
 10
7.3437488312
 20
10.4811413065
 30
0.0
 10
7.3437935824
 20
10.4810848221
 30
0.0
 10
7.3438498381
 20
10.4809897223
 30
0.0
 10
7.3439151233
 20
10.4808239652
 30
0.0
 10
7.3439892015
 20
10.4805711436
 30
0.0
 10
7.3440628446
 20
10.4802481935
 30
0.0
 10
7.3441361547
 20
10.4798555792
 30
0.0
 10
7.3442085173
 20
10.4793937983
 30
0.0
 10
7.3443092449
 20
10.4786440315
 30
0.0
 10
7.3444278132
 20
10.4775433794
 30
0.0
 10
7.3445574133
 20
10.4760342355
 30
0.0
 10
7.3446790612
 20
10.474285642
 30
0.0
 10
7.3447916293
 20
10.4723145132
 30
0.0
 10
7.344893978
 20
10.4701402153
 30
0.0
 10
7.3450189428
 20
10.466897041
 30
0.0
 10
7.3451388365
 20
10.4625025475
 30
0.0
 10
7.345225063
 20
10.4569463566
 30
0.0
 10
7.345244559
 20
10.453118785
 30
0.0
 10
7.345244559
 20
10.4511695021
 30
0.0
  0
SPLINE
  5
2CA
100
AcDbEntity
  8
0
100
AcDbSpline
 62
9
  6
CONTINUOUS
 70
0
 71
3
 72
25
 73
21
 74
0
 42
0.0000001
 43
0.0000001
 44
0.0000000001
 40
0.0
 40
0.0
 40
0.0
 40
0.0
 40
0.1939288637
 40
0.3807915304
 40
0.5528272644
 40
0.6312732784
 40
0.7036825577
 40
0.7693786836
 40
0.8276913733
 40
0.8780594921
 40
0.9200654058
 40
0.9378092721
 40
0.9533176776
 40
0.9665620897
 40
0.977538426
 40
0.9862564157
 40
0.9927560594
 40
0.9952119324
 40
0.9971821335
 40
1.0
 40
1.0
 40
1.0
 40
1.0
 10
8.3522624214
 20
10.4511695021
 30
0.0
 10
8.3522624214
 20
10.4531187848
 30
0.0
 10
8.3522429255
 20
10.4569463559
 30
0.0
 10
8.352156699
 20
10.4625025463
 30
0.0
 10
8.3520368053
 20
10.4668970396
 30
0.0
 10
8.3519118406
 20
10.4701402141
 30
0.0
 10
8.3518094918
 20
10.4723145122
 30
0.0
 10
8.3516969238
 20
10.4742856412
 30
0.0
 10
8.3515752758
 20
10.4760342349
 30
0.0
 10
8.3514456757
 20
10.477543379
 30
0.0
 10
8.3513271074
 20
10.4786440312
 30
0.0
 10
8.3512263798
 20
10.4793937981
 30
0.0
 10
8.3511540171
 20
10.4798555791
 30
0.0
 10
8.3510807071
 20
10.4802481934
 30
0.0
 10
8.3510070639
 20
10.4805711435
 30
0.0
 10
8.3509329858
 20
10.4808239652
 30
0.0
 10
8.3508677006
 20
10.4809897223
 30
0.0
 10
8.3508114449
 20
10.4810848221
 30
0.0
 10
8.3507666937
 20
10.4811413065
 30
0.0
 10
8.3507206666
 20
10.4811695021
 30
0.0
 10
8.3506923427
 20
10.4811695021
 30
0.0
  0
SPLINE
  5
2CB
100
AcDbEntity
  8
0
100
AcDbSpline
 62
9
  6
CONTINUOUS
 70
0
 71
3
 72
25
 73
21
 74
0
 42
0.0000001
 43
0.0000001
 44
0.0000000001
 40
0.0
 40
0.0
 40
0.0
 40
0.0
 40
0.0028178664
 40
0.0047880674
 40
0.0072439402
 40
0.0137435832
 40
0.022461572
 40
0.0334379074
 40
0.0466823183
 40
0.0621907224
 40
0.0799345864
 40
0.1219404938
 40
0.1723086066
 40
0.2306212917
 40
0.2963174093
 40
0.3687266796
 40
0.4471726875
 40
0.6192084196
 40
0.8060711184
 40
1.0
 40
1.0
 40
1.0
 40
1.0
 10
5.5246923427
 20
10.4811695021
 30
0.0
 10
5.5246640189
 20
10.4811695021
 30
0.0
 10
5.5246179918
 20
10.4811413065
 30
0.0
 10
5.5245732406
 20
10.4810848221
 30
0.0
 10
5.5245169849
 20
10.4809897223
 30
0.0
 10
5.5244516997
 20
10.4808239652
 30
0.0
 10
5.5243776216
 20
10.4805711436
 30
0.0
 10
5.5243039784
 20
10.4802481935
 30
0.0
 10
5.5242306684
 20
10.4798555792
 30
0.0
 10
5.5241583057
 20
10.4793937983
 30
0.0
 10
5.5240575781
 20
10.4786440315
 30
0.0
 10
5.5239390098
 20
10.4775433794
 30
0.0
 10
5.5238094097
 20
10.4760342355
 30
0.0
 10
5.5236877618
 20
10.474285642
 30
0.0
 10
5.5235751938
 20
10.4723145132
 30
0.0
 10
5.523472845
 20
10.4701402153
 30
0.0
 10
5.5233478802
 20
10.466897041
 30
0.0
 10
5.5232279865
 20
10.4625025475
 30
0.0
 10
5.52314176
 20
10.4569463566
 30
0.0
 10
5.5231222641
 20
10.453118785
 30
0.0
 10
5.5231222641
 20
10.4511695021
 30
0.0
  0
SPLINE
  5
2CC
100
AcDbEntity
  8
0
100
AcDbSpline
 62
9
  6
CONTINUOUS
 70
0
 71
3
 72
25
 73
21
 74
0
 42
0.0000001
 43
0.0000001
 44
0.0000000001
 40
0.0
 40
0.0
 40
0.0
 40
0.0
 40
0.1939288816
 40
0.3807915804
 40
0.5528273125
 40
0.6312733204
 40
0.7036825907
 40
0.7693787083
 40
0.8276913934
 40
0.8780595062
 40
0.9200654136
 40
0.9378092776
 40
0.9533176817
 40
0.9665620926
 40
0.977538428
 40
0.9862564168
 40
0.9927560598
 40
0.9952119326
 40
0.9971821336
 40
1.0
 40
1.0
 40
1.0
 40
1.0
 10
6.5301401265
 20
10.4511695021
 30
0.0
 10
6.5301401265
 20
10.453118785
 30
0.0
 10
6.5301596225
 20
10.4569463566
 30
0.0
 10
6.530245849
 20
10.4625025475
 30
0.0
 10
6.5303657427
 20
10.466897041
 30
0.0
 10
6.5304907074
 20
10.4701402153
 30
0.0
 10
6.5305930562
 20
10.4723145132
 30
0.0
 10
6.5307056242
 20
10.474285642
 30
0.0
 10
6.5308272721
 20
10.4760342355
 30
0.0
 10
6.5309568723
 20
10.4775433794
 30
0.0
 10
6.5310754406
 20
10.4786440315
 30
0.0
 10
6.5311761681
 20
10.4793937983
 30
0.0
 10
6.5312485308
 20
10.4798555792
 30
0.0
 10
6.5313218408
 20
10.4802481935
 30
0.0
 10
6.531395484
 20
10.4805711436
 30
0.0
 10
6.5314695622
 20
10.4808239652
 30
0.0
 10
6.5315348473
 20
10.4809897223
 30
0.0
 10
6.5315911031
 20
10.4810848221
 30
0.0
 10
6.5316358542
 20
10.4811413065
 30
0.0
 10
6.5316818813
 20
10.4811695021
 30
0.0
 10
6.5317102052
 20
10.4811695021
 30
0.0
  0
SPLINE
  5
2CD
100
AcDbEntity
  8
0
100
AcDbSpline
 62
9
  6
CONTINUOUS
 70
0
 71
3
 72
25
 73
21
 74
0
 42
0.0000001
 43
0.0000001
 44
0.0000000001
 40
0.0
 40
0.0
 40
0.0
 40
0.0
 40
0.0028178664
 40
0.0047880674
 40
0.0072439402
 40
0.0137435832
 40
0.022461572
 40
0.0334379074
 40
0.0466823183
 40
0.0621907224
 40
0.0799345864
 40
0.1219404938
 40
0.1723086066
 40
0.2306212917
 40
0.2963174093
 40
0.3687266796
 40
0.4471726875
 40
0.6192084196
 40
0.8060711184
 40
1.0
 40
1.0
 40
1.0
 40
1.0
 10
6.5317102052
 20
10.1061695021
 30
0.0
 10
6.5316818813
 20
10.1061695021
 30
0.0
 10
6.5316358542
 20
10.1061976978
 30
0.0
 10
6.5315911031
 20
10.1062541822
 30
0.0
 10
6.5315348473
 20
10.106349282
 30
0.0
 10
6.5314695622
 20
10.1065150391
 30
0.0
 10
6.531395484
 20
10.1067678607
 30
0.0
 10
6.5313218408
 20
10.1070908108
 30
0.0
 10
6.5312485308
 20
10.1074834251
 30
0.0
 10
6.5311761681
 20
10.107945206
 30
0.0
 10
6.5310754406
 20
10.1086949728
 30
0.0
 10
6.5309568723
 20
10.1097956248
 30
0.0
 10
6.5308272721
 20
10.1113047688
 30
0.0
 10
6.5307056242
 20
10.1130533623
 30
0.0
 10
6.5305930562
 20
10.1150244911
 30
0.0
 10
6.5304907074
 20
10.117198789
 30
0.0
 10
6.5303657427
 20
10.1204419633
 30
0.0
 10
6.530245849
 20
10.1248364568
 30
0.0
 10
6.5301596225
 20
10.1303926477
 30
0.0
 10
6.5301401265
 20
10.1342202193
 30
0.0
 10
6.5301401265
 20
10.1361695021
 30
0.0
  0
SPLINE
  5
2CE
100
AcDbEntity
  8
0
100
AcDbSpline
 62
9
  6
CONTINUOUS
 70
0
 71
3
 72
25
 73
21
 74
0
 42
0.0000001
 43
0.0000001
 44
0.0000000001
 40
0.0
 40
0.0
 40
0.0
 40
0.0
 40
0.1939288816
 40
0.3807915804
 40
0.5528273125
 40
0.6312733203
 40
0.7036825907
 40
0.7693787083
 40
0.8276913934
 40
0.8780595062
 40
0.9200654136
 40
0.9378092776
 40
0.9533176816
 40
0.9665620926
 40
0.977538428
 40
0.9862564168
 40
0.9927560598
 40
0.9952119326
 40
0.9971821336
 40
1.0
 40
1.0
 40
1.0
 40
1.0
 10
5.5231222641
 20
10.1361695021
 30
0.0
 10
5.5231222641
 20
10.1342202193
 30
0.0
 10
5.52314176
 20
10.1303926477
 30
0.0
 10
5.5232279865
 20
10.1248364568
 30
0.0
 10
5.5233478802
 20
10.1204419633
 30
0.0
 10
5.523472845
 20
10.117198789
 30
0.0
 10
5.5235751938
 20
10.1150244911
 30
0.0
 10
5.5236877618
 20
10.1130533623
 30
0.0
 10
5.5238094097
 20
10.1113047688
 30
0.0
 10
5.5239390098
 20
10.1097956248
 30
0.0
 10
5.5240575781
 20
10.1086949728
 30
0.0
 10
5.5241583057
 20
10.107945206
 30
0.0
 10
5.5242306684
 20
10.1074834251
 30
0.0
 10
5.5243039784
 20
10.1070908108
 30
0.0
 10
5.5243776216
 20
10.1067678607
 30
0.0
 10
5.5244516997
 20
10.1065150391
 30
0.0
 10
5.5245169849
 20
10.106349282
 30
0.0
 10
5.5245732406
 20
10.1062541822
 30
0.0
 10
5.5246179918
 20
10.1061976978
 30
0.0
 10
5.5246640189
 20
10.1061695021
 30
0.0
 10
5.5246923427
 20
10.1061695021
 30
0.0
  0
SPLINE
  5
2CF
100
AcDbEntity
  8
0
100
AcDbSpline
 62
9
  6
CONTINUOUS
 70
0
 71
3
 72
25
 73
21
 74
0
 42
0.0000001
 43
0.0000001
 44
0.0000000001
 40
0.0
 40
0.0
 40
0.0
 40
0.0
 40
0.0028178664
 40
0.0047880675
 40
0.0072439405
 40
0.0137435842
 40
0.0224615739
 40
0.0334379104
 40
0.0466823227
 40
0.0621907282
 40
0.0799345946
 40
0.1219405084
 40
0.1723086272
 40
0.2306213169
 40
0.2963174429
 40
0.3687267222
 40
0.4471727362
 40
0.6192084701
 40
0.8060711365
 40
1.0
 40
1.0
 40
1.0
 40
1.0
 10
8.3506923427
 20
10.1061695021
 30
0.0
 10
8.3507206666
 20
10.1061695021
 30
0.0
 10
8.3507666937
 20
10.1061976977
 30
0.0
 10
8.3508114449
 20
10.1062541822
 30
0.0
 10
8.3508677006
 20
10.106349282
 30
0.0
 10
8.3509329858
 20
10.1065150391
 30
0.0
 10
8.3510070639
 20
10.1067678608
 30
0.0
 10
8.3510807071
 20
10.1070908109
 30
0.0
 10
8.3511540171
 20
10.1074834252
 30
0.0
 10
8.3512263798
 20
10.1079452061
 30
0.0
 10
8.3513271074
 20
10.1086949731
 30
0.0
 10
8.3514456757
 20
10.1097956253
 30
0.0
 10
8.3515752758
 20
10.1113047694
 30
0.0
 10
8.3516969238
 20
10.1130533631
 30
0.0
 10
8.3518094918
 20
10.1150244921
 30
0.0
 10
8.3519118406
 20
10.1171987902
 30
0.0
 10
8.3520368053
 20
10.1204419647
 30
0.0
 10
8.352156699
 20
10.1248364579
 30
0.0
 10
8.3522429255
 20
10.1303926484
 30
0.0
 10
8.3522624214
 20
10.1342202195
 30
0.0
 10
8.3522624214
 20
10.1361695021
 30
0.0
  0
SPLINE
  5
2D0
100
AcDbEntity
  8
0
100
AcDbSpline
 62
9
  6
CONTINUOUS
 70
0
 71
3
 72
25
 73
21
 74
0
 42
0.0000001
 43
0.0000001
 44
0.0000000001
 40
0.0
 40
0.0
 40
0.0
 40
0.0
 40
0.1939288816
 40
0.3807915804
 40
0.5528273125
 40
0.6312733204
 40
0.7036825907
 40
0.7693787083
 40
0.8276913934
 40
0.8780595062
 40
0.9200654136
 40
0.9378092776
 40
0.9533176817
 40
0.9665620926
 40
0.977538428
 40
0.9862564168
 40
0.9927560598
 40
0.9952119326
 40
0.9971821336
 40
1.0
 40
1.0
 40
1.0
 40
1.0
 10
7.345244559
 20
10.1361695021
 30
0.0
 10
7.345244559
 20
10.1342202193
 30
0.0
 10
7.345225063
 20
10.1303926477
 30
0.0
 10
7.3451388365
 20
10.1248364568
 30
0.0
 10
7.3450189428
 20
10.1204419633
 30
0.0
 10
7.344893978
 20
10.117198789
 30
0.0
 10
7.3447916293
 20
10.1150244911
 30
0.0
 10
7.3446790612
 20
10.1130533623
 30
0.0
 10
7.3445574133
 20
10.1113047688
 30
0.0
 10
7.3444278132
 20
10.1097956248
 30
0.0
 10
7.3443092449
 20
10.1086949728
 30
0.0
 10
7.3442085173
 20
10.107945206
 30
0.0
 10
7.3441361547
 20
10.1074834251
 30
0.0
 10
7.3440628446
 20
10.1070908108
 30
0.0
 10
7.3439892015
 20
10.1067678607
 30
0.0
 10
7.3439151233
 20
10.1065150391
 30
0.0
 10
7.3438498381
 20
10.106349282
 30
0.0
 10
7.3437935824
 20
10.1062541822
 30
0.0
 10
7.3437488312
 20
10.1061976978
 30
0.0
 10
7.3437028042
 20
10.1061695021
 30
0.0
 10
7.3436744803
 20
10.1061695021
 30
0.0
  0
SPLINE
  5
2D1
100
AcDbEntity
  8
0
100
AcDbSpline
 62
9
  6
CONTINUOUS
 70
0
 71
3
 72
16
 73
12
 74
0
 42
0.0000001
 43
0.0000001
 44
0.0000000001
 40
0.0
 40
0.0
 40
0.0
 40
0.0
 40
0.0161028461
 40
0.036955728
 40
0.0635208944
 40
0.0962529249
 40
0.181020769
 40
0.2922025909
 40
0.4300320985
 40
0.594241869
 40
1.0
 40
1.0
 40
1.0
 40
1.0
 10
10.421263696
 20
10.1981840683
 30
0.0
 10
10.4214069705
 20
10.1981158762
 30
0.0
 10
10.4216961255
 20
10.197879705
 30
0.0
 10
10.4220627657
 20
10.1973691972
 30
0.0
 10
10.4224223221
 20
10.1966634501
 30
0.0
 10
10.4229358537
 20
10.1953385024
 30
0.0
 10
10.4235233231
 20
10.1931580071
 30
0.0
 10
10.4241569324
 20
10.1899298962
 30
0.0
 10
10.4247559302
 20
10.1859010513
 30
0.0
 10
10.4255647582
 20
10.1789730151
 30
0.0
 10
10.4260155169
 20
10.1733728687
 30
0.0
 10
10.4262913596
 20
10.1693841155
 30
0.0
  0
SPLINE
  5
2D2
100
AcDbEntity
  8
0
100
AcDbSpline
 62
9
  6
CONTINUOUS
 70
0
 71
3
 72
13
 73
9
 74
0
 42
0.0000001
 43
0.0000001
 44
0.0000000001
 40
0.0
 40
0.0
 40
0.0
 40
0.0
 40
0.0816038744
 40
0.1783086736
 40
0.2889987522
 40
0.4122928305
 40
0.6906827533
 40
1.0
 40
1.0
 40
1.0
 40
1.0
 10
10.4262913596
 20
10.1693841155
 30
0.0
 10
10.4266351025
 20
10.1644135096
 30
0.0
 10
10.4272224885
 20
10.1535411932
 30
0.0
 10
10.4278476797
 20
10.135906343
 30
0.0
 10
10.4282793101
 20
10.1157195506
 30
0.0
 10
10.4286019303
 20
10.0844367812
 30
0.0
 10
10.4284388792
 20
10.0410235144
 30
0.0
 10
10.4278172983
 20
10.0051443585
 30
0.0
 10
10.4273802489
 20
9.9862634719
 30
0.0
  0
SPLINE
  5
2D3
100
AcDbEntity
  8
0
100
AcDbSpline
 62
9
  6
CONTINUOUS
 70
0
 71
3
 72
16
 73
12
 74
0
 42
0.0000001
 43
0.0000001
 44
0.0000000001
 40
0.0
 40
0.0
 40
0.0
 40
0.0
 40
0.1730086898
 40
0.3302033419
 40
0.4722261788
 40
0.5999524524
 40
0.7145897753
 40
0.8178111137
 40
0.9119057634
 40
0.9564989116
 40
1.0
 40
1.0
 40
1.0
 40
1.0
 10
10.2551916591
 20
9.9849107989
 30
0.0
 10
10.262222804
 20
9.9970743683
 30
0.0
 10
10.2761785361
 20
10.0199881944
 30
0.0
 10
10.2979986022
 20
10.0515535221
 30
0.0
 10
10.3196903201
 20
10.078645288
 30
0.0
 10
10.3412652064
 20
10.1012693698
 30
0.0
 10
10.3627505707
 20
10.1194288572
 30
0.0
 10
10.3841752491
 20
10.1331101741
 30
0.0
 10
10.4023508112
 20
10.1408737325
 30
0.0
 10
10.4166869065
 20
10.144616049
 30
0.0
 10
10.4237736385
 20
10.1457044758
 30
0.0
 10
10.4272891528
 20
10.1460514681
 30
0.0
  0
SPLINE
  5
2D4
100
AcDbEntity
  8
0
100
AcDbSpline
 62
9
  6
CONTINUOUS
 70
0
 71
3
 72
10
 73
6
 74
0
 42
0.0000001
 43
0.0000001
 44
0.0000000001
 40
0.0
 40
0.0
 40
0.0
 40
0.0
 40
0.2285222349
 40
0.4720644821
 40
1.0
 40
1.0
 40
1.0
 40
1.0
 10
11.6201929458
 20
9.9849108241
 30
0.0
 10
11.6073227839
 20
9.9863410513
 30
0.0
 10
11.580712928
 20
9.9890855328
 30
0.0
 10
11.5242737351
 20
9.9941596429
 30
0.0
 10
11.4806666518
 20
9.9973084676
 30
0.0
 10
11.4508110703
 20
9.9992067448
 30
0.0
  0
LINE
  5
2D5
100
AcDbEntity
  8
0
100
AcDbLine
 62
9
  6
CONTINUOUS
 10
11.4508110703
 20
9.9992067448
 11
11.4496850102
 21
9.9992782176
  0
LINE
  5
2D6
100
AcDbEntity
  8
0
100
AcDbLine
 62
9
  6
CONTINUOUS
 10
10.4256869181
 20
9.9992770331
 11
10.4245561203
 21
9.9992052524
  0
SPLINE
  5
2D7
100
AcDbEntity
  8
0
100
AcDbSpline
 62
9
  6
CONTINUOUS
 70
0
 71
3
 72
10
 73
6
 74
0
 42
0.0000001
 43
0.0000001
 44
0.0000000001
 40
0.0
 40
0.0
 40
0.0
 40
0.0
 40
0.527929365
 40
0.7714719295
 40
1.0
 40
1.0
 40
1.0
 40
1.0
 10
10.4245561203
 20
9.9992052524
 30
0.0
 10
10.3947039624
 20
9.9973069887
 30
0.0
 10
10.3511016906
 20
9.994158441
 30
0.0
 10
10.2946682731
 20
9.9890850125
 30
0.0
 10
10.2680607908
 20
9.9863408687
 30
0.0
 10
10.2551916153
 20
9.9849107991
 30
0.0
  0
SPLINE
  5
2D8
100
AcDbEntity
  8
0
100
AcDbSpline
 62
9
  6
CONTINUOUS
 70
0
 71
3
 72
15
 73
11
 74
0
 42
0.0000001
 43
0.0000001
 44
0.0000000001
 40
0.0
 40
0.0
 40
0.0
 40
0.0
 40
0.1161378568
 40
0.2393499251
 40
0.3682109612
 40
0.4998320445
 40
0.6314889732
 40
0.7604469714
 40
0.8837737048
 40
1.0
 40
1.0
 40
1.0
 40
1.0
 10
11.6800747062
 20
10.046726548
 30
0.0
 10
11.6801851629
 20
10.0430225006
 30
0.0
 10
11.6796878742
 20
10.035350739
 30
0.0
 10
11.6767124517
 20
10.0239060957
 30
0.0
 10
11.6712240659
 20
10.0128670585
 30
0.0
 10
11.6634845273
 20
10.0029178145
 30
0.0
 10
11.6537747643
 20
9.9948753769
 30
0.0
 10
11.6429066918
 20
9.9890409331
 30
0.0
 10
11.631557247
 20
9.9856906631
 30
0.0
 10
11.6239014152
 20
9.9849305387
 30
0.0
 10
11.6201929517
 20
9.9849108231
 30
0.0
  0
SPLINE
  5
2D9
100
AcDbEntity
  8
0
100
AcDbSpline
 62
9
  6
CONTINUOUS
 70
0
 71
3
 72
23
 73
19
 74
0
 42
0.0000001
 43
0.0000001
 44
0.0000000001
 40
0.0
 40
0.0
 40
0.0
 40
0.0
 40
0.0094808185
 40
0.0214106363
 40
0.0356778589
 40
0.0521506124
 40
0.0707009272
 40
0.0911948305
 40
0.1375180132
 40
0.1901932412
 40
0.2483883703
 40
0.3113556989
 40
0.3784341649
 40
0.449017286
 40
0.5225596396
 40
0.6765470588
 40
0.8367824609
 40
1.0
 40
1.0
 40
1.0
 40
1.0
 10
11.6800756702
 20
10.0467252201
 30
0.0
 10
11.6804712327
 20
10.0460396603
 30
0.0
 10
11.6812318947
 20
10.044416336
 30
0.0
 10
11.6822698294
 20
10.0416234904
 30
0.0
 10
11.683330166
 20
10.038221151
 30
0.0
 10
11.6844088491
 20
10.0342495685
 30
0.0
 10
11.6855022457
 20
10.0297451499
 30
0.0
 10
11.6870405417
 20
10.0227859978
 30
0.0
 10
11.6889531893
 20
10.0129940483
 30
0.0
 10
11.6912040614
 20
10.0000649209
 30
0.0
 10
11.6934817057
 20
9.9857317297
 30
0.0
 10
11.6957790771
 20
9.9701852991
 30
0.0
 10
11.6980897578
 20
9.9535960618
 30
0.0
 10
11.7004100387
 20
9.9361172225
 30
0.0
 10
11.7035606446
 20
9.9114298112
 30
0.0
 10
11.7074689412
 20
9.8792943021
 30
0.0
 10
11.712104106
 20
9.8397062176
 30
0.0
 10
11.7151888872
 20
9.8128799504
 30
0.0
 10
11.7167460194
 20
9.7993432151
 30
0.0
  0
SPLINE
  5
2DA
100
AcDbEntity
  8
0
100
AcDbSpline
 62
9
  6
CONTINUOUS
 70
0
 71
3
 72
19
 73
15
 74
0
 42
0.0000001
 43
0.0000001
 44
0.0000000001
 40
0.0
 40
0.0
 40
0.0
 40
0.0
 40
0.1420481251
 40
0.2839207348
 40
0.4239052372
 40
0.5597365944
 40
0.6253361167
 40
0.6888235737
 40
0.7497393439
 40
0.8076611616
 40
0.8621523569
 40
0.912605345
 40
0.9585707369
 40
1.0
 40
1.0
 40
1.0
 40
1.0
 10
10.1586388094
 20
9.7993430039
 30
0.0
 10
10.1601812215
 20
9.8094166252
 30
0.0
 10
10.1640625189
 20
9.8294376768
 30
0.0
 10
10.1721518056
 20
9.8587855168
 30
0.0
 10
10.1823830186
 20
9.8869840207
 30
0.0
 10
10.1925679546
 20
9.9092947562
 30
0.0
 10
10.2015845374
 20
9.9260324179
 30
0.0
 10
10.2086090218
 20
9.9377211578
 30
0.0
 10
10.2159226241
 20
9.9485740725
 30
0.0
 10
10.2234710001
 20
9.9584664631
 30
0.0
 10
10.2311811707
 20
9.9672603922
 30
0.0
 10
10.2390070906
 20
9.9747685708
 30
0.0
 10
10.24689029
 20
9.9807796334
 30
0.0
 10
10.2524385094
 20
9.9837909961
 30
0.0
 10
10.2551917896
 20
9.9849107645
 30
0.0
  0
SPLINE
  5
2DB
100
AcDbEntity
  8
0
100
AcDbSpline
 62
9
  6
CONTINUOUS
 70
0
 71
3
 72
19
 73
15
 74
0
 42
0.0000001
 43
0.0000001
 44
0.0000000001
 40
0.0
 40
0.0
 40
0.0
 40
0.0
 40
0.0414269021
 40
0.0873873996
 40
0.1378343601
 40
0.1923200076
 40
0.2502380949
 40
0.3111520131
 40
0.3746392501
 40
0.4402399548
 40
0.5760772158
 40
0.7160719497
 40
0.8579558346
 40
1.0
 40
1.0
 40
1.0
 40
1.0
 10
11.620192689
 20
9.9849108098
 30
0.0
 10
11.6229457949
 20
9.9837910532
 30
0.0
 10
11.6284935979
 20
9.9807800453
 30
0.0
 10
11.6363762327
 20
9.9747697927
 30
0.0
 10
11.6442015068
 20
9.9672626308
 30
0.0
 10
11.6519111406
 20
9.9584696724
 30
0.0
 10
11.6594592179
 20
9.9485780407
 30
0.0
 10
11.6667727943
 20
9.9377255925
 30
0.0
 10
11.6737974728
 20
9.9260370252
 30
0.0
 10
11.6828146075
 20
9.9092990757
 30
0.0
 10
11.6930004157
 20
9.8869873347
 30
0.0
 10
11.7032324354
 20
9.858786976
 30
0.0
 10
11.7113217246
 20
9.8294377929
 30
0.0
 10
11.7152033533
 20
9.8094162641
 30
0.0
 10
11.7167459225
 20
9.7993429422
 30
0.0
  0
SPLINE
  5
2DC
100
AcDbEntity
  8
0
100
AcDbSpline
 62
9
  6
CONTINUOUS
 70
0
 71
3
 72
23
 73
19
 74
0
 42
0.0000001
 43
0.0000001
 44
0.0000000001
 40
0.0
 40
0.0
 40
0.0
 40
0.0
 40
0.1632193198
 40
0.3234482408
 40
0.4774355848
 40
0.550976536
 40
0.6215591969
 40
0.6886380801
 40
0.751606376
 40
0.8098020835
 40
0.862479111
 40
0.9088038107
 40
0.9292978761
 40
0.9478477568
 40
0.9643202726
 40
0.9785881229
 40
0.9905188472
 40
1.0
 40
1.0
 40
1.0
 40
1.0
 10
10.1586386669
 20
9.799343232
 30
0.0
 10
10.1601955648
 20
9.8128800722
 30
0.0
 10
10.1632804518
 20
9.8397057905
 30
0.0
 10
10.1679157245
 20
9.8792932508
 30
0.0
 10
10.1718238043
 20
9.9114279466
 30
0.0
 10
10.1749744258
 20
9.9361150619
 30
0.0
 10
10.1772946722
 20
9.953593691
 30
0.0
 10
10.1796053158
 20
9.9701829229
 30
0.0
 10
10.1819026355
 20
9.9857294439
 30
0.0
 10
10.1841802873
 20
10.0000628399
 30
0.0
 10
10.186431113
 20
10.0129922353
 30
0.0
 10
10.1883437178
 20
10.0227844362
 30
0.0
 10
10.1898819964
 20
10.0297436607
 30
0.0
 10
10.1909753951
 20
10.0342480105
 30
0.0
 10
10.1920540959
 20
10.0382195616
 30
0.0
 10
10.1931144253
 20
10.0416219966
 30
0.0
 10
10.1941523312
 20
10.0444150003
 30
0.0
 10
10.1949129734
 20
10.0460384409
 30
0.0
 10
10.1953085447
 20
10.0467240231
 30
0.0
  0
SPLINE
  5
2DD
100
AcDbEntity
  8
0
100
AcDbSpline
 62
9
  6
CONTINUOUS
 70
0
 71
3
 72
15
 73
11
 74
0
 42
0.0000001
 43
0.0000001
 44
0.0000000001
 40
0.0
 40
0.0
 40
0.0
 40
0.0
 40
0.1159947008
 40
0.2390917968
 40
0.3678788065
 40
0.4994724793
 40
0.6311568593
 40
0.7601889799
 40
0.8836307155
 40
1.0
 40
1.0
 40
1.0
 40
1.0
 10
10.1953099981
 20
10.0467277237
 30
0.0
 10
10.1951996027
 20
10.043028193
 30
0.0
 10
10.1956951785
 20
10.0353646425
 30
0.0
 10
10.1986642587
 20
10.0239293436
 30
0.0
 10
10.2041440265
 20
10.0128937207
 30
0.0
 10
10.2118767068
 20
10.0029419461
 30
0.0
 10
10.2215840408
 20
9.994892544
 30
0.0
 10
10.2324556227
 20
9.9890493267
 30
0.0
 10
10.2438145682
 20
9.9856925039
 30
0.0
 10
10.2514787701
 20
9.9849305211
 30
0.0
 10
10.2551918474
 20
9.984910788
 30
0.0
  0
SPLINE
  5
2DE
100
AcDbEntity
  8
0
100
AcDbSpline
 62
9
  6
CONTINUOUS
 70
0
 71
3
 72
23
 73
19
 74
0
 42
0.0000001
 43
0.0000001
 44
0.0000000001
 40
0.0
 40
0.0
 40
0.0
 40
0.0
 40
0.0490580119
 40
0.096271394
 40
0.142532245
 40
0.1887868792
 40
0.2359810753
 40
0.2850053889
 40
0.3366549678
 40
0.3916103448
 40
0.4504367084
 40
0.5135947345
 40
0.581456311
 40
0.6543207574
 40
0.7324293541
 40
0.8159774497
 40
0.905124163
 40
1.0
 40
1.0
 40
1.0
 40
1.0
 10
10.4212571689
 20
10.1979952476
 30
0.0
 10
10.4168412871
 20
10.2000990094
 30
0.0
 10
10.4079174266
 20
10.2037173788
 30
0.0
 10
10.3941094421
 20
10.2072605154
 30
0.0
 10
10.3802110044
 20
10.208777378
 30
0.0
 10
10.3662419953
 20
10.2082619698
 30
0.0
 10
10.3522195041
 20
10.2057195995
 30
0.0
 10
10.3381555971
 20
10.2011626645
 30
0.0
 10
10.3240541509
 20
10.1946054305
 30
0.0
 10
10.3099131174
 20
10.1860594625
 30
0.0
 10
10.2957277072
 20
10.1755321741
 30
0.0
 10
10.2814928585
 20
10.163027388
 30
0.0
 10
10.2672044135
 20
10.1485465598
 30
0.0
 10
10.2528594216
 20
10.1320898464
 30
0.0
 10
10.2384560412
 20
10.113656855
 30
0.0
 10
10.2239932377
 20
10.0932469353
 30
0.0
 10
10.2094707975
 20
10.0708598638
 30
0.0
 10
10.2000461003
 20
10.0551123391
 30
0.0
 10
10.1953147582
 20
10.0469208154
 30
0.0
  0
SPLINE
  5
2DF
100
AcDbEntity
  8
0
100
AcDbSpline
 62
9
  6
CONTINUOUS
 70
0
 71
3
 72
23
 73
19
 74
0
 42
0.0000001
 43
0.0000001
 44
0.0000000001
 40
0.0
 40
0.0
 40
0.0
 40
0.0
 40
0.1885538059
 40
0.3706434061
 40
0.5391978615
 40
0.6165570849
 40
0.6883915134
 40
0.7540691971
 40
0.8129623114
 40
0.8645360956
 40
0.9083771459
 40
0.9440846423
 40
0.9587783504
 40
0.9713333404
 40
0.9817336136
 40
0.9899687114
 40
0.9960418094
 40
1.0
 40
1.0
 40
1.0
 40
1.0
 10
10.5626696432
 20
10.8662634719
 30
0.0
 10
10.558904247
 20
10.8663881161
 30
0.0
 10
10.5515017147
 20
10.8666088481
 30
0.0
 10
10.5407308987
 20
10.866857716
 30
0.0
 10
10.5321799698
 20
10.8669910128
 30
0.0
 10
10.5258313105
 20
10.8670451334
 30
0.0
 10
10.5215380054
 20
10.8670589419
 30
0.0
 10
10.517613655
 20
10.8670474232
 30
0.0
 10
10.5140942984
 20
10.8670106147
 30
0.0
 10
10.5110116425
 20
10.8669490115
 30
0.0
 10
10.5083930503
 20
10.8668635375
 30
0.0
 10
10.5065121583
 20
10.8667690792
 30
0.0
 10
10.5052575802
 20
10.8666771582
 30
0.0
 10
10.5045084125
 20
10.8666075388
 30
0.0
 10
10.5038897799
 20
10.8665330173
 30
0.0
 10
10.5034015843
 20
10.8664547673
 30
0.0
 10
10.503046788
 20
10.8663726379
 30
0.0
 10
10.502855168
 20
10.8663051641
 30
0.0
 10
10.5027879619
 20
10.866263472
 30
0.0
  0
SPLINE
  5
2E0
100
AcDbEntity
  8
0
100
AcDbSpline
 62
9
  6
CONTINUOUS
 70
0
 71
3
 72
23
 73
19
 74
0
 42
0.0000001
 43
0.0000001
 44
0.0000000001
 40
0.0
 40
0.0
 40
0.0
 40
0.0
 40
0.0039581906
 40
0.0100312886
 40
0.0182663864
 40
0.0286666596
 40
0.0412216496
 40
0.0559153577
 40
0.0916228541
 40
0.1354639045
 40
0.1870376886
 40
0.2459308029
 40
0.3116084866
 40
0.3834429151
 40
0.4608021386
 40
0.6293565939
 40
0.8114461941
 40
1.0
 40
1.0
 40
1.0
 40
1.0
 10
10.4736222025
 20
9.986263472
 30
0.0
 10
10.4736894086
 20
9.9863051641
 30
0.0
 10
10.4738810286
 20
9.9863726379
 30
0.0
 10
10.4742358249
 20
9.9864547673
 30
0.0
 10
10.4747240205
 20
9.9865330173
 30
0.0
 10
10.4753426531
 20
9.9866075388
 30
0.0
 10
10.4760918208
 20
9.9866771582
 30
0.0
 10
10.4773463989
 20
9.9867690792
 30
0.0
 10
10.4792272909
 20
9.9868635375
 30
0.0
 10
10.4818458831
 20
9.9869490115
 30
0.0
 10
10.484928539
 20
9.9870106147
 30
0.0
 10
10.4884478956
 20
9.9870474232
 30
0.0
 10
10.492372246
 20
9.9870589419
 30
0.0
 10
10.4966655511
 20
9.9870451334
 30
0.0
 10
10.5030142104
 20
9.9869910128
 30
0.0
 10
10.5115651393
 20
9.986857716
 30
0.0
 10
10.5223359553
 20
9.9866088481
 30
0.0
 10
10.5297384876
 20
9.9863881161
 30
0.0
 10
10.5335038838
 20
9.9862634719
 30
0.0
  0
SPLINE
  5
2E1
100
AcDbEntity
  8
0
100
AcDbSpline
 62
9
  6
CONTINUOUS
 70
0
 71
3
 72
23
 73
19
 74
0
 42
0.0000001
 43
0.0000001
 44
0.0000000001
 40
0.0
 40
0.0
 40
0.0
 40
0.0
 40
0.0039581905
 40
0.0100312885
 40
0.0182663861
 40
0.0286666592
 40
0.0412216491
 40
0.0559153571
 40
0.0916228532
 40
0.1354639035
 40
0.1870376876
 40
0.2459308018
 40
0.3116084854
 40
0.3834429139
 40
0.4608021375
 40
0.629356593
 40
0.8114461936
 40
1.0
 40
1.0
 40
1.0
 40
1.0
 10
11.3725967236
 20
10.8662634719
 30
0.0
 10
11.3725295175
 20
10.8663051641
 30
0.0
 10
11.3723378975
 20
10.8663726378
 30
0.0
 10
11.3719831012
 20
10.8664547673
 30
0.0
 10
11.3714949056
 20
10.8665330173
 30
0.0
 10
11.370876273
 20
10.8666075388
 30
0.0
 10
11.3701271053
 20
10.8666771582
 30
0.0
 10
11.3688725272
 20
10.8667690792
 30
0.0
 10
11.3669916352
 20
10.8668635375
 30
0.0
 10
11.3643730431
 20
10.8669490115
 30
0.0
 10
11.3612903872
 20
10.8670106147
 30
0.0
 10
11.3577710306
 20
10.8670474232
 30
0.0
 10
11.3538466802
 20
10.8670589419
 30
0.0
 10
11.3495533751
 20
10.8670451334
 30
0.0
 10
11.3432047158
 20
10.8669910128
 30
0.0
 10
11.3346537869
 20
10.866857716
 30
0.0
 10
11.323882971
 20
10.8666088481
 30
0.0
 10
11.3164804387
 20
10.8663881161
 30
0.0
 10
11.3127150425
 20
10.866263472
 30
0.0
  0
SPLINE
  5
2E2
100
AcDbEntity
  8
0
100
AcDbSpline
 62
9
  6
CONTINUOUS
 70
0
 71
3
 72
23
 73
19
 74
0
 42
0.0000001
 43
0.0000001
 44
0.0000000001
 40
0.0
 40
0.0
 40
0.0
 40
0.0
 40
0.1885538064
 40
0.370643407
 40
0.5391978625
 40
0.6165570861
 40
0.6883915146
 40
0.7540691982
 40
0.8129623124
 40
0.8645360965
 40
0.9083771468
 40
0.9440846429
 40
0.9587783509
 40
0.9713333408
 40
0.9817336139
 40
0.9899687115
 40
0.9960418095
 40
1.0
 40
1.0
 40
1.0
 40
1.0
 10
11.3418808019
 20
9.986263472
 30
0.0
 10
11.3456461981
 20
9.9863881161
 30
0.0
 10
11.3530487303
 20
9.9866088481
 30
0.0
 10
11.3638195463
 20
9.986857716
 30
0.0
 10
11.3723704752
 20
9.9869910128
 30
0.0
 10
11.3787191345
 20
9.9870451334
 30
0.0
 10
11.3830124396
 20
9.9870589419
 30
0.0
 10
11.38693679
 20
9.9870474232
 30
0.0
 10
11.3904561466
 20
9.9870106147
 30
0.0
 10
11.3935388025
 20
9.9869490115
 30
0.0
 10
11.3961573946
 20
9.9868635375
 30
0.0
 10
11.3980382866
 20
9.9867690792
 30
0.0
 10
11.3992928647
 20
9.9866771582
 30
0.0
 10
11.4000420324
 20
9.9866075388
 30
0.0
 10
11.400660665
 20
9.9865330173
 30
0.0
 10
11.4011488606
 20
9.9864547673
 30
0.0
 10
11.4015036569
 20
9.9863726378
 30
0.0
 10
11.4016952769
 20
9.9863051641
 30
0.0
 10
11.401762483
 20
9.9862634719
 30
0.0
  0
SPLINE
  5
2E3
100
AcDbEntity
  8
0
100
AcDbSpline
 62
9
  6
CONTINUOUS
 70
0
 71
3
 72
16
 73
12
 74
0
 42
0.0000001
 43
0.0000001
 44
0.0000000001
 40
0.0
 40
0.0
 40
0.0
 40
0.0
 40
0.0435011767
 40
0.088094053
 40
0.1821874615
 40
0.2854072785
 40
0.4000433774
 40
0.5277691213
 40
0.6697923794
 40
0.826988565
 40
1.0
 40
1.0
 40
1.0
 40
1.0
 10
11.4480847046
 20
10.146052508
 30
0.0
 10
11.4516004194
 20
10.1457058875
 30
0.0
 10
11.4586875676
 20
10.1446181609
 30
0.0
 10
11.473024539
 20
10.1408770489
 30
0.0
 10
11.4912012845
 20
10.1331145894
 30
0.0
 10
11.5126273598
 20
10.1194339319
 30
0.0
 10
11.5341140941
 20
10.101274528
 30
0.0
 10
11.5556903367
 20
10.0786499673
 30
0.0
 10
11.5773834087
 20
10.0515571653
 30
0.0
 10
11.5992048317
 20
10.0199902465
 30
0.0
 10
11.6131613876
 20
9.9970751256
 30
0.0
 10
11.6201929511
 20
9.9849108242
 30
0.0
  0
SPLINE
  5
2E4
100
AcDbEntity
  8
0
100
AcDbSpline
 62
9
  6
CONTINUOUS
 70
0
 71
3
 72
51
 73
47
 74
0
 42
0.0000001
 43
0.0000001
 44
0.0000000001
 40
0.0
 40
0.0
 40
0.0
 40
0.0
 40
0.0035294608
 40
0.0055282599
 40
0.0077102012
 40
0.0126784323
 40
0.0185195862
 40
0.0252778059
 40
0.0329768691
 40
0.0416287499
 40
0.0512382624
 40
0.0618028719
 40
0.0733056034
 40
0.0857242546
 40
0.099034939
 40
0.1282304246
 40
0.1606834203
 40
0.1961566546
 40
0.234329915
 40
0.2748597514
 40
0.3174002773
 40
0.3615929906
 40
0.4070340617
 40
0.4999968932
 40
0.5929599685
 40
0.6384011983
 40
0.6825939644
 40
0.7251344032
 40
0.7656642351
 40
0.8038378617
 40
0.839312123
 40
0.8717669491
 40
0.9009646121
 40
0.9142763252
 40
0.9266958632
 40
0.9381992634
 40
0.9487642474
 40
0.9583737928
 40
0.9670254284
 40
0.9747240603
 40
0.981481755
 40
0.9873223818
 40
0.9922901715
 40
0.9944719483
 40
0.9964706294
 40
1.0
 40
1.0
 40
1.0
 40
1.0
 10
10.1586388185
 20
9.7993431876
 30
0.0
 10
10.1593841009
 20
9.8010516819
 30
0.0
 10
10.1610027835
 20
9.8035367888
 30
0.0
 10
10.1637539179
 20
9.8065402302
 30
0.0
 10
10.1673475818
 20
9.8097816337
 30
0.0
 10
10.1729875734
 20
9.8137286676
 30
0.0
 10
10.1811399531
 20
9.8181826003
 30
0.0
 10
10.1909447146
 20
9.8225399504
 30
0.0
 10
10.2023897611
 20
9.8267945276
 30
0.0
 10
10.2154633488
 20
9.8309383794
 30
0.0
 10
10.2301488077
 20
9.8349622346
 30
0.0
 10
10.2464210406
 20
9.8388557772
 30
0.0
 10
10.2642430346
 20
9.842616733
 30
0.0
 10
10.2835706307
 20
9.8462405934
 30
0.0
 10
10.3121805733
 20
9.8510314677
 30
0.0
 10
10.351386508
 20
9.8565612592
 30
0.0
 10
10.4023489137
 20
9.8624022974
 30
0.0
 10
10.458144836
 20
9.8675916026
 30
0.0
 10
10.5182755263
 20
9.8721228683
 30
0.0
 10
10.5821922958
 20
9.8759808061
 30
0.0
 10
10.6493291776
 20
9.8791512877
 30
0.0
 10
10.7190907085
 20
9.8816208159
 30
0.0
 10
10.8154956931
 20
9.8839937673
 30
0.0
 10
10.9376876068
 20
9.8851508211
 30
0.0
 10
11.0598796042
 20
9.8839938336
 30
0.0
 10
11.1562848324
 20
9.8816210189
 30
0.0
 10
11.2260464344
 20
9.8791516495
 30
0.0
 10
11.2931833061
 20
9.8759813929
 30
0.0
 10
11.357100233
 20
9.8721236533
 30
0.0
 10
11.4172316649
 20
9.8675924621
 30
0.0
 10
11.4730292847
 20
9.8624030135
 30
0.0
 10
11.5239943216
 20
9.8565615748
 30
0.0
 10
11.5632028811
 20
9.8510313487
 30
0.0
 10
11.5918149556
 20
9.8462401183
 30
0.0
 10
11.6111438975
 20
9.8426160302
 30
0.0
 10
11.6289668972
 20
9.8388549039
 30
0.0
 10
11.6452396925
 20
9.8349612689
 30
0.0
 10
11.6599252362
 20
9.8309373967
 30
0.0
 10
11.6729984856
 20
9.8267935998
 30
0.0
 10
11.6844428978
 20
9.8225391337
 30
0.0
 10
11.6942468682
 20
9.8181819288
 30
0.0
 10
11.7023984376
 20
9.8137281543
 30
0.0
 10
11.7080377974
 20
9.8097812613
 30
0.0
 10
11.7116310635
 20
9.8065399911
 30
0.0
 10
11.7143819836
 20
9.8035366171
 30
0.0
 10
11.7160005762
 20
9.8010516107
 30
0.0
 10
11.7167459167
 20
9.7993431937
 30
0.0
  0
SPLINE
  5
2E5
100
AcDbEntity
  8
0
100
AcDbSpline
 62
9
  6
CONTINUOUS
 70
0
 71
3
 72
23
 73
19
 74
0
 42
0.0000001
 43
0.0000001
 44
0.0000000001
 40
0.0
 40
0.0
 40
0.0
 40
0.0
 40
0.0948755712
 40
0.1840220769
 40
0.2675700185
 40
0.3456785107
 40
0.4185428975
 40
0.4864044546
 40
0.5495624966
 40
0.6083889062
 40
0.6633443536
 40
0.7149940213
 40
0.7640184356
 40
0.8112127377
 40
0.8574674773
 40
0.9037284284
 40
0.9509419031
 40
1.0
 40
1.0
 40
1.0
 40
1.0
 10
11.6800695065
 20
10.0469208309
 30
0.0
 10
11.6753381891
 20
10.0551122968
 30
0.0
 10
11.6659135389
 20
10.0708597134
 30
0.0
 10
11.651391169
 20
10.0932466353
 30
0.0
 10
11.6369284302
 20
10.1136564275
 30
0.0
 10
11.622525109
 20
10.1320893122
 30
0.0
 10
11.6081801712
 20
10.1485459384
 30
0.0
 10
11.5938917754
 20
10.1630266978
 30
0.0
 10
11.5796569713
 20
10.175531432
 30
0.0
 10
11.5654716015
 20
10.1860586844
 30
0.0
 10
11.5513306046
 20
10.194604631
 30
0.0
 10
11.5372291914
 20
10.2011618568
 30
0.0
 10
11.523165314
 20
10.2057187961
 30
0.0
 10
11.5091428492
 20
10.2082611819
 30
0.0
 10
11.4951738632
 20
10.2087766157
 30
0.0
 10
11.4812754453
 20
10.2072597873
 30
0.0
 10
11.4674674776
 20
10.2037166919
 30
0.0
 10
11.4585436251
 20
10.2000983526
 30
0.0
 10
11.4541277471
 20
10.1979946063
 30
0.0
  0
SPLINE
  5
2E6
100
AcDbEntity
  8
0
100
AcDbSpline
 62
9
  6
CONTINUOUS
 70
0
 71
3
 72
13
 73
9
 74
0
 42
0.0000001
 43
0.0000001
 44
0.0000000001
 40
0.0
 40
0.0
 40
0.0
 40
0.0
 40
0.3093187545
 40
0.5877083654
 40
0.7110025867
 40
0.8216929181
 40
0.9183975254
 40
1.0
 40
1.0
 40
1.0
 40
1.0
 10
11.4480044385
 20
9.9862634719
 30
0.0
 10
11.4475673998
 20
10.0051447153
 30
0.0
 10
11.4469457477
 20
10.0410244453
 30
0.0
 10
11.4467827429
 20
10.0844384021
 30
0.0
 10
11.447105374
 20
10.1157216142
 30
0.0
 10
11.4475370065
 20
10.1359087018
 30
0.0
 10
11.4481622072
 20
10.153543717
 30
0.0
 10
11.4487496153
 20
10.1644160878
 30
0.0
 10
11.4490933801
 20
10.1693866764
 30
0.0
  0
SPLINE
  5
2E7
100
AcDbEntity
  8
0
100
AcDbSpline
 62
9
  6
CONTINUOUS
 70
0
 71
3
 72
16
 73
12
 74
0
 42
0.0000001
 43
0.0000001
 44
0.0000000001
 40
0.0
 40
0.0
 40
0.0
 40
0.0
 40
0.4057671203
 40
0.5699763695
 40
0.7078029438
 40
0.8189804274
 40
0.9037445494
 40
0.9364756524
 40
0.9630408663
 40
0.9838949503
 40
1.0
 40
1.0
 40
1.0
 40
1.0
 10
11.4490933801
 20
10.1693866764
 30
0.0
 10
11.4493692294
 20
10.1733752563
 30
0.0
 10
11.4498200016
 20
10.178975118
 30
0.0
 10
11.4506288688
 20
10.1859027462
 30
0.0
 10
11.4512278853
 20
10.1899312422
 30
0.0
 10
11.45186151
 20
10.1931590212
 30
0.0
 10
11.4524489938
 20
10.1953392689
 30
0.0
 10
11.452962534
 20
10.1966640655
 30
0.0
 10
11.4533220997
 20
10.1973697529
 30
0.0
 10
11.4536887545
 20
10.1978802421
 30
0.0
 10
11.4539779037
 20
10.1981164249
 30
0.0
 10
11.4541211784
 20
10.1981846432
 30
0.0
  0
ENDSEC
  0
SECTION
  2
OBJECTS
  0
DICTIONARY
  5
C
100
AcDbDictionary
280
0
281
1
  3
ACAD_GROUP
350
D
  3
ACAD_MLINESTYLE
350
17
  3
ACAD_LAYOUT
350
1A
  3
ACAD_PLOTSETTINGS
350
19
  3
ACAD_PLOTSTYLENAME
350
E
  0
DICTIONARY
  5
D
102
{ACAD_REACTORS
330
C
102
}
100
AcDbDictionary
280
0
281
1
  0
ACDBDICTIONARYWDFLT
  5
E
102
{ACAD_REACTORS
330
C
102
}
100
AcDbDictionary
281
1
  3
Normal
350
F
100
AcDbDictionaryWithDefault
340
F
  0
DICTIONARY
  5
17
102
{ACAD_REACTORS
330
C
102
}
100
AcDbDictionary
280
0
281
1
  3
Standard
350
18
  0
DICTIONARY
  5
19
102
{ACAD_REACTORS
330
C
102
}
100
AcDbDictionary
281
1
  0
DICTIONARY
  5
1A
102
{ACAD_REACTORS
330
C
102
}
100
AcDbDictionary
281
1
  3
Model
350
2E8
  3
Layout1
350
2E9
  0
ACDBPLACEHOLDER
  5
F
102
{ACAD_REACTORS
330
E
102
}
  0
MLINESTYLE
  5
18
102
{ACAD_REACTORS
330
17
102
}
100
AcDbMlineStyle
  2
STANDARD
 70
0
  3

 62
256
 51
90.0
 52
90.0
 71
2
 49
0.5
 62
256
  6
BYLAYER
 49
-0.5
 62
256
  6
BYLAYER
  0
LAYOUT
  5
2E8
102
{ACAD_REACTORS
330
1A
102
}
100
AcDbPlotSettings
  1

  2
none_device
  4
ANSI_C_(22.00_x_17.00_Inches)
  6

 40
0.0
 41
0.0
 42
0.0
 43
0.0
 44
558.8
 45
431.8
 46
0.0
 47
0.0
 48
0.0
 49
0.0
140
0.0
141
0.0
142
1.0
143
1.0
 70
1024
 72
0
 73
0
 74
0
  7

 75
0
147
1.0
148
0.0
149
0.0
100
AcDbLayout
  1
Model
 70
0
 71
0
 10
0.0
 20
0.0
 11
22.0
 21
17.0
 12
0.0
 22
0.0
 32
0.0
 14
0.0
 24
0.0
 34
0.0
 15
0.0
 25
0.0
 35
0.0
146
0.0
 13
0.0
 23
0.0
 33
0.0
 16
1.0
 26
0.0
 36
0.0
 17
0.0
 27
1.0
 37
0.0
 76
0
330
202
345
0
346
0
  0
LAYOUT
  5
2E9
102
{ACAD_REACTORS
330
1A
102
}
100
AcDbPlotSettings
  1

  2
none_device
  4
ANSI_C_(22.00_x_17.00_Inches)
  6

 40
0.0
 41
0.0
 42
0.0
 43
0.0
 44
558.8
 45
431.8
 46
0.0
 47
0.0
 48
0.0
 49
0.0
140
0.0
141
0.0
142
1.0
143
1.0
 70
0
 72
0
 73
0
 74
0
  7

 75
0
147
1.0
148
0.0
149
0.0
100
AcDbLayout
  1
Layout1
 70
0
 71
1
 10
0.0
 20
0.0
 11
22.0
 21
17.0
 12
0.0
 22
0.0
 32
0.0
 14
0.0
 24
0.0
 34
0.0
 15
0.0
 25
0.0
 35
0.0
146
0.0
 13
0.0
 23
0.0
 33
0.0
 16
1.0
 26
0.0
 36
0.0
 17
0.0
 27
1.0
 37
0.0
 76
0
330
203
345
0
346
0
  0
ENDSEC
  0
EOF
