999
DXF file: E:\BT Custom\CADOUTPUT\_RIGHT.dxf
999
Pro/ENGINEER 2018400 by Parametric Technology Corporation
  0
SECTION
  2
HEADER
  9
$ACADVER
  1
AC1018
  9
$DWGCODEPAGE
  3
ANSI_1252
  9
$EXTMAX
 10
22.0
 20
17.0
 30
0.0
  9
$EXTMIN
 10
0.0
 20
0.0
 30
0.0
  9
$LIMMIN
 10
0.0
 20
0.0
  9
$LIMMAX
 10
22.0
 20
17.0
  9
$VIEWCTR
 10
11.0
 20
8.5
  9
$VIEWSIZE
 40
17.0
  9
$CLAYER
  8
0
  9
$LTSCALE
 40
1.21
  9
$CELTYPE
  6
BYLAYER
  9
$DIMSCALE
 40
1.0
  9
$DIMASZ
 40
0.1
  9
$DIMEXO
 40
0.0625
  9
$DIMDLI
 40
0.836
  9
$DIMEXE
 40
0.125
  9
$DIMCEN
 40
0.198
  9
$DIMLFAC
 40
1.0
  9
$DIMBLK
  1
_FILLED
  9
$DIMALT
 70
1
  9
$DIMALTD
 70
2
  9
$DIMALTTD
 70
2
  9
$DIMALTF
 40
25.4
  9
$DIMTXT
 40
0.08
  9
$DIMTOL
 70
1
  9
$DIMLIM
 70
0
  9
$DIMTFAC
 40
1.0
  9
$DIMTP
 40
0.001
  9
$DIMTM
 40
0.001
  9
$DIMGAP
 40
0.09
  9
$DIMDSEP
 70
46
  9
$AUNITS
 70
0
  9
$PDMODE
 70
3
  9
$PDSIZE
 40
0.06
  9
$HANDSEED
  5
299
  9
$TILEMODE
 70
1
  9
$MEASUREMENT
 70
0
  9
$INSUNITS
 70
1
  0
ENDSEC
  0
SECTION
  2
CLASSES
  0
CLASS
  1
ACDBDICTIONARYWDFLT
  2
AcDbDictionaryWithDefault
  3
AutoCAD 2000
 90
0
 91
1
280
0
281
0
  0
CLASS
  1
ACDBPLACEHOLDER
  2
AcDbPlaceHolder
  3
AutoCAD 2000
 90
0
 91
1
280
0
281
0
  0
CLASS
  1
LAYOUT
  2
AcDbLayout
  3
AutoCAD 2000
 90
0
 91
0
280
0
281
0
  0
ENDSEC
  0
SECTION
  2
TABLES
  0
TABLE
  2
VPORT
  5
8
100
AcDbSymbolTable
 70
2
  0
VPORT
  5
1F4
100
AcDbSymbolTableRecord
100
AcDbViewportTableRecord
  2
*ACTIVE
 70
0
 10
0.0
 20
0.0
 11
1.0
 21
1.0
 12
11.0
 22
8.5
 13
0.0
 23
0.0
 14
1.0
 24
1.0
 15
0.0
 25
0.0
 16
0.0
 26
0.0
 36
1.0
 17
0.0
 27
0.0
 37
0.0
 40
17.0
 41
1.2941176471
 42
50.0
 43
0.0
 44
0.0
 50
0.0
 51
0.0
 71
0
 72
100
 73
1
 74
1
 75
0
 76
0
 77
0
 78
0
  0
ENDTAB
  0
TABLE
  2
LTYPE
  5
5
100
AcDbSymbolTable
 70
6
  0
LTYPE
  5
14
100
AcDbSymbolTableRecord
100
AcDbLinetypeTableRecord
  2
BYBLOCK
 70
0
  3

 72
65
 73
0
 40
0.0
  0
LTYPE
  5
15
100
AcDbSymbolTableRecord
100
AcDbLinetypeTableRecord
  2
BYLAYER
 70
0
  3

 72
65
 73
0
 40
0.0
  0
LTYPE
  5
16
100
AcDbSymbolTableRecord
100
AcDbLinetypeTableRecord
  2
CONTINUOUS
 70
64
  3
Solid line
 72
65
 73
0
 40
0.0
  0
LTYPE
  5
1F5
100
AcDbSymbolTableRecord
100
AcDbLinetypeTableRecord
  2
CENTER
 70
64
  3
____ _ ____ _ ____ _ ____ _ ____ _ ____ _ ____
 72
65
 73
4
 40
0.6
 49
0.375
 74
0
 49
-0.075
 74
0
 49
0.075
 74
0
 49
-0.075
 74
0
  0
LTYPE
  5
1F6
100
AcDbSymbolTableRecord
100
AcDbLinetypeTableRecord
  2
HIDDEN
 70
64
  3
- - - - - - - - - - - - - - - - - - - -
 72
65
 73
2
 40
0.2
 49
0.1
 74
0
 49
-0.1
 74
0
  0
LTYPE
  5
1F7
100
AcDbSymbolTableRecord
100
AcDbLinetypeTableRecord
  2
PHANTOM
 70
64
  3
_____ _ _ _____ _ _ _____ _ _ _____
 72
65
 73
6
 40
0.8
 49
0.45
 74
0
 49
-0.05
 74
0
 49
0.1
 74
0
 49
-0.05
 74
0
 49
0.1
 74
0
 49
-0.05
 74
0
  0
LTYPE
  5
1F8
100
AcDbSymbolTableRecord
100
AcDbLinetypeTableRecord
  2
DOT
 70
64
  3
. . . . . . . . . . . . . . . . . . . .
 72
65
 73
2
 40
0.2
 49
0.1
 74
0
 49
-0.1
 74
0
  0
LTYPE
  5
1F9
100
AcDbSymbolTableRecord
100
AcDbLinetypeTableRecord
  2
DASHED
 70
64
  3
- - - - - - - - - - - - - - - - - - - -
 72
65
 73
2
 40
0.2
 49
0.1
 74
0
 49
-0.1
 74
0
  0
ENDTAB
  0
TABLE
  2
LAYER
  5
2
100
AcDbSymbolTable
 70
36
  0
LAYER
  5
10
100
AcDbSymbolTableRecord
100
AcDbLayerTableRecord
  2
0
 70
0
 62
7
  6
CONTINUOUS
370
-3
390
F
  0
LAYER
  5
1FA
100
AcDbSymbolTableRecord
100
AcDbLayerTableRecord
  2
DEFAULT_1
 70
0
 62
7
  6
CENTER
370
-3
390
F
  0
LAYER
  5
1FB
100
AcDbSymbolTableRecord
100
AcDbLayerTableRecord
  2
DEFAULT_2
 70
0
 62
8
  6
HIDDEN
370
-3
390
F
  0
LAYER
  5
1FC
100
AcDbSymbolTableRecord
100
AcDbLayerTableRecord
  2
DEFAULT_3
 70
0
 62
7
  6
PHANTOM
370
-3
390
F
  0
LAYER
  5
1FD
100
AcDbSymbolTableRecord
100
AcDbLayerTableRecord
  2
ALL_FEATURES
 70
0
 62
7
  6
CONTINUOUS
370
-3
390
F
  0
LAYER
  5
1FE
100
AcDbSymbolTableRecord
100
AcDbLayerTableRecord
  2
AXES_FEATURES
 70
0
 62
7
  6
CONTINUOUS
370
-3
390
F
  0
LAYER
  5
1FF
100
AcDbSymbolTableRecord
100
AcDbLayerTableRecord
  2
DIMENSIONS
 70
0
 62
7
  6
CONTINUOUS
370
-3
390
F
  0
ENDTAB
  0
TABLE
  2
STYLE
  5
3
100
AcDbSymbolTable
 70
1
  0
STYLE
  5
11
100
AcDbSymbolTableRecord
100
AcDbTextStyleTableRecord
  2
STANDARD
 70
0
 40
0.0
 41
0.8
 50
0.0
 71
0
 42
0.2
  3
txt
  4

  0
STYLE
  5
200
100
AcDbSymbolTableRecord
100
AcDbTextStyleTableRecord
  2
TEXTSTYLE_1
 70
0
 40
0.0
 41
0.8
 50
0.0
 71
0
 42
0.2
  3
gdt
  4

  0
ENDTAB
  0
TABLE
  2
VIEW
  5
6
100
AcDbSymbolTable
 70
0
  0
ENDTAB
  0
TABLE
  2
UCS
  5
7
100
AcDbSymbolTable
 70
0
  0
ENDTAB
  0
TABLE
  2
APPID
  5
9
100
AcDbSymbolTable
 70
1
  0
APPID
  5
201
100
AcDbSymbolTableRecord
100
AcDbRegAppTableRecord
  2
ACAD
 70
0
  0
ENDTAB
  0
TABLE
  2
BLOCK_RECORD
  5
1
100
AcDbSymbolTable
 70
0
  0
BLOCK_RECORD
  5
202
100
AcDbSymbolTableRecord
100
AcDbBlockTableRecord
  2
*Model_Space
  0
BLOCK_RECORD
  5
203
100
AcDbSymbolTableRecord
100
AcDbBlockTableRecord
  2
*Paper_Space
  0
BLOCK_RECORD
  5
204
100
AcDbSymbolTableRecord
100
AcDbBlockTableRecord
  2
_FILLED
  0
ENDTAB
  0
TABLE
  2
DIMSTYLE
  5
A
100
AcDbSymbolTable
 70
1
100
AcDbDimStyleTable
 71
0
  0
DIMSTYLE
105
205
100
AcDbSymbolTableRecord
100
AcDbDimStyleTableRecord
  2
STANDARD
 70
0
  3

  4

 40
1.0
 41
0.1
 42
0.0625
 43
0.38
 44
0.125
 45
0.0
 46
0.0
 47
0.001
 48
0.001
140
0.08
141
0.09
142
0.0
143
25.4
144
1.0
145
0.0
146
1.0
147
0.09
 71
1.0
 72
0.0
 73
1
 74
1
 75
0
 76
0
 77
0
 78
4
 79
1
170
1
171
2
172
0
173
0
174
0
175
0
176
0
177
0
178
0
270
2
179
3
271
3
272
3
273
2
274
2
275
0
280
0
281
0
282
0
283
1
284
4
285
0
286
0
287
3
288
0
340
11
278
46
341
204
342
204
343
204
344
204
  0
ENDTAB
  0
ENDSEC
  0
SECTION
  2
BLOCKS
  0
BLOCK
  5
20
100
AcDbEntity
  8
0
100
AcDbBlockBegin
  2
*Model_Space
 70
0
 10
0.0
 20
0.0
 30
0.0
  3
*Model_Space
  1

  0
ENDBLK
  5
21
100
AcDbEntity
  8
0
100
AcDbBlockEnd
  0
BLOCK
  5
1C
100
AcDbEntity
  8
0
100
AcDbBlockBegin
  2
*Paper_Space
 70
0
 10
0.0
 20
0.0
 30
0.0
  3
*Paper_Space
  1

  0
ENDBLK
  5
1D
100
AcDbEntity
  8
0
100
AcDbBlockEnd
  0
BLOCK
  5
206
100
AcDbEntity
  8
0
100
AcDbBlockBegin
  2
_FILLED
 70
64
 10
0.0
 20
0.0
  3
_FILLED
  1

  0
SOLID
  5
207
100
AcDbEntity
  8
0
  6
BYBLOCK
 62
0
100
AcDbTrace
 10
0.0
 20
0.0
 11
-1.0
 21
0.2
 12
-1.0
 22
-0.2
 13
-1.0
 23
-0.2
  0
ENDBLK
  5
208
100
AcDbEntity
  8
0
  6
BYBLOCK
 62
0
100
AcDbBlockEnd
  0
ENDSEC
  0
SECTION
  2
ENTITIES
  0
LINE
  5
209
100
AcDbEntity
  8
0
100
AcDbLine
 62
7
  6
CONTINUOUS
 10
7.0202979509
 20
10.6084857738
 11
6.9895676737
 21
9.7284857738
  0
LINE
  5
20A
100
AcDbEntity
  8
0
100
AcDbLine
 62
9
  6
CONTINUOUS
 10
7.0464007015
 20
9.7284857739
 11
7.0771309789
 21
10.6084857739
  0
LINE
  5
20B
100
AcDbEntity
  8
0
100
AcDbLine
 62
7
  6
CONTINUOUS
 10
11.7184097904
 20
7.353391804
 11
14.2563888186
 21
7.353391804
  0
LINE
  5
20C
100
AcDbEntity
  8
0
100
AcDbLine
 62
9
  6
CONTINUOUS
 10
13.8072804682
 20
7.6982814245
 11
13.8060575226
 21
7.6982373661
  0
LINE
  5
20D
100
AcDbEntity
  8
0
100
AcDbLine
 62
9
  6
CONTINUOUS
 10
13.9135138881
 20
7.6017610752
 11
13.9125577445
 21
7.601726867
  0
LINE
  5
20E
100
AcDbEntity
  8
0
100
AcDbLine
 62
9
  6
CONTINUOUS
 10
14.2563993045
 20
7.500391804
 11
14.0873993045
 21
7.500391804
  0
LINE
  5
20F
100
AcDbEntity
  8
0
100
AcDbLine
 62
9
  6
CONTINUOUS
 10
11.8873993045
 20
7.500391804
 11
11.7183993045
 21
7.500391804
  0
LINE
  5
210
100
AcDbEntity
  8
0
100
AcDbLine
 62
9
  6
CONTINUOUS
 10
14.0873993045
 20
7.510391804
 11
11.8873993045
 21
7.510391804
  0
LINE
  5
211
100
AcDbEntity
  8
0
100
AcDbLine
 62
7
  6
CONTINUOUS
 10
14.2163890669
 20
7.540391804
 11
11.7584095422
 21
7.540391804
  0
LINE
  5
212
100
AcDbEntity
  8
0
100
AcDbLine
 62
7
  6
CONTINUOUS
 10
12.2373997189
 20
7.550391804
 11
13.7373988902
 21
7.550391804
  0
LINE
  5
213
100
AcDbEntity
  8
0
100
AcDbLine
 62
9
  6
CONTINUOUS
 10
13.7373993045
 20
7.5970657491
 11
12.2373993045
 21
7.5970657491
  0
LINE
  5
214
100
AcDbEntity
  8
0
100
AcDbLine
 62
9
  6
CONTINUOUS
 10
13.9125577446
 20
7.6017268666
 11
13.7368203732
 21
7.6017268666
  0
LINE
  5
215
100
AcDbEntity
  8
0
100
AcDbLine
 62
9
  6
CONTINUOUS
 10
12.2379782359
 20
7.6017268666
 11
12.0395411721
 21
7.6017268666
  0
LINE
  5
216
100
AcDbEntity
  8
0
100
AcDbLine
 62
9
  6
CONTINUOUS
 10
13.710553118
 20
7.6348411008
 11
12.2642454911
 21
7.6348411008
  0
LINE
  5
217
100
AcDbEntity
  8
0
100
AcDbLine
 62
7
  6
CONTINUOUS
 10
13.8735394642
 20
7.6403308867
 11
13.6993365857
 21
7.6403308867
  0
LINE
  5
218
100
AcDbEntity
  8
0
100
AcDbLine
 62
7
  6
CONTINUOUS
 10
12.2754620233
 20
7.6403308867
 11
12.0795179002
 21
7.6403308867
  0
LINE
  5
219
100
AcDbEntity
  8
0
100
AcDbLine
 62
9
  6
CONTINUOUS
 10
12.1429113773
 20
7.6982369169
 11
12.3164262616
 21
7.6982369169
  0
LINE
  5
21A
100
AcDbEntity
  8
0
100
AcDbLine
 62
9
  6
CONTINUOUS
 10
13.6583723475
 20
7.6982369169
 11
13.806045087
 21
7.6982369169
  0
LINE
  5
21B
100
AcDbEntity
  8
0
100
AcDbLine
 62
9
  6
CONTINUOUS
 10
12.3178891303
 20
7.7075998445
 11
13.6569094788
 21
7.7075998445
  0
LINE
  5
21C
100
AcDbEntity
  8
0
100
AcDbLine
 62
7
  6
CONTINUOUS
 10
13.805758735
 20
7.740391804
 11
14.222399164
 21
7.740391804
  0
LINE
  5
21D
100
AcDbEntity
  8
0
100
AcDbLine
 62
9
  6
CONTINUOUS
 10
13.8043132641
 20
7.780391804
 11
14.2623993045
 21
7.780391804
  0
LINE
  5
21E
100
AcDbEntity
  8
0
100
AcDbLine
 62
7
  6
CONTINUOUS
 10
13.8699209528
 20
7.6403309754
 11
13.861248523
 21
7.6409266628
  0
LINE
  5
21F
100
AcDbEntity
  8
0
100
AcDbLine
 62
9
  6
CONTINUOUS
 10
14.2623993045
 20
8.070391804
 11
13.7938335999
 21
8.070391804
  0
LINE
  5
220
100
AcDbEntity
  8
0
100
AcDbLine
 62
7
  6
CONTINUOUS
 10
13.792388129
 20
8.110391804
 11
14.2223991656
 21
8.110391804
  0
LWPOLYLINE
  5
221
100
AcDbEntity
  8
0
100
AcDbPolyline
 62
7
  6
CONTINUOUS
 90
6
 70
0
 10
13.861248523
 20
7.6409266628
 10
13.8423304562
 20
7.6465243425
 10
13.8261026464
 20
7.6575280548
 10
13.8143294994
 20
7.6726944546
 10
13.8081442268
 20
7.690175277
 10
13.8072668184
 20
7.6982809275
  0
LINE
  5
222
100
AcDbEntity
  8
0
100
AcDbLine
 62
7
  6
CONTINUOUS
 10
13.8603260456
 20
7.6410595199
 11
13.8514044162
 21
7.6438394423
  0
LINE
  5
223
100
AcDbEntity
  8
0
100
AcDbLine
 62
9
  6
CONTINUOUS
 10
13.5989080487
 20
9.3685434874
 11
12.3758905604
 21
9.3685434874
  0
LINE
  5
224
100
AcDbEntity
  8
0
100
AcDbLine
 62
7
  6
CONTINUOUS
 10
13.5659272247
 20
9.400391804
 11
12.4088713844
 21
9.400391804
  0
LINE
  5
225
100
AcDbEntity
  8
0
100
AcDbLine
 62
7
  6
CONTINUOUS
 10
12.6748993045
 20
9.431391804
 11
13.2998993045
 21
9.431391804
  0
LINE
  5
226
100
AcDbEntity
  8
0
100
AcDbLine
 62
7
  6
CONTINUOUS
 10
11.5443993045
 20
9.878391804
 11
11.5443993045
 21
10.193391804
  0
LINE
  5
227
100
AcDbEntity
  8
0
100
AcDbLine
 62
9
  6
CONTINUOUS
 10
13.7328003958
 20
9.7593418437
 11
13.7313204363
 21
9.7592882634
  0
LINE
  5
228
100
AcDbEntity
  8
0
100
AcDbLine
 62
7
  6
CONTINUOUS
 10
7.0495311234
 20
9.666391804
 11
7.9340994743
 21
9.666391804
  0
LINE
  5
229
100
AcDbEntity
  8
0
100
AcDbLine
 62
9
  6
CONTINUOUS
 10
7.0464007015
 20
9.7284857739
 11
7.9309608529
 21
9.7284857738
  0
LINE
  5
22A
100
AcDbEntity
  8
0
100
AcDbLine
 62
9
  6
CONTINUOUS
 10
13.2998993045
 20
9.808391804
 11
12.6748993045
 21
9.808391804
  0
LINE
  5
22B
100
AcDbEntity
  8
0
100
AcDbLine
 62
7
  6
CONTINUOUS
 10
11.5743993045
 20
9.848391804
 11
14.4003993045
 21
9.848391804
  0
LINE
  5
22C
100
AcDbEntity
  8
0
100
AcDbLine
 62
7
  6
CONTINUOUS
 10
13.8338068873
 20
7.6523039826
 11
13.8258198958
 21
7.6578922997
  0
LINE
  5
22D
100
AcDbEntity
  8
0
100
AcDbLine
 62
9
  6
CONTINUOUS
 10
11.5728292257
 20
10.193391804
 11
11.5728292256
 21
9.878391804
  0
LINE
  5
22E
100
AcDbEntity
  8
0
100
AcDbLine
 62
7
  6
CONTINUOUS
 10
11.7183993045
 20
7.353391804
 11
11.7183993045
 21
7.500391804
  0
LINE
  5
22F
100
AcDbEntity
  8
0
100
AcDbLine
 62
9
  6
CONTINUOUS
 10
11.5443993045
 20
9.878391804
 11
14.4303993045
 21
9.878391804
  0
LINE
  5
230
100
AcDbEntity
  8
0
100
AcDbLine
 62
7
  6
CONTINUOUS
 10
12.0962234253
 20
9.7557958288
 11
12.1287007492
 21
9.7485084544
  0
LINE
  5
231
100
AcDbEntity
  8
0
100
AcDbLine
 62
7
  6
CONTINUOUS
 10
11.8873993045
 20
7.353391804
 11
11.8873993045
 21
7.510391804
  0
LINE
  5
232
100
AcDbEntity
  8
0
100
AcDbLine
 62
7
  6
CONTINUOUS
 10
12.0395411721
 20
7.6017268666
 11
12.0373993045
 21
7.540391804
  0
LINE
  5
233
100
AcDbEntity
  8
0
100
AcDbLine
 62
9
  6
CONTINUOUS
 10
14.4303993045
 20
10.193391804
 11
11.5443993045
 21
10.193391804
  0
LINE
  5
234
100
AcDbEntity
  8
0
100
AcDbLine
 62
7
  6
CONTINUOUS
 10
11.5743993045
 20
10.223391804
 11
14.4003993045
 21
10.223391804
  0
LWPOLYLINE
  5
235
100
AcDbEntity
  8
0
100
AcDbPolyline
 62
7
  6
CONTINUOUS
 90
6
 70
0
 10
12.1287007492
 20
9.7485084544
 10
12.1581300722
 20
9.7328893523
 10
12.18239337
 20
9.7100444631
 10
12.1997592159
 20
9.6815980937
 10
12.2089879885
 20
9.6495941222
 10
12.2102621291
 20
9.626908242
  0
LINE
  5
236
100
AcDbEntity
  8
0
100
AcDbLine
 62
7
  6
CONTINUOUS
 10
12.2373993045
 20
7.5970657491
 11
12.2373993045
 21
7.550391804
  0
LINE
  5
237
100
AcDbEntity
  8
0
100
AcDbLine
 62
7
  6
CONTINUOUS
 10
12.3498993045
 20
7.540391804
 11
12.3498993045
 21
7.550391804
  0
LINE
  5
238
100
AcDbEntity
  8
0
100
AcDbLine
 62
7
  6
CONTINUOUS
 10
12.2102620642
 20
9.6269082443
 11
12.1429113773
 21
7.6982369169
  0
LINE
  5
239
100
AcDbEntity
  8
0
100
AcDbLine
 62
7
  6
CONTINUOUS
 10
12.3758905604
 20
9.3685434874
 11
12.3178891303
 21
7.7075998445
  0
LINE
  5
23A
100
AcDbEntity
  8
0
100
AcDbLine
 62
9
  6
CONTINUOUS
 10
13.7302591022
 20
10.6084857738
 11
7.0771309789
 21
10.6084857739
  0
LINE
  5
23B
100
AcDbEntity
  8
0
100
AcDbLine
 62
7
  6
CONTINUOUS
 10
13.6702792164
 20
10.666391804
 11
7.0802614005
 21
10.666391804
  0
LINE
  5
23C
100
AcDbEntity
  8
0
100
AcDbLine
 62
9
  6
CONTINUOUS
 10
12.5798470883
 20
9.878391804
 11
12.5798470882
 21
10.193391804
  0
LWPOLYLINE
  5
23D
100
AcDbEntity
  8
0
100
AcDbPolyline
 62
7
  6
CONTINUOUS
 90
3
 70
0
 10
13.8199018563
 20
7.6655160346
 10
13.8139089863
 20
7.6734786537
 10
13.8110573838
 20
7.6819421105
  0
LINE
  5
23E
100
AcDbEntity
  8
0
100
AcDbLine
 62
7
  6
CONTINUOUS
 10
12.6748993045
 20
9.808391804
 11
12.6748993045
 21
9.431391804
  0
LINE
  5
23F
100
AcDbEntity
  8
0
100
AcDbLine
 62
9
  6
CONTINUOUS
 10
12.6981337856
 20
10.193391804
 11
12.6981337856
 21
9.878391804
  0
LINE
  5
240
100
AcDbEntity
  8
0
100
AcDbLine
 62
7
  6
CONTINUOUS
 10
12.7248993045
 20
9.431391804
 11
12.7248993045
 21
9.400391804
  0
LINE
  5
241
100
AcDbEntity
  8
0
100
AcDbLine
 62
9
  6
CONTINUOUS
 10
12.7509093555
 20
9.878391804
 11
12.7509093555
 21
10.193391804
  0
LINE
  5
242
100
AcDbEntity
  8
0
100
AcDbLine
 62
9
  6
CONTINUOUS
 10
12.7808682415
 20
10.223391804
 11
12.7808682415
 21
9.848391804
  0
LINE
  5
243
100
AcDbEntity
  8
0
100
AcDbLine
 62
9
  6
CONTINUOUS
 10
12.9479158899
 20
10.223391804
 11
12.948617943
 21
10.6084857738
  0
LINE
  5
244
100
AcDbEntity
  8
0
100
AcDbLine
 62
9
  6
CONTINUOUS
 10
13.1939303675
 20
9.848391804
 11
13.1939303675
 21
10.223391804
  0
LINE
  5
245
100
AcDbEntity
  8
0
100
AcDbLine
 62
9
  6
CONTINUOUS
 10
13.2238892536
 20
10.193391804
 11
13.2238892536
 21
9.878391804
  0
LINE
  5
246
100
AcDbEntity
  8
0
100
AcDbLine
 62
7
  6
CONTINUOUS
 10
13.2498993045
 20
9.431391804
 11
13.2498993045
 21
9.400391804
  0
LINE
  5
247
100
AcDbEntity
  8
0
100
AcDbLine
 62
9
  6
CONTINUOUS
 10
13.2766648234
 20
9.878391804
 11
13.2766648234
 21
10.193391804
  0
LINE
  5
248
100
AcDbEntity
  8
0
100
AcDbLine
 62
7
  6
CONTINUOUS
 10
13.2998993045
 20
9.808391804
 11
13.2998993045
 21
9.431391804
  0
LINE
  5
249
100
AcDbEntity
  8
0
100
AcDbLine
 62
9
  6
CONTINUOUS
 10
13.3949515208
 20
10.193391804
 11
13.3949515209
 21
9.878391804
  0
LINE
  5
24A
100
AcDbEntity
  8
0
100
AcDbLine
 62
7
  6
CONTINUOUS
 10
13.5989080487
 20
9.3685434874
 11
13.6569094788
 21
7.7075998445
  0
LINE
  5
24B
100
AcDbEntity
  8
0
100
AcDbLine
 62
7
  6
CONTINUOUS
 10
13.6248993045
 20
7.540391804
 11
13.6248993045
 21
7.550391804
  0
LINE
  5
24C
100
AcDbEntity
  8
0
100
AcDbLine
 62
7
  6
CONTINUOUS
 10
13.8072804682
 20
7.6982814245
 11
13.7328003958
 21
9.7593418437
  0
LINE
  5
24D
100
AcDbEntity
  8
0
100
AcDbLine
 62
9
  6
CONTINUOUS
 10
13.9125577445
 20
7.601726867
 11
13.914756595
 21
7.5403917508
  0
LINE
  5
24E
100
AcDbEntity
  8
0
100
AcDbLine
 62
7
  6
CONTINUOUS
 10
13.9157094042
 20
7.540391804
 11
13.913513891
 21
7.6017609917
  0
LINE
  5
24F
100
AcDbEntity
  8
0
100
AcDbLine
 62
7
  6
CONTINUOUS
 10
13.7302591022
 20
10.6084857738
 11
13.74370688
 21
10.223391804
  0
LWPOLYLINE
  5
250
100
AcDbEntity
  8
0
100
AcDbPolyline
 62
7
  6
CONTINUOUS
 90
4
 70
0
 10
13.7327855801
 20
9.7593412804
 10
13.7323611752
 20
9.7872034767
 10
13.7338237831
 20
9.8277185593
 10
13.7357835969
 20
9.848391804
  0
LINE
  5
251
100
AcDbEntity
  8
0
100
AcDbLine
 62
7
  6
CONTINUOUS
 10
13.7373993045
 20
7.5970657491
 11
13.7373993045
 21
7.550391804
  0
LINE
  5
252
100
AcDbEntity
  8
0
100
AcDbLine
 62
7
  6
CONTINUOUS
 10
14.0873993045
 20
7.353391804
 11
14.0873993045
 21
7.510391804
  0
LINE
  5
253
100
AcDbEntity
  8
0
100
AcDbLine
 62
9
  6
CONTINUOUS
 10
14.1373993045
 20
7.740391804
 11
14.1373993045
 21
8.110391804
  0
LINE
  5
254
100
AcDbEntity
  8
0
100
AcDbLine
 62
7
  6
CONTINUOUS
 10
14.2563993045
 20
7.353391804
 11
14.2563993045
 21
7.500391804
  0
LINE
  5
255
100
AcDbEntity
  8
0
100
AcDbLine
 62
7
  6
CONTINUOUS
 10
14.2623993045
 20
7.780391804
 11
14.2623993045
 21
8.070391804
  0
LINE
  5
256
100
AcDbEntity
  8
0
100
AcDbLine
 62
9
  6
CONTINUOUS
 10
14.4019693833
 20
9.878391804
 11
14.4019693833
 21
10.193391804
  0
LINE
  5
257
100
AcDbEntity
  8
0
100
AcDbLine
 62
7
  6
CONTINUOUS
 10
14.4303993045
 20
10.193391804
 11
14.4303993045
 21
9.878391804
  0
ARC
  5
258
100
AcDbEntity
  8
0
100
AcDbCircle
 62
9
  6
CONTINUOUS
 10
9.0480072467
 20
-25.1235765975
 40
35.0742962581
100
AcDbArc
 50
85.8970747797
 51
91.402185747
  0
ARC
  5
259
100
AcDbEntity
  8
0
100
AcDbCircle
 62
9
  6
CONTINUOUS
 10
9.0508795456
 20
-25.0857844038
 40
35.0363951366
100
AcDbArc
 50
84.4971516044
 51
85.7767159235
  0
ARC
  5
25A
100
AcDbEntity
  8
0
100
AcDbCircle
 62
7
  6
CONTINUOUS
 10
9.0483851024
 20
-25.1112470911
 40
35.0000000001
100
AcDbArc
 50
84.4916930949
 51
91.3984170658
  0
ARC
  5
25B
100
AcDbEntity
  8
0
100
AcDbCircle
 62
7
  6
CONTINUOUS
 10
8.1993993045
 20
9.666391804
 40
0.212
100
AcDbArc
 50
91.3984170245
 51
167.2564149617
  0
ARC
  5
25C
100
AcDbEntity
  8
0
100
AcDbCircle
 62
7
  6
CONTINUOUS
 10
7.9340994742
 20
9.726391804
 40
0.06
100
AcDbArc
 50
270.0000001404
 51
347.2564147778
  0
ARC
  5
25D
100
AcDbEntity
  8
0
100
AcDbCircle
 62
7
  6
CONTINUOUS
 10
7.0802614005
 20
10.606391804
 40
0.06
100
AcDbArc
 50
90.0
 51
177.9999999978
  0
ARC
  5
25E
100
AcDbEntity
  8
0
100
AcDbCircle
 62
7
  6
CONTINUOUS
 10
7.0495311234
 20
9.726391804
 40
0.06
100
AcDbArc
 50
177.9999999969
 51
270.0
  0
ARC
  5
25F
100
AcDbEntity
  8
0
100
AcDbCircle
 62
7
  6
CONTINUOUS
 10
12.2379378641
 20
7.710391804
 40
0.08
100
AcDbArc
 50
289.1987071253
 51
358.0
  0
ARC
  5
260
100
AcDbEntity
  8
0
100
AcDbCircle
 62
7
  6
CONTINUOUS
 10
12.0829479277
 20
7.7003308867
 40
0.06
100
AcDbArc
 50
270.0
 51
358.0
  0
ARC
  5
261
100
AcDbEntity
  8
0
100
AcDbCircle
 62
7
  6
CONTINUOUS
 10
11.7583993045
 20
7.500391804
 40
0.04
100
AcDbArc
 50
90.0
 51
180.0
  0
ARC
  5
262
100
AcDbEntity
  8
0
100
AcDbCircle
 62
7
  6
CONTINUOUS
 10
12.2773993045
 20
7.5970657491
 40
0.04
100
AcDbArc
 50
109.1987071253
 51
180.0
  0
ARC
  5
263
100
AcDbEntity
  8
0
100
AcDbCircle
 62
7
  6
CONTINUOUS
 10
12.0795168052
 20
7.6003308867
 40
0.04
100
AcDbArc
 50
90.0
 51
178.0
  0
ARC
  5
264
100
AcDbEntity
  8
0
100
AcDbCircle
 62
7
  6
CONTINUOUS
 10
11.9173993045
 20
7.510391804
 40
0.03
100
AcDbArc
 50
90.0
 51
180.0
  0
ARC
  5
265
100
AcDbEntity
  8
0
100
AcDbCircle
 62
7
  6
CONTINUOUS
 10
12.6348993045
 20
9.808391804
 40
0.04
100
AcDbArc
 50
0.0
 51
90.0
  0
ARC
  5
266
100
AcDbEntity
  8
0
100
AcDbCircle
 62
7
  6
CONTINUOUS
 10
12.4088704577
 20
9.367391804
 40
0.033
100
AcDbArc
 50
90.0
 51
178.0
  0
ARC
  5
267
100
AcDbEntity
  8
0
100
AcDbCircle
 62
7
  6
CONTINUOUS
 10
11.5743993045
 20
10.193391804
 40
0.03
100
AcDbArc
 50
90.0
 51
180.0
  0
ARC
  5
268
100
AcDbEntity
  8
0
100
AcDbCircle
 62
7
  6
CONTINUOUS
 10
11.5743993045
 20
9.878391804
 40
0.03
100
AcDbArc
 50
180.0
 51
270.0
  0
ARC
  5
269
100
AcDbEntity
  8
0
100
AcDbCircle
 62
9
  6
CONTINUOUS
 10
12.7808909973
 20
10.1934148773
 40
0.0299788069
100
AcDbArc
 50
90.043493804
 51
180.0440936317
  0
ARC
  5
26A
100
AcDbEntity
  8
0
100
AcDbCircle
 62
9
  6
CONTINUOUS
 10
12.7281154274
 20
10.1934148774
 40
0.0299788067
100
AcDbArc
 50
90.0434936868
 51
180.0440938572
  0
ARC
  5
26B
100
AcDbEntity
  8
0
100
AcDbCircle
 62
9
  6
CONTINUOUS
 10
12.7808909956
 20
9.8783687311
 40
0.0299788058
100
AcDbArc
 50
179.9559069386
 51
269.9565094207
  0
ARC
  5
26C
100
AcDbEntity
  8
0
100
AcDbCircle
 62
9
  6
CONTINUOUS
 10
12.7281154257
 20
9.878368731
 40
0.0299788057
100
AcDbArc
 50
179.9559066975
 51
269.9565095353
  0
ARC
  5
26D
100
AcDbEntity
  8
0
100
AcDbCircle
 62
7
  6
CONTINUOUS
 10
13.736860745
 20
7.710391804
 40
0.08
100
AcDbArc
 50
182.0
 51
250.8012928747
  0
ARC
  5
26E
100
AcDbEntity
  8
0
100
AcDbCircle
 62
9
  6
CONTINUOUS
 10
13.8714933704
 20
7.6002878149
 40
0.0410895814
100
AcDbArc
 50
2.007040448
 51
23.3907274797
  0
ARC
  5
26F
100
AcDbEntity
  8
0
100
AcDbCircle
 62
7
  6
CONTINUOUS
 10
14.2223993045
 20
7.780391804
 40
0.04
100
AcDbArc
 50
270.0
 51
360.0
  0
ARC
  5
270
100
AcDbEntity
  8
0
100
AcDbCircle
 62
7
  6
CONTINUOUS
 10
14.2223993045
 20
8.070391804
 40
0.04
100
AcDbArc
 50
0.0
 51
90.0
  0
ARC
  5
271
100
AcDbEntity
  8
0
100
AcDbCircle
 62
7
  6
CONTINUOUS
 10
14.2163993045
 20
7.500391804
 40
0.04
100
AcDbArc
 50
0.0
 51
90.0
  0
ARC
  5
272
100
AcDbEntity
  8
0
100
AcDbCircle
 62
7
  6
CONTINUOUS
 10
13.6973993045
 20
7.5970657491
 40
0.04
100
AcDbArc
 50
0.0
 51
70.8012928747
  0
ARC
  5
273
100
AcDbEntity
  8
0
100
AcDbCircle
 62
7
  6
CONTINUOUS
 10
13.8735394642
 20
7.6003308867
 40
0.04
100
AcDbArc
 50
2.0489111249
 51
89.9999998255
  0
ARC
  5
274
100
AcDbEntity
  8
0
100
AcDbCircle
 62
7
  6
CONTINUOUS
 10
14.0573993045
 20
7.510391804
 40
0.03
100
AcDbArc
 50
0.0
 51
90.0
  0
ARC
  5
275
100
AcDbEntity
  8
0
100
AcDbCircle
 62
9
  6
CONTINUOUS
 10
14.4031647621
 20
9.7835576631
 40
0.6722963367
100
AcDbArc
 50
174.4333694001
 51
182.068827197
  0
ARC
  5
276
100
AcDbEntity
  8
0
100
AcDbCircle
 62
7
  6
CONTINUOUS
 10
13.6702956526
 20
10.606391804
 40
0.06
100
AcDbArc
 50
2.0
 51
90.0
  0
ARC
  5
277
100
AcDbEntity
  8
0
100
AcDbCircle
 62
7
  6
CONTINUOUS
 10
13.3398993045
 20
9.808391804
 40
0.04
100
AcDbArc
 50
90.0
 51
180.0
  0
ARC
  5
278
100
AcDbEntity
  8
0
100
AcDbCircle
 62
7
  6
CONTINUOUS
 10
13.5659281514
 20
9.367391804
 40
0.033
100
AcDbArc
 50
2.0
 51
90.0
  0
ARC
  5
279
100
AcDbEntity
  8
0
100
AcDbCircle
 62
7
  6
CONTINUOUS
 10
14.4003993045
 20
10.193391804
 40
0.03
100
AcDbArc
 50
0.0
 51
90.0
  0
ARC
  5
27A
100
AcDbEntity
  8
0
100
AcDbCircle
 62
7
  6
CONTINUOUS
 10
14.4003993045
 20
9.878391804
 40
0.03
100
AcDbArc
 50
270.0
 51
360.0
  0
ARC
  5
27B
100
AcDbEntity
  8
0
100
AcDbCircle
 62
9
  6
CONTINUOUS
 10
13.1939076097
 20
10.193414878
 40
0.029978808
100
AcDbArc
 50
359.9559050659
 51
89.9565023737
  0
ARC
  5
27C
100
AcDbEntity
  8
0
100
AcDbCircle
 62
9
  6
CONTINUOUS
 10
13.2466831796
 20
10.193414878
 40
0.029978808
100
AcDbArc
 50
359.9559050476
 51
89.9565024415
  0
ARC
  5
27D
100
AcDbEntity
  8
0
100
AcDbCircle
 62
9
  6
CONTINUOUS
 10
13.2466831834
 20
9.878368731
 40
0.0299788057
100
AcDbArc
 50
270.0434904623
 51
0.044093305
  0
ARC
  5
27E
100
AcDbEntity
  8
0
100
AcDbCircle
 62
9
  6
CONTINUOUS
 10
13.1939076135
 20
9.878368731
 40
0.0299788057
100
AcDbArc
 50
270.0434904629
 51
0.0440933046
  0
SPLINE
  5
27F
100
AcDbEntity
  8
0
100
AcDbSpline
 62
9
  6
CONTINUOUS
 70
0
 71
3
 72
25
 73
21
 74
0
 42
0.0000001
 43
0.0000001
 44
0.0000000001
 40
0.0
 40
0.0
 40
0.0
 40
0.0
 40
0.0028178664
 40
0.0047880674
 40
0.0072439402
 40
0.0137435832
 40
0.022461572
 40
0.0334379074
 40
0.0466823183
 40
0.0621907224
 40
0.0799345864
 40
0.1219404938
 40
0.1723086066
 40
0.2306212917
 40
0.2963174093
 40
0.3687266796
 40
0.4471726875
 40
0.6192084196
 40
0.8060711184
 40
1.0
 40
1.0
 40
1.0
 40
1.0
 10
12.581417167
 20
9.848391804
 30
0.0
 10
12.5813888431
 20
9.848391804
 30
0.0
 10
12.581342816
 20
9.8484199997
 30
0.0
 10
12.5812980649
 20
9.8484764841
 30
0.0
 10
12.5812418091
 20
9.8485715839
 30
0.0
 10
12.581176524
 20
9.848737341
 30
0.0
 10
12.5811024458
 20
9.8489901626
 30
0.0
 10
12.5810288026
 20
9.8493131127
 30
0.0
 10
12.5809554926
 20
9.849705727
 30
0.0
 10
12.5808831299
 20
9.8501675079
 30
0.0
 10
12.5807824024
 20
9.8509172747
 30
0.0
 10
12.5806638341
 20
9.8520179267
 30
0.0
 10
12.5805342339
 20
9.8535270707
 30
0.0
 10
12.580412586
 20
9.8552756642
 30
0.0
 10
12.580300018
 20
9.857246793
 30
0.0
 10
12.5801976692
 20
9.8594210909
 30
0.0
 10
12.5800727045
 20
9.8626642652
 30
0.0
 10
12.5799528108
 20
9.8670587587
 30
0.0
 10
12.5798665843
 20
9.8726149496
 30
0.0
 10
12.5798470883
 20
9.8764425212
 30
0.0
 10
12.5798470883
 20
9.878391804
 30
0.0
  0
SPLINE
  5
280
100
AcDbEntity
  8
0
100
AcDbSpline
 62
9
  6
CONTINUOUS
 70
0
 71
3
 72
25
 73
21
 74
0
 42
0.0000001
 43
0.0000001
 44
0.0000000001
 40
0.0
 40
0.0
 40
0.0
 40
0.0
 40
0.1939288816
 40
0.3807915804
 40
0.5528273125
 40
0.6312733203
 40
0.7036825907
 40
0.7693787083
 40
0.8276913934
 40
0.8780595062
 40
0.9200654136
 40
0.9378092776
 40
0.9533176816
 40
0.9665620926
 40
0.977538428
 40
0.9862564168
 40
0.9927560598
 40
0.9952119326
 40
0.9971821336
 40
1.0
 40
1.0
 40
1.0
 40
1.0
 10
11.5728292258
 20
9.878391804
 30
0.0
 10
11.5728292258
 20
9.8764425212
 30
0.0
 10
11.5728487218
 20
9.8726149496
 30
0.0
 10
11.5729349483
 20
9.8670587587
 30
0.0
 10
11.573054842
 20
9.8626642652
 30
0.0
 10
11.5731798068
 20
9.8594210909
 30
0.0
 10
11.5732821555
 20
9.857246793
 30
0.0
 10
11.5733947236
 20
9.8552756642
 30
0.0
 10
11.5735163715
 20
9.8535270707
 30
0.0
 10
11.5736459716
 20
9.8520179267
 30
0.0
 10
11.5737645399
 20
9.8509172747
 30
0.0
 10
11.5738652675
 20
9.8501675079
 30
0.0
 10
11.5739376302
 20
9.849705727
 30
0.0
 10
11.5740109402
 20
9.8493131127
 30
0.0
 10
11.5740845833
 20
9.8489901626
 30
0.0
 10
11.5741586615
 20
9.848737341
 30
0.0
 10
11.5742239467
 20
9.8485715839
 30
0.0
 10
11.5742802024
 20
9.8484764841
 30
0.0
 10
11.5743249536
 20
9.8484199997
 30
0.0
 10
11.5743709806
 20
9.848391804
 30
0.0
 10
11.5743993045
 20
9.848391804
 30
0.0
  0
SPLINE
  5
281
100
AcDbEntity
  8
0
100
AcDbSpline
 62
9
  6
CONTINUOUS
 70
0
 71
3
 72
25
 73
21
 74
0
 42
0.0000001
 43
0.0000001
 44
0.0000000001
 40
0.0
 40
0.0
 40
0.0
 40
0.0
 40
0.0028178664
 40
0.0047880674
 40
0.0072439402
 40
0.0137435832
 40
0.022461572
 40
0.0334379074
 40
0.0466823183
 40
0.0621907224
 40
0.0799345864
 40
0.1219404938
 40
0.1723086066
 40
0.2306212917
 40
0.2963174093
 40
0.3687266796
 40
0.4471726875
 40
0.6192084196
 40
0.8060711184
 40
1.0
 40
1.0
 40
1.0
 40
1.0
 10
13.3933814421
 20
10.223391804
 30
0.0
 10
13.393409766
 20
10.223391804
 30
0.0
 10
13.393455793
 20
10.2233636084
 30
0.0
 10
13.3935005442
 20
10.223307124
 30
0.0
 10
13.3935567999
 20
10.2232120242
 30
0.0
 10
13.3936220851
 20
10.2230462671
 30
0.0
 10
13.3936961633
 20
10.2227934455
 30
0.0
 10
13.3937698064
 20
10.2224704954
 30
0.0
 10
13.3938431164
 20
10.2220778811
 30
0.0
 10
13.3939154791
 20
10.2216161002
 30
0.0
 10
13.3940162067
 20
10.2208663334
 30
0.0
 10
13.394134775
 20
10.2197656814
 30
0.0
 10
13.3942643751
 20
10.2182565374
 30
0.0
 10
13.394386023
 20
10.2165079439
 30
0.0
 10
13.3944985911
 20
10.2145368151
 30
0.0
 10
13.3946009398
 20
10.2123625172
 30
0.0
 10
13.3947259046
 20
10.2091193429
 30
0.0
 10
13.3948457983
 20
10.2047248494
 30
0.0
 10
13.3949320248
 20
10.1991686585
 30
0.0
 10
13.3949515208
 20
10.1953410869
 30
0.0
 10
13.3949515208
 20
10.193391804
 30
0.0
  0
SPLINE
  5
282
100
AcDbEntity
  8
0
100
AcDbSpline
 62
9
  6
CONTINUOUS
 70
0
 71
3
 72
25
 73
21
 74
0
 42
0.0000001
 43
0.0000001
 44
0.0000000001
 40
0.0
 40
0.0
 40
0.0
 40
0.0
 40
0.1939288637
 40
0.3807915304
 40
0.5528272644
 40
0.6312732784
 40
0.7036825577
 40
0.7693786836
 40
0.8276913733
 40
0.8780594921
 40
0.9200654058
 40
0.9378092721
 40
0.9533176776
 40
0.9665620897
 40
0.977538426
 40
0.9862564157
 40
0.9927560594
 40
0.9952119324
 40
0.9971821335
 40
1.0
 40
1.0
 40
1.0
 40
1.0
 10
14.4019693832
 20
10.193391804
 30
0.0
 10
14.4019693832
 20
10.1953410867
 30
0.0
 10
14.4019498873
 20
10.1991686578
 30
0.0
 10
14.4018636608
 20
10.2047248483
 30
0.0
 10
14.4017437671
 20
10.2091193415
 30
0.0
 10
14.4016188023
 20
10.212362516
 30
0.0
 10
14.4015164536
 20
10.2145368141
 30
0.0
 10
14.4014038855
 20
10.2165079431
 30
0.0
 10
14.4012822376
 20
10.2182565368
 30
0.0
 10
14.4011526375
 20
10.2197656809
 30
0.0
 10
14.4010340692
 20
10.2208663331
 30
0.0
 10
14.4009333416
 20
10.2216161
 30
0.0
 10
14.4008609789
 20
10.222077881
 30
0.0
 10
14.4007876689
 20
10.2224704953
 30
0.0
 10
14.4007140257
 20
10.2227934454
 30
0.0
 10
14.4006399476
 20
10.2230462671
 30
0.0
 10
14.4005746624
 20
10.2232120242
 30
0.0
 10
14.4005184067
 20
10.223307124
 30
0.0
 10
14.4004736555
 20
10.2233636084
 30
0.0
 10
14.4004276284
 20
10.223391804
 30
0.0
 10
14.4003993045
 20
10.223391804
 30
0.0
  0
SPLINE
  5
283
100
AcDbEntity
  8
0
100
AcDbSpline
 62
9
  6
CONTINUOUS
 70
0
 71
3
 72
25
 73
21
 74
0
 42
0.0000001
 43
0.0000001
 44
0.0000000001
 40
0.0
 40
0.0
 40
0.0
 40
0.0
 40
0.0028178664
 40
0.0047880674
 40
0.0072439402
 40
0.0137435832
 40
0.022461572
 40
0.0334379074
 40
0.0466823183
 40
0.0621907224
 40
0.0799345864
 40
0.1219404938
 40
0.1723086066
 40
0.2306212917
 40
0.2963174093
 40
0.3687266796
 40
0.4471726875
 40
0.6192084196
 40
0.8060711184
 40
1.0
 40
1.0
 40
1.0
 40
1.0
 10
11.5743993045
 20
10.223391804
 30
0.0
 10
11.5743709806
 20
10.223391804
 30
0.0
 10
11.5743249536
 20
10.2233636084
 30
0.0
 10
11.5742802024
 20
10.223307124
 30
0.0
 10
11.5742239467
 20
10.2232120242
 30
0.0
 10
11.5741586615
 20
10.2230462671
 30
0.0
 10
11.5740845833
 20
10.2227934455
 30
0.0
 10
11.5740109402
 20
10.2224704954
 30
0.0
 10
11.5739376302
 20
10.2220778811
 30
0.0
 10
11.5738652675
 20
10.2216161002
 30
0.0
 10
11.5737645399
 20
10.2208663334
 30
0.0
 10
11.5736459716
 20
10.2197656814
 30
0.0
 10
11.5735163715
 20
10.2182565374
 30
0.0
 10
11.5733947236
 20
10.2165079439
 30
0.0
 10
11.5732821555
 20
10.2145368151
 30
0.0
 10
11.5731798068
 20
10.2123625172
 30
0.0
 10
11.573054842
 20
10.2091193429
 30
0.0
 10
11.5729349483
 20
10.2047248494
 30
0.0
 10
11.5728487218
 20
10.1991686585
 30
0.0
 10
11.5728292258
 20
10.1953410869
 30
0.0
 10
11.5728292258
 20
10.193391804
 30
0.0
  0
SPLINE
  5
284
100
AcDbEntity
  8
0
100
AcDbSpline
 62
9
  6
CONTINUOUS
 70
0
 71
3
 72
25
 73
21
 74
0
 42
0.0000001
 43
0.0000001
 44
0.0000000001
 40
0.0
 40
0.0
 40
0.0
 40
0.0
 40
0.1939288816
 40
0.3807915804
 40
0.5528273125
 40
0.6312733204
 40
0.7036825907
 40
0.7693787083
 40
0.8276913934
 40
0.8780595062
 40
0.9200654136
 40
0.9378092776
 40
0.9533176817
 40
0.9665620926
 40
0.977538428
 40
0.9862564168
 40
0.9927560598
 40
0.9952119326
 40
0.9971821336
 40
1.0
 40
1.0
 40
1.0
 40
1.0
 10
12.5798470883
 20
10.193391804
 30
0.0
 10
12.5798470883
 20
10.1953410869
 30
0.0
 10
12.5798665843
 20
10.1991686585
 30
0.0
 10
12.5799528108
 20
10.2047248494
 30
0.0
 10
12.5800727045
 20
10.2091193429
 30
0.0
 10
12.5801976692
 20
10.2123625172
 30
0.0
 10
12.580300018
 20
10.2145368151
 30
0.0
 10
12.580412586
 20
10.2165079439
 30
0.0
 10
12.5805342339
 20
10.2182565374
 30
0.0
 10
12.5806638341
 20
10.2197656814
 30
0.0
 10
12.5807824024
 20
10.2208663334
 30
0.0
 10
12.5808831299
 20
10.2216161002
 30
0.0
 10
12.5809554926
 20
10.2220778811
 30
0.0
 10
12.5810288026
 20
10.2224704954
 30
0.0
 10
12.5811024458
 20
10.2227934455
 30
0.0
 10
12.581176524
 20
10.2230462671
 30
0.0
 10
12.5812418091
 20
10.2232120242
 30
0.0
 10
12.5812980649
 20
10.223307124
 30
0.0
 10
12.581342816
 20
10.2233636084
 30
0.0
 10
12.5813888431
 20
10.223391804
 30
0.0
 10
12.581417167
 20
10.223391804
 30
0.0
  0
SPLINE
  5
285
100
AcDbEntity
  8
0
100
AcDbSpline
 62
9
  6
CONTINUOUS
 70
0
 71
3
 72
25
 73
21
 74
0
 42
0.0000001
 43
0.0000001
 44
0.0000000001
 40
0.0
 40
0.0
 40
0.0
 40
0.0
 40
0.0028178664
 40
0.0047880675
 40
0.0072439405
 40
0.0137435842
 40
0.0224615739
 40
0.0334379104
 40
0.0466823227
 40
0.0621907282
 40
0.0799345946
 40
0.1219405084
 40
0.1723086272
 40
0.2306213169
 40
0.2963174429
 40
0.3687267222
 40
0.4471727362
 40
0.6192084701
 40
0.8060711365
 40
1.0
 40
1.0
 40
1.0
 40
1.0
 10
14.4003993045
 20
9.848391804
 30
0.0
 10
14.4004276284
 20
9.848391804
 30
0.0
 10
14.4004736555
 20
9.8484199997
 30
0.0
 10
14.4005184067
 20
9.8484764841
 30
0.0
 10
14.4005746624
 20
9.8485715839
 30
0.0
 10
14.4006399476
 20
9.848737341
 30
0.0
 10
14.4007140257
 20
9.8489901627
 30
0.0
 10
14.4007876689
 20
9.8493131128
 30
0.0
 10
14.4008609789
 20
9.8497057271
 30
0.0
 10
14.4009333416
 20
9.8501675081
 30
0.0
 10
14.4010340692
 20
9.850917275
 30
0.0
 10
14.4011526375
 20
9.8520179272
 30
0.0
 10
14.4012822376
 20
9.8535270713
 30
0.0
 10
14.4014038855
 20
9.855275665
 30
0.0
 10
14.4015164536
 20
9.857246794
 30
0.0
 10
14.4016188023
 20
9.8594210921
 30
0.0
 10
14.4017437671
 20
9.8626642666
 30
0.0
 10
14.4018636608
 20
9.8670587599
 30
0.0
 10
14.4019498873
 20
9.8726149503
 30
0.0
 10
14.4019693832
 20
9.8764425214
 30
0.0
 10
14.4019693832
 20
9.878391804
 30
0.0
  0
SPLINE
  5
286
100
AcDbEntity
  8
0
100
AcDbSpline
 62
9
  6
CONTINUOUS
 70
0
 71
3
 72
25
 73
21
 74
0
 42
0.0000001
 43
0.0000001
 44
0.0000000001
 40
0.0
 40
0.0
 40
0.0
 40
0.0
 40
0.1939288816
 40
0.3807915804
 40
0.5528273125
 40
0.6312733204
 40
0.7036825907
 40
0.7693787083
 40
0.8276913934
 40
0.8780595062
 40
0.9200654136
 40
0.9378092776
 40
0.9533176817
 40
0.9665620926
 40
0.977538428
 40
0.9862564168
 40
0.9927560598
 40
0.9952119326
 40
0.9971821336
 40
1.0
 40
1.0
 40
1.0
 40
1.0
 10
13.3949515208
 20
9.878391804
 30
0.0
 10
13.3949515208
 20
9.8764425212
 30
0.0
 10
13.3949320248
 20
9.8726149496
 30
0.0
 10
13.3948457983
 20
9.8670587587
 30
0.0
 10
13.3947259046
 20
9.8626642652
 30
0.0
 10
13.3946009398
 20
9.8594210909
 30
0.0
 10
13.3944985911
 20
9.857246793
 30
0.0
 10
13.394386023
 20
9.8552756642
 30
0.0
 10
13.3942643751
 20
9.8535270707
 30
0.0
 10
13.394134775
 20
9.8520179267
 30
0.0
 10
13.3940162067
 20
9.8509172747
 30
0.0
 10
13.3939154791
 20
9.8501675079
 30
0.0
 10
13.3938431164
 20
9.849705727
 30
0.0
 10
13.3937698064
 20
9.8493131127
 30
0.0
 10
13.3936961633
 20
9.8489901626
 30
0.0
 10
13.3936220851
 20
9.848737341
 30
0.0
 10
13.3935567999
 20
9.8485715839
 30
0.0
 10
13.3935005442
 20
9.8484764841
 30
0.0
 10
13.393455793
 20
9.8484199997
 30
0.0
 10
13.393409766
 20
9.848391804
 30
0.0
 10
13.3933814421
 20
9.848391804
 30
0.0
  0
SPLINE
  5
287
100
AcDbEntity
  8
0
100
AcDbSpline
 62
9
  6
CONTINUOUS
 70
0
 71
3
 72
15
 73
11
 74
0
 42
0.0000001
 43
0.0000001
 44
0.0000000001
 40
0.0
 40
0.0
 40
0.0
 40
0.0
 40
0.1231613563
 40
0.2469171031
 40
0.3712075978
 40
0.4960926713
 40
0.6215158895
 40
0.747544587
 40
0.8738507954
 40
1.0
 40
1.0
 40
1.0
 40
1.0
 10
13.8060450184
 20
7.6982369126
 30
0.0
 10
13.8061923189
 20
7.6943397905
 30
0.0
 10
13.8073319927
 20
7.6865366449
 30
0.0
 10
13.8113891773
 20
7.6754212187
 30
0.0
 10
13.8176474363
 20
7.6653129744
 30
0.0
 10
13.8257782142
 20
7.656574307
 30
0.0
 10
13.8354771442
 20
7.6495301255
 30
0.0
 10
13.8463206275
 20
7.6443326012
 30
0.0
 10
13.8579208725
 20
7.6410981065
 30
0.0
 10
13.8659308936
 20
7.640337475
 30
0.0
 10
13.8699254034
 20
7.6403309716
 30
0.0
  0
SPLINE
  5
288
100
AcDbEntity
  8
0
100
AcDbSpline
 62
9
  6
CONTINUOUS
 70
0
 71
3
 72
25
 73
21
 74
0
 42
0.0000001
 43
0.0000001
 44
0.0000000001
 40
0.0
 40
0.0
 40
0.0
 40
0.0
 40
0.0027894573
 40
0.0047592499
 40
0.0072234656
 40
0.0137627944
 40
0.0225470752
 40
0.03361339
 40
0.0469694601
 40
0.0626095385
 40
0.0805026137
 40
0.1228473644
 40
0.1735882822
 40
0.2322838577
 40
0.2983431434
 40
0.3710617599
 40
0.4497291435
 40
0.6218015387
 40
0.80791475
 40
1.0
 40
1.0
 40
1.0
 40
1.0
 10
7.9340994742
 20
9.666391804
 30
0.0
 10
7.934041452
 20
9.666391804
 30
0.0
 10
7.933947279
 20
9.6664513836
 30
0.0
 10
7.9338565304
 20
9.6665689856
 30
0.0
 10
7.9337417208
 20
9.6667679287
 30
0.0
 10
7.9336087654
 20
9.6671142391
 30
0.0
 10
7.9334578074
 20
9.6676423539
 30
0.0
 10
7.9333078252
 20
9.6683169001
 30
0.0
 10
7.9331585728
 20
9.6691368707
 30
0.0
 10
7.933011362
 20
9.6701011235
 30
0.0
 10
7.9328066414
 20
9.6716661746
 30
0.0
 10
7.9325660688
 20
9.6739623522
 30
0.0
 10
7.9323037516
 20
9.6771086946
 30
0.0
 10
7.9320583785
 20
9.680750968
 30
0.0
 10
7.9318323152
 20
9.6848523652
 30
0.0
 10
7.9316279372
 20
9.6893707802
 30
0.0
 10
7.9313805561
 20
9.6960943898
 30
0.0
 10
7.9311475379
 20
9.705178461
 30
0.0
 10
7.9309884651
 20
9.7166234666
 30
0.0
 10
7.9309617686
 20
9.7244903111
 30
0.0
 10
7.9309690527
 20
9.7284857738
 30
0.0
  0
SPLINE
  5
289
100
AcDbEntity
  8
0
100
AcDbSpline
 62
9
  6
CONTINUOUS
 70
0
 71
3
 72
25
 73
21
 74
0
 42
0.0000001
 43
0.0000001
 44
0.0000000001
 40
0.0
 40
0.0
 40
0.0
 40
0.0
 40
0.1780858803
 40
0.3623257415
 40
0.4533996993
 40
0.541677091
 40
0.6254544592
 40
0.7030285951
 40
0.772872216
 40
0.8341589304
 40
0.8862376382
 40
0.928458503
 40
0.9456969448
 40
0.9603896378
 40
0.9726175244
 40
0.982462686
 40
0.9900096272
 40
0.9953490427
 40
0.9985932423
 40
1.0
 40
1.0
 40
1.0
 40
1.0
 10
7.9309690623
 20
9.7284832886
 30
0.0
 10
7.9346514934
 20
9.7276556319
 30
0.0
 10
7.9421399853
 20
9.725955575
 30
0.0
 10
7.9515015282
 20
9.7237878034
 30
0.0
 10
7.9590017409
 20
9.7220195007
 30
0.0
 10
7.9644259644
 20
9.7207244648
 30
0.0
 10
7.9695680094
 20
9.7194796901
 30
0.0
 10
7.9743260381
 20
9.7183091705
 30
0.0
 10
7.9786161542
 20
9.7172321883
 30
0.0
 10
7.9823768327
 20
9.7162655891
 30
0.0
 10
7.9855645216
 20
9.7154219142
 30
0.0
 10
7.9878439723
 20
9.7147951751
 30
0.0
 10
7.9893539042
 20
9.7143597106
 30
0.0
 10
7.9902506076
 20
9.7140908249
 30
0.0
 10
7.9909933396
 20
9.7138573737
 30
0.0
 10
7.9915900134
 20
9.7136562581
 30
0.0
 10
7.9920384082
 20
9.7134930478
 30
0.0
 10
7.9923620833
 20
9.7133528003
 30
0.0
 10
7.9925335712
 20
9.7132655654
 30
0.0
 10
7.9926276552
 20
9.713183748
 30
0.0
 10
7.9926210789
 20
9.713154668
 30
0.0
  0
SPLINE
  5
28A
100
AcDbEntity
  8
0
100
AcDbSpline
 62
9
  6
CONTINUOUS
 70
0
 71
3
 72
20
 73
16
 74
0
 42
0.0000001
 43
0.0000001
 44
0.0000000001
 40
0.0
 40
0.0
 40
0.0
 40
0.0
 40
0.1249327524
 40
0.187510107
 40
0.2500589444
 40
0.3125932243
 40
0.3751293639
 40
0.4376712558
 40
0.5002112073
 40
0.6251628776
 40
0.6876724107
 40
0.7501706433
 40
0.8126722794
 40
0.8751917589
 40
1.0
 40
1.0
 40
1.0
 40
1.0
 10
7.9309608529
 20
9.7284857738
 30
0.0
 10
7.9342686996
 20
9.7431081375
 30
0.0
 10
7.9410826073
 20
9.7646951802
 30
0.0
 10
7.953585689
 20
9.7919982941
 30
0.0
 10
7.9646398588
 20
9.811649698
 30
0.0
 10
7.9772724651
 20
9.8303162235
 30
0.0
 10
7.9914068788
 20
9.8478723834
 30
0.0
 10
8.0069446852
 20
9.8642027899
 30
0.0
 10
8.0293664005
 20
9.8841790684
 30
0.0
 10
8.0542069314
 20
9.9012914506
 30
0.0
 10
8.080844544
 20
9.915136517
 30
0.0
 10
8.1016252342
 20
9.9238351579
 30
0.0
 10
8.1230558314
 20
9.9307867962
 30
0.0
 10
8.1522666399
 20
9.9376354912
 30
0.0
 10
8.1747514289
 20
9.9400403334
 30
0.0
 10
8.1897238433
 20
9.9404069451
 30
0.0
  0
SPLINE
  5
28B
100
AcDbEntity
  8
0
100
AcDbSpline
 62
9
  6
CONTINUOUS
 70
0
 71
3
 72
25
 73
21
 74
0
 42
0.0000001
 43
0.0000001
 44
0.0000000001
 40
0.0
 40
0.0
 40
0.0
 40
0.0
 40
0.1797466971
 40
0.3644973113
 40
0.5432661834
 40
0.6264739869
 40
0.7033825735
 40
0.7725316182
 40
0.8331547707
 40
0.8846614556
 40
0.92646762
 40
0.9435806976
 40
0.9582100526
 40
0.9704423308
 40
0.9803697342
 40
0.9880958547
 40
0.9937513728
 40
0.9958660793
 40
0.9975588859
 40
1.0
 40
1.0
 40
1.0
 40
1.0
 10
8.1896310767
 20
9.9403944366
 30
0.0
 10
8.1897154873
 20
9.9366531412
 30
0.0
 10
8.1899233728
 20
9.9290671789
 30
0.0
 10
8.1903441848
 20
9.9177642516
 30
0.0
 10
8.1908002521
 20
9.908474468
 30
0.0
 10
8.1912226684
 20
9.9014316214
 30
0.0
 10
8.1915490627
 20
9.8966695101
 30
0.0
 10
8.1918897977
 20
9.8923799258
 30
0.0
 10
8.1922372067
 20
9.8886216524
 30
0.0
 10
8.1925846013
 20
9.8854355267
 30
0.0
 10
8.1928839744
 20
9.8831556888
 30
0.0
 10
8.1931265036
 20
9.881643665
 30
0.0
 10
8.1932927942
 20
9.8807432367
 30
0.0
 10
8.1934551709
 20
9.8799945853
 30
0.0
 10
8.1936126591
 20
9.8793922805
 30
0.0
 10
8.1937654659
 20
9.8789313754
 30
0.0
 10
8.193896227
 20
9.8786352141
 30
0.0
 10
8.1940050727
 20
9.8784696226
 30
0.0
 10
8.1940904395
 20
9.8783728584
 30
0.0
 10
8.194174699
 20
9.878327432
 30
0.0
 10
8.194225507
 20
9.8783286621
 30
0.0
  0
SPLINE
  5
28C
100
AcDbEntity
  8
0
100
AcDbSpline
 62
9
  6
CONTINUOUS
 70
0
 71
3
 72
24
 73
20
 74
0
 42
0.0000001
 43
0.0000001
 44
0.0000000001
 40
0.0
 40
0.0
 40
0.0
 40
0.0
 40
0.1793551142
 40
0.363658697
 40
0.542078362
 40
0.6251829837
 40
0.7020524485
 40
0.7712343189
 40
0.8319508948
 40
0.8835958387
 40
0.9255704304
 40
0.9427752116
 40
0.9574994701
 40
0.9698290187
 40
0.9798560532
 40
0.9876857678
 40
0.9934538849
 40
0.9973833536
 40
1.0
 40
1.0
 40
1.0
 40
1.0
 10
12.4106663564
 20
9.7889488499
 30
0.0
 10
12.4103037667
 20
9.7852525572
 30
0.0
 10
12.4096073122
 20
9.7777541366
 30
0.0
 10
12.4086868562
 20
9.7665665129
 30
0.0
 10
12.4080467453
 20
9.757356305
 30
0.0
 10
12.4076424644
 20
9.7503605465
 30
0.0
 10
12.4074121375
 20
9.7456207545
 30
0.0
 10
12.4072541178
 20
9.7413418738
 30
0.0
 10
12.4071675092
 20
9.737583353
 30
0.0
 10
12.4071502901
 20
9.734387299
 30
0.0
 10
12.4071921397
 20
9.7320923221
 30
0.0
 10
12.4072667663
 20
9.7305636364
 30
0.0
 10
12.4073346927
 20
9.7296495537
 30
0.0
 10
12.4074166871
 20
9.7288858597
 30
0.0
 10
12.4075121931
 20
9.7282678978
 30
0.0
 10
12.4076179198
 20
9.7277895244
 30
0.0
 10
12.4077369829
 20
9.7274456376
 30
0.0
 10
12.4078600178
 20
9.7272199469
 30
0.0
 10
12.4079835193
 20
9.7271383255
 30
0.0
 10
12.4080374539
 20
9.727133125
 30
0.0
  0
SPLINE
  5
28D
100
AcDbEntity
  8
0
100
AcDbSpline
 62
9
  6
CONTINUOUS
 70
0
 71
3
 72
11
 73
7
 74
0
 42
0.0000001
 43
0.0000001
 44
0.0000000001
 40
0.0
 40
0.0
 40
0.0
 40
0.0
 40
0.2499925596
 40
0.4999903755
 40
0.7499968718
 40
1.0
 40
1.0
 40
1.0
 40
1.0
 10
12.410683787
 20
9.788947522
 30
0.0
 10
12.4338260263
 20
9.7867155897
 30
0.0
 10
12.4798272892
 20
9.7789616164
 30
0.0
 10
12.5469882524
 20
9.7597609639
 30
0.0
 10
12.6121731471
 20
9.7347358169
 30
0.0
 10
12.6543528372
 20
9.7150819386
 30
0.0
 10
12.6751561135
 20
9.7046985788
 30
0.0
  0
SPLINE
  5
28E
100
AcDbEntity
  8
0
100
AcDbSpline
 62
9
  6
CONTINUOUS
 70
0
 71
3
 72
11
 73
7
 74
0
 42
0.0000001
 43
0.0000001
 44
0.0000000001
 40
0.0
 40
0.0
 40
0.0
 40
0.0
 40
0.2422537867
 40
0.4902359499
 40
0.7429676922
 40
1.0
 40
1.0
 40
1.0
 40
1.0
 10
12.4080374595
 20
9.7271331117
 30
0.0
 10
12.43029277
 20
9.7249867174
 30
0.0
 10
12.4750871263
 20
9.7179530058
 30
0.0
 10
12.5416964158
 20
9.7014575174
 30
0.0
 10
12.6084879653
 20
9.6806204713
 30
0.0
 10
12.6527457416
 20
9.6646238601
 30
0.0
 10
12.6749334302
 20
9.656229484
 30
0.0
  0
SPLINE
  5
28F
100
AcDbEntity
  8
0
100
AcDbSpline
 62
9
  6
CONTINUOUS
 70
0
 71
3
 72
25
 73
21
 74
0
 42
0.0000001
 43
0.0000001
 44
0.0000000001
 40
0.0
 40
0.0
 40
0.0
 40
0.0
 40
0.1957271206
 40
0.3833197597
 40
0.555321682
 40
0.6335539151
 40
0.7056641904
 40
0.7710091847
 40
0.8289516287
 40
0.8789589805
 40
0.9206365402
 40
0.9382355526
 40
0.9536158604
 40
0.9667512129
 40
0.9776390326
 40
0.9862908253
 40
0.9927490795
 40
0.9951947977
 40
0.9971627025
 40
1.0
 40
1.0
 40
1.0
 40
1.0
 10
12.948617943
 20
10.6084857739
 30
0.0
 10
12.948624867
 20
10.6122837984
 30
0.0
 10
12.948675309
 20
10.6197219945
 30
0.0
 10
12.9488594469
 20
10.6304964706
 30
0.0
 10
12.9491042004
 20
10.6389891357
 30
0.0
 10
12.9493550117
 20
10.6452391704
 30
0.0
 10
12.9495587522
 20
10.649419627
 30
0.0
 10
12.949781628
 20
10.6532047832
 30
0.0
 10
12.950021467
 20
10.656559084
 30
0.0
 10
12.9502761347
 20
10.6594515018
 30
0.0
 10
12.9505085756
 20
10.6615596803
 30
0.0
 10
12.9507057172
 20
10.6629949851
 30
0.0
 10
12.9508472107
 20
10.6638786776
 30
0.0
 10
12.9509904502
 20
10.664629876
 30
0.0
 10
12.9511342874
 20
10.6652477151
 30
0.0
 10
12.9512788958
 20
10.6657313456
 30
0.0
 10
12.9514063971
 20
10.6660483659
 30
0.0
 10
12.9515160726
 20
10.6662300558
 30
0.0
 10
12.9516037682
 20
10.6663383793
 30
0.0
 10
12.9516933074
 20
10.666391804
 30
0.0
 10
12.9517483644
 20
10.666391804
 30
0.0
  0
LINE
  5
290
100
AcDbEntity
  8
0
100
AcDbLine
 62
7
  6
CONTINUOUS
 10
13.7313204363
 20
9.7592882634
 11
13.8060575226
 21
7.6982373661
  0
SPLINE
  5
291
100
AcDbEntity
  8
0
100
AcDbSpline
 62
9
  6
CONTINUOUS
 70
0
 71
3
 72
24
 73
20
 74
0
 42
0.0000001
 43
0.0000001
 44
0.0000000001
 40
0.0
 40
0.0
 40
0.0
 40
0.0
 40
0.1972479661
 40
0.3857649823
 40
0.4743827607
 40
0.5582197641
 40
0.6365368297
 40
0.7086555353
 40
0.7739444573
 40
0.8317768448
 40
0.8816265083
 40
0.9230986511
 40
0.9558136902
 40
0.9794802347
 40
0.9878929274
 40
0.9940327934
 40
0.9962665837
 40
0.9979657758
 40
1.0
 40
1.0
 40
1.0
 40
1.0
 10
7.0771309791
 20
10.6084857738
 30
0.0
 10
7.0733896631
 20
10.6086097975
 30
0.0
 10
7.066071862
 20
10.608829574
 30
0.0
 10
7.0570714428
 20
10.6090415111
 30
0.0
 10
7.0502219852
 20
10.609163169
 30
0.0
 10
7.0454632622
 20
10.6092278791
 30
0.0
 10
7.0410173905
 20
10.6092673074
 30
0.0
 10
7.0369233676
 20
10.6092812407
 30
0.0
 10
7.0332180909
 20
10.6092698421
 30
0.0
 10
7.0299356021
 20
10.6092333406
 30
0.0
 10
7.0271055635
 20
10.6091718875
 30
0.0
 10
7.024752965
 20
10.6090877247
 30
0.0
 10
7.0228988254
 20
10.6089803345
 30
0.0
 10
7.0216737831
 20
10.608869406
 30
0.0
 10
7.0209561934
 20
10.6087576924
 30
0.0
 10
7.0206456231
 20
10.6086899293
 30
0.0
 10
7.0204628753
 20
10.6086263574
 30
0.0
 10
7.0203640729
 20
10.6085802417
 30
0.0
 10
7.0202992982
 20
10.6085243558
 30
0.0
 10
7.0202979509
 20
10.6084857739
 30
0.0
  0
SPLINE
  5
292
100
AcDbEntity
  8
0
100
AcDbSpline
 62
9
  6
CONTINUOUS
 70
0
 71
3
 72
25
 73
21
 74
0
 42
0.0000001
 43
0.0000001
 44
0.0000000001
 40
0.0
 40
0.0
 40
0.0
 40
0.0
 40
0.0028372975
 40
0.0048052023
 40
0.0072509205
 40
0.0137091747
 40
0.0223609674
 40
0.0332487871
 40
0.0463841396
 40
0.0617644474
 40
0.0793634598
 40
0.1210410195
 40
0.1710483713
 40
0.2289908153
 40
0.2943358096
 40
0.3664460849
 40
0.444678318
 40
0.6166802403
 40
0.8042728794
 40
1.0
 40
1.0
 40
1.0
 40
1.0
 10
7.0802614005
 20
10.666391804
 30
0.0
 10
7.0802063435
 20
10.666391804
 30
0.0
 10
7.0801168043
 20
10.6663383793
 30
0.0
 10
7.0800291087
 20
10.6662300558
 30
0.0
 10
7.0799194332
 20
10.6660483659
 30
0.0
 10
7.0797919319
 20
10.6657313456
 30
0.0
 10
7.0796473235
 20
10.6652477151
 30
0.0
 10
7.0795034863
 20
10.664629876
 30
0.0
 10
7.0793602468
 20
10.6638786776
 30
0.0
 10
7.0792187533
 20
10.6629949851
 30
0.0
 10
7.0790216118
 20
10.6615596803
 30
0.0
 10
7.0787891708
 20
10.6594515018
 30
0.0
 10
7.0785345031
 20
10.656559084
 30
0.0
 10
7.0782946641
 20
10.6532047832
 30
0.0
 10
7.0780717883
 20
10.649419627
 30
0.0
 10
7.0778680478
 20
10.6452391704
 30
0.0
 10
7.0776172365
 20
10.6389891357
 30
0.0
 10
7.0773724831
 20
10.6304964706
 30
0.0
 10
7.0771883451
 20
10.6197219945
 30
0.0
 10
7.0771379031
 20
10.6122837984
 30
0.0
 10
7.0771309791
 20
10.6084857739
 30
0.0
  0
SPLINE
  5
293
100
AcDbEntity
  8
0
100
AcDbSpline
 62
9
  6
CONTINUOUS
 70
0
 71
3
 72
13
 73
9
 74
0
 42
0.0000001
 43
0.0000001
 44
0.0000000001
 40
0.0
 40
0.0
 40
0.0
 40
0.0
 40
0.2475811588
 40
0.37229182
 40
0.4971775591
 40
0.6223707467
 40
0.7479669169
 40
1.0
 40
1.0
 40
1.0
 40
1.0
 10
13.8735394642
 20
7.6403308867
 30
0.0
 10
13.8772737117
 20
7.6403308867
 30
0.0
 10
13.8829318183
 20
7.6394812757
 30
0.0
 10
13.8899476355
 20
7.6367815489
 30
0.0
 10
13.8948856205
 20
7.6339858171
 30
0.0
 10
13.8993794778
 20
7.6305003901
 30
0.0
 10
13.9046529526
 20
7.6250245228
 30
0.0
 10
13.9076928127
 20
7.6200875253
 30
0.0
 10
13.9092061642
 20
7.6166003524
 30
0.0
  0
SPLINE
  5
294
100
AcDbEntity
  8
0
100
AcDbSpline
 62
9
  6
CONTINUOUS
 70
0
 71
3
 72
23
 73
19
 74
0
 42
0.0000001
 43
0.0000001
 44
0.0000000001
 40
0.0
 40
0.0
 40
0.0
 40
0.0
 40
0.0011077302
 40
0.004420125
 40
0.0099215426
 40
0.0175963419
 40
0.0274288824
 40
0.0394035242
 40
0.069716555
 40
0.1084103288
 40
0.1553442219
 40
0.2102396505
 40
0.2727458175
 40
0.3425113488
 40
0.4191849349
 40
0.5917590892
 40
0.7867472121
 40
1.0
 40
1.0
 40
1.0
 40
1.0
 10
12.2102621288
 20
9.6269082338
 30
0.0
 10
12.2104334681
 20
9.6268882396
 30
0.0
 10
12.2111190599
 20
9.6268259905
 30
0.0
 10
12.2126555916
 20
9.6266644276
 30
0.0
 10
12.2152106374
 20
9.6264095411
 30
0.0
 10
12.2187751961
 20
9.6260460808
 30
0.0
 10
12.2233427475
 20
9.6255816494
 30
0.0
 10
12.2314171625
 20
9.6247566946
 30
0.0
 10
12.2439621594
 20
9.6234692796
 30
0.0
 10
12.2619215531
 20
9.6216143599
 30
0.0
 10
12.2836873995
 20
9.6193526363
 30
0.0
 10
12.3091392967
 20
9.616685701
 30
0.0
 10
12.3381240472
 20
9.6136172941
 30
0.0
 10
12.3704771899
 20
9.6101525874
 30
0.0
 10
12.4198661644
 20
9.6047966511
 30
0.0
 10
12.4886248943
 20
9.5971827623
 30
0.0
 10
12.5784908002
 20
9.5869385376
 30
0.0
 10
12.6416289611
 20
9.5795093394
 30
0.0
 10
12.6746025652
 20
9.5755630494
 30
0.0
  0
SPLINE
  5
295
100
AcDbEntity
  8
0
100
AcDbSpline
 62
9
  6
CONTINUOUS
 70
0
 71
3
 72
24
 73
20
 74
0
 42
0.0000001
 43
0.0000001
 44
0.0000000001
 40
0.0
 40
0.0
 40
0.0
 40
0.0
 40
0.0020342242
 40
0.0037334163
 40
0.0059672066
 40
0.0121070726
 40
0.0205197653
 40
0.0441863098
 40
0.0769013489
 40
0.1183734917
 40
0.1682231552
 40
0.2260555427
 40
0.2913444647
 40
0.3634631703
 40
0.4417802359
 40
0.5256172393
 40
0.6142350177
 40
0.8027520339
 40
1.0
 40
1.0
 40
1.0
 40
1.0
 10
6.9895676737
 20
9.7284857739
 30
0.0
 10
6.9895690211
 20
9.7285243558
 30
0.0
 10
6.9896337958
 20
9.7285802417
 30
0.0
 10
6.9897325982
 20
9.7286263574
 30
0.0
 10
6.989915346
 20
9.7286899293
 30
0.0
 10
6.9902259162
 20
9.7287576924
 30
0.0
 10
6.9909435059
 20
9.728869406
 30
0.0
 10
6.9921685482
 20
9.7289803345
 30
0.0
 10
6.9940226878
 20
9.7290877247
 30
0.0
 10
6.9963752864
 20
9.7291718875
 30
0.0
 10
6.999205325
 20
9.7292333406
 30
0.0
 10
7.0024878137
 20
9.7292698421
 30
0.0
 10
7.0061930904
 20
9.7292812407
 30
0.0
 10
7.0102871133
 20
9.7292673074
 30
0.0
 10
7.0147329851
 20
9.7292278791
 30
0.0
 10
7.019491708
 20
9.729163169
 30
0.0
 10
7.0263411656
 20
9.7290415111
 30
0.0
 10
7.0353415849
 20
9.728829574
 30
0.0
 10
7.0426593859
 20
9.7286097975
 30
0.0
 10
7.0464007019
 20
9.7284857738
 30
0.0
  0
SPLINE
  5
296
100
AcDbEntity
  8
0
100
AcDbSpline
 62
9
  6
CONTINUOUS
 70
0
 71
3
 72
25
 73
21
 74
0
 42
0.0000001
 43
0.0000001
 44
0.0000000001
 40
0.0
 40
0.0
 40
0.0
 40
0.0
 40
0.1920851612
 40
0.378198171
 40
0.5502703379
 40
0.628937656
 40
0.7016562807
 40
0.7677155876
 40
0.8264111524
 40
0.8771521648
 40
0.9194970543
 40
0.9373901787
 40
0.9530302796
 40
0.9663863882
 40
0.9774527593
 40
0.9862371025
 40
0.9927764879
 40
0.9952407257
 40
0.997210534
 40
1.0
 40
1.0
 40
1.0
 40
1.0
 10
7.0464007019
 20
9.7284857738
 30
0.0
 10
7.046393418
 20
9.724490313
 30
0.0
 10
7.0464201143
 20
9.7166234747
 30
0.0
 10
7.0465791867
 20
9.70517848
 30
0.0
 10
7.0468122043
 20
9.6960944194
 30
0.0
 10
7.0470595852
 20
9.6893708158
 30
0.0
 10
7.0472639626
 20
9.6848524016
 30
0.0
 10
7.0474900252
 20
9.680751004
 30
0.0
 10
7.0477353983
 20
9.6771087285
 30
0.0
 10
7.0479977151
 20
9.6739623815
 30
0.0
 10
7.0482382875
 20
9.6716661979
 30
0.0
 10
7.0484430083
 20
9.6701011425
 30
0.0
 10
7.0485902199
 20
9.6691368876
 30
0.0
 10
7.048739473
 20
9.6683169146
 30
0.0
 10
7.0488894556
 20
9.6676423652
 30
0.0
 10
7.049040414
 20
9.6671142467
 30
0.0
 10
7.0491733696
 20
9.6667679333
 30
0.0
 10
7.0492881794
 20
9.666568988
 30
0.0
 10
7.0493789279
 20
9.6664513848
 30
0.0
 10
7.0494731011
 20
9.666391804
 30
0.0
 10
7.0495311234
 20
9.666391804
 30
0.0
  0
ENDSEC
  0
SECTION
  2
OBJECTS
  0
DICTIONARY
  5
C
100
AcDbDictionary
280
0
281
1
  3
ACAD_GROUP
350
D
  3
ACAD_MLINESTYLE
350
17
  3
ACAD_LAYOUT
350
1A
  3
ACAD_PLOTSETTINGS
350
19
  3
ACAD_PLOTSTYLENAME
350
E
  0
DICTIONARY
  5
D
102
{ACAD_REACTORS
330
C
102
}
100
AcDbDictionary
280
0
281
1
  0
ACDBDICTIONARYWDFLT
  5
E
102
{ACAD_REACTORS
330
C
102
}
100
AcDbDictionary
281
1
  3
Normal
350
F
100
AcDbDictionaryWithDefault
340
F
  0
DICTIONARY
  5
17
102
{ACAD_REACTORS
330
C
102
}
100
AcDbDictionary
280
0
281
1
  3
Standard
350
18
  0
DICTIONARY
  5
19
102
{ACAD_REACTORS
330
C
102
}
100
AcDbDictionary
281
1
  0
DICTIONARY
  5
1A
102
{ACAD_REACTORS
330
C
102
}
100
AcDbDictionary
281
1
  3
Model
350
297
  3
Layout1
350
298
  0
ACDBPLACEHOLDER
  5
F
102
{ACAD_REACTORS
330
E
102
}
  0
MLINESTYLE
  5
18
102
{ACAD_REACTORS
330
17
102
}
100
AcDbMlineStyle
  2
STANDARD
 70
0
  3

 62
256
 51
90.0
 52
90.0
 71
2
 49
0.5
 62
256
  6
BYLAYER
 49
-0.5
 62
256
  6
BYLAYER
  0
LAYOUT
  5
297
102
{ACAD_REACTORS
330
1A
102
}
100
AcDbPlotSettings
  1

  2
none_device
  4
ANSI_C_(22.00_x_17.00_Inches)
  6

 40
0.0
 41
0.0
 42
0.0
 43
0.0
 44
558.8
 45
431.8
 46
0.0
 47
0.0
 48
0.0
 49
0.0
140
0.0
141
0.0
142
1.0
143
1.0
 70
1024
 72
0
 73
0
 74
0
  7

 75
0
147
1.0
148
0.0
149
0.0
100
AcDbLayout
  1
Model
 70
0
 71
0
 10
0.0
 20
0.0
 11
22.0
 21
17.0
 12
0.0
 22
0.0
 32
0.0
 14
0.0
 24
0.0
 34
0.0
 15
0.0
 25
0.0
 35
0.0
146
0.0
 13
0.0
 23
0.0
 33
0.0
 16
1.0
 26
0.0
 36
0.0
 17
0.0
 27
1.0
 37
0.0
 76
0
330
202
345
0
346
0
  0
LAYOUT
  5
298
102
{ACAD_REACTORS
330
1A
102
}
100
AcDbPlotSettings
  1

  2
none_device
  4
ANSI_C_(22.00_x_17.00_Inches)
  6

 40
0.0
 41
0.0
 42
0.0
 43
0.0
 44
558.8
 45
431.8
 46
0.0
 47
0.0
 48
0.0
 49
0.0
140
0.0
141
0.0
142
1.0
143
1.0
 70
0
 72
0
 73
0
 74
0
  7

 75
0
147
1.0
148
0.0
149
0.0
100
AcDbLayout
  1
Layout1
 70
0
 71
1
 10
0.0
 20
0.0
 11
22.0
 21
17.0
 12
0.0
 22
0.0
 32
0.0
 14
0.0
 24
0.0
 34
0.0
 15
0.0
 25
0.0
 35
0.0
146
0.0
 13
0.0
 23
0.0
 33
0.0
 16
1.0
 26
0.0
 36
0.0
 17
0.0
 27
1.0
 37
0.0
 76
0
330
203
345
0
346
0
  0
ENDSEC
  0
EOF
