999
DXF file: E:\BT Custom\CADOUTPUT\_TOP.dxf
999
Pro/ENGINEER 2018400 by Parametric Technology Corporation
  0
SECTION
  2
HEADER
  9
$ACADVER
  1
AC1018
  9
$DWGCODEPAGE
  3
ANSI_1252
  9
$EXTMAX
 10
22.0
 20
17.0
 30
0.0
  9
$EXTMIN
 10
0.0
 20
0.0
 30
0.0
  9
$LIMMIN
 10
0.0
 20
0.0
  9
$LIMMAX
 10
22.0
 20
17.0
  9
$VIEWCTR
 10
11.0
 20
8.5
  9
$VIEWSIZE
 40
17.0
  9
$CLAYER
  8
0
  9
$LTSCALE
 40
1.21
  9
$CELTYPE
  6
BYLAYER
  9
$DIMSCALE
 40
1.0
  9
$DIMASZ
 40
0.1
  9
$DIMEXO
 40
0.0625
  9
$DIMDLI
 40
0.836
  9
$DIMEXE
 40
0.125
  9
$DIMCEN
 40
0.198
  9
$DIMLFAC
 40
1.0
  9
$DIMBLK
  1
_FILLED
  9
$DIMALT
 70
1
  9
$DIMALTD
 70
2
  9
$DIMALTTD
 70
2
  9
$DIMALTF
 40
25.4
  9
$DIMTXT
 40
0.08
  9
$DIMTOL
 70
1
  9
$DIMLIM
 70
0
  9
$DIMTFAC
 40
1.0
  9
$DIMTP
 40
0.001
  9
$DIMTM
 40
0.001
  9
$DIMGAP
 40
0.09
  9
$DIMDSEP
 70
46
  9
$AUNITS
 70
0
  9
$PDMODE
 70
3
  9
$PDSIZE
 40
0.06
  9
$HANDSEED
  5
34B
  9
$TILEMODE
 70
1
  9
$MEASUREMENT
 70
0
  9
$INSUNITS
 70
1
  0
ENDSEC
  0
SECTION
  2
CLASSES
  0
CLASS
  1
ACDBDICTIONARYWDFLT
  2
AcDbDictionaryWithDefault
  3
AutoCAD 2000
 90
0
 91
1
280
0
281
0
  0
CLASS
  1
ACDBPLACEHOLDER
  2
AcDbPlaceHolder
  3
AutoCAD 2000
 90
0
 91
1
280
0
281
0
  0
CLASS
  1
LAYOUT
  2
AcDbLayout
  3
AutoCAD 2000
 90
0
 91
0
280
0
281
0
  0
ENDSEC
  0
SECTION
  2
TABLES
  0
TABLE
  2
VPORT
  5
8
100
AcDbSymbolTable
 70
2
  0
VPORT
  5
1F4
100
AcDbSymbolTableRecord
100
AcDbViewportTableRecord
  2
*ACTIVE
 70
0
 10
0.0
 20
0.0
 11
1.0
 21
1.0
 12
11.0
 22
8.5
 13
0.0
 23
0.0
 14
1.0
 24
1.0
 15
0.0
 25
0.0
 16
0.0
 26
0.0
 36
1.0
 17
0.0
 27
0.0
 37
0.0
 40
17.0
 41
1.2941176471
 42
50.0
 43
0.0
 44
0.0
 50
0.0
 51
0.0
 71
0
 72
100
 73
1
 74
1
 75
0
 76
0
 77
0
 78
0
  0
ENDTAB
  0
TABLE
  2
LTYPE
  5
5
100
AcDbSymbolTable
 70
6
  0
LTYPE
  5
14
100
AcDbSymbolTableRecord
100
AcDbLinetypeTableRecord
  2
BYBLOCK
 70
0
  3

 72
65
 73
0
 40
0.0
  0
LTYPE
  5
15
100
AcDbSymbolTableRecord
100
AcDbLinetypeTableRecord
  2
BYLAYER
 70
0
  3

 72
65
 73
0
 40
0.0
  0
LTYPE
  5
16
100
AcDbSymbolTableRecord
100
AcDbLinetypeTableRecord
  2
CONTINUOUS
 70
64
  3
Solid line
 72
65
 73
0
 40
0.0
  0
LTYPE
  5
1F5
100
AcDbSymbolTableRecord
100
AcDbLinetypeTableRecord
  2
CENTER
 70
64
  3
____ _ ____ _ ____ _ ____ _ ____ _ ____ _ ____
 72
65
 73
4
 40
0.6
 49
0.375
 74
0
 49
-0.075
 74
0
 49
0.075
 74
0
 49
-0.075
 74
0
  0
LTYPE
  5
1F6
100
AcDbSymbolTableRecord
100
AcDbLinetypeTableRecord
  2
HIDDEN
 70
64
  3
- - - - - - - - - - - - - - - - - - - -
 72
65
 73
2
 40
0.2
 49
0.1
 74
0
 49
-0.1
 74
0
  0
LTYPE
  5
1F7
100
AcDbSymbolTableRecord
100
AcDbLinetypeTableRecord
  2
PHANTOM
 70
64
  3
_____ _ _ _____ _ _ _____ _ _ _____
 72
65
 73
6
 40
0.8
 49
0.45
 74
0
 49
-0.05
 74
0
 49
0.1
 74
0
 49
-0.05
 74
0
 49
0.1
 74
0
 49
-0.05
 74
0
  0
LTYPE
  5
1F8
100
AcDbSymbolTableRecord
100
AcDbLinetypeTableRecord
  2
DOT
 70
64
  3
. . . . . . . . . . . . . . . . . . . .
 72
65
 73
2
 40
0.2
 49
0.1
 74
0
 49
-0.1
 74
0
  0
LTYPE
  5
1F9
100
AcDbSymbolTableRecord
100
AcDbLinetypeTableRecord
  2
DASHED
 70
64
  3
- - - - - - - - - - - - - - - - - - - -
 72
65
 73
2
 40
0.2
 49
0.1
 74
0
 49
-0.1
 74
0
  0
ENDTAB
  0
TABLE
  2
LAYER
  5
2
100
AcDbSymbolTable
 70
36
  0
LAYER
  5
10
100
AcDbSymbolTableRecord
100
AcDbLayerTableRecord
  2
0
 70
0
 62
7
  6
CONTINUOUS
370
-3
390
F
  0
LAYER
  5
1FA
100
AcDbSymbolTableRecord
100
AcDbLayerTableRecord
  2
DEFAULT_1
 70
0
 62
7
  6
CENTER
370
-3
390
F
  0
LAYER
  5
1FB
100
AcDbSymbolTableRecord
100
AcDbLayerTableRecord
  2
DEFAULT_2
 70
0
 62
8
  6
HIDDEN
370
-3
390
F
  0
LAYER
  5
1FC
100
AcDbSymbolTableRecord
100
AcDbLayerTableRecord
  2
DEFAULT_3
 70
0
 62
7
  6
PHANTOM
370
-3
390
F
  0
LAYER
  5
1FD
100
AcDbSymbolTableRecord
100
AcDbLayerTableRecord
  2
ALL_FEATURES
 70
0
 62
7
  6
CONTINUOUS
370
-3
390
F
  0
LAYER
  5
1FE
100
AcDbSymbolTableRecord
100
AcDbLayerTableRecord
  2
AXES_FEATURES
 70
0
 62
7
  6
CONTINUOUS
370
-3
390
F
  0
LAYER
  5
1FF
100
AcDbSymbolTableRecord
100
AcDbLayerTableRecord
  2
DIMENSIONS
 70
0
 62
7
  6
CONTINUOUS
370
-3
390
F
  0
ENDTAB
  0
TABLE
  2
STYLE
  5
3
100
AcDbSymbolTable
 70
1
  0
STYLE
  5
11
100
AcDbSymbolTableRecord
100
AcDbTextStyleTableRecord
  2
STANDARD
 70
0
 40
0.0
 41
0.8
 50
0.0
 71
0
 42
0.2
  3
txt
  4

  0
STYLE
  5
200
100
AcDbSymbolTableRecord
100
AcDbTextStyleTableRecord
  2
TEXTSTYLE_1
 70
0
 40
0.0
 41
0.8
 50
0.0
 71
0
 42
0.2
  3
gdt
  4

  0
ENDTAB
  0
TABLE
  2
VIEW
  5
6
100
AcDbSymbolTable
 70
0
  0
ENDTAB
  0
TABLE
  2
UCS
  5
7
100
AcDbSymbolTable
 70
0
  0
ENDTAB
  0
TABLE
  2
APPID
  5
9
100
AcDbSymbolTable
 70
1
  0
APPID
  5
201
100
AcDbSymbolTableRecord
100
AcDbRegAppTableRecord
  2
ACAD
 70
0
  0
ENDTAB
  0
TABLE
  2
BLOCK_RECORD
  5
1
100
AcDbSymbolTable
 70
0
  0
BLOCK_RECORD
  5
202
100
AcDbSymbolTableRecord
100
AcDbBlockTableRecord
  2
*Model_Space
  0
BLOCK_RECORD
  5
203
100
AcDbSymbolTableRecord
100
AcDbBlockTableRecord
  2
*Paper_Space
  0
BLOCK_RECORD
  5
204
100
AcDbSymbolTableRecord
100
AcDbBlockTableRecord
  2
_FILLED
  0
ENDTAB
  0
TABLE
  2
DIMSTYLE
  5
A
100
AcDbSymbolTable
 70
1
100
AcDbDimStyleTable
 71
0
  0
DIMSTYLE
105
205
100
AcDbSymbolTableRecord
100
AcDbDimStyleTableRecord
  2
STANDARD
 70
0
  3

  4

 40
1.0
 41
0.1
 42
0.0625
 43
0.38
 44
0.125
 45
0.0
 46
0.0
 47
0.001
 48
0.001
140
0.08
141
0.09
142
0.0
143
25.4
144
1.0
145
0.0
146
1.0
147
0.09
 71
1.0
 72
0.0
 73
1
 74
1
 75
0
 76
0
 77
0
 78
4
 79
1
170
1
171
2
172
0
173
0
174
0
175
0
176
0
177
0
178
0
270
2
179
3
271
3
272
3
273
2
274
2
275
0
280
0
281
0
282
0
283
1
284
4
285
0
286
0
287
3
288
0
340
11
278
46
341
204
342
204
343
204
344
204
  0
ENDTAB
  0
ENDSEC
  0
SECTION
  2
BLOCKS
  0
BLOCK
  5
20
100
AcDbEntity
  8
0
100
AcDbBlockBegin
  2
*Model_Space
 70
0
 10
0.0
 20
0.0
 30
0.0
  3
*Model_Space
  1

  0
ENDBLK
  5
21
100
AcDbEntity
  8
0
100
AcDbBlockEnd
  0
BLOCK
  5
1C
100
AcDbEntity
  8
0
100
AcDbBlockBegin
  2
*Paper_Space
 70
0
 10
0.0
 20
0.0
 30
0.0
  3
*Paper_Space
  1

  0
ENDBLK
  5
1D
100
AcDbEntity
  8
0
100
AcDbBlockEnd
  0
BLOCK
  5
206
100
AcDbEntity
  8
0
100
AcDbBlockBegin
  2
_FILLED
 70
64
 10
0.0
 20
0.0
  3
_FILLED
  1

  0
SOLID
  5
207
100
AcDbEntity
  8
0
  6
BYBLOCK
 62
0
100
AcDbTrace
 10
0.0
 20
0.0
 11
-1.0
 21
0.2
 12
-1.0
 22
-0.2
 13
-1.0
 23
-0.2
  0
ENDBLK
  5
208
100
AcDbEntity
  8
0
  6
BYBLOCK
 62
0
100
AcDbBlockEnd
  0
ENDSEC
  0
SECTION
  2
ENTITIES
  0
LINE
  5
209
100
AcDbEntity
  8
0
100
AcDbLine
 62
9
  6
CONTINUOUS
 10
5.6327482596
 20
9.9962376248
 11
5.6343183383
 21
9.9662787388
  0
LINE
  5
20A
100
AcDbEntity
  8
0
100
AcDbLine
 62
7
  6
CONTINUOUS
 10
5.6043183383
 20
9.5532166127
 11
5.6043183383
 21
9.9662787389
  0
LINE
  5
20B
100
AcDbEntity
  8
0
100
AcDbLine
 62
9
  6
CONTINUOUS
 10
5.6343183383
 20
9.9662787388
 11
5.6343183383
 21
9.5532166128
  0
LINE
  5
20C
100
AcDbEntity
  8
0
100
AcDbLine
 62
9
  6
CONTINUOUS
 10
5.6343183383
 20
9.5532166128
 11
5.6327482596
 21
9.5232577268
  0
LINE
  5
20D
100
AcDbEntity
  8
0
100
AcDbLine
 62
9
  6
CONTINUOUS
 10
6.6397661221
 20
9.4704821569
 11
6.6413362007
 21
9.5004410429
  0
LINE
  5
20E
100
AcDbEntity
  8
0
100
AcDbLine
 62
7
  6
CONTINUOUS
 10
6.7580528194
 20
10.1672998921
 11
6.8108283892
 21
11.1743177546
  0
LINE
  5
20F
100
AcDbEntity
  8
0
100
AcDbLine
 62
9
  6
CONTINUOUS
 10
6.7880117054
 20
10.1657298133
 11
6.8407872753
 21
11.1727476758
  0
LINE
  5
210
100
AcDbEntity
  8
0
100
AcDbLine
 62
9
  6
CONTINUOUS
 10
6.6413362007
 20
10.0190543087
 11
6.6397661221
 21
10.0490131947
  0
LINE
  5
211
100
AcDbEntity
  8
0
100
AcDbLine
 62
7
  6
CONTINUOUS
 10
6.8108283892
 20
8.345177597
 11
6.7580528194
 21
9.3521954595
  0
LINE
  5
212
100
AcDbEntity
  8
0
100
AcDbLine
 62
9
  6
CONTINUOUS
 10
6.8407872753
 20
8.3467476758
 11
6.7880117054
 21
9.3537655384
  0
LINE
  5
213
100
AcDbEntity
  8
0
100
AcDbLine
 62
9
  6
CONTINUOUS
 10
6.8407872753
 20
11.2027476758
 11
6.8407872753
 21
11.1727476758
  0
LINE
  5
214
100
AcDbEntity
  8
0
100
AcDbLine
 62
9
  6
CONTINUOUS
 10
6.8407872753
 20
8.3467476758
 11
6.8407872753
 21
8.3167476758
  0
LINE
  5
215
100
AcDbEntity
  8
0
100
AcDbLine
 62
9
  6
CONTINUOUS
 10
7.2538494013
 20
11.1727476758
 11
7.3066249712
 21
10.1657298133
  0
LINE
  5
216
100
AcDbEntity
  8
0
100
AcDbLine
 62
7
  6
CONTINUOUS
 10
7.2838082873
 20
11.1743177546
 11
7.3365838572
 21
10.1672998921
  0
LINE
  5
217
100
AcDbEntity
  8
0
100
AcDbLine
 62
9
  6
CONTINUOUS
 10
7.4533004758
 20
9.5004410429
 11
7.4548705545
 21
9.4704821569
  0
LINE
  5
218
100
AcDbEntity
  8
0
100
AcDbLine
 62
9
  6
CONTINUOUS
 10
7.2538494013
 20
8.3167476758
 11
7.2538494013
 21
8.3467476758
  0
LINE
  5
219
100
AcDbEntity
  8
0
100
AcDbLine
 62
9
  6
CONTINUOUS
 10
7.2538494013
 20
11.1727476758
 11
7.2538494013
 21
11.2027476758
  0
LINE
  5
21A
100
AcDbEntity
  8
0
100
AcDbLine
 62
9
  6
CONTINUOUS
 10
7.3066249712
 20
9.3537655383
 11
7.2538494013
 21
8.3467476758
  0
LINE
  5
21B
100
AcDbEntity
  8
0
100
AcDbLine
 62
7
  6
CONTINUOUS
 10
7.3365838572
 20
9.3521954595
 11
7.2838082873
 21
8.345177597
  0
LINE
  5
21C
100
AcDbEntity
  8
0
100
AcDbLine
 62
9
  6
CONTINUOUS
 10
7.4548705545
 20
10.0490131947
 11
7.4533004758
 21
10.0190543087
  0
LINE
  5
21D
100
AcDbEntity
  8
0
100
AcDbLine
 62
9
  6
CONTINUOUS
 10
10.5832116975
 20
3.8187471651
 11
10.5832481981
 21
3.8187490732
  0
LINE
  5
21E
100
AcDbEntity
  8
0
100
AcDbLine
 62
9
  6
CONTINUOUS
 10
10.6124139575
 20
3.8494793504
 11
10.6722956387
 21
3.8526097718
  0
LINE
  5
21F
100
AcDbEntity
  8
0
100
AcDbLine
 62
7
  6
CONTINUOUS
 10
11.4515067972
 20
3.7618794946
 11
10.6431298793
 21
3.7618794946
  0
LINE
  5
220
100
AcDbEntity
  8
0
100
AcDbLine
 62
9
  6
CONTINUOUS
 10
10.6431298789
 20
3.761916045
 11
11.4515067974
 21
3.761916045
  0
LINE
  5
221
100
AcDbEntity
  8
0
100
AcDbLine
 62
9
  6
CONTINUOUS
 10
11.4223410381
 20
3.7926463222
 11
10.6722956385
 21
3.7926463222
  0
LINE
  5
222
100
AcDbEntity
  8
0
100
AcDbLine
 62
9
  6
CONTINUOUS
 10
10.6722956387
 20
3.8526097718
 11
11.4223410378
 21
3.8526097718
  0
LINE
  5
223
100
AcDbEntity
  8
0
100
AcDbLine
 62
9
  6
CONTINUOUS
 10
11.5113884785
 20
3.8187490732
 11
11.511424979
 21
3.8187471651
  0
LINE
  5
224
100
AcDbEntity
  8
0
100
AcDbLine
 62
9
  6
CONTINUOUS
 10
11.4223410378
 20
3.8526097718
 11
11.4822227191
 21
3.8494793504
  0
LINE
  5
225
100
AcDbEntity
  8
0
100
AcDbLine
 62
9
  6
CONTINUOUS
 10
8.4603183383
 20
9.5532166128
 11
8.4603183383
 21
9.9662787388
  0
LINE
  5
226
100
AcDbEntity
  8
0
100
AcDbLine
 62
9
  6
CONTINUOUS
 10
8.4603183383
 20
9.9662787388
 11
8.461888417
 21
9.9962376248
  0
LINE
  5
227
100
AcDbEntity
  8
0
100
AcDbLine
 62
9
  6
CONTINUOUS
 10
10.5370058139
 20
4.703317424
 11
10.5369693134
 21
4.7033155159
  0
LINE
  5
228
100
AcDbEntity
  8
0
100
AcDbLine
 62
9
  6
CONTINUOUS
 10
11.5576673632
 20
4.7033155159
 11
11.5576308627
 21
4.703317424
  0
LINE
  5
229
100
AcDbEntity
  8
0
100
AcDbLine
 62
9
  6
CONTINUOUS
 10
8.461888417
 20
9.5232577268
 11
8.4603183383
 21
9.5532166128
  0
LINE
  5
22A
100
AcDbEntity
  8
0
100
AcDbLine
 62
7
  6
CONTINUOUS
 10
8.4903183383
 20
9.9662787389
 11
8.4903183383
 21
9.5532166127
  0
LINE
  5
22B
100
AcDbEntity
  8
0
100
AcDbLine
 62
9
  6
CONTINUOUS
 10
11.4223410381
 20
3.7926463222
 11
11.4515067974
 21
3.761916045
  0
LINE
  5
22C
100
AcDbEntity
  8
0
100
AcDbLine
 62
9
  6
CONTINUOUS
 10
11.5113884785
 20
3.8187490728
 11
11.4822227191
 21
3.8494793501
  0
LINE
  5
22D
100
AcDbEntity
  8
0
100
AcDbLine
 62
9
  6
CONTINUOUS
 10
10.5308943323
 20
4.9619791867
 11
10.5308551569
 21
4.9620280582
  0
LINE
  5
22E
100
AcDbEntity
  8
0
100
AcDbLine
 62
9
  6
CONTINUOUS
 10
10.3049359936
 20
9.1830146806
 11
10.3049103554
 21
9.1828114762
  0
LWPOLYLINE
  5
22F
100
AcDbEntity
  8
0
100
AcDbPolyline
 62
7
  6
CONTINUOUS
 90
5
 70
0
 10
10.2693102902
 20
9.7044081306
 10
10.2811429298
 20
9.5451579592
 10
10.2908754714
 20
9.4075264214
 10
10.2988541437
 20
9.2853681053
 10
10.3049103576
 20
9.1828114363
  0
LINE
  5
230
100
AcDbEntity
  8
0
100
AcDbLine
 62
9
  6
CONTINUOUS
 10
10.2682648069
 20
9.7190213774
 11
10.2693227576
 21
9.7042426443
  0
LWPOLYLINE
  5
231
100
AcDbEntity
  8
0
100
AcDbPolyline
 62
7
  6
CONTINUOUS
 90
4
 70
0
 10
10.3049103981
 20
9.1828113694
 10
10.3818878294
 20
7.7817672826
 10
10.4576755783
 20
6.3659919239
 10
10.5308551425
 20
4.962028319
  0
LINE
  5
232
100
AcDbEntity
  8
0
100
AcDbLine
 62
7
  6
CONTINUOUS
 10
10.5832116975
 20
3.8187471651
 11
10.5369693134
 21
4.7033155159
  0
LINE
  5
233
100
AcDbEntity
  8
0
100
AcDbLine
 62
9
  6
CONTINUOUS
 10
10.5370062444
 20
4.7033091892
 11
10.5832481981
 21
3.8187490731
  0
LINE
  5
234
100
AcDbEntity
  8
0
100
AcDbLine
 62
9
  6
CONTINUOUS
 10
10.6124139575
 20
3.8494793501
 11
10.3054715313
 21
9.7209663143
  0
LINE
  5
235
100
AcDbEntity
  8
0
100
AcDbLine
 62
9
  6
CONTINUOUS
 10
10.6722956387
 20
3.8526097718
 11
10.3653532126
 21
9.7240967357
  0
LWPOLYLINE
  5
236
100
AcDbEntity
  8
0
100
AcDbPolyline
 62
7
  6
CONTINUOUS
 90
10
 70
0
 10
10.530855143
 20
4.9620283094
 10
10.5326987383
 20
4.9243723582
 10
10.5347368466
 20
4.8771417363
 10
10.536257714
 20
4.8350727508
 10
10.53728629
 20
4.7987809614
 10
10.5378602096
 20
4.7685721523
 10
10.5380269904
 20
4.7445479177
 10
10.5378468333
 20
4.7267839662
 10
10.5374265698
 20
4.7155519507
 10
10.5372365124
 20
4.7129095574
  0
LINE
  5
237
100
AcDbEntity
  8
0
100
AcDbLine
 62
9
  6
CONTINUOUS
 10
10.6431298793
 20
3.761916045
 11
10.6431298793
 21
3.7618794946
  0
LINE
  5
238
100
AcDbEntity
  8
0
100
AcDbLine
 62
9
  6
CONTINUOUS
 10
10.5370057148
 20
4.7033174349
 11
10.5371991663
 21
4.7125554946
  0
LINE
  5
239
100
AcDbEntity
  8
0
100
AcDbLine
 62
9
  6
CONTINUOUS
 10
11.2448183383
 20
10.6458878355
 11
11.2535146041
 21
10.6849061158
  0
LINE
  5
23A
100
AcDbEntity
  8
0
100
AcDbLine
 62
9
  6
CONTINUOUS
 10
10.6722956387
 20
3.8526097718
 11
10.6722956387
 21
3.7926463222
  0
LINE
  5
23B
100
AcDbEntity
  8
0
100
AcDbLine
 62
9
  6
CONTINUOUS
 10
10.8498183383
 20
10.6423721958
 11
10.8498183383
 21
10.6458878355
  0
LINE
  5
23C
100
AcDbEntity
  8
0
100
AcDbLine
 62
7
  6
CONTINUOUS
 10
10.8898183383
 20
10.5114743035
 11
10.8898183383
 21
10.6480321888
  0
LINE
  5
23D
100
AcDbEntity
  8
0
100
AcDbLine
 62
7
  6
CONTINUOUS
 10
10.9223183383
 20
10.5165162575
 11
10.9223183383
 21
10.9097476758
  0
LINE
  5
23E
100
AcDbEntity
  8
0
100
AcDbLine
 62
9
  6
CONTINUOUS
 10
10.9623183383
 20
10.9097476758
 11
10.9623183383
 21
10.5212529862
  0
LINE
  5
23F
100
AcDbEntity
  8
0
100
AcDbLine
 62
9
  6
CONTINUOUS
 10
10.8411425404
 20
10.6871049663
 11
10.8411220725
 21
10.6849061158
  0
LINE
  5
240
100
AcDbEntity
  8
0
100
AcDbLine
 62
7
  6
CONTINUOUS
 10
10.5371991663
 20
4.7125554946
 11
10.5372364354
 21
4.7129088043
  0
LINE
  5
241
100
AcDbEntity
  8
0
100
AcDbLine
 62
7
  6
CONTINUOUS
 10
11.5574375182
 20
4.7125554182
 11
11.5574022298
 21
4.7128904853
  0
LWPOLYLINE
  5
242
100
AcDbEntity
  8
0
100
AcDbPolyline
 62
7
  6
CONTINUOUS
 90
10
 70
0
 10
11.5574021805
 20
4.7128909678
 10
11.5571937773
 20
4.7158263601
 10
11.5567787913
 20
4.7272881743
 10
11.5566092206
 20
4.7452298667
 10
11.5567878117
 20
4.7694112906
 10
11.5573737797
 20
4.7997553223
 10
11.5584144043
 20
4.8361655079
 10
11.5599468818
 20
4.8783241975
 10
11.561995424
 20
4.9256080285
 10
11.5637815337
 20
4.9620283107
  0
LINE
  5
243
100
AcDbEntity
  8
0
100
AcDbLine
 62
9
  6
CONTINUOUS
 10
11.55763095
 20
4.7033174336
 11
11.5574375182
 21
4.7125554182
  0
LINE
  5
244
100
AcDbEntity
  8
0
100
AcDbLine
 62
9
  6
CONTINUOUS
 10
11.2535146041
 20
10.6849061158
 11
11.2534941362
 21
10.6871049662
  0
LINE
  5
245
100
AcDbEntity
  8
0
100
AcDbLine
 62
9
  6
CONTINUOUS
 10
11.1323183383
 20
10.5212511229
 11
11.1323183383
 21
10.9097476758
  0
LINE
  5
246
100
AcDbEntity
  8
0
100
AcDbLine
 62
7
  6
CONTINUOUS
 10
11.1723183383
 20
10.9097476758
 11
11.1723183383
 21
10.5165143791
  0
LINE
  5
247
100
AcDbEntity
  8
0
100
AcDbLine
 62
7
  6
CONTINUOUS
 10
11.2048183383
 20
10.5114730002
 11
11.2048183383
 21
10.6480321888
  0
LINE
  5
248
100
AcDbEntity
  8
0
100
AcDbLine
 62
9
  6
CONTINUOUS
 10
11.2448183383
 20
10.6458878355
 11
11.2448183383
 21
10.6423721961
  0
LINE
  5
249
100
AcDbEntity
  8
0
100
AcDbLine
 62
9
  6
CONTINUOUS
 10
11.4223410378
 20
3.7926463222
 11
11.4223410378
 21
3.8526097718
  0
LINE
  5
24A
100
AcDbEntity
  8
0
100
AcDbLine
 62
9
  6
CONTINUOUS
 10
11.4515067972
 20
3.7618794946
 11
11.4515067972
 21
3.761916045
  0
LINE
  5
24B
100
AcDbEntity
  8
0
100
AcDbLine
 62
9
  6
CONTINUOUS
 10
10.8411220725
 20
10.6849061158
 11
10.8498183383
 21
10.6458878355
  0
LINE
  5
24C
100
AcDbEntity
  8
0
100
AcDbLine
 62
9
  6
CONTINUOUS
 10
11.729283464
 20
9.7240967357
 11
11.4223410378
 21
3.8526097718
  0
LINE
  5
24D
100
AcDbEntity
  8
0
100
AcDbLine
 62
9
  6
CONTINUOUS
 10
11.7891651453
 20
9.7209663143
 11
11.4822227191
 21
3.8494793501
  0
LWPOLYLINE
  5
24E
100
AcDbEntity
  8
0
100
AcDbPolyline
 62
7
  6
CONTINUOUS
 90
4
 70
0
 10
11.5637815341
 20
4.9620283196
 10
11.6370153432
 20
6.3670188253
 10
11.7128044723
 20
7.7827928434
 10
11.7897262964
 20
9.1828114824
  0
LINE
  5
24F
100
AcDbEntity
  8
0
100
AcDbLine
 62
9
  6
CONTINUOUS
 10
11.5113884785
 20
3.8187490728
 11
11.557630434
 21
4.7033092242
  0
LINE
  5
250
100
AcDbEntity
  8
0
100
AcDbLine
 62
7
  6
CONTINUOUS
 10
11.5576673632
 20
4.7033155159
 11
11.511424979
 21
3.8187471651
  0
LWPOLYLINE
  5
251
100
AcDbEntity
  8
0
100
AcDbPolyline
 62
7
  6
CONTINUOUS
 90
4
 70
0
 10
11.7897263206
 20
9.1828116892
 10
11.795516423
 20
9.2810785982
 10
11.8035499987
 20
9.4044264928
 10
11.8133681792
 20
9.5434405944
  0
LINE
  5
252
100
AcDbEntity
  8
0
100
AcDbLine
 62
9
  6
CONTINUOUS
 10
11.8253454117
 20
9.7046598566
 11
11.8263719152
 21
9.7190213066
  0
LINE
  5
253
100
AcDbEntity
  8
0
100
AcDbLine
 62
7
  6
CONTINUOUS
 10
11.8133681792
 20
9.5434405944
 11
11.8253454117
 21
9.7046598566
  0
LINE
  5
254
100
AcDbEntity
  8
0
100
AcDbLine
 62
9
  6
CONTINUOUS
 10
14.8108283892
 20
8.3451775971
 11
14.8407872753
 21
8.3467476758
  0
LINE
  5
255
100
AcDbEntity
  8
0
100
AcDbLine
 62
7
  6
CONTINUOUS
 10
15.2538494014
 20
8.3167476758
 11
14.8407872752
 21
8.3167476758
  0
LINE
  5
256
100
AcDbEntity
  8
0
100
AcDbLine
 62
7
  6
CONTINUOUS
 10
7.2538494014
 20
8.3167476758
 11
6.8407872752
 21
8.3167476758
  0
LINE
  5
257
100
AcDbEntity
  8
0
100
AcDbLine
 62
9
  6
CONTINUOUS
 10
6.8407872753
 20
8.3467476758
 11
7.2538494013
 21
8.3467476758
  0
LINE
  5
258
100
AcDbEntity
  8
0
100
AcDbLine
 62
9
  6
CONTINUOUS
 10
14.8407872753
 20
8.3467476758
 11
15.2538494013
 21
8.3467476758
  0
LINE
  5
259
100
AcDbEntity
  8
0
100
AcDbLine
 62
9
  6
CONTINUOUS
 10
7.2538494013
 20
8.3467476758
 11
7.2838082873
 21
8.3451775971
  0
LINE
  5
25A
100
AcDbEntity
  8
0
100
AcDbLine
 62
9
  6
CONTINUOUS
 10
6.8108283892
 20
8.3451775971
 11
6.8407872753
 21
8.3467476758
  0
LINE
  5
25B
100
AcDbEntity
  8
0
100
AcDbLine
 62
9
  6
CONTINUOUS
 10
15.2538494013
 20
8.3467476758
 11
15.2838082873
 21
8.3451775971
  0
LINE
  5
25C
100
AcDbEntity
  8
0
100
AcDbLine
 62
9
  6
CONTINUOUS
 10
11.7897007017
 20
9.1830147276
 11
11.7897263005
 21
9.1828115578
  0
LINE
  5
25D
100
AcDbEntity
  8
0
100
AcDbLine
 62
9
  6
CONTINUOUS
 10
14.7880117054
 20
9.3537655383
 11
14.7580528194
 21
9.3521954596
  0
LINE
  5
25E
100
AcDbEntity
  8
0
100
AcDbLine
 62
7
  6
CONTINUOUS
 10
16.4618884171
 20
9.5232577268
 11
15.4548705546
 21
9.4704821569
  0
LINE
  5
25F
100
AcDbEntity
  8
0
100
AcDbLine
 62
9
  6
CONTINUOUS
 10
16.4603183383
 20
9.5532166128
 11
15.4533004757
 21
9.5004410429
  0
LINE
  5
260
100
AcDbEntity
  8
0
100
AcDbLine
 62
9
  6
CONTINUOUS
 10
7.3365838572
 20
9.3521954596
 11
7.3066249712
 21
9.3537655383
  0
LINE
  5
261
100
AcDbEntity
  8
0
100
AcDbLine
 62
7
  6
CONTINUOUS
 10
6.639766122
 20
9.4704821569
 11
5.6327482595
 21
9.5232577268
  0
LINE
  5
262
100
AcDbEntity
  8
0
100
AcDbLine
 62
9
  6
CONTINUOUS
 10
6.6413362008
 20
9.5004410429
 11
5.6343183383
 21
9.5532166128
  0
LINE
  5
263
100
AcDbEntity
  8
0
100
AcDbLine
 62
9
  6
CONTINUOUS
 10
11.5637427609
 20
4.961979448
 11
11.5637815337
 21
4.9620283107
  0
LINE
  5
264
100
AcDbEntity
  8
0
100
AcDbLine
 62
9
  6
CONTINUOUS
 10
10.6124139575
 20
3.8494793501
 11
10.5832481981
 21
3.8187490731
  0
LINE
  5
265
100
AcDbEntity
  8
0
100
AcDbLine
 62
9
  6
CONTINUOUS
 10
6.7880117054
 20
9.3537655383
 11
6.7580528194
 21
9.3521954596
  0
LINE
  5
266
100
AcDbEntity
  8
0
100
AcDbLine
 62
7
  6
CONTINUOUS
 10
8.4618884171
 20
9.5232577268
 11
7.4548705546
 21
9.4704821569
  0
LINE
  5
267
100
AcDbEntity
  8
0
100
AcDbLine
 62
9
  6
CONTINUOUS
 10
8.4603183383
 20
9.5532166128
 11
7.4533004757
 21
9.5004410429
  0
LINE
  5
268
100
AcDbEntity
  8
0
100
AcDbLine
 62
9
  6
CONTINUOUS
 10
5.6043183383
 20
9.5532166128
 11
5.6343183383
 21
9.5532166128
  0
LINE
  5
269
100
AcDbEntity
  8
0
100
AcDbLine
 62
9
  6
CONTINUOUS
 10
8.4603183383
 20
9.5532166128
 11
8.4903183383
 21
9.5532166128
  0
LINE
  5
26A
100
AcDbEntity
  8
0
100
AcDbLine
 62
9
  6
CONTINUOUS
 10
13.6043183383
 20
9.5532166128
 11
13.6343183383
 21
9.5532166128
  0
LINE
  5
26B
100
AcDbEntity
  8
0
100
AcDbLine
 62
9
  6
CONTINUOUS
 10
16.4603183383
 20
9.5532166128
 11
16.4903183383
 21
9.5532166128
  0
LINE
  5
26C
100
AcDbEntity
  8
0
100
AcDbLine
 62
9
  6
CONTINUOUS
 10
15.3365838572
 20
9.3521954596
 11
15.3066249712
 21
9.3537655383
  0
LINE
  5
26D
100
AcDbEntity
  8
0
100
AcDbLine
 62
7
  6
CONTINUOUS
 10
14.639766122
 20
9.4704821569
 11
13.6327482595
 21
9.5232577268
  0
LINE
  5
26E
100
AcDbEntity
  8
0
100
AcDbLine
 62
9
  6
CONTINUOUS
 10
14.6413362008
 20
9.5004410429
 11
13.6343183383
 21
9.5532166128
  0
LINE
  5
26F
100
AcDbEntity
  8
0
100
AcDbLine
 62
7
  6
CONTINUOUS
 10
13.6043183383
 20
9.5532166127
 11
13.6043183383
 21
9.9662787389
  0
LINE
  5
270
100
AcDbEntity
  8
0
100
AcDbLine
 62
9
  6
CONTINUOUS
 10
13.6343183383
 20
9.9662787388
 11
13.6343183383
 21
9.5532166128
  0
LINE
  5
271
100
AcDbEntity
  8
0
100
AcDbLine
 62
9
  6
CONTINUOUS
 10
13.6343183383
 20
9.5532166128
 11
13.6327482596
 21
9.5232577268
  0
LINE
  5
272
100
AcDbEntity
  8
0
100
AcDbLine
 62
9
  6
CONTINUOUS
 10
10.6431298789
 20
3.761916045
 11
10.6722956385
 21
3.7926463222
  0
LINE
  5
273
100
AcDbEntity
  8
0
100
AcDbLine
 62
9
  6
CONTINUOUS
 10
13.6343183383
 20
9.9662787388
 11
14.6413362009
 21
10.0190543087
  0
LINE
  5
274
100
AcDbEntity
  8
0
100
AcDbLine
 62
7
  6
CONTINUOUS
 10
13.6327482595
 20
9.9962376248
 11
14.639766122
 21
10.0490131947
  0
LINE
  5
275
100
AcDbEntity
  8
0
100
AcDbLine
 62
9
  6
CONTINUOUS
 10
15.3066249712
 20
10.1657298133
 11
15.3365838572
 21
10.167299892
  0
LINE
  5
276
100
AcDbEntity
  8
0
100
AcDbLine
 62
9
  6
CONTINUOUS
 10
10.3653532126
 20
9.7240967357
 11
10.2682646624
 21
9.7190212404
  0
LINE
  5
277
100
AcDbEntity
  8
0
100
AcDbLine
 62
9
  6
CONTINUOUS
 10
16.4903183383
 20
9.9662787388
 11
16.4603183383
 21
9.9662787388
  0
LINE
  5
278
100
AcDbEntity
  8
0
100
AcDbLine
 62
9
  6
CONTINUOUS
 10
13.6343183383
 20
9.9662787388
 11
13.6043183383
 21
9.9662787388
  0
LINE
  5
279
100
AcDbEntity
  8
0
100
AcDbLine
 62
9
  6
CONTINUOUS
 10
8.4903183383
 20
9.9662787388
 11
8.4603183383
 21
9.9662787388
  0
LINE
  5
27A
100
AcDbEntity
  8
0
100
AcDbLine
 62
9
  6
CONTINUOUS
 10
5.6343183383
 20
9.9662787388
 11
5.6043183383
 21
9.9662787388
  0
LINE
  5
27B
100
AcDbEntity
  8
0
100
AcDbLine
 62
9
  6
CONTINUOUS
 10
11.8263720149
 20
9.7190212444
 11
11.729283464
 21
9.7240967357
  0
LINE
  5
27C
100
AcDbEntity
  8
0
100
AcDbLine
 62
9
  6
CONTINUOUS
 10
7.4533004757
 20
10.0190543087
 11
8.4603183383
 21
9.9662787388
  0
LINE
  5
27D
100
AcDbEntity
  8
0
100
AcDbLine
 62
7
  6
CONTINUOUS
 10
7.4548705546
 20
10.0490131947
 11
8.4618884171
 21
9.9962376248
  0
LINE
  5
27E
100
AcDbEntity
  8
0
100
AcDbLine
 62
9
  6
CONTINUOUS
 10
6.7580528194
 20
10.167299892
 11
6.7880117054
 21
10.1657298133
  0
LINE
  5
27F
100
AcDbEntity
  8
0
100
AcDbLine
 62
9
  6
CONTINUOUS
 10
13.6327482596
 20
9.9962376248
 11
13.6343183383
 21
9.9662787388
  0
LWPOLYLINE
  5
280
100
AcDbEntity
  8
0
100
AcDbPolyline
 62
7
  6
CONTINUOUS
 90
5
 70
0
 10
10.8793838186
 20
10.5096741282
 10
10.8595561741
 20
10.5061492161
 10
10.8551151642
 20
10.505398625
 10
10.8518837149
 20
10.5048975656
 10
10.8514934682
 20
10.5048421844
  0
LINE
  5
281
100
AcDbEntity
  8
0
100
AcDbLine
 62
9
  6
CONTINUOUS
 10
5.6343183383
 20
9.9662787388
 11
6.6413362009
 21
10.0190543087
  0
LINE
  5
282
100
AcDbEntity
  8
0
100
AcDbLine
 62
7
  6
CONTINUOUS
 10
5.6327482595
 20
9.9962376248
 11
6.639766122
 21
10.0490131947
  0
LINE
  5
283
100
AcDbEntity
  8
0
100
AcDbLine
 62
9
  6
CONTINUOUS
 10
7.3066249712
 20
10.1657298133
 11
7.3365838572
 21
10.167299892
  0
LINE
  5
284
100
AcDbEntity
  8
0
100
AcDbLine
 62
9
  6
CONTINUOUS
 10
15.4533004757
 20
10.0190543087
 11
16.4603183383
 21
9.9662787388
  0
LINE
  5
285
100
AcDbEntity
  8
0
100
AcDbLine
 62
7
  6
CONTINUOUS
 10
15.4548705546
 20
10.0490131947
 11
16.4618884171
 21
9.9962376248
  0
LINE
  5
286
100
AcDbEntity
  8
0
100
AcDbLine
 62
9
  6
CONTINUOUS
 10
14.7580528194
 20
10.167299892
 11
14.7880117054
 21
10.1657298133
  0
LWPOLYLINE
  5
287
100
AcDbEntity
  8
0
100
AcDbPolyline
 62
7
  6
CONTINUOUS
 90
5
 70
0
 10
11.2446817569
 20
10.5046496089
 10
11.2446572287
 20
10.5046519732
 10
11.2433712727
 20
10.5048107251
 10
11.2405647708
 20
10.5052312409
 10
11.236549723
 20
10.5058969926
  0
LWPOLYLINE
  5
288
100
AcDbEntity
  8
0
100
AcDbPolyline
 62
7
  6
CONTINUOUS
 90
26
 70
0
 10
11.2102737761
 20
10.5105449056
 10
11.2013253727
 20
10.5120672334
 10
11.191483732
 20
10.5136675809
 10
11.1807896517
 20
10.5153074393
 10
11.1692831369
 20
10.5169468157
 10
11.1570039626
 20
10.5185442565
 10
11.1440047981
 20
10.5200587927
 10
11.1303471305
 20
10.5214522386
 10
11.1160932654
 20
10.5226853909
 10
11.1013105272
 20
10.5237195648
 10
11.0860836472
 20
10.5245265046
 10
11.0705020838
 20
10.5250811414
 10
11.0546572799
 20
10.5253578752
 10
11.0386468233
 20
10.5253435964
 10
11.0225914942
 20
10.5250377176
 10
11.0066342283
 20
10.5244417054
 10
10.9909167017
 20
10.5235674245
 10
10.975570586
 20
10.5224453242
 10
10.9607257549
 20
10.5211096975
 10
10.9465086999
 20
10.5195989256
 10
10.9330240891
 20
10.5179624926
 10
10.920363505
 20
10.51625218
 10
10.9086122747
 20
10.5145189871
 10
10.8978394011
 20
10.5128141404
 10
10.8880911165
 20
10.5111857887
 10
10.8793838186
 20
10.5096741282
  0
LINE
  5
289
100
AcDbEntity
  8
0
100
AcDbLine
 62
7
  6
CONTINUOUS
 10
11.236549723
 20
10.5058969926
 11
11.2102737761
 21
10.5105449056
  0
LINE
  5
28A
100
AcDbEntity
  8
0
100
AcDbLine
 62
9
  6
CONTINUOUS
 10
14.6397661221
 20
9.4704821569
 11
14.6413362007
 21
9.5004410429
  0
LINE
  5
28B
100
AcDbEntity
  8
0
100
AcDbLine
 62
7
  6
CONTINUOUS
 10
14.7580528194
 20
10.1672998921
 11
14.8108283892
 21
11.1743177546
  0
LINE
  5
28C
100
AcDbEntity
  8
0
100
AcDbLine
 62
9
  6
CONTINUOUS
 10
15.2838082873
 20
11.1743177545
 11
15.2538494013
 21
11.1727476758
  0
LINE
  5
28D
100
AcDbEntity
  8
0
100
AcDbLine
 62
9
  6
CONTINUOUS
 10
10.8498183383
 20
10.6423721956
 11
10.8898183383
 21
10.6423721956
  0
LINE
  5
28E
100
AcDbEntity
  8
0
100
AcDbLine
 62
9
  6
CONTINUOUS
 10
11.2048183383
 20
10.6423721932
 11
11.2448183383
 21
10.6423721932
  0
LINE
  5
28F
100
AcDbEntity
  8
0
100
AcDbLine
 62
9
  6
CONTINUOUS
 10
11.2448183383
 20
10.6458878355
 11
11.2048183383
 21
10.6458878355
  0
LINE
  5
290
100
AcDbEntity
  8
0
100
AcDbLine
 62
9
  6
CONTINUOUS
 10
10.8898183383
 20
10.6458878355
 11
10.8498183383
 21
10.6458878355
  0
LINE
  5
291
100
AcDbEntity
  8
0
100
AcDbLine
 62
9
  6
CONTINUOUS
 10
11.1723183383
 20
10.9097476758
 11
11.1323183383
 21
10.9097476758
  0
LINE
  5
292
100
AcDbEntity
  8
0
100
AcDbLine
 62
9
  6
CONTINUOUS
 10
10.9623183383
 20
10.9097476758
 11
10.9223183383
 21
10.9097476758
  0
LINE
  5
293
100
AcDbEntity
  8
0
100
AcDbLine
 62
9
  6
CONTINUOUS
 10
6.8407872753
 20
11.1727476758
 11
6.8108283892
 21
11.1743177545
  0
LINE
  5
294
100
AcDbEntity
  8
0
100
AcDbLine
 62
9
  6
CONTINUOUS
 10
14.6413362007
 20
10.0190543087
 11
14.6397661221
 21
10.0490131947
  0
LINE
  5
295
100
AcDbEntity
  8
0
100
AcDbLine
 62
7
  6
CONTINUOUS
 10
14.8108283892
 20
8.345177597
 11
14.7580528194
 21
9.3521954595
  0
LINE
  5
296
100
AcDbEntity
  8
0
100
AcDbLine
 62
9
  6
CONTINUOUS
 10
14.8407872753
 20
8.3467476758
 11
14.7880117054
 21
9.3537655384
  0
LINE
  5
297
100
AcDbEntity
  8
0
100
AcDbLine
 62
9
  6
CONTINUOUS
 10
14.8407872753
 20
11.2027476758
 11
14.8407872753
 21
11.1727476758
  0
LINE
  5
298
100
AcDbEntity
  8
0
100
AcDbLine
 62
9
  6
CONTINUOUS
 10
14.8407872753
 20
8.3467476758
 11
14.8407872753
 21
8.3167476758
  0
LINE
  5
299
100
AcDbEntity
  8
0
100
AcDbLine
 62
9
  6
CONTINUOUS
 10
14.7880117054
 20
10.1657298133
 11
14.8407872753
 21
11.1727476758
  0
LINE
  5
29A
100
AcDbEntity
  8
0
100
AcDbLine
 62
9
  6
CONTINUOUS
 10
7.2838082873
 20
11.1743177545
 11
7.2538494013
 21
11.1727476758
  0
LINE
  5
29B
100
AcDbEntity
  8
0
100
AcDbLine
 62
9
  6
CONTINUOUS
 10
15.2538494013
 20
11.1727476758
 11
14.8407872753
 21
11.1727476758
  0
LINE
  5
29C
100
AcDbEntity
  8
0
100
AcDbLine
 62
9
  6
CONTINUOUS
 10
7.2538494013
 20
11.1727476758
 11
6.8407872753
 21
11.1727476758
  0
LINE
  5
29D
100
AcDbEntity
  8
0
100
AcDbLine
 62
7
  6
CONTINUOUS
 10
6.8407872752
 20
11.2027476758
 11
7.2538494014
 21
11.2027476758
  0
LINE
  5
29E
100
AcDbEntity
  8
0
100
AcDbLine
 62
7
  6
CONTINUOUS
 10
14.8407872752
 20
11.2027476758
 11
15.2538494014
 21
11.2027476758
  0
LINE
  5
29F
100
AcDbEntity
  8
0
100
AcDbLine
 62
9
  6
CONTINUOUS
 10
14.8407872753
 20
11.1727476758
 11
14.8108283892
 21
11.1743177545
  0
LINE
  5
2A0
100
AcDbEntity
  8
0
100
AcDbLine
 62
9
  6
CONTINUOUS
 10
15.2538494013
 20
11.1727476758
 11
15.3066249712
 21
10.1657298133
  0
LINE
  5
2A1
100
AcDbEntity
  8
0
100
AcDbLine
 62
7
  6
CONTINUOUS
 10
15.2838082873
 20
11.1743177546
 11
15.3365838572
 21
10.1672998921
  0
LINE
  5
2A2
100
AcDbEntity
  8
0
100
AcDbLine
 62
9
  6
CONTINUOUS
 10
15.2538494013
 20
8.3167476758
 11
15.2538494013
 21
8.3467476758
  0
LINE
  5
2A3
100
AcDbEntity
  8
0
100
AcDbLine
 62
9
  6
CONTINUOUS
 10
15.2538494013
 20
11.1727476758
 11
15.2538494013
 21
11.2027476758
  0
LINE
  5
2A4
100
AcDbEntity
  8
0
100
AcDbLine
 62
9
  6
CONTINUOUS
 10
15.3066249712
 20
9.3537655383
 11
15.2538494013
 21
8.3467476758
  0
LINE
  5
2A5
100
AcDbEntity
  8
0
100
AcDbLine
 62
7
  6
CONTINUOUS
 10
15.3365838572
 20
9.3521954595
 11
15.2838082873
 21
8.345177597
  0
LINE
  5
2A6
100
AcDbEntity
  8
0
100
AcDbLine
 62
9
  6
CONTINUOUS
 10
15.4548705545
 20
10.0490131947
 11
15.4533004758
 21
10.0190543087
  0
LINE
  5
2A7
100
AcDbEntity
  8
0
100
AcDbLine
 62
9
  6
CONTINUOUS
 10
15.4533004758
 20
9.5004410429
 11
15.4548705545
 21
9.4704821569
  0
LINE
  5
2A8
100
AcDbEntity
  8
0
100
AcDbLine
 62
9
  6
CONTINUOUS
 10
16.4603183383
 20
9.9662787388
 11
16.461888417
 21
9.9962376248
  0
LINE
  5
2A9
100
AcDbEntity
  8
0
100
AcDbLine
 62
9
  6
CONTINUOUS
 10
16.461888417
 20
9.5232577268
 11
16.4603183383
 21
9.5532166128
  0
LINE
  5
2AA
100
AcDbEntity
  8
0
100
AcDbLine
 62
9
  6
CONTINUOUS
 10
16.4603183383
 20
9.5532166128
 11
16.4603183383
 21
9.9662787388
  0
LINE
  5
2AB
100
AcDbEntity
  8
0
100
AcDbLine
 62
7
  6
CONTINUOUS
 10
16.4903183383
 20
9.9662787389
 11
16.4903183383
 21
9.5532166127
  0
ARC
  5
2AC
100
AcDbEntity
  8
0
100
AcDbCircle
 62
9
  6
CONTINUOUS
 10
-992.7437285644
 20
-46.6250053447
 40
1004.6000065404
100
AcDbArc
 50
2.9434823401
 51
3.1845645176
  0
ARC
  5
2AD
100
AcDbEntity
  8
0
100
AcDbCircle
 62
9
  6
CONTINUOUS
 10
2.7509421011
 20
4.5619774615
 40
7.79022831
100
AcDbArc
 50
2.7500978828
 51
2.9438933113
  0
ARC
  5
2AE
100
AcDbEntity
  8
0
100
AcDbCircle
 62
9
  6
CONTINUOUS
 10
2.9368369471
 20
4.5709480504
 40
7.604117151
100
AcDbArc
 50
2.634476614
 51
2.7497885509
  0
ARC
  5
2AF
100
AcDbEntity
  8
0
100
AcDbCircle
 62
9
  6
CONTINUOUS
 10
3.4293349013
 20
4.5934737553
 40
7.1111043492
100
AcDbArc
 50
2.3229130166
 51
2.6355669461
  0
ARC
  5
2B0
100
AcDbEntity
  8
0
100
AcDbCircle
 62
9
  6
CONTINUOUS
 10
6.6332241275
 20
9.345653465
 40
0.155
100
AcDbArc
 50
3.0000000472
 51
86.9999999785
  0
ARC
  5
2B1
100
AcDbEntity
  8
0
100
AcDbCircle
 62
9
  6
CONTINUOUS
 10
6.6332241275
 20
10.1738418866
 40
0.155
100
AcDbArc
 50
273.0000000472
 51
356.9999999785
  0
ARC
  5
2B2
100
AcDbEntity
  8
0
100
AcDbCircle
 62
7
  6
CONTINUOUS
 10
6.6332241275
 20
10.1738418866
 40
0.125
100
AcDbArc
 50
272.9999999596
 51
357.0
  0
ARC
  5
2B3
100
AcDbEntity
  8
0
100
AcDbCircle
 62
7
  6
CONTINUOUS
 10
6.6332241275
 20
9.345653465
 40
0.125
100
AcDbArc
 50
2.9999999596
 51
87.0
  0
ARC
  5
2B4
100
AcDbEntity
  8
0
100
AcDbCircle
 62
7
  6
CONTINUOUS
 10
6.8407872753
 20
8.3467476758
 40
0.03
100
AcDbArc
 50
183.000000163
 51
270.0
  0
ARC
  5
2B5
100
AcDbEntity
  8
0
100
AcDbCircle
 62
7
  6
CONTINUOUS
 10
5.6343183383
 20
9.5532166128
 40
0.03
100
AcDbArc
 50
180.0000001631
 51
267.0
  0
ARC
  5
2B6
100
AcDbEntity
  8
0
100
AcDbCircle
 62
7
  6
CONTINUOUS
 10
5.6343183383
 20
9.9662787388
 40
0.03
100
AcDbArc
 50
93.000000163
 51
180.0
  0
ARC
  5
2B7
100
AcDbEntity
  8
0
100
AcDbCircle
 62
7
  6
CONTINUOUS
 10
6.8407872753
 20
11.1727476758
 40
0.03
100
AcDbArc
 50
90.0000001631
 51
177.0
  0
ARC
  5
2B8
100
AcDbEntity
  8
0
100
AcDbCircle
 62
9
  6
CONTINUOUS
 10
10.6433381779
 20
3.8219884266
 40
0.0601772307
100
AcDbArc
 50
183.0857359165
 51
200.2315083506
  0
ARC
  5
2B9
100
AcDbEntity
  8
0
100
AcDbCircle
 62
7
  6
CONTINUOUS
 10
10.5969777808
 20
4.7064456038
 40
0.0600900451
100
AcDbArc
 50
174.1634184495
 51
182.98588602
  0
ARC
  5
2BA
100
AcDbEntity
  8
0
100
AcDbCircle
 62
9
  6
CONTINUOUS
 10
10.6432131541
 20
3.8219683375
 40
0.060052839
100
AcDbArc
 50
200.2547740732
 51
269.9205477399
  0
ARC
  5
2BB
100
AcDbEntity
  8
0
100
AcDbCircle
 62
9
  6
CONTINUOUS
 10
10.6723774901
 20
3.8526960139
 40
0.0600493982
100
AcDbArc
 50
183.0706125052
 51
269.9219024141
  0
ARC
  5
2BC
100
AcDbEntity
  8
0
100
AcDbCircle
 62
7
  6
CONTINUOUS
 10
10.6431293969
 20
3.8218787622
 40
0.0599991759
100
AcDbArc
 50
182.9918402473
 51
270.0004607306
  0
ARC
  5
2BD
100
AcDbEntity
  8
0
100
AcDbCircle
 62
7
  6
CONTINUOUS
 10
7.0473183383
 20
9.7597476758
 40
1.1
100
AcDbArc
 50
103.4097851081
 51
166.5884826886
  0
ARC
  5
2BE
100
AcDbEntity
  8
0
100
AcDbCircle
 62
7
  6
CONTINUOUS
 10
7.0473183383
 20
9.7597476758
 40
1.1
100
AcDbArc
 50
13.4093216516
 51
76.5930973724
  0
ARC
  5
2BF
100
AcDbEntity
  8
0
100
AcDbCircle
 62
7
  6
CONTINUOUS
 10
7.0473183383
 20
9.7597476758
 40
1.1
100
AcDbArc
 50
283.4097851081
 51
346.5884826886
  0
ARC
  5
2C0
100
AcDbEntity
  8
0
100
AcDbCircle
 62
7
  6
CONTINUOUS
 10
7.0473183383
 20
9.7597476758
 40
1.1
100
AcDbArc
 50
193.4093216516
 51
256.5930973724
  0
ARC
  5
2C1
100
AcDbEntity
  8
0
100
AcDbCircle
 62
9
  6
CONTINUOUS
 10
7.0473183383
 20
9.7597476758
 40
1.0699999808
100
AcDbArc
 50
103.8859443825
 51
166.1165988983
  0
ARC
  5
2C2
100
AcDbEntity
  8
0
100
AcDbCircle
 62
9
  6
CONTINUOUS
 10
7.0473183383
 20
9.7597476758
 40
1.0699999808
100
AcDbArc
 50
13.8813965548
 51
76.1163735327
  0
ARC
  5
2C3
100
AcDbEntity
  8
0
100
AcDbCircle
 62
9
  6
CONTINUOUS
 10
7.0473183383
 20
9.7597476758
 40
1.0699999808
100
AcDbArc
 50
283.8859443825
 51
346.1165988983
  0
ARC
  5
2C4
100
AcDbEntity
  8
0
100
AcDbCircle
 62
9
  6
CONTINUOUS
 10
7.0473183383
 20
9.7597476758
 40
1.0699999808
100
AcDbArc
 50
193.8813965548
 51
256.1163735327
  0
ARC
  5
2C5
100
AcDbEntity
  8
0
100
AcDbCircle
 62
9
  6
CONTINUOUS
 10
11.040607009
 20
9.7629182231
 40
0.7735886569
100
AcDbArc
 50
183.2529728059
 51
184.3426647889
  0
ARC
  5
2C6
100
AcDbEntity
  8
0
100
AcDbCircle
 62
7
  6
CONTINUOUS
 10
7.0473183383
 20
9.7597476758
 40
0.75
100
AcDbArc
 50
291.4889881569
 51
338.5058585776
  0
ARC
  5
2C7
100
AcDbEntity
  8
0
100
AcDbCircle
 62
7
  6
CONTINUOUS
 10
7.0473183383
 20
9.7597476758
 40
0.75
100
AcDbArc
 50
201.4909565211
 51
248.5073240431
  0
ARC
  5
2C8
100
AcDbEntity
  8
0
100
AcDbCircle
 62
7
  6
CONTINUOUS
 10
7.0473183383
 20
9.7597476758
 40
0.75
100
AcDbArc
 50
111.4889881569
 51
158.5058585776
  0
ARC
  5
2C9
100
AcDbEntity
  8
0
100
AcDbCircle
 62
7
  6
CONTINUOUS
 10
7.0473183383
 20
9.7597476758
 40
0.75
100
AcDbArc
 50
21.4909565211
 51
68.5073240431
  0
ARC
  5
2CA
100
AcDbEntity
  8
0
100
AcDbCircle
 62
9
  6
CONTINUOUS
 10
7.0473183383
 20
9.7597476758
 40
0.7231538135
100
AcDbArc
 50
292.4418295839
 51
337.5262506065
  0
ARC
  5
2CB
100
AcDbEntity
  8
0
100
AcDbCircle
 62
9
  6
CONTINUOUS
 10
7.0473183383
 20
9.7597476758
 40
0.7231538135
100
AcDbArc
 50
202.4702660503
 51
247.5693435387
  0
ARC
  5
2CC
100
AcDbEntity
  8
0
100
AcDbCircle
 62
9
  6
CONTINUOUS
 10
7.0473183383
 20
9.7597476758
 40
0.7231538135
100
AcDbArc
 50
112.4418295839
 51
157.5262506065
  0
ARC
  5
2CD
100
AcDbEntity
  8
0
100
AcDbCircle
 62
9
  6
CONTINUOUS
 10
7.0473183383
 20
9.7597476758
 40
0.7231538135
100
AcDbArc
 50
22.4702660503
 51
67.5693435387
  0
ARC
  5
2CE
100
AcDbEntity
  8
0
100
AcDbCircle
 62
9
  6
CONTINUOUS
 10
7.0473183383
 20
9.7597476758
 40
0.6695101743
100
AcDbArc
 50
204.6343232505
 51
245.318948
  0
ARC
  5
2CF
100
AcDbEntity
  8
0
100
AcDbCircle
 62
9
  6
CONTINUOUS
 10
7.0473183383
 20
9.7597476758
 40
0.6695101743
100
AcDbArc
 50
294.6839378214
 51
335.355502462
  0
ARC
  5
2D0
100
AcDbEntity
  8
0
100
AcDbCircle
 62
9
  6
CONTINUOUS
 10
7.0473183383
 20
9.7597476758
 40
0.6695101743
100
AcDbArc
 50
24.6343232505
 51
65.318948
  0
ARC
  5
2D1
100
AcDbEntity
  8
0
100
AcDbCircle
 62
9
  6
CONTINUOUS
 10
7.0473183383
 20
9.7597476758
 40
0.6695101743
100
AcDbArc
 50
114.6839378214
 51
155.355502462
  0
ARC
  5
2D2
100
AcDbEntity
  8
0
100
AcDbCircle
 62
9
  6
CONTINUOUS
 10
7.0473183383
 20
9.7597476758
 40
0.6115087442
100
AcDbArc
 50
117.5507762514
 51
152.460826037
  0
ARC
  5
2D3
100
AcDbEntity
  8
0
100
AcDbCircle
 62
9
  6
CONTINUOUS
 10
7.0473183383
 20
9.7597476758
 40
0.6115087442
100
AcDbArc
 50
27.5498658052
 51
62.4414964778
  0
ARC
  5
2D4
100
AcDbEntity
  8
0
100
AcDbCircle
 62
9
  6
CONTINUOUS
 10
7.0473183383
 20
9.7597476758
 40
0.6115087442
100
AcDbArc
 50
297.5507762514
 51
332.460826037
  0
ARC
  5
2D5
100
AcDbEntity
  8
0
100
AcDbCircle
 62
9
  6
CONTINUOUS
 10
7.0473183383
 20
9.7597476758
 40
0.6115087442
100
AcDbArc
 50
207.5498658052
 51
242.4414964778
  0
ARC
  5
2D6
100
AcDbEntity
  8
0
100
AcDbCircle
 62
9
  6
CONTINUOUS
 10
7.0473183383
 20
9.7597476758
 40
0.5785288469
100
AcDbArc
 50
299.5211261667
 51
330.4932366933
  0
ARC
  5
2D7
100
AcDbEntity
  8
0
100
AcDbCircle
 62
9
  6
CONTINUOUS
 10
7.0473183383
 20
9.7597476758
 40
0.5785288469
100
AcDbArc
 50
209.5158778457
 51
240.4910437079
  0
ARC
  5
2D8
100
AcDbEntity
  8
0
100
AcDbCircle
 62
9
  6
CONTINUOUS
 10
7.0473183383
 20
9.7597476758
 40
0.5785288469
100
AcDbArc
 50
119.5211261667
 51
150.4932366933
  0
ARC
  5
2D9
100
AcDbEntity
  8
0
100
AcDbCircle
 62
9
  6
CONTINUOUS
 10
7.0473183383
 20
9.7597476758
 40
0.5785288469
100
AcDbArc
 50
29.5158778457
 51
60.4910437079
  0
ARC
  5
2DA
100
AcDbEntity
  8
0
100
AcDbCircle
 62
9
  6
CONTINUOUS
 10
7.461412549
 20
10.1738418866
 40
0.155
100
AcDbArc
 50
183.0000000216
 51
266.9999999528
  0
ARC
  5
2DB
100
AcDbEntity
  8
0
100
AcDbCircle
 62
9
  6
CONTINUOUS
 10
7.461412549
 20
9.345653465
 40
0.155
100
AcDbArc
 50
93.0000000472
 51
176.9999999785
  0
ARC
  5
2DC
100
AcDbEntity
  8
0
100
AcDbCircle
 62
7
  6
CONTINUOUS
 10
7.461412549
 20
9.345653465
 40
0.125
100
AcDbArc
 50
92.9999999596
 51
177.0
  0
ARC
  5
2DD
100
AcDbEntity
  8
0
100
AcDbCircle
 62
7
  6
CONTINUOUS
 10
7.461412549
 20
10.1738418866
 40
0.125
100
AcDbArc
 50
183.0
 51
267.0000000404
  0
ARC
  5
2DE
100
AcDbEntity
  8
0
100
AcDbCircle
 62
7
  6
CONTINUOUS
 10
10.8498094641
 20
10.6480482697
 40
0.0400069133
100
AcDbArc
 50
359.9643193364
 51
102.5033549724
  0
ARC
  5
2DF
100
AcDbEntity
  8
0
100
AcDbCircle
 62
9
  6
CONTINUOUS
 10
10.8498272206
 20
10.6458697448
 40
0.0399921481
100
AcDbArc
 50
0.0258798198
 51
102.571319345
  0
ARC
  5
2E0
100
AcDbEntity
  8
0
100
AcDbCircle
 62
7
  6
CONTINUOUS
 10
7.2538494013
 20
8.3467476758
 40
0.03
100
AcDbArc
 50
270.0000001631
 51
357.0
  0
ARC
  5
2E1
100
AcDbEntity
  8
0
100
AcDbCircle
 62
7
  6
CONTINUOUS
 10
8.4603183383
 20
9.5532166128
 40
0.03
100
AcDbArc
 50
273.000000163
 51
360.0
  0
ARC
  5
2E2
100
AcDbEntity
  8
0
100
AcDbCircle
 62
7
  6
CONTINUOUS
 10
8.4603183383
 20
9.9662787388
 40
0.03
100
AcDbArc
 50
0.0000001631
 51
87.0
  0
ARC
  5
2E3
100
AcDbEntity
  8
0
100
AcDbCircle
 62
7
  6
CONTINUOUS
 10
7.2538494013
 20
11.1727476758
 40
0.03
100
AcDbArc
 50
3.000000163
 51
90.0
  0
ARC
  5
2E4
100
AcDbEntity
  8
0
100
AcDbCircle
 62
9
  6
CONTINUOUS
 10
1014.837741443
 20
-46.6249763501
 40
1004.599382053
100
AcDbArc
 50
176.8154356321
 51
177.0565172545
  0
ARC
  5
2E5
100
AcDbEntity
  8
0
100
AcDbCircle
 62
9
  6
CONTINUOUS
 10
11.4514088881
 20
3.822093196
 40
0.0601772307
100
AcDbArc
 50
270.0932211747
 51
287.2389936108
  0
ARC
  5
2E6
100
AcDbEntity
  8
0
100
AcDbCircle
 62
7
  6
CONTINUOUS
 10
11.4976589
 20
4.7064456041
 40
0.0600900409
100
AcDbArc
 50
357.0141134166
 51
5.8362527561
  0
ARC
  5
2E7
100
AcDbEntity
  8
0
100
AcDbCircle
 62
9
  6
CONTINUOUS
 10
11.4514224264
 20
3.8219672928
 40
0.060052839
100
AcDbArc
 50
287.2622564787
 51
356.9280338951
  0
ARC
  5
2E8
100
AcDbEntity
  8
0
100
AcDbCircle
 62
9
  6
CONTINUOUS
 10
11.4222591865
 20
3.8526960139
 40
0.0600493982
100
AcDbArc
 50
270.0780977633
 51
356.9293876725
  0
ARC
  5
2E9
100
AcDbEntity
  8
0
100
AcDbCircle
 62
7
  6
CONTINUOUS
 10
11.4515075035
 20
3.8218789746
 40
0.0599991759
100
AcDbArc
 50
269.9993255057
 51
357.007945989
  0
ARC
  5
2EA
100
AcDbEntity
  8
0
100
AcDbCircle
 62
9
  6
CONTINUOUS
 10
11.0475128691
 20
9.6451402263
 40
0.8802246497
100
AcDbArc
 50
89.8829629418
 51
93.4109371149
  0
ARC
  5
2EB
100
AcDbEntity
  8
0
100
AcDbCircle
 62
7
  6
CONTINUOUS
 10
11.0473183383
 20
9.7597476758
 40
1.269
100
AcDbArc
 50
92.0624322762
 51
235.5819430091
  0
ARC
  5
2EC
100
AcDbEntity
  8
0
100
AcDbCircle
 62
7
  6
CONTINUOUS
 10
11.0473183383
 20
9.7597476758
 40
1.269
100
AcDbArc
 50
304.4082560071
 51
87.926989561
  0
ARC
  5
2ED
100
AcDbEntity
  8
0
100
AcDbCircle
 62
9
  6
CONTINUOUS
 10
11.0473183383
 20
9.7597476758
 40
1.229
100
AcDbArc
 50
305.8656481892
 51
85.3233511277
  0
ARC
  5
2EE
100
AcDbEntity
  8
0
100
AcDbCircle
 62
9
  6
CONTINUOUS
 10
11.0473183383
 20
9.7597476758
 40
1.229
100
AcDbArc
 50
94.6913259689
 51
234.1448763964
  0
ARC
  5
2EF
100
AcDbEntity
  8
0
100
AcDbCircle
 62
7
  6
CONTINUOUS
 10
11.0473183383
 20
9.7597476758
 40
0.95
100
AcDbArc
 50
102.5341380313
 51
218.5407546412
  0
ARC
  5
2F0
100
AcDbEntity
  8
0
100
AcDbCircle
 62
7
  6
CONTINUOUS
 10
11.0473183383
 20
9.7597476758
 40
0.95
100
AcDbArc
 50
321.4648765489
 51
77.4658616569
  0
ARC
  5
2F1
100
AcDbEntity
  8
0
100
AcDbCircle
 62
9
  6
CONTINUOUS
 10
11.0473183383
 20
9.7597476758
 40
0.9478581324
100
AcDbArc
 50
102.5645372542
 51
218.3385552726
  0
ARC
  5
2F2
100
AcDbEntity
  8
0
100
AcDbCircle
 62
9
  6
CONTINUOUS
 10
11.0473183383
 20
9.7597476758
 40
0.9478581324
100
AcDbArc
 50
321.666061953
 51
77.4354627458
  0
ARC
  5
2F3
100
AcDbEntity
  8
0
100
AcDbCircle
 62
9
  6
CONTINUOUS
 10
11.0473183383
 20
9.7597476758
 40
0.9078824993
100
AcDbArc
 50
102.5645372541
 51
214.5560253272
  0
ARC
  5
2F4
100
AcDbEntity
  8
0
100
AcDbCircle
 62
9
  6
CONTINUOUS
 10
11.0473183383
 20
9.7597476758
 40
0.9078824993
100
AcDbArc
 50
325.565143219
 51
77.4354627459
  0
ARC
  5
2F5
100
AcDbEntity
  8
0
100
AcDbCircle
 62
9
  6
CONTINUOUS
 10
11.0473183383
 20
9.7597476758
 40
0.9044513768
100
AcDbArc
 50
102.6129856368
 51
214.0820169064
  0
ARC
  5
2F6
100
AcDbEntity
  8
0
100
AcDbCircle
 62
9
  6
CONTINUOUS
 10
11.0473183383
 20
9.7597476758
 40
0.9044513768
100
AcDbArc
 50
325.961522047
 51
77.3870143675
  0
ARC
  5
2F7
100
AcDbEntity
  8
0
100
AcDbCircle
 62
9
  6
CONTINUOUS
 10
11.0473183383
 20
9.7597476758
 40
0.8444879272
100
AcDbArc
 50
104.2108133896
 51
206.1090759126
  0
ARC
  5
2F8
100
AcDbEntity
  8
0
100
AcDbCircle
 62
9
  6
CONTINUOUS
 10
11.0473183383
 20
9.7597476758
 40
0.8444879272
100
AcDbArc
 50
333.9172592532
 51
75.7891866104
  0
ARC
  5
2F9
100
AcDbEntity
  8
0
100
AcDbCircle
 62
9
  6
CONTINUOUS
 10
11.0538544625
 20
9.7629332073
 40
0.7737644795
100
AcDbArc
 50
355.663358264
 51
356.7466559795
  0
ARC
  5
2FA
100
AcDbEntity
  8
0
100
AcDbCircle
 62
9
  6
CONTINUOUS
 10
11.0473183383
 20
9.7597476758
 40
0.7428597977
100
AcDbArc
 50
357.007484712
 51
182.9925154386
  0
ARC
  5
2FB
100
AcDbEntity
  8
0
100
AcDbCircle
 62
9
  6
CONTINUOUS
 10
11.0473183383
 20
9.7597476758
 40
0.6828963481
100
AcDbArc
 50
357.0074852581
 51
182.9925147415
  0
ARC
  5
2FC
100
AcDbEntity
  8
0
100
AcDbCircle
 62
7
  6
CONTINUOUS
 10
11.0473183383
 20
10.9097476758
 40
0.125
100
AcDbArc
 50
0.0
 51
180.0
  0
ARC
  5
2FD
100
AcDbEntity
  8
0
100
AcDbCircle
 62
9
  6
CONTINUOUS
 10
11.0473183383
 20
10.9097476758
 40
0.085
100
AcDbArc
 50
0.0
 51
180.0
  0
ARC
  5
2FE
100
AcDbEntity
  8
0
100
AcDbCircle
 62
7
  6
CONTINUOUS
 10
11.2448272102
 20
10.6480482682
 40
0.040006913
100
AcDbArc
 50
77.4966348826
 51
180.0356711935
  0
ARC
  5
2FF
100
AcDbEntity
  8
0
100
AcDbCircle
 62
9
  6
CONTINUOUS
 10
11.244809456
 20
10.6458697445
 40
0.0399921485
100
AcDbArc
 50
77.4286808764
 51
179.9740808536
  0
ARC
  5
300
100
AcDbEntity
  8
0
100
AcDbCircle
 62
9
  6
CONTINUOUS
 10
14.6332241275
 20
9.345653465
 40
0.155
100
AcDbArc
 50
3.0000000472
 51
86.9999999785
  0
ARC
  5
301
100
AcDbEntity
  8
0
100
AcDbCircle
 62
7
  6
CONTINUOUS
 10
14.6332241275
 20
9.345653465
 40
0.125
100
AcDbArc
 50
2.9999999596
 51
87.0
  0
ARC
  5
302
100
AcDbEntity
  8
0
100
AcDbCircle
 62
7
  6
CONTINUOUS
 10
14.8407872753
 20
8.3467476758
 40
0.03
100
AcDbArc
 50
183.000000163
 51
270.0
  0
ARC
  5
303
100
AcDbEntity
  8
0
100
AcDbCircle
 62
7
  6
CONTINUOUS
 10
13.6343183383
 20
9.5532166128
 40
0.03
100
AcDbArc
 50
180.0000001631
 51
267.0
  0
ARC
  5
304
100
AcDbEntity
  8
0
100
AcDbCircle
 62
9
  6
CONTINUOUS
 10
13.2741989806
 20
10.9206913018
 40
2.0483735315
100
AcDbArc
 50
187.8091045865
 51
189.6196854637
  0
ARC
  5
305
100
AcDbEntity
  8
0
100
AcDbCircle
 62
7
  6
CONTINUOUS
 10
15.0473183383
 20
9.7597476758
 40
1.1
100
AcDbArc
 50
103.4097851081
 51
166.5884826886
  0
ARC
  5
306
100
AcDbEntity
  8
0
100
AcDbCircle
 62
7
  6
CONTINUOUS
 10
15.0473183383
 20
9.7597476758
 40
1.1
100
AcDbArc
 50
13.4093216516
 51
76.5930973724
  0
ARC
  5
307
100
AcDbEntity
  8
0
100
AcDbCircle
 62
7
  6
CONTINUOUS
 10
15.0473183383
 20
9.7597476758
 40
1.1
100
AcDbArc
 50
283.4097851081
 51
346.5884826886
  0
ARC
  5
308
100
AcDbEntity
  8
0
100
AcDbCircle
 62
7
  6
CONTINUOUS
 10
15.0473183383
 20
9.7597476758
 40
1.1
100
AcDbArc
 50
193.4093216516
 51
256.5930973724
  0
ARC
  5
309
100
AcDbEntity
  8
0
100
AcDbCircle
 62
9
  6
CONTINUOUS
 10
15.0473183383
 20
9.7597476758
 40
1.0699999808
100
AcDbArc
 50
103.8859443825
 51
166.1165988983
  0
ARC
  5
30A
100
AcDbEntity
  8
0
100
AcDbCircle
 62
9
  6
CONTINUOUS
 10
15.0473183383
 20
9.7597476758
 40
1.0699999808
100
AcDbArc
 50
13.8813965548
 51
76.1163735327
  0
ARC
  5
30B
100
AcDbEntity
  8
0
100
AcDbCircle
 62
9
  6
CONTINUOUS
 10
15.0473183383
 20
9.7597476758
 40
1.0699999808
100
AcDbArc
 50
283.8859443825
 51
346.1165988983
  0
ARC
  5
30C
100
AcDbEntity
  8
0
100
AcDbCircle
 62
9
  6
CONTINUOUS
 10
15.0473183383
 20
9.7597476758
 40
1.0699999808
100
AcDbArc
 50
193.8813965548
 51
256.1163735327
  0
ARC
  5
30D
100
AcDbEntity
  8
0
100
AcDbCircle
 62
7
  6
CONTINUOUS
 10
15.0473183383
 20
9.7597476758
 40
0.75
100
AcDbArc
 50
291.4889881569
 51
338.5058585776
  0
ARC
  5
30E
100
AcDbEntity
  8
0
100
AcDbCircle
 62
7
  6
CONTINUOUS
 10
15.0473183383
 20
9.7597476758
 40
0.75
100
AcDbArc
 50
201.4909565211
 51
248.5073240431
  0
ARC
  5
30F
100
AcDbEntity
  8
0
100
AcDbCircle
 62
7
  6
CONTINUOUS
 10
15.0473183383
 20
9.7597476758
 40
0.75
100
AcDbArc
 50
111.4889881569
 51
158.5058585776
  0
ARC
  5
310
100
AcDbEntity
  8
0
100
AcDbCircle
 62
7
  6
CONTINUOUS
 10
15.0473183383
 20
9.7597476758
 40
0.75
100
AcDbArc
 50
21.4909565211
 51
68.5073240431
  0
ARC
  5
311
100
AcDbEntity
  8
0
100
AcDbCircle
 62
9
  6
CONTINUOUS
 10
15.0473183383
 20
9.7597476758
 40
0.7231538135
100
AcDbArc
 50
292.4418295839
 51
337.5262506065
  0
ARC
  5
312
100
AcDbEntity
  8
0
100
AcDbCircle
 62
9
  6
CONTINUOUS
 10
15.0473183383
 20
9.7597476758
 40
0.7231538135
100
AcDbArc
 50
202.4702660503
 51
247.5693435387
  0
ARC
  5
313
100
AcDbEntity
  8
0
100
AcDbCircle
 62
9
  6
CONTINUOUS
 10
15.0473183383
 20
9.7597476758
 40
0.7231538135
100
AcDbArc
 50
112.4418295839
 51
157.5262506065
  0
ARC
  5
314
100
AcDbEntity
  8
0
100
AcDbCircle
 62
9
  6
CONTINUOUS
 10
15.0473183383
 20
9.7597476758
 40
0.7231538135
100
AcDbArc
 50
22.4702660503
 51
67.5693435387
  0
ARC
  5
315
100
AcDbEntity
  8
0
100
AcDbCircle
 62
9
  6
CONTINUOUS
 10
15.0473183383
 20
9.7597476758
 40
0.6695101743
100
AcDbArc
 50
204.6343232505
 51
245.318948
  0
ARC
  5
316
100
AcDbEntity
  8
0
100
AcDbCircle
 62
9
  6
CONTINUOUS
 10
15.0473183383
 20
9.7597476758
 40
0.6695101743
100
AcDbArc
 50
294.6839378214
 51
335.355502462
  0
ARC
  5
317
100
AcDbEntity
  8
0
100
AcDbCircle
 62
9
  6
CONTINUOUS
 10
15.0473183383
 20
9.7597476758
 40
0.6695101743
100
AcDbArc
 50
24.6343232505
 51
65.318948
  0
ARC
  5
318
100
AcDbEntity
  8
0
100
AcDbCircle
 62
9
  6
CONTINUOUS
 10
15.0473183383
 20
9.7597476758
 40
0.6695101743
100
AcDbArc
 50
114.6839378214
 51
155.355502462
  0
ARC
  5
319
100
AcDbEntity
  8
0
100
AcDbCircle
 62
9
  6
CONTINUOUS
 10
15.0473183383
 20
9.7597476758
 40
0.6115087442
100
AcDbArc
 50
117.5507762514
 51
152.460826037
  0
ARC
  5
31A
100
AcDbEntity
  8
0
100
AcDbCircle
 62
9
  6
CONTINUOUS
 10
15.0473183383
 20
9.7597476758
 40
0.6115087442
100
AcDbArc
 50
27.5498658052
 51
62.4414964778
  0
ARC
  5
31B
100
AcDbEntity
  8
0
100
AcDbCircle
 62
9
  6
CONTINUOUS
 10
15.0473183383
 20
9.7597476758
 40
0.6115087442
100
AcDbArc
 50
297.5507762514
 51
332.460826037
  0
ARC
  5
31C
100
AcDbEntity
  8
0
100
AcDbCircle
 62
9
  6
CONTINUOUS
 10
15.0473183383
 20
9.7597476758
 40
0.6115087442
100
AcDbArc
 50
207.5498658052
 51
242.4414964778
  0
ARC
  5
31D
100
AcDbEntity
  8
0
100
AcDbCircle
 62
9
  6
CONTINUOUS
 10
15.0473183383
 20
9.7597476758
 40
0.5785288469
100
AcDbArc
 50
299.5211261667
 51
330.4932366933
  0
ARC
  5
31E
100
AcDbEntity
  8
0
100
AcDbCircle
 62
9
  6
CONTINUOUS
 10
15.0473183383
 20
9.7597476758
 40
0.5785288469
100
AcDbArc
 50
209.5158778457
 51
240.4910437079
  0
ARC
  5
31F
100
AcDbEntity
  8
0
100
AcDbCircle
 62
9
  6
CONTINUOUS
 10
15.0473183383
 20
9.7597476758
 40
0.5785288469
100
AcDbArc
 50
119.5211261667
 51
150.4932366933
  0
ARC
  5
320
100
AcDbEntity
  8
0
100
AcDbCircle
 62
9
  6
CONTINUOUS
 10
15.0473183383
 20
9.7597476758
 40
0.5785288469
100
AcDbArc
 50
29.5158778457
 51
60.4910437079
  0
ARC
  5
321
100
AcDbEntity
  8
0
100
AcDbCircle
 62
9
  6
CONTINUOUS
 10
14.6332241275
 20
10.1738418866
 40
0.155
100
AcDbArc
 50
273.0000000472
 51
356.9999999785
  0
ARC
  5
322
100
AcDbEntity
  8
0
100
AcDbCircle
 62
7
  6
CONTINUOUS
 10
14.6332241275
 20
10.1738418866
 40
0.125
100
AcDbArc
 50
272.9999999596
 51
357.0
  0
ARC
  5
323
100
AcDbEntity
  8
0
100
AcDbCircle
 62
7
  6
CONTINUOUS
 10
13.6343183383
 20
9.9662787388
 40
0.03
100
AcDbArc
 50
93.000000163
 51
180.0
  0
ARC
  5
324
100
AcDbEntity
  8
0
100
AcDbCircle
 62
7
  6
CONTINUOUS
 10
14.8407872753
 20
11.1727476758
 40
0.03
100
AcDbArc
 50
90.0000001631
 51
177.0
  0
ARC
  5
325
100
AcDbEntity
  8
0
100
AcDbCircle
 62
9
  6
CONTINUOUS
 10
19.3277644549
 20
4.5627667819
 40
7.7742786911
100
AcDbArc
 50
177.055857119
 51
177.2392856372
  0
ARC
  5
326
100
AcDbEntity
  8
0
100
AcDbCircle
 62
9
  6
CONTINUOUS
 10
19.1358467505
 20
4.5719848599
 40
7.5821397392
100
AcDbArc
 50
177.2390111777
 51
177.3597870859
  0
ARC
  5
327
100
AcDbEntity
  8
0
100
AcDbCircle
 62
9
  6
CONTINUOUS
 10
18.5452891929
 20
4.5986754419
 40
6.99097961
100
AcDbArc
 50
177.3553511448
 51
177.6729806899
  0
ARC
  5
328
100
AcDbEntity
  8
0
100
AcDbCircle
 62
9
  6
CONTINUOUS
 10
15.461412549
 20
10.1738418866
 40
0.155
100
AcDbArc
 50
183.0000000216
 51
266.9999999528
  0
ARC
  5
329
100
AcDbEntity
  8
0
100
AcDbCircle
 62
9
  6
CONTINUOUS
 10
15.461412549
 20
9.345653465
 40
0.155
100
AcDbArc
 50
93.0000000472
 51
176.9999999785
  0
ARC
  5
32A
100
AcDbEntity
  8
0
100
AcDbCircle
 62
7
  6
CONTINUOUS
 10
15.461412549
 20
9.345653465
 40
0.125
100
AcDbArc
 50
92.9999999596
 51
177.0
  0
ARC
  5
32B
100
AcDbEntity
  8
0
100
AcDbCircle
 62
7
  6
CONTINUOUS
 10
15.461412549
 20
10.1738418866
 40
0.125
100
AcDbArc
 50
183.0
 51
267.0000000404
  0
ARC
  5
32C
100
AcDbEntity
  8
0
100
AcDbCircle
 62
7
  6
CONTINUOUS
 10
15.2538494013
 20
8.3467476758
 40
0.03
100
AcDbArc
 50
270.0000001631
 51
357.0
  0
ARC
  5
32D
100
AcDbEntity
  8
0
100
AcDbCircle
 62
7
  6
CONTINUOUS
 10
15.2538494013
 20
11.1727476758
 40
0.03
100
AcDbArc
 50
3.000000163
 51
90.0
  0
ARC
  5
32E
100
AcDbEntity
  8
0
100
AcDbCircle
 62
7
  6
CONTINUOUS
 10
16.4603183383
 20
9.9662787388
 40
0.03
100
AcDbArc
 50
0.0000001631
 51
87.0
  0
ARC
  5
32F
100
AcDbEntity
  8
0
100
AcDbCircle
 62
7
  6
CONTINUOUS
 10
16.4603183383
 20
9.5532166128
 40
0.03
100
AcDbArc
 50
273.000000163
 51
360.0
  0
LINE
  5
330
100
AcDbEntity
  8
0
100
AcDbLine
 62
9
  6
CONTINUOUS
 10
11.557630434
 20
4.7033092242
 11
11.5570792476
 21
4.7109885406
  0
LINE
  5
331
100
AcDbEntity
  8
0
100
AcDbLine
 62
9
  6
CONTINUOUS
 10
11.5570792476
 20
4.7109885406
 11
11.5570624635
 21
4.7113226036
  0
LINE
  5
332
100
AcDbEntity
  8
0
100
AcDbLine
 62
9
  6
CONTINUOUS
 10
11.5570624635
 20
4.7113226036
 11
11.5566752988
 21
4.7228410739
  0
SPLINE
  5
333
100
AcDbEntity
  8
0
100
AcDbSpline
 62
9
  6
CONTINUOUS
 70
0
 71
3
 72
13
 73
9
 74
0
 42
0.0000001
 43
0.0000001
 44
0.0000000001
 40
0.0
 40
0.0
 40
0.0
 40
0.0
 40
0.0821997629
 40
0.1786251327
 40
0.2884558765
 40
0.4106942771
 40
0.6878598253
 40
1.0
 40
1.0
 40
1.0
 40
1.0
 10
11.5566752988
 20
4.7228410739
 30
0.0
 10
11.5565878892
 20
4.7269130248
 30
0.0
 10
11.5564828451
 20
4.7357634465
 30
0.0
 10
11.5564872678
 20
4.750056258
 30
0.0
 10
11.5566438427
 20
4.7663321732
 30
0.0
 10
11.5570729443
 20
4.7915605982
 30
0.0
 10
11.5580031003
 20
4.8268051265
 30
0.0
 10
11.5590325921
 20
4.8559866091
 30
0.0
 10
11.5596337366
 20
4.8714410527
 30
0.0
  0
LINE
  5
334
100
AcDbEntity
  8
0
100
AcDbLine
 62
9
  6
CONTINUOUS
 10
11.5596337366
 20
4.8714410527
 11
11.5600746325
 21
4.8825300757
  0
SPLINE
  5
335
100
AcDbEntity
  8
0
100
AcDbSpline
 62
7
  6
CONTINUOUS
 70
0
 71
3
 72
15
 73
11
 74
0
 42
0.0000001
 43
0.0000001
 44
0.0000000001
 40
0.0
 40
0.0
 40
0.0
 40
0.0
 40
0.1254463661
 40
0.2506370318
 40
0.3442909134
 40
0.4377325106
 40
0.624476935
 40
0.7180521514
 40
0.8118554487
 40
1.0
 40
1.0
 40
1.0
 40
1.0
 10
10.8399979469
 20
10.5784201305
 30
0.0
 10
10.8399068273
 20
10.5752958113
 30
0.0
 10
10.8397386339
 20
10.5690531148
 30
0.0
 10
10.8395727286
 20
10.560476168
 30
0.0
 10
10.839497613
 20
10.5526954208
 30
0.0
 10
10.8394964308
 20
10.5433806834
 30
0.0
 10
10.839548295
 20
10.534068013
 30
0.0
 10
10.8394913867
 20
10.5247463096
 30
0.0
 10
10.8393470491
 20
10.5153907142
 30
0.0
 10
10.839167715
 20
10.5083677743
 30
0.0
 10
10.839033122
 20
10.5036818582
 30
0.0
  0
SPLINE
  5
336
100
AcDbEntity
  8
0
100
AcDbSpline
 62
9
  6
CONTINUOUS
 70
0
 71
3
 72
23
 73
19
 74
0
 42
0.0000001
 43
0.0000001
 44
0.0000000001
 40
0.0
 40
0.0
 40
0.0
 40
0.0
 40
0.0039451188
 40
0.0083511757
 40
0.0140003517
 40
0.0212775614
 40
0.0303573094
 40
0.0413236442
 40
0.0690625477
 40
0.1046560178
 40
0.1481329451
 40
0.199477125
 40
0.2586514691
 40
0.3255983722
 40
0.4001962078
 40
0.571749265
 40
0.7720963915
 40
1.0
 40
1.0
 40
1.0
 40
1.0
 10
10.8390404963
 20
10.5036555385
 30
0.0
 10
10.8390400357
 20
10.5036174019
 30
0.0
 10
10.8390608671
 20
10.5035346079
 30
0.0
 10
10.8391598007
 20
10.5034360478
 30
0.0
 10
10.8393108496
 20
10.5033605526
 30
0.0
 10
10.839515958
 20
10.5033013308
 30
0.0
 10
10.8397768369
 20
10.5032577002
 30
0.0
 10
10.8402373094
 20
10.5032169072
 30
0.0
 10
10.8409565562
 20
10.5032140961
 30
0.0
 10
10.8419878644
 20
10.5032688426
 30
0.0
 10
10.8432436851
 20
10.5033834989
 30
0.0
 10
10.8447223654
 20
10.5035571732
 30
0.0
 10
10.8464223011
 20
10.5037894411
 30
0.0
 10
10.8483410179
 20
10.5040793585
 30
0.0
 10
10.8513291522
 20
10.5045623148
 30
0.0
 10
10.8555824986
 20
10.5052986796
 30
0.0
 10
10.8612893566
 20
10.5063260936
 30
0.0
 10
10.8653621846
 20
10.5070694981
 30
0.0
 10
10.8675297576
 20
10.5074644355
 30
0.0
  0
SPLINE
  5
337
100
AcDbEntity
  8
0
100
AcDbSpline
 62
9
  6
CONTINUOUS
 70
0
 71
3
 72
13
 73
9
 74
0
 42
0.0000001
 43
0.0000001
 44
0.0000000001
 40
0.0
 40
0.0
 40
0.0
 40
0.0
 40
0.0903248414
 40
0.1932328656
 40
0.4312078898
 40
0.5636845311
 40
0.7035021336
 40
1.0
 40
1.0
 40
1.0
 40
1.0
 10
10.8675297576
 20
10.5074644355
 30
0.0
 10
10.8713430189
 20
10.5081592214
 30
0.0
 10
10.8795018186
 20
10.5096400477
 30
0.0
 10
10.8977310959
 20
10.5128178713
 30
0.0
 10
10.9178049673
 20
10.5159456448
 30
0.0
 10
10.9395163254
 20
10.5187981744
 30
0.0
 10
10.963772813
 20
10.5215232702
 30
0.0
 10
10.9824414291
 20
10.5230474501
 30
0.0
 10
10.995142209
 20
10.5238055482
 30
0.0
  0
SPLINE
  5
338
100
AcDbEntity
  8
0
100
AcDbSpline
 62
9
  6
CONTINUOUS
 70
0
 71
3
 72
15
 73
11
 74
0
 42
0.0000001
 43
0.0000001
 44
0.0000000001
 40
0.0
 40
0.0
 40
0.0
 40
0.0
 40
0.1493258843
 40
0.2962048869
 40
0.438355293
 40
0.5735410534
 40
0.6995206028
 40
0.8140848792
 40
0.9150009531
 40
1.0
 40
1.0
 40
1.0
 40
1.0
 10
11.0493108869
 20
10.5253630396
 30
0.0
 10
11.0583489198
 20
10.525342447
 30
0.0
 10
11.0762773553
 20
10.5250170279
 30
0.0
 10
11.1027820343
 20
10.5237354654
 30
0.0
 10
11.1283825167
 20
10.5217213859
 30
0.0
 10
11.1526595874
 20
10.5191408636
 30
0.0
 10
11.1752067307
 20
10.5161590528
 30
0.0
 10
11.1956339765
 20
10.5130110752
 30
0.0
 10
11.2135594185
 20
10.5099357835
 30
0.0
 10
11.2246296449
 20
10.5079175921
 30
0.0
 10
11.2296909644
 20
10.5069955044
 30
0.0
  0
SPLINE
  5
339
100
AcDbEntity
  8
0
100
AcDbSpline
 62
9
  6
CONTINUOUS
 70
0
 71
3
 72
23
 73
19
 74
0
 42
0.0000001
 43
0.0000001
 44
0.0000000001
 40
0.0
 40
0.0
 40
0.0
 40
0.0
 40
0.2282323435
 40
0.4286984651
 40
0.6002059225
 40
0.6747342134
 40
0.7415887122
 40
0.800645353
 40
0.8518501277
 40
0.8951814757
 40
0.9306409281
 40
0.9582797412
 40
0.9692190515
 40
0.9782949033
 40
0.985600849
 40
0.9913254609
 40
0.9958685666
 40
1.0
 40
1.0
 40
1.0
 40
1.0
 10
11.2296909644
 20
10.5069955044
 30
0.0
 10
11.2316651509
 20
10.5066358407
 30
0.0
 10
11.2353735076
 20
10.5059611095
 30
0.0
 10
11.2405688004
 20
10.5050350481
 30
0.0
 10
11.2444390844
 20
10.5043767029
 30
0.0
 10
11.2471566378
 20
10.5039486622
 30
0.0
 10
11.2489004486
 20
10.5036936104
 30
0.0
 10
11.2504446214
 20
10.5034915454
 30
0.0
 10
11.2517869993
 20
10.5033434072
 30
0.0
 10
11.2529263474
 20
10.5032493621
 30
0.0
 10
11.2538614666
 20
10.5032100551
 30
0.0
 10
11.2545132975
 20
10.5032219931
 30
0.0
 10
11.2549301841
 20
10.5032668908
 30
0.0
 10
11.255166502
 20
10.5033119749
 30
0.0
 10
11.2553523395
 20
10.5033712707
 30
0.0
 10
11.2554893187
 20
10.5034456423
 30
0.0
 10
11.2555781785
 20
10.5035411188
 30
0.0
 10
11.2555965907
 20
10.5036192162
 30
0.0
 10
11.2555961802
 20
10.5036555385
 30
0.0
  0
LINE
  5
33A
100
AcDbEntity
  8
0
100
AcDbLine
 62
9
  6
CONTINUOUS
 10
10.5345958158
 20
4.8816965904
 11
10.5350407755
 21
4.8704656916
  0
SPLINE
  5
33B
100
AcDbEntity
  8
0
100
AcDbSpline
 62
9
  6
CONTINUOUS
 70
0
 71
3
 72
13
 73
9
 74
0
 42
0.0000001
 43
0.0000001
 44
0.0000000001
 40
0.0
 40
0.0
 40
0.0
 40
0.0
 40
0.3121039372
 40
0.5891930286
 40
0.7114107858
 40
0.821246525
 40
0.9177134365
 40
1.0
 40
1.0
 40
1.0
 40
1.0
 10
10.5350407755
 20
4.8704656916
 30
0.0
 10
10.5356355394
 20
4.855114139
 30
0.0
 10
10.5366538475
 20
4.8261291418
 30
0.0
 10
10.5375730405
 20
4.7911218458
 30
0.0
 10
10.5379962235
 20
4.7660631069
 30
0.0
 10
10.5381500092
 20
4.7498924811
 30
0.0
 10
10.5381531295
 20
4.7356867004
 30
0.0
 10
10.5380482325
 20
4.7268879256
 30
0.0
 10
10.5379612884
 20
4.7228383678
 30
0.0
  0
LINE
  5
33C
100
AcDbEntity
  8
0
100
AcDbLine
 62
9
  6
CONTINUOUS
 10
10.5379612884
 20
4.7228383678
 11
10.5375751346
 21
4.7113413926
  0
LINE
  5
33D
100
AcDbEntity
  8
0
100
AcDbLine
 62
9
  6
CONTINUOUS
 10
10.5375751346
 20
4.7113413926
 11
10.5375574441
 21
4.7109890149
  0
LINE
  5
33E
100
AcDbEntity
  8
0
100
AcDbLine
 62
9
  6
CONTINUOUS
 10
10.5375574441
 20
4.7109890149
 11
10.5370062444
 21
4.7033091892
  0
SPLINE
  5
33F
100
AcDbEntity
  8
0
100
AcDbSpline
 62
9
  6
CONTINUOUS
 70
0
 71
3
 72
17
 73
13
 74
0
 42
0.0000001
 43
0.0000001
 44
0.0000000001
 40
0.0
 40
0.0
 40
0.0
 40
0.0
 40
0.1136794613
 40
0.2362128598
 40
0.3005546479
 40
0.3663644249
 40
0.4998020997
 40
0.6332700249
 40
0.6991194337
 40
0.7635162354
 40
0.8861782829
 40
1.0
 40
1.0
 40
1.0
 40
1.0
 10
11.2048183769
 20
10.5395862433
 30
0.0
 10
11.2048144986
 20
10.5423388967
 30
0.0
 10
11.2054063092
 20
10.5480733257
 30
0.0
 10
11.2076837302
 20
10.5550547655
 30
0.0
 10
11.2105839084
 20
10.5604576589
 30
0.0
 10
11.2142336103
 20
10.5657067751
 30
0.0
 10
11.2199643746
 20
10.5714935887
 30
0.0
 10
11.2269767236
 20
10.5756375301
 30
0.0
 10
11.2329612691
 20
10.5778952376
 30
0.0
 10
11.238913957
 20
10.5793898318
 30
0.0
 10
11.246247989
 20
10.579895255
 30
0.0
 10
11.2519600023
 20
10.5790692299
 30
0.0
 10
11.2546319723
 20
10.5783934578
 30
0.0
  0
SPLINE
  5
340
100
AcDbEntity
  8
0
100
AcDbSpline
 62
7
  6
CONTINUOUS
 70
0
 71
3
 72
15
 73
11
 74
0
 42
0.0000001
 43
0.0000001
 44
0.0000000001
 40
0.0
 40
0.0
 40
0.0
 40
0.0
 40
0.1254995598
 40
0.2507040668
 40
0.3443575323
 40
0.4377984614
 40
0.6245436008
 40
0.7181199094
 40
0.8119193782
 40
1.0
 40
1.0
 40
1.0
 40
1.0
 10
11.255599898
 20
10.5036688076
 30
0.0
 10
11.2555101376
 20
10.5067944422
 30
0.0
 10
11.255343942
 20
10.5130387606
 30
0.0
 10
11.2551793458
 20
10.5216172522
 30
0.0
 10
11.255104696
 20
10.5293981965
 30
0.0
 10
11.2551037584
 20
10.5387127756
 30
0.0
 10
11.2551554778
 20
10.5480253272
 30
0.0
 10
11.2550981292
 20
10.5573468303
 30
0.0
 10
11.2549528005
 20
10.5667006015
 30
0.0
 10
11.2547717051
 20
10.5737217037
 30
0.0
 10
11.2546351216
 20
10.5784058939
 30
0.0
  0
SPLINE
  5
341
100
AcDbEntity
  8
0
100
AcDbSpline
 62
9
  6
CONTINUOUS
 70
0
 71
3
 72
11
 73
7
 74
0
 42
0.0000001
 43
0.0000001
 44
0.0000000001
 40
0.0
 40
0.0
 40
0.0
 40
0.0
 40
0.269962437
 40
0.5246367527
 40
0.7660797047
 40
1.0
 40
1.0
 40
1.0
 40
1.0
 10
11.7897016658
 20
9.1830321582
 30
0.0
 10
11.7923144082
 20
9.2299838473
 30
0.0
 10
11.7978461328
 20
9.3212032821
 30
0.0
 10
11.8068479797
 20
9.4543421144
 30
0.0
 10
11.8160304754
 20
9.581174537
 30
0.0
 10
11.822221002
 20
9.6637455872
 30
0.0
 10
11.8252722317
 20
9.7043773884
 30
0.0
  0
LINE
  5
342
100
AcDbEntity
  8
0
100
AcDbLine
 62
9
  6
CONTINUOUS
 10
11.8252722317
 20
9.7043773884
 11
11.8263720149
 21
9.7190212444
  0
SPLINE
  5
343
100
AcDbEntity
  8
0
100
AcDbSpline
 62
9
  6
CONTINUOUS
 70
0
 71
3
 72
12
 73
8
 74
0
 42
0.0000001
 43
0.0000001
 44
0.0000000001
 40
0.0
 40
0.0
 40
0.0
 40
0.0
 40
0.2683336097
 40
0.3993703901
 40
0.5270567143
 40
0.7714834937
 40
1.0
 40
1.0
 40
1.0
 40
1.0
 10
10.8686904985
 20
10.5003847986
 30
0.0
 10
10.8662782059
 20
10.5016650437
 30
0.0
 10
10.8624837379
 20
10.5032170887
 30
0.0
 10
10.8572686484
 20
10.5044994084
 30
0.0
 10
10.8521890436
 20
10.5052112518
 30
0.0
 10
10.8460388995
 20
10.505169111
 30
0.0
 10
10.8412803105
 20
10.504281814
 30
0.0
 10
10.8390404913
 20
10.5036555371
 30
0.0
  0
LINE
  5
344
100
AcDbEntity
  8
0
100
AcDbLine
 62
9
  6
CONTINUOUS
 10
10.2682646624
 20
9.7190212404
 11
10.2693716919
 21
9.7042817945
  0
SPLINE
  5
345
100
AcDbEntity
  8
0
100
AcDbSpline
 62
9
  6
CONTINUOUS
 70
0
 71
3
 72
11
 73
7
 74
0
 42
0.0000001
 43
0.0000001
 44
0.0000000001
 40
0.0
 40
0.0
 40
0.0
 40
0.0
 40
0.2339216173
 40
0.4753659752
 40
0.730039785
 40
1.0
 40
1.0
 40
1.0
 40
1.0
 10
10.2693716919
 20
9.7042817945
 30
0.0
 10
10.2724224439
 20
9.6636578651
 30
0.0
 10
10.2786113745
 20
9.5811027572
 30
0.0
 10
10.2877919577
 20
9.4542952026
 30
0.0
 10
10.2967917739
 20
9.321183103
 30
0.0
 10
10.3023224009
 20
9.2299823129
 30
0.0
 10
10.3049345403
 20
9.1830403584
 30
0.0
  0
SPLINE
  5
346
100
AcDbEntity
  8
0
100
AcDbSpline
 62
9
  6
CONTINUOUS
 70
0
 71
3
 72
17
 73
13
 74
0
 42
0.0000001
 43
0.0000001
 44
0.0000000001
 40
0.0
 40
0.0
 40
0.0
 40
0.0
 40
0.1137319407
 40
0.2362971827
 40
0.3006492477
 40
0.3664618439
 40
0.4998899886
 40
0.6333389694
 40
0.6991753069
 40
0.7635577423
 40
0.8861953403
 40
1.0
 40
1.0
 40
1.0
 40
1.0
 10
10.8898183383
 20
10.5396411174
 30
0.0
 10
10.8898183383
 20
10.5423929746
 30
0.0
 10
10.8892193194
 20
10.5481243331
 30
0.0
 10
10.8869338661
 20
10.5550997418
 30
0.0
 10
10.884028969
 20
10.5604960629
 30
0.0
 10
10.8803765513
 20
10.5657375192
 30
0.0
 10
10.8746450118
 20
10.5715139288
 30
0.0
 10
10.8676358717
 20
10.5756488806
 30
0.0
 10
10.8616556774
 20
10.5779012586
 30
0.0
 10
10.8557080054
 20
10.5793916443
 30
0.0
 10
10.8483808266
 20
10.5798943736
 30
0.0
 10
10.8426742635
 20
10.57906862
 30
0.0
 10
10.8400047017
 20
10.5783934566
 30
0.0
  0
SPLINE
  5
347
100
AcDbEntity
  8
0
100
AcDbSpline
 62
9
  6
CONTINUOUS
 70
0
 71
3
 72
10
 73
6
 74
0
 42
0.0000001
 43
0.0000001
 44
0.0000000001
 40
0.0
 40
0.0
 40
0.0
 40
0.0
 40
0.3671891126
 40
0.8134581547
 40
1.0
 40
1.0
 40
1.0
 40
1.0
 10
10.849818093
 20
10.6423722299
 30
0.0
 10
10.8487374185
 20
10.634523634
 30
0.0
 10
10.8462383234
 20
10.6171506015
 30
0.0
 10
10.8429364911
 20
10.595827415
 30
0.0
 10
10.840681416
 20
10.5823609752
 30
0.0
 10
10.840004464
 20
10.5783933971
 30
0.0
  0
SPLINE
  5
348
100
AcDbEntity
  8
0
100
AcDbSpline
 62
9
  6
CONTINUOUS
 70
0
 71
3
 72
12
 73
8
 74
0
 42
0.0000001
 43
0.0000001
 44
0.0000000001
 40
0.0
 40
0.0
 40
0.0
 40
0.0
 40
0.2683335997
 40
0.3993704159
 40
0.5270567764
 40
0.7714835619
 40
1.0
 40
1.0
 40
1.0
 40
1.0
 10
11.2259459832
 20
10.500384699
 30
0.0
 10
11.2283582858
 20
10.5016649662
 30
0.0
 10
11.2321527746
 20
10.5032170398
 30
0.0
 10
11.2373678971
 20
10.504499388
 30
0.0
 10
11.2424475367
 20
10.5052112526
 30
0.0
 10
11.248597725
 20
10.5051691233
 30
0.0
 10
11.2533563482
 20
10.5042818232
 30
0.0
 10
11.2555961827
 20
10.5036555423
 30
0.0
  0
ENDSEC
  0
SECTION
  2
OBJECTS
  0
DICTIONARY
  5
C
100
AcDbDictionary
280
0
281
1
  3
ACAD_GROUP
350
D
  3
ACAD_MLINESTYLE
350
17
  3
ACAD_LAYOUT
350
1A
  3
ACAD_PLOTSETTINGS
350
19
  3
ACAD_PLOTSTYLENAME
350
E
  0
DICTIONARY
  5
D
102
{ACAD_REACTORS
330
C
102
}
100
AcDbDictionary
280
0
281
1
  0
ACDBDICTIONARYWDFLT
  5
E
102
{ACAD_REACTORS
330
C
102
}
100
AcDbDictionary
281
1
  3
Normal
350
F
100
AcDbDictionaryWithDefault
340
F
  0
DICTIONARY
  5
17
102
{ACAD_REACTORS
330
C
102
}
100
AcDbDictionary
280
0
281
1
  3
Standard
350
18
  0
DICTIONARY
  5
19
102
{ACAD_REACTORS
330
C
102
}
100
AcDbDictionary
281
1
  0
DICTIONARY
  5
1A
102
{ACAD_REACTORS
330
C
102
}
100
AcDbDictionary
281
1
  3
Model
350
349
  3
Layout1
350
34A
  0
ACDBPLACEHOLDER
  5
F
102
{ACAD_REACTORS
330
E
102
}
  0
MLINESTYLE
  5
18
102
{ACAD_REACTORS
330
17
102
}
100
AcDbMlineStyle
  2
STANDARD
 70
0
  3

 62
256
 51
90.0
 52
90.0
 71
2
 49
0.5
 62
256
  6
BYLAYER
 49
-0.5
 62
256
  6
BYLAYER
  0
LAYOUT
  5
349
102
{ACAD_REACTORS
330
1A
102
}
100
AcDbPlotSettings
  1

  2
none_device
  4
ANSI_C_(22.00_x_17.00_Inches)
  6

 40
0.0
 41
0.0
 42
0.0
 43
0.0
 44
558.8
 45
431.8
 46
0.0
 47
0.0
 48
0.0
 49
0.0
140
0.0
141
0.0
142
1.0
143
1.0
 70
1024
 72
0
 73
0
 74
0
  7

 75
0
147
1.0
148
0.0
149
0.0
100
AcDbLayout
  1
Model
 70
0
 71
0
 10
0.0
 20
0.0
 11
22.0
 21
17.0
 12
0.0
 22
0.0
 32
0.0
 14
0.0
 24
0.0
 34
0.0
 15
0.0
 25
0.0
 35
0.0
146
0.0
 13
0.0
 23
0.0
 33
0.0
 16
1.0
 26
0.0
 36
0.0
 17
0.0
 27
1.0
 37
0.0
 76
0
330
202
345
0
346
0
  0
LAYOUT
  5
34A
102
{ACAD_REACTORS
330
1A
102
}
100
AcDbPlotSettings
  1

  2
none_device
  4
ANSI_C_(22.00_x_17.00_Inches)
  6

 40
0.0
 41
0.0
 42
0.0
 43
0.0
 44
558.8
 45
431.8
 46
0.0
 47
0.0
 48
0.0
 49
0.0
140
0.0
141
0.0
142
1.0
143
1.0
 70
0
 72
0
 73
0
 74
0
  7

 75
0
147
1.0
148
0.0
149
0.0
100
AcDbLayout
  1
Layout1
 70
0
 71
1
 10
0.0
 20
0.0
 11
22.0
 21
17.0
 12
0.0
 22
0.0
 32
0.0
 14
0.0
 24
0.0
 34
0.0
 15
0.0
 25
0.0
 35
0.0
146
0.0
 13
0.0
 23
0.0
 33
0.0
 16
1.0
 26
0.0
 36
0.0
 17
0.0
 27
1.0
 37
0.0
 76
0
330
203
345
0
346
0
  0
ENDSEC
  0
EOF
