999
DXF file: E:\BT Custom\CADOUTPUT\_RIGHT.dxf
999
Pro/ENGINEER 2018400 by Parametric Technology Corporation
  0
SECTION
  2
HEADER
  9
$ACADVER
  1
AC1018
  9
$DWGCODEPAGE
  3
ANSI_1252
  9
$EXTMAX
 10
22.0
 20
17.0
 30
0.0
  9
$EXTMIN
 10
0.0
 20
0.0
 30
0.0
  9
$LIMMIN
 10
0.0
 20
0.0
  9
$LIMMAX
 10
22.0
 20
17.0
  9
$VIEWCTR
 10
11.0
 20
8.5
  9
$VIEWSIZE
 40
17.0
  9
$CLAYER
  8
0
  9
$LTSCALE
 40
1.21
  9
$CELTYPE
  6
BYLAYER
  9
$DIMSCALE
 40
1.0
  9
$DIMASZ
 40
0.1
  9
$DIMEXO
 40
0.0625
  9
$DIMDLI
 40
0.836
  9
$DIMEXE
 40
0.125
  9
$DIMCEN
 40
0.198
  9
$DIMLFAC
 40
1.0
  9
$DIMBLK
  1
_FILLED
  9
$DIMALT
 70
1
  9
$DIMALTD
 70
2
  9
$DIMALTTD
 70
2
  9
$DIMALTF
 40
25.4
  9
$DIMTXT
 40
0.08
  9
$DIMTOL
 70
1
  9
$DIMLIM
 70
0
  9
$DIMTFAC
 40
1.0
  9
$DIMTP
 40
0.001
  9
$DIMTM
 40
0.001
  9
$DIMGAP
 40
0.09
  9
$DIMDSEP
 70
46
  9
$AUNITS
 70
0
  9
$PDMODE
 70
3
  9
$PDSIZE
 40
0.06
  9
$HANDSEED
  5
348
  9
$TILEMODE
 70
1
  9
$MEASUREMENT
 70
0
  9
$INSUNITS
 70
1
  0
ENDSEC
  0
SECTION
  2
CLASSES
  0
CLASS
  1
ACDBDICTIONARYWDFLT
  2
AcDbDictionaryWithDefault
  3
AutoCAD 2000
 90
0
 91
1
280
0
281
0
  0
CLASS
  1
ACDBPLACEHOLDER
  2
AcDbPlaceHolder
  3
AutoCAD 2000
 90
0
 91
1
280
0
281
0
  0
CLASS
  1
LAYOUT
  2
AcDbLayout
  3
AutoCAD 2000
 90
0
 91
0
280
0
281
0
  0
ENDSEC
  0
SECTION
  2
TABLES
  0
TABLE
  2
VPORT
  5
8
100
AcDbSymbolTable
 70
2
  0
VPORT
  5
1F4
100
AcDbSymbolTableRecord
100
AcDbViewportTableRecord
  2
*ACTIVE
 70
0
 10
0.0
 20
0.0
 11
1.0
 21
1.0
 12
11.0
 22
8.5
 13
0.0
 23
0.0
 14
1.0
 24
1.0
 15
0.0
 25
0.0
 16
0.0
 26
0.0
 36
1.0
 17
0.0
 27
0.0
 37
0.0
 40
17.0
 41
1.2941176471
 42
50.0
 43
0.0
 44
0.0
 50
0.0
 51
0.0
 71
0
 72
100
 73
1
 74
1
 75
0
 76
0
 77
0
 78
0
  0
ENDTAB
  0
TABLE
  2
LTYPE
  5
5
100
AcDbSymbolTable
 70
6
  0
LTYPE
  5
14
100
AcDbSymbolTableRecord
100
AcDbLinetypeTableRecord
  2
BYBLOCK
 70
0
  3

 72
65
 73
0
 40
0.0
  0
LTYPE
  5
15
100
AcDbSymbolTableRecord
100
AcDbLinetypeTableRecord
  2
BYLAYER
 70
0
  3

 72
65
 73
0
 40
0.0
  0
LTYPE
  5
16
100
AcDbSymbolTableRecord
100
AcDbLinetypeTableRecord
  2
CONTINUOUS
 70
64
  3
Solid line
 72
65
 73
0
 40
0.0
  0
LTYPE
  5
1F5
100
AcDbSymbolTableRecord
100
AcDbLinetypeTableRecord
  2
CENTER
 70
64
  3
____ _ ____ _ ____ _ ____ _ ____ _ ____ _ ____
 72
65
 73
4
 40
0.6
 49
0.375
 74
0
 49
-0.075
 74
0
 49
0.075
 74
0
 49
-0.075
 74
0
  0
LTYPE
  5
1F6
100
AcDbSymbolTableRecord
100
AcDbLinetypeTableRecord
  2
HIDDEN
 70
64
  3
- - - - - - - - - - - - - - - - - - - -
 72
65
 73
2
 40
0.2
 49
0.1
 74
0
 49
-0.1
 74
0
  0
LTYPE
  5
1F7
100
AcDbSymbolTableRecord
100
AcDbLinetypeTableRecord
  2
PHANTOM
 70
64
  3
_____ _ _ _____ _ _ _____ _ _ _____
 72
65
 73
6
 40
0.8
 49
0.45
 74
0
 49
-0.05
 74
0
 49
0.1
 74
0
 49
-0.05
 74
0
 49
0.1
 74
0
 49
-0.05
 74
0
  0
LTYPE
  5
1F8
100
AcDbSymbolTableRecord
100
AcDbLinetypeTableRecord
  2
DOT
 70
64
  3
. . . . . . . . . . . . . . . . . . . .
 72
65
 73
2
 40
0.2
 49
0.1
 74
0
 49
-0.1
 74
0
  0
LTYPE
  5
1F9
100
AcDbSymbolTableRecord
100
AcDbLinetypeTableRecord
  2
DASHED
 70
64
  3
- - - - - - - - - - - - - - - - - - - -
 72
65
 73
2
 40
0.2
 49
0.1
 74
0
 49
-0.1
 74
0
  0
ENDTAB
  0
TABLE
  2
LAYER
  5
2
100
AcDbSymbolTable
 70
36
  0
LAYER
  5
10
100
AcDbSymbolTableRecord
100
AcDbLayerTableRecord
  2
0
 70
0
 62
7
  6
CONTINUOUS
370
-3
390
F
  0
LAYER
  5
1FA
100
AcDbSymbolTableRecord
100
AcDbLayerTableRecord
  2
DEFAULT_1
 70
0
 62
7
  6
CENTER
370
-3
390
F
  0
LAYER
  5
1FB
100
AcDbSymbolTableRecord
100
AcDbLayerTableRecord
  2
DEFAULT_2
 70
0
 62
8
  6
HIDDEN
370
-3
390
F
  0
LAYER
  5
1FC
100
AcDbSymbolTableRecord
100
AcDbLayerTableRecord
  2
DEFAULT_3
 70
0
 62
7
  6
PHANTOM
370
-3
390
F
  0
LAYER
  5
1FD
100
AcDbSymbolTableRecord
100
AcDbLayerTableRecord
  2
ALL_FEATURES
 70
0
 62
7
  6
CONTINUOUS
370
-3
390
F
  0
LAYER
  5
1FE
100
AcDbSymbolTableRecord
100
AcDbLayerTableRecord
  2
AXES_FEATURES
 70
0
 62
7
  6
CONTINUOUS
370
-3
390
F
  0
LAYER
  5
1FF
100
AcDbSymbolTableRecord
100
AcDbLayerTableRecord
  2
DEFAULT_COORDINATE_SYSTEM
 70
0
 62
7
  6
CONTINUOUS
370
-3
390
F
  0
LAYER
  5
200
100
AcDbSymbolTableRecord
100
AcDbLayerTableRecord
  2
DEFAULT_DATUM_AXES
 70
0
 62
7
  6
CONTINUOUS
370
-3
390
F
  0
LAYER
  5
201
100
AcDbSymbolTableRecord
100
AcDbLayerTableRecord
  2
DEFAULT_DATUM_PLANES
 70
0
 62
7
  6
CONTINUOUS
370
-3
390
F
  0
LAYER
  5
202
100
AcDbSymbolTableRecord
100
AcDbLayerTableRecord
  2
DIMENSIONS
 70
0
 62
7
  6
CONTINUOUS
370
-3
390
F
  0
ENDTAB
  0
TABLE
  2
STYLE
  5
3
100
AcDbSymbolTable
 70
1
  0
STYLE
  5
11
100
AcDbSymbolTableRecord
100
AcDbTextStyleTableRecord
  2
STANDARD
 70
0
 40
0.0
 41
0.8
 50
0.0
 71
0
 42
0.2
  3
txt
  4

  0
STYLE
  5
203
100
AcDbSymbolTableRecord
100
AcDbTextStyleTableRecord
  2
TEXTSTYLE_1
 70
0
 40
0.0
 41
0.8
 50
0.0
 71
0
 42
0.2
  3
gdt
  4

  0
ENDTAB
  0
TABLE
  2
VIEW
  5
6
100
AcDbSymbolTable
 70
0
  0
ENDTAB
  0
TABLE
  2
UCS
  5
7
100
AcDbSymbolTable
 70
0
  0
ENDTAB
  0
TABLE
  2
APPID
  5
9
100
AcDbSymbolTable
 70
1
  0
APPID
  5
204
100
AcDbSymbolTableRecord
100
AcDbRegAppTableRecord
  2
ACAD
 70
0
  0
ENDTAB
  0
TABLE
  2
BLOCK_RECORD
  5
1
100
AcDbSymbolTable
 70
0
  0
BLOCK_RECORD
  5
205
100
AcDbSymbolTableRecord
100
AcDbBlockTableRecord
  2
*Model_Space
  0
BLOCK_RECORD
  5
206
100
AcDbSymbolTableRecord
100
AcDbBlockTableRecord
  2
*Paper_Space
  0
BLOCK_RECORD
  5
207
100
AcDbSymbolTableRecord
100
AcDbBlockTableRecord
  2
_FILLED
  0
ENDTAB
  0
TABLE
  2
DIMSTYLE
  5
A
100
AcDbSymbolTable
 70
1
100
AcDbDimStyleTable
 71
0
  0
DIMSTYLE
105
208
100
AcDbSymbolTableRecord
100
AcDbDimStyleTableRecord
  2
STANDARD
 70
0
  3

  4

 40
1.0
 41
0.1
 42
0.0625
 43
0.38
 44
0.125
 45
0.0
 46
0.0
 47
0.001
 48
0.001
140
0.08
141
0.09
142
0.0
143
25.4
144
1.0
145
0.0
146
1.0
147
0.09
 71
1.0
 72
0.0
 73
1
 74
1
 75
0
 76
0
 77
0
 78
4
 79
1
170
1
171
2
172
0
173
0
174
0
175
0
176
0
177
0
178
0
270
2
179
3
271
3
272
3
273
2
274
2
275
0
280
0
281
0
282
0
283
1
284
4
285
0
286
0
287
3
288
0
340
11
278
46
341
207
342
207
343
207
344
207
  0
ENDTAB
  0
ENDSEC
  0
SECTION
  2
BLOCKS
  0
BLOCK
  5
20
100
AcDbEntity
  8
0
100
AcDbBlockBegin
  2
*Model_Space
 70
0
 10
0.0
 20
0.0
 30
0.0
  3
*Model_Space
  1

  0
ENDBLK
  5
21
100
AcDbEntity
  8
0
100
AcDbBlockEnd
  0
BLOCK
  5
1C
100
AcDbEntity
  8
0
100
AcDbBlockBegin
  2
*Paper_Space
 70
0
 10
0.0
 20
0.0
 30
0.0
  3
*Paper_Space
  1

  0
ENDBLK
  5
1D
100
AcDbEntity
  8
0
100
AcDbBlockEnd
  0
BLOCK
  5
209
100
AcDbEntity
  8
0
100
AcDbBlockBegin
  2
_FILLED
 70
64
 10
0.0
 20
0.0
  3
_FILLED
  1

  0
SOLID
  5
20A
100
AcDbEntity
  8
0
  6
BYBLOCK
 62
0
100
AcDbTrace
 10
0.0
 20
0.0
 11
-1.0
 21
0.2
 12
-1.0
 22
-0.2
 13
-1.0
 23
-0.2
  0
ENDBLK
  5
20B
100
AcDbEntity
  8
0
  6
BYBLOCK
 62
0
100
AcDbBlockEnd
  0
ENDSEC
  0
SECTION
  2
ENTITIES
  0
LINE
  5
20C
100
AcDbEntity
  8
0
100
AcDbLine
 62
7
  6
CONTINUOUS
 10
14.46840881
 20
-2.4073655963
 11
12.9984085619
 21
-2.4073655963
  0
LINE
  5
20D
100
AcDbEntity
  8
0
100
AcDbLine
 62
7
  6
CONTINUOUS
 10
20.060408686
 20
-2.1623649259
 11
20.560408686
 21
-2.1623649259
  0
LINE
  5
20E
100
AcDbEntity
  8
0
100
AcDbLine
 62
9
  6
CONTINUOUS
 10
20.560408686
 20
-1.9748011616
 11
20.060408686
 21
-1.9748011616
  0
LINE
  5
20F
100
AcDbEntity
  8
0
100
AcDbLine
 62
7
  6
CONTINUOUS
 10
0.9785401833
 20
13.033573889
 11
0.995707527
 21
13.2153760589
  0
LINE
  5
210
100
AcDbEntity
  8
0
100
AcDbLine
 62
7
  6
CONTINUOUS
 10
0.9305042477
 20
12.9485657873
 11
0.9727691266
 21
13.0164713594
  0
LINE
  5
211
100
AcDbEntity
  8
0
100
AcDbLine
 62
9
  6
CONTINUOUS
 10
14.468408334
 20
-1.7623655963
 11
12.9984090379
 21
-1.7623655963
  0
LINE
  5
212
100
AcDbEntity
  8
0
100
AcDbLine
 62
7
  6
CONTINUOUS
 10
16.060408686
 20
-1.4118846491
 11
14.733408686
 21
-1.4118846491
  0
LINE
  5
213
100
AcDbEntity
  8
0
100
AcDbLine
 62
7
  6
CONTINUOUS
 10
0.9186134104
 20
12.3389099943
 11
0.9186134104
 21
12.9069583266
  0
LINE
  5
214
100
AcDbEntity
  8
0
100
AcDbLine
 62
7
  6
CONTINUOUS
 10
3.056408686
 20
15.3136344038
 11
3.076408686
 21
15.3336344037
  0
LWPOLYLINE
  5
215
100
AcDbEntity
  8
0
100
AcDbPolyline
 62
7
  6
CONTINUOUS
 90
33
 70
0
 10
14.733408686
 20
-0.1128465434
 10
14.6459653177
 20
-0.1148802307
 10
14.5568449417
 20
-0.121178745
 10
14.4687342913
 20
-0.1316818526
 10
14.3818058062
 20
-0.1463209847
 10
14.2962252154
 20
-0.1650218933
 10
14.2121545111
 20
-0.1877047632
 10
14.1297544965
 20
-0.2142835498
 10
14.0491831719
 20
-0.2446661328
 10
13.9705955368
 20
-0.2787542664
 10
13.8941442298
 20
-0.3164430841
 10
13.819978673
 20
-0.3576211459
 10
13.7482442134
 20
-0.4021706813
 10
13.679082365
 20
-0.4499672553
 10
13.612630313
 20
-0.5008797852
 10
13.5490203338
 20
-0.5547706862
 10
13.4883795827
 20
-0.6114957578
 10
13.4308294425
 20
-0.6709044492
 10
13.3764850323
 20
-0.7328400834
 10
13.3254551261
 20
-0.7971396151
 10
13.2778414266
 20
-0.8636340839
 10
13.2337379202
 20
-0.9321491797
 10
13.1932306441
 20
-1.0025053281
 10
13.1563973956
 20
-1.0745177602
 10
13.1233070345
 20
-1.1479973942
 10
13.094019163
 20
-1.2227512707
 10
13.0685841818
 20
-1.298581865
 10
13.0470426448
 20
-1.3752878265
 10
13.0294246135
 20
-1.4526653766
 10
13.0157494048
 20
-1.5305091858
 10
13.0060253456
 20
-1.6086144594
 10
13.000250138
 20
-1.6867764758
 10
12.9984090379
 20
-1.7623655963
  0
LINE
  5
216
100
AcDbEntity
  8
0
100
AcDbLine
 62
9
  6
CONTINUOUS
 10
20.560408686
 20
-0.7623655963
 11
20.060408686
 21
-0.7623655963
  0
LINE
  5
217
100
AcDbEntity
  8
0
100
AcDbLine
 62
7
  6
CONTINUOUS
 10
19.310408686
 20
-0.7623655963
 11
14.733408686
 21
-0.7623655963
  0
LINE
  5
218
100
AcDbEntity
  8
0
100
AcDbLine
 62
7
  6
CONTINUOUS
 10
16.060408686
 20
-0.1128465434
 11
14.733408686
 21
-0.1128465434
  0
LINE
  5
219
100
AcDbEntity
  8
0
100
AcDbLine
 62
9
  6
CONTINUOUS
 10
20.560408686
 20
0.450069969
 11
20.060408686
 21
0.450069969
  0
LINE
  5
21A
100
AcDbEntity
  8
0
100
AcDbLine
 62
7
  6
CONTINUOUS
 10
20.560408686
 20
0.6376337334
 11
20.060408686
 21
0.6376337334
  0
LINE
  5
21B
100
AcDbEntity
  8
0
100
AcDbLine
 62
7
  6
CONTINUOUS
 10
2.868908686
 20
14.564025411
 11
2.868908686
 21
14.5436344037
  0
LINE
  5
21C
100
AcDbEntity
  8
0
100
AcDbLine
 62
7
  6
CONTINUOUS
 10
2.956408686
 20
14.7293848684
 11
2.956408686
 21
14.5936344042
  0
LINE
  5
21D
100
AcDbEntity
  8
0
100
AcDbLine
 62
7
  6
CONTINUOUS
 10
3.056408686
 20
15.3136344037
 11
3.056408686
 21
14.7636344037
  0
LINE
  5
21E
100
AcDbEntity
  8
0
100
AcDbLine
 62
7
  6
CONTINUOUS
 10
3.150158686
 20
16.7376344037
 11
3.150158686
 21
15.3336344037
  0
LINE
  5
21F
100
AcDbEntity
  8
0
100
AcDbLine
 62
7
  6
CONTINUOUS
 10
3.962658686
 20
16.7376344037
 11
3.962658686
 21
15.3336344037
  0
LINE
  5
220
100
AcDbEntity
  8
0
100
AcDbLine
 62
7
  6
CONTINUOUS
 10
4.056408686
 20
15.3136344037
 11
4.056408686
 21
14.7636344037
  0
LINE
  5
221
100
AcDbEntity
  8
0
100
AcDbLine
 62
7
  6
CONTINUOUS
 10
4.156408686
 20
14.5936344042
 11
4.156408686
 21
14.7293848684
  0
LINE
  5
222
100
AcDbEntity
  8
0
100
AcDbLine
 62
7
  6
CONTINUOUS
 10
4.243908686
 20
14.564025411
 11
4.243908686
 21
14.5436344037
  0
LINE
  5
223
100
AcDbEntity
  8
0
100
AcDbLine
 62
7
  6
CONTINUOUS
 10
18.4753743464
 20
5.5168349071
 11
18.3393743464
 21
5.4853349071
  0
LINE
  5
224
100
AcDbEntity
  8
0
100
AcDbLine
 62
7
  6
CONTINUOUS
 10
6.1342771887
 20
13.033573889
 11
6.117109845
 21
13.2153760589
  0
LINE
  5
225
100
AcDbEntity
  8
0
100
AcDbLine
 62
9
  6
CONTINUOUS
 10
6.056408686
 20
18.8313844037
 11
6.056408686
 21
19.6438844037
  0
LINE
  5
226
100
AcDbEntity
  8
0
100
AcDbLine
 62
7
  6
CONTINUOUS
 10
6.1942039616
 20
12.3389099943
 11
6.1942039616
 21
12.9069583266
  0
LINE
  5
227
100
AcDbEntity
  8
0
100
AcDbLine
 62
7
  6
CONTINUOUS
 10
18.5723693159
 20
4.6176344037
 11
18.4823693159
 21
4.6176344037
  0
LINE
  5
228
100
AcDbEntity
  8
0
100
AcDbLine
 62
7
  6
CONTINUOUS
 10
19.806408686
 20
4.8316344037
 11
19.3993693159
 21
4.8316344037
  0
LINE
  5
229
100
AcDbEntity
  8
0
100
AcDbLine
 62
7
  6
CONTINUOUS
 10
18.8083693159
 20
4.8906344037
 11
19.3873693159
 21
4.8906344037
  0
LINE
  5
22A
100
AcDbEntity
  8
0
100
AcDbLine
 62
7
  6
CONTINUOUS
 10
18.8083693159
 20
5.2446344037
 11
19.3873693159
 21
5.2446344037
  0
LINE
  5
22B
100
AcDbEntity
  8
0
100
AcDbLine
 62
7
  6
CONTINUOUS
 10
19.806408686
 20
5.3036344037
 11
19.3993693159
 21
5.3036344037
  0
LINE
  5
22C
100
AcDbEntity
  8
0
100
AcDbLine
 62
7
  6
CONTINUOUS
 10
18.5723693159
 20
5.5176344037
 11
18.4823693159
 21
5.5176344037
  0
LINE
  5
22D
100
AcDbEntity
  8
0
100
AcDbLine
 62
7
  6
CONTINUOUS
 10
19.369408686
 20
6.4966344037
 11
19.431408686
 21
6.4966344037
  0
LINE
  5
22E
100
AcDbEntity
  8
0
100
AcDbLine
 62
7
  6
CONTINUOUS
 10
19.369408686
 20
6.5811344037
 11
19.0182009485
 21
6.5811344037
  0
LINE
  5
22F
100
AcDbEntity
  8
0
100
AcDbLine
 62
7
  6
CONTINUOUS
 10
17.0833984808
 20
6.6801344037
 11
17.169408686
 21
6.6801344037
  0
LINE
  5
230
100
AcDbEntity
  8
0
100
AcDbLine
 62
7
  6
CONTINUOUS
 10
17.194408686
 20
6.6876344037
 11
17.2469893873
 21
6.6876344037
  0
LINE
  5
231
100
AcDbEntity
  8
0
100
AcDbLine
 62
7
  6
CONTINUOUS
 10
17.809408686
 20
6.9361344037
 11
18.099408686
 21
6.9361344037
  0
LINE
  5
232
100
AcDbEntity
  8
0
100
AcDbLine
 62
7
  6
CONTINUOUS
 10
16.8285791812
 20
6.9676344037
 11
16.8276095176
 21
6.9676344037
  0
LINE
  5
233
100
AcDbEntity
  8
0
100
AcDbLine
 62
7
  6
CONTINUOUS
 10
16.8201455989
 20
6.9832594037
 11
16.8213021592
 21
6.9832594037
  0
LINE
  5
234
100
AcDbEntity
  8
0
100
AcDbLine
 62
7
  6
CONTINUOUS
 10
18.119408686
 20
7.0376344037
 11
18.099408686
 21
7.0376344037
  0
LINE
  5
235
100
AcDbEntity
  8
0
100
AcDbLine
 62
7
  6
CONTINUOUS
 10
18.4753743464
 20
4.6184339004
 11
18.3393743464
 21
4.6499339004
  0
LINE
  5
236
100
AcDbEntity
  8
0
100
AcDbLine
 62
7
  6
CONTINUOUS
 10
16.7745304266
 20
7.1849333526
 11
16.7735152039
 21
7.1849333526
  0
LINE
  5
237
100
AcDbEntity
  8
0
100
AcDbLine
 62
7
  6
CONTINUOUS
 10
16.76795071
 20
7.1926344037
 11
16.7669465139
 21
7.1926344037
  0
LINE
  5
238
100
AcDbEntity
  8
0
100
AcDbLine
 62
7
  6
CONTINUOUS
 10
19.369408686
 20
7.2376344037
 11
19.119464144
 21
7.2376344037
  0
LINE
  5
239
100
AcDbEntity
  8
0
100
AcDbLine
 62
7
  6
CONTINUOUS
 10
18.119408686
 20
7.4376344037
 11
18.099408686
 21
7.4376344037
  0
LINE
  5
23A
100
AcDbEntity
  8
0
100
AcDbLine
 62
7
  6
CONTINUOUS
 10
16.8206993282
 20
7.4923895979
 11
16.8203207711
 21
7.4923895979
  0
LINE
  5
23B
100
AcDbEntity
  8
0
100
AcDbLine
 62
7
  6
CONTINUOUS
 10
17.809408686
 20
7.5391344037
 11
18.099408686
 21
7.5391344037
  0
LINE
  5
23C
100
AcDbEntity
  8
0
100
AcDbLine
 62
7
  6
CONTINUOUS
 10
17.194408686
 20
7.7876344037
 11
17.2469893873
 21
7.7876344037
  0
LINE
  5
23D
100
AcDbEntity
  8
0
100
AcDbLine
 62
7
  6
CONTINUOUS
 10
17.0833984808
 20
7.7951344037
 11
17.169408686
 21
7.7951344037
  0
LINE
  5
23E
100
AcDbEntity
  8
0
100
AcDbLine
 62
7
  6
CONTINUOUS
 10
19.0182009485
 20
7.8941344037
 11
19.369408686
 21
7.8941344037
  0
LINE
  5
23F
100
AcDbEntity
  8
0
100
AcDbLine
 62
7
  6
CONTINUOUS
 10
19.369408686
 20
7.9786344037
 11
19.431408686
 21
7.9786344037
  0
LINE
  5
240
100
AcDbEntity
  8
0
100
AcDbLine
 62
7
  6
CONTINUOUS
 10
6.1823131243
 20
12.9485657873
 11
6.1400482454
 21
13.0164713594
  0
LINE
  5
241
100
AcDbEntity
  8
0
100
AcDbLine
 62
7
  6
CONTINUOUS
 10
4.056408686
 20
15.3136344038
 11
4.036408686
 21
15.3336344037
  0
LINE
  5
242
100
AcDbEntity
  8
0
100
AcDbLine
 62
7
  6
CONTINUOUS
 10
12.9984090379
 20
-1.7623655963
 11
12.9984090379
 21
-2.4073655963
  0
LINE
  5
243
100
AcDbEntity
  8
0
100
AcDbLine
 62
9
  6
CONTINUOUS
 10
13.0968800142
 20
-1.7623655963
 11
13.0968800142
 21
-2.4073655963
  0
LINE
  5
244
100
AcDbEntity
  8
0
100
AcDbLine
 62
9
  6
CONTINUOUS
 10
13.733408686
 20
-1.7623655963
 11
13.733408686
 21
-2.4073655963
  0
LINE
  5
245
100
AcDbEntity
  8
0
100
AcDbLine
 62
7
  6
CONTINUOUS
 10
18.4537922472
 20
6.6971344037
 11
18.5597098744
 21
6.6230004095
  0
LINE
  5
246
100
AcDbEntity
  8
0
100
AcDbLine
 62
7
  6
CONTINUOUS
 10
18.8083693159
 20
5.2926344037
 11
18.594383275
 21
5.5084606633
  0
LINE
  5
247
100
AcDbEntity
  8
0
100
AcDbLine
 62
9
  6
CONTINUOUS
 10
14.3699373578
 20
-1.7623655963
 11
14.3699373578
 21
-2.4073655963
  0
LINE
  5
248
100
AcDbEntity
  8
0
100
AcDbLine
 62
7
  6
CONTINUOUS
 10
14.468408334
 20
-2.4073655963
 11
14.468408334
 21
-1.7623655963
  0
LINE
  5
249
100
AcDbEntity
  8
0
100
AcDbLine
 62
9
  6
CONTINUOUS
 10
14.733408686
 20
-1.4118846491
 11
14.733408686
 21
-0.1128465434
  0
LWPOLYLINE
  5
24A
100
AcDbEntity
  8
0
100
AcDbPolyline
 62
7
  6
CONTINUOUS
 90
23
 70
0
 10
14.468408334
 20
-1.7623655963
 10
14.468865212
 20
-1.7316899196
 10
14.4705503222
 20
-1.7009441699
 10
14.4736826561
 20
-1.672051291
 10
14.4783449825
 20
-1.6449303714
 10
14.4845192337
 20
-1.6195152857
 10
14.4921254475
 20
-1.5957552994
 10
14.5010707469
 20
-1.5735649024
 10
14.5112668042
 20
-1.5528593546
 10
14.5226440194
 20
-1.5335557731
 10
14.5351316864
 20
-1.5156142856
 10
14.5486404504
 20
-1.4990416954
 10
14.5630871354
 20
-1.4838436509
 10
14.5783966874
 20
-1.4700261266
 10
14.5944749862
 20
-1.4576175586
 10
14.611205041
 20
-1.4466580912
 10
14.6284675814
 20
-1.4371780394
 10
14.6461394007
 20
-1.429199328
 10
14.6640942651
 20
-1.4227345945
 10
14.6822068326
 20
-1.4177857203
 10
14.7003524258
 20
-1.4143445531
 10
14.7184070598
 20
-1.4123930384
 10
14.733408686
 20
-1.4118846491
  0
LINE
  5
24B
100
AcDbEntity
  8
0
100
AcDbLine
 62
7
  6
CONTINUOUS
 10
6.2138887609
 20
12.2601698368
 11
0.8989286111
 21
12.2601698368
  0
LINE
  5
24C
100
AcDbEntity
  8
0
100
AcDbLine
 62
7
  6
CONTINUOUS
 10
6.2138887609
 20
12.3389099943
 11
0.8989286111
 21
12.3389099943
  0
LINE
  5
24D
100
AcDbEntity
  8
0
100
AcDbLine
 62
9
  6
CONTINUOUS
 10
0.9186134104
 20
12.9069583266
 11
6.1942039616
 21
12.9069583266
  0
LINE
  5
24E
100
AcDbEntity
  8
0
100
AcDbLine
 62
9
  6
CONTINUOUS
 10
0.9305042477
 20
12.9485657873
 11
6.1823131243
 21
12.9485657873
  0
LINE
  5
24F
100
AcDbEntity
  8
0
100
AcDbLine
 62
9
  6
CONTINUOUS
 10
6.1400482454
 20
13.0164713594
 11
0.9727691266
 21
13.0164713594
  0
LINE
  5
250
100
AcDbEntity
  8
0
100
AcDbLine
 62
9
  6
CONTINUOUS
 10
6.1342771887
 20
13.033573889
 11
0.9785401833
 21
13.033573889
  0
LINE
  5
251
100
AcDbEntity
  8
0
100
AcDbLine
 62
9
  6
CONTINUOUS
 10
0.995707527
 20
13.2153760589
 11
6.117109845
 21
13.2153760589
  0
LINE
  5
252
100
AcDbEntity
  8
0
100
AcDbLine
 62
9
  6
CONTINUOUS
 10
1.2166722031
 20
13.5329932624
 11
5.8961451689
 21
13.5329932624
  0
LINE
  5
253
100
AcDbEntity
  8
0
100
AcDbLine
 62
7
  6
CONTINUOUS
 10
19.002908686
 20
6.5964709641
 11
19.0182010677
 21
6.5811344037
  0
LINE
  5
254
100
AcDbEntity
  8
0
100
AcDbLine
 62
9
  6
CONTINUOUS
 10
16.060408686
 20
-1.4118846491
 11
16.060408686
 21
-0.1128465434
  0
LINE
  5
255
100
AcDbEntity
  8
0
100
AcDbLine
 62
7
  6
CONTINUOUS
 10
18.4537922472
 20
7.7781344037
 11
18.5597098744
 21
7.8522683979
  0
LINE
  5
256
100
AcDbEntity
  8
0
100
AcDbLine
 62
9
  6
CONTINUOUS
 10
2.6566015404
 20
14.5123262709
 11
4.4562158315
 21
14.5123262709
  0
LINE
  5
257
100
AcDbEntity
  8
0
100
AcDbLine
 62
7
  6
CONTINUOUS
 10
2.7366981138
 20
14.5436344037
 11
4.3761192582
 21
14.5436344037
  0
LINE
  5
258
100
AcDbEntity
  8
0
100
AcDbLine
 62
9
  6
CONTINUOUS
 10
4.243908686
 20
14.564025411
 11
2.868908686
 21
14.564025411
  0
LINE
  5
259
100
AcDbEntity
  8
0
100
AcDbLine
 62
7
  6
CONTINUOUS
 10
2.8711125598
 20
14.5936344042
 11
2.956408686
 21
14.5936344042
  0
LINE
  5
25A
100
AcDbEntity
  8
0
100
AcDbLine
 62
7
  6
CONTINUOUS
 10
4.156408686
 20
14.5936344042
 11
4.2417048122
 21
14.5936344042
  0
LINE
  5
25B
100
AcDbEntity
  8
0
100
AcDbLine
 62
7
  6
CONTINUOUS
 10
4.056408686
 20
14.7636344037
 11
3.056408686
 21
14.7636344037
  0
LINE
  5
25C
100
AcDbEntity
  8
0
100
AcDbLine
 62
7
  6
CONTINUOUS
 10
16.914408686
 20
6.8301344037
 11
16.9190897637
 21
6.8126643838
  0
LINE
  5
25D
100
AcDbEntity
  8
0
100
AcDbLine
 62
7
  6
CONTINUOUS
 10
17.1932458915
 20
8.003156669
 11
17.281743355
 21
7.6482639786
  0
LINE
  5
25E
100
AcDbEntity
  8
0
100
AcDbLine
 62
9
  6
CONTINUOUS
 10
17.2902746441
 20
7.9566414694
 11
17.3759606102
 21
7.613023451
  0
LINE
  5
25F
100
AcDbEntity
  8
0
100
AcDbLine
 62
9
  6
CONTINUOUS
 10
16.9083230168
 20
6.8447165567
 11
16.9083230168
 21
7.6305522508
  0
LINE
  5
260
100
AcDbEntity
  8
0
100
AcDbLine
 62
7
  6
CONTINUOUS
 10
16.914408686
 20
6.8301344037
 11
16.914408686
 21
7.6451344037
  0
LINE
  5
261
100
AcDbEntity
  8
0
100
AcDbLine
 62
9
  6
CONTINUOUS
 10
16.9190897637
 20
6.8126643838
 11
16.9190897637
 21
7.6626044237
  0
LINE
  5
262
100
AcDbEntity
  8
0
100
AcDbLine
 62
7
  6
CONTINUOUS
 10
17.034408686
 20
6.7201344037
 11
17.034408686
 21
7.7551344037
  0
LINE
  5
263
100
AcDbEntity
  8
0
100
AcDbLine
 62
9
  6
CONTINUOUS
 10
17.0833984808
 20
6.6801344037
 11
17.0833984808
 21
7.7951344037
  0
LINE
  5
264
100
AcDbEntity
  8
0
100
AcDbLine
 62
9
  6
CONTINUOUS
 10
17.169408686
 20
6.6801344037
 11
17.169408686
 21
7.7951344037
  0
LINE
  5
265
100
AcDbEntity
  8
0
100
AcDbLine
 62
7
  6
CONTINUOUS
 10
17.184408686
 20
6.6951344037
 11
17.184408686
 21
7.7801342586
  0
LINE
  5
266
100
AcDbEntity
  8
0
100
AcDbLine
 62
9
  6
CONTINUOUS
 10
17.194408686
 20
6.6876344037
 11
17.194408686
 21
7.7876344037
  0
LINE
  5
267
100
AcDbEntity
  8
0
100
AcDbLine
 62
9
  6
CONTINUOUS
 10
17.310408686
 20
-1.4660112368
 11
17.310408686
 21
-0.0587199557
  0
LINE
  5
268
100
AcDbEntity
  8
0
100
AcDbLine
 62
9
  6
CONTINUOUS
 10
17.649408686
 20
6.5116284332
 11
17.649408686
 21
6.9979663548
  0
LINE
  5
269
100
AcDbEntity
  8
0
100
AcDbLine
 62
9
  6
CONTINUOUS
 10
17.649408686
 20
7.4772780435
 11
17.649408686
 21
7.9636403743
  0
LINE
  5
26A
100
AcDbEntity
  8
0
100
AcDbLine
 62
9
  6
CONTINUOUS
 10
17.739408686
 20
6.8807710343
 11
17.739408686
 21
7.5944977732
  0
LINE
  5
26B
100
AcDbEntity
  8
0
100
AcDbLine
 62
7
  6
CONTINUOUS
 10
17.749408686
 20
6.4409177551
 11
17.749408686
 21
8.0343510524
  0
LINE
  5
26C
100
AcDbEntity
  8
0
100
AcDbLine
 62
9
  6
CONTINUOUS
 10
17.809408686
 20
7.5391344037
 11
17.809408686
 21
6.9361344037
  0
LINE
  5
26D
100
AcDbEntity
  8
0
100
AcDbLine
 62
7
  6
CONTINUOUS
 10
17.2815718308
 20
6.826316982
 11
17.1932458915
 21
6.4721121382
  0
LINE
  5
26E
100
AcDbEntity
  8
0
100
AcDbLine
 62
9
  6
CONTINUOUS
 10
17.3758461427
 20
6.8617863188
 11
17.2902746441
 21
6.5186273381
  0
LINE
  5
26F
100
AcDbEntity
  8
0
100
AcDbLine
 62
7
  6
CONTINUOUS
 10
16.914408686
 20
7.6451344037
 11
16.9190897637
 21
7.6626044237
  0
LINE
  5
270
100
AcDbEntity
  8
0
100
AcDbLine
 62
7
  6
CONTINUOUS
 10
19.002908686
 20
7.8787978434
 11
19.0182010677
 21
7.8941344037
  0
LINE
  5
271
100
AcDbEntity
  8
0
100
AcDbLine
 62
7
  6
CONTINUOUS
 10
4.056408686
 20
15.3136344037
 11
3.056408686
 21
15.3136344037
  0
LINE
  5
272
100
AcDbEntity
  8
0
100
AcDbLine
 62
7
  6
CONTINUOUS
 10
4.036408686
 20
15.3336344037
 11
3.076408686
 21
15.3336344037
  0
LINE
  5
273
100
AcDbEntity
  8
0
100
AcDbLine
 62
7
  6
CONTINUOUS
 10
18.099408686
 20
6.936134405
 11
18.099408686
 21
7.5391344025
  0
LINE
  5
274
100
AcDbEntity
  8
0
100
AcDbLine
 62
7
  6
CONTINUOUS
 10
18.119408686
 20
6.8387855152
 11
18.119408686
 21
7.6364832923
  0
LINE
  5
275
100
AcDbEntity
  8
0
100
AcDbLine
 62
9
  6
CONTINUOUS
 10
18.1478094433
 20
6.8078946762
 11
18.1478094433
 21
7.6673741313
  0
LINE
  5
276
100
AcDbEntity
  8
0
100
AcDbLine
 62
7
  6
CONTINUOUS
 10
18.3153693159
 20
4.6801344037
 11
18.3153693159
 21
5.4551344037
  0
LINE
  5
277
100
AcDbEntity
  8
0
100
AcDbLine
 62
9
  6
CONTINUOUS
 10
18.3393743464
 20
4.6499339004
 11
18.3393743464
 21
5.4853349071
  0
LINE
  5
278
100
AcDbEntity
  8
0
100
AcDbLine
 62
9
  6
CONTINUOUS
 10
18.4537922472
 20
6.6971344037
 11
18.4537922472
 21
7.7781344037
  0
LINE
  5
279
100
AcDbEntity
  8
0
100
AcDbLine
 62
9
  6
CONTINUOUS
 10
18.4753743464
 20
4.6184339004
 11
18.4753743464
 21
5.5168349071
  0
LINE
  5
27A
100
AcDbEntity
  8
0
100
AcDbLine
 62
9
  6
CONTINUOUS
 10
18.4823693159
 20
4.6176344037
 11
18.4823693159
 21
5.5176344037
  0
LINE
  5
27B
100
AcDbEntity
  8
0
100
AcDbLine
 62
9
  6
CONTINUOUS
 10
18.5597098744
 20
6.6230004095
 11
18.5597098744
 21
7.8522683979
  0
LINE
  5
27C
100
AcDbEntity
  8
0
100
AcDbLine
 62
9
  6
CONTINUOUS
 10
18.560408686
 20
-1.5742644123
 11
18.560408686
 21
0.0495332198
  0
LINE
  5
27D
100
AcDbEntity
  8
0
100
AcDbLine
 62
9
  6
CONTINUOUS
 10
18.5723693159
 20
4.6176344037
 11
18.5723693159
 21
5.5176344037
  0
LINE
  5
27E
100
AcDbEntity
  8
0
100
AcDbLine
 62
9
  6
CONTINUOUS
 10
18.594383275
 20
4.6268081442
 11
18.594383275
 21
5.5084606633
  0
LINE
  5
27F
100
AcDbEntity
  8
0
100
AcDbLine
 62
9
  6
CONTINUOUS
 10
18.787908686
 20
6.6191344037
 11
18.787908686
 21
7.8561344037
  0
LINE
  5
280
100
AcDbEntity
  8
0
100
AcDbLine
 62
7
  6
CONTINUOUS
 10
18.8083693159
 20
4.8426344037
 11
18.8083693159
 21
5.2926344037
  0
LINE
  5
281
100
AcDbEntity
  8
0
100
AcDbLine
 62
9
  6
CONTINUOUS
 10
3.962658686
 20
16.7376344037
 11
3.150158686
 21
16.7376344037
  0
LINE
  5
282
100
AcDbEntity
  8
0
100
AcDbLine
 62
9
  6
CONTINUOUS
 10
19.002908686
 20
6.5964709641
 11
19.002908686
 21
7.8787978434
  0
LINE
  5
283
100
AcDbEntity
  8
0
100
AcDbLine
 62
9
  6
CONTINUOUS
 10
19.3104086863
 20
0.2610678609
 11
19.310408686
 21
0.2660395707
  0
LINE
  5
284
100
AcDbEntity
  8
0
100
AcDbLine
 62
9
  6
CONTINUOUS
 10
19.3104086862
 20
-0.7573938858
 11
19.3104086862
 21
-0.7673373062
  0
LINE
  5
285
100
AcDbEntity
  8
0
100
AcDbLine
 62
9
  6
CONTINUOUS
 10
19.3104086862
 20
-1.7857990529
 11
19.310408686
 21
-1.7907707632
  0
LINE
  5
286
100
AcDbEntity
  8
0
100
AcDbLine
 62
7
  6
CONTINUOUS
 10
19.369408686
 20
6.4966344037
 11
19.369408686
 21
7.9786344037
  0
LINE
  5
287
100
AcDbEntity
  8
0
100
AcDbLine
 62
7
  6
CONTINUOUS
 10
19.3873693159
 20
4.8436346247
 11
19.3873693159
 21
5.2916341828
  0
LINE
  5
288
100
AcDbEntity
  8
0
100
AcDbLine
 62
9
  6
CONTINUOUS
 10
19.3993693159
 20
4.8316344037
 11
19.3993693159
 21
5.3036344037
  0
LINE
  5
289
100
AcDbEntity
  8
0
100
AcDbLine
 62
7
  6
CONTINUOUS
 10
19.431408686
 20
8.0506370776
 11
19.431408686
 21
6.4246317299
  0
LINE
  5
28A
100
AcDbEntity
  8
0
100
AcDbLine
 62
7
  6
CONTINUOUS
 10
19.619408686
 20
6.2376344037
 11
19.619408686
 21
8.2376344037
  0
LINE
  5
28B
100
AcDbEntity
  8
0
100
AcDbLine
 62
7
  6
CONTINUOUS
 10
19.806408686
 20
9.9912125894
 11
19.806408686
 21
4.484056218
  0
LINE
  5
28C
100
AcDbEntity
  8
0
100
AcDbLine
 62
7
  6
CONTINUOUS
 10
20.1435515837
 20
19.684849371
 11
20.1437393923
 21
19.6882009743
  0
LINE
  5
28D
100
AcDbEntity
  8
0
100
AcDbLine
 62
7
  6
CONTINUOUS
 10
18.8083693159
 20
4.8426344037
 11
18.594383275
 21
4.6268081442
  0
LINE
  5
28E
100
AcDbEntity
  8
0
100
AcDbLine
 62
7
  6
CONTINUOUS
 10
20.3282354388
 20
18.0476344037
 11
20.560408686
 21
18.0476344037
  0
LINE
  5
28F
100
AcDbEntity
  8
0
100
AcDbLine
 62
7
  6
CONTINUOUS
 10
20.1435515837
 20
18.7904194364
 11
20.1437393923
 21
18.7870678332
  0
LINE
  5
290
100
AcDbEntity
  8
0
100
AcDbLine
 62
9
  6
CONTINUOUS
 10
19.934408686
 20
4.2658453109
 11
19.934408686
 21
10.2094234966
  0
LINE
  5
291
100
AcDbEntity
  8
0
100
AcDbLine
 62
9
  6
CONTINUOUS
 10
20.060408686
 20
-2.1623649259
 11
20.060408686
 21
0.6376337334
  0
LINE
  5
292
100
AcDbEntity
  8
0
100
AcDbLine
 62
7
  6
CONTINUOUS
 10
20.0623988508
 20
10.4307705342
 11
20.0623988508
 21
4.0444982733
  0
LINE
  5
293
100
AcDbEntity
  8
0
100
AcDbLine
 62
7
  6
CONTINUOUS
 10
20.1435515837
 20
19.68459963
 11
20.1435515837
 21
18.7904194364
  0
LINE
  5
294
100
AcDbEntity
  8
0
100
AcDbLine
 62
9
  6
CONTINUOUS
 10
20.1437393923
 20
18.7870678332
 11
20.1437393923
 21
19.6882009743
  0
LINE
  5
295
100
AcDbEntity
  8
0
100
AcDbLine
 62
9
  6
CONTINUOUS
 10
20.1864064908
 20
3.8285615979
 11
20.1864064908
 21
10.6467072096
  0
LINE
  5
296
100
AcDbEntity
  8
0
100
AcDbLine
 62
9
  6
CONTINUOUS
 10
20.2800631617
 20
18.0842391912
 11
20.2800631617
 21
20.3910296162
  0
LINE
  5
297
100
AcDbEntity
  8
0
100
AcDbLine
 62
7
  6
CONTINUOUS
 10
20.310408686
 20
10.8626344037
 11
20.310408686
 21
3.6126344037
  0
LINE
  5
298
100
AcDbEntity
  8
0
100
AcDbLine
 62
9
  6
CONTINUOUS
 10
20.3282354388
 20
18.0476344037
 11
20.3282354388
 21
20.4276344037
  0
LINE
  5
299
100
AcDbEntity
  8
0
100
AcDbLine
 62
7
  6
CONTINUOUS
 10
20.560408686
 20
-2.1623637775
 11
20.560408686
 21
0.637632585
  0
LINE
  5
29A
100
AcDbEntity
  8
0
100
AcDbLine
 62
7
  6
CONTINUOUS
 10
20.560408686
 20
3.3626351599
 11
20.560408686
 21
11.1126336476
  0
LINE
  5
29B
100
AcDbEntity
  8
0
100
AcDbLine
 62
7
  6
CONTINUOUS
 10
20.560408686
 20
18.0476345739
 11
20.560408686
 21
20.4276342336
  0
LINE
  5
29C
100
AcDbEntity
  8
0
100
AcDbLine
 62
7
  6
CONTINUOUS
 10
20.1435515837
 20
18.8313844037
 11
6.056408686
 21
18.8313844037
  0
LINE
  5
29D
100
AcDbEntity
  8
0
100
AcDbLine
 62
7
  6
CONTINUOUS
 10
20.1435515837
 20
19.6438844037
 11
6.056408686
 21
19.6438844037
  0
LINE
  5
29E
100
AcDbEntity
  8
0
100
AcDbLine
 62
7
  6
CONTINUOUS
 10
20.3282354388
 20
20.4276344037
 11
20.560408686
 21
20.4276344037
  0
ARC
  5
29F
100
AcDbEntity
  8
0
100
AcDbCircle
 62
7
  6
CONTINUOUS
 10
-1.3482151692
 20
18.8524314393
 40
5.905511811
100
AcDbArc
 50
295.7420913672
 51
312.6991652581
  0
ARC
  5
2A0
100
AcDbEntity
  8
0
100
AcDbCircle
 62
7
  6
CONTINUOUS
 10
8.4610325412
 20
18.8524314393
 40
5.905511811
100
AcDbArc
 50
227.3008347419
 51
244.2579086328
  0
ARC
  5
2A1
100
AcDbEntity
  8
0
100
AcDbCircle
 62
7
  6
CONTINUOUS
 10
6.056408686
 20
16.7376344037
 40
2.90625
100
AcDbArc
 50
90.0
 51
180.0
  0
ARC
  5
2A2
100
AcDbEntity
  8
0
100
AcDbCircle
 62
7
  6
CONTINUOUS
 10
6.056408686
 20
16.7376344037
 40
2.09375
100
AcDbArc
 50
90.0
 51
180.0
  0
ARC
  5
2A3
100
AcDbEntity
  8
0
100
AcDbCircle
 62
7
  6
CONTINUOUS
 10
5.7251526774
 20
13.1783640506
 40
0.3937007874
100
AcDbArc
 50
5.3943708113
 51
64.2579086328
  0
ARC
  5
2A4
100
AcDbEntity
  8
0
100
AcDbCircle
 62
7
  6
CONTINUOUS
 10
1.3876646946
 20
13.1783640506
 40
0.3937007874
100
AcDbArc
 50
115.7420913672
 51
174.6056291887
  0
ARC
  5
2A5
100
AcDbEntity
  8
0
100
AcDbCircle
 62
7
  6
CONTINUOUS
 10
3.068908686
 20
14.5640254114
 40
0.2
100
AcDbArc
 50
171.4863536831
 51
180.0000001353
  0
ARC
  5
2A6
100
AcDbEntity
  8
0
100
AcDbCircle
 62
7
  6
CONTINUOUS
 10
3.068908686
 20
14.5640254114
 40
0.2
100
AcDbArc
 50
93.5833217068
 51
124.2288663278
  0
ARC
  5
2A7
100
AcDbEntity
  8
0
100
AcDbCircle
 62
7
  6
CONTINUOUS
 10
4.043908686
 20
14.5640254114
 40
0.2
100
AcDbArc
 50
359.9999998616
 51
8.5136463139
  0
ARC
  5
2A8
100
AcDbEntity
  8
0
100
AcDbCircle
 62
7
  6
CONTINUOUS
 10
4.043908686
 20
14.5640254114
 40
0.2
100
AcDbArc
 50
55.7711336722
 51
86.416678293
  0
ARC
  5
2A9
100
AcDbEntity
  8
0
100
AcDbCircle
 62
7
  6
CONTINUOUS
 10
4.3761194973
 20
14.4255241675
 40
0.1181102362
100
AcDbArc
 50
47.3008347419
 51
90.0
  0
ARC
  5
2AA
100
AcDbEntity
  8
0
100
AcDbCircle
 62
7
  6
CONTINUOUS
 10
2.7366978746
 20
14.4255241675
 40
0.1181102362
100
AcDbArc
 50
90.0
 51
132.6991652581
  0
ARC
  5
2AB
100
AcDbEntity
  8
0
100
AcDbCircle
 62
7
  6
CONTINUOUS
 10
0.9973535679
 20
12.9069583266
 40
0.0787401575
100
AcDbArc
 50
148.1015916107
 51
180.0
  0
ARC
  5
2AC
100
AcDbEntity
  8
0
100
AcDbCircle
 62
7
  6
CONTINUOUS
 10
6.1154638041
 20
12.9069583266
 40
0.0787401575
100
AcDbArc
 50
0.0
 51
31.8984083893
  0
ARC
  5
2AD
100
AcDbEntity
  8
0
100
AcDbCircle
 62
7
  6
CONTINUOUS
 10
0.898928371
 20
12.2995399156
 40
0.0393700787
100
AcDbArc
 50
90.0
 51
270.0
  0
ARC
  5
2AE
100
AcDbEntity
  8
0
100
AcDbCircle
 62
7
  6
CONTINUOUS
 10
6.213889001
 20
12.2995399156
 40
0.0393700787
100
AcDbArc
 50
270.0
 51
90.0
  0
ARC
  5
2AF
100
AcDbEntity
  8
0
100
AcDbCircle
 62
7
  6
CONTINUOUS
 10
6.1734729055
 20
13.0372750898
 40
0.0393700787
100
AcDbArc
 50
185.3943708113
 51
211.8984083893
  0
ARC
  5
2B0
100
AcDbEntity
  8
0
100
AcDbCircle
 62
7
  6
CONTINUOUS
 10
0.9393444665
 20
13.0372750898
 40
0.0393700787
100
AcDbArc
 50
328.1015916107
 51
354.6056291887
  0
ARC
  5
2B1
100
AcDbEntity
  8
0
100
AcDbCircle
 62
7
  6
CONTINUOUS
 10
14.7334088827
 20
-1.762365793
 40
1.0000001967
100
AcDbArc
 50
90.0000112709
 51
179.9999887291
  0
ARC
  5
2B2
100
AcDbEntity
  8
0
100
AcDbCircle
 62
7
  6
CONTINUOUS
 10
17.039830492
 20
6.8450167645
 40
0.125
100
AcDbArc
 50
195.0
 51
267.5140472802
  0
ARC
  5
2B3
100
AcDbEntity
  8
0
100
AcDbCircle
 62
7
  6
CONTINUOUS
 10
16.874702786
 20
7.2300200402
 40
0.1107778686
100
AcDbArc
 50
199.2785011381
 51
204.016572122
  0
ARC
  5
2B4
100
AcDbEntity
  8
0
100
AcDbCircle
 62
7
  6
CONTINUOUS
 10
16.8669571361
 20
7.2126550286
 40
0.1010120602
100
AcDbArc
 50
192.7959342654
 51
196.5422620196
  0
ARC
  5
2B5
100
AcDbEntity
  8
0
100
AcDbCircle
 62
7
  6
CONTINUOUS
 10
16.8640668596
 20
7.2119648059
 40
0.098040699
100
AcDbArc
 50
191.3713485271
 51
192.7766811289
  0
ARC
  5
2B6
100
AcDbEntity
  8
0
100
AcDbCircle
 62
7
  6
CONTINUOUS
 10
16.8588725288
 20
7.2256849177
 40
0.0943275714
100
AcDbArc
 50
185.7489421174
 51
187.6644932393
  0
ARC
  5
2B7
100
AcDbEntity
  8
0
100
AcDbCircle
 62
7
  6
CONTINUOUS
 10
17.0833984808
 20
6.7301344037
 40
0.05
100
AcDbArc
 50
191.5369590328
 51
270.0
  0
ARC
  5
2B8
100
AcDbEntity
  8
0
100
AcDbCircle
 62
7
  6
CONTINUOUS
 10
16.9235915867
 20
6.8576344037
 40
0.02
100
AcDbArc
 50
220.2326139158
 51
242.5999328409
  0
ARC
  5
2B9
100
AcDbEntity
  8
0
100
AcDbCircle
 62
7
  6
CONTINUOUS
 10
17.039830492
 20
7.630252043
 40
0.125
100
AcDbArc
 50
92.4859527198
 51
165.0
  0
ARC
  5
2BA
100
AcDbEntity
  8
0
100
AcDbCircle
 62
7
  6
CONTINUOUS
 10
17.0833984808
 20
7.7451344037
 40
0.05
100
AcDbArc
 50
90.0
 51
168.4630409672
  0
ARC
  5
2BB
100
AcDbEntity
  8
0
100
AcDbCircle
 62
7
  6
CONTINUOUS
 10
16.9235915867
 20
7.6176344037
 40
0.02
100
AcDbArc
 50
117.4000671591
 51
139.7673860842
  0
ARC
  5
2BC
100
AcDbEntity
  8
0
100
AcDbCircle
 62
7
  6
CONTINUOUS
 10
17.3182885629
 20
6.4408975018
 40
0.128879879
100
AcDbArc
 50
165.9836097055
 51
179.9896229542
  0
ARC
  5
2BD
100
AcDbEntity
  8
0
100
AcDbCircle
 62
9
  6
CONTINUOUS
 10
17.2594221663
 20
6.8203660394
 40
0.0215975846
100
AcDbArc
 50
15.2936606752
 51
15.7433524878
  0
ARC
  5
2BE
100
AcDbEntity
  8
0
100
AcDbCircle
 62
9
  6
CONTINUOUS
 10
17.2598634192
 20
6.8204743254
 40
0.021143399
100
AcDbArc
 50
7.3942989888
 51
15.3260069202
  0
ARC
  5
2BF
100
AcDbEntity
  8
0
100
AcDbCircle
 62
7
  6
CONTINUOUS
 10
17.169408686
 20
6.6951344037
 40
0.015
100
AcDbArc
 50
270.0
 51
360.0
  0
ARC
  5
2C0
100
AcDbEntity
  8
0
100
AcDbCircle
 62
7
  6
CONTINUOUS
 10
17.194408686
 20
6.6976344037
 40
0.01
100
AcDbArc
 50
180.0
 51
270.0
  0
ARC
  5
2C1
100
AcDbEntity
  8
0
100
AcDbCircle
 62
7
  6
CONTINUOUS
 10
17.3727420193
 20
7.2376344037
 40
0.6083333333
100
AcDbArc
 50
155.2426859997
 51
204.7178874425
  0
ARC
  5
2C2
100
AcDbEntity
  8
0
100
AcDbCircle
 62
7
  6
CONTINUOUS
 10
17.3727420193
 20
7.2376344037
 40
0.6083333333
100
AcDbArc
 50
206.3488658813
 51
220.2326139161
  0
ARC
  5
2C3
100
AcDbEntity
  8
0
100
AcDbCircle
 62
7
  6
CONTINUOUS
 10
17.3727420193
 20
7.2376344037
 40
0.6083333333
100
AcDbArc
 50
139.7673860839
 51
149.3635401464
  0
ARC
  5
2C4
100
AcDbEntity
  8
0
100
AcDbCircle
 62
7
  6
CONTINUOUS
 10
17.3727420193
 20
7.2376344037
 40
0.6080992344
100
AcDbArc
 50
182.0165829676
 51
204.7280413167
  0
ARC
  5
2C5
100
AcDbEntity
  8
0
100
AcDbCircle
 62
7
  6
CONTINUOUS
 10
17.3727420193
 20
7.2376344037
 40
0.6074645623
100
AcDbArc
 50
184.2482709391
 51
206.3894583017
  0
ARC
  5
2C6
100
AcDbEntity
  8
0
100
AcDbCircle
 62
7
  6
CONTINUOUS
 10
17.3727420193
 20
7.2376344037
 40
0.6070988487
100
AcDbArc
 50
182.8934135159
 51
184.2505946698
  0
ARC
  5
2C7
100
AcDbEntity
  8
0
100
AcDbCircle
 62
7
  6
CONTINUOUS
 10
17.338296145
 20
7.2579685421
 40
0.5683334344
100
AcDbArc
 50
149.3577551683
 51
155.6508579381
  0
ARC
  5
2C8
100
AcDbEntity
  8
0
100
AcDbCircle
 62
7
  6
CONTINUOUS
 10
17.3365018937
 20
7.2588375261
 40
0.5663405054
100
AcDbArc
 50
152.9505865341
 51
155.6560588926
  0
ARC
  5
2C9
100
AcDbEntity
  8
0
100
AcDbCircle
 62
7
  6
CONTINUOUS
 10
17.3262905141
 20
7.2626135009
 40
0.5555409525
100
AcDbArc
 50
188.014384788
 51
190.892525595
  0
ARC
  5
2CA
100
AcDbEntity
  8
0
100
AcDbCircle
 62
7
  6
CONTINUOUS
 10
17.3251070858
 20
7.2580207948
 40
0.5554072818
100
AcDbArc
 50
165.9652352102
 51
187.5616375571
  0
ARC
  5
2CB
100
AcDbEntity
  8
0
100
AcDbCircle
 62
7
  6
CONTINUOUS
 10
17.3182885629
 20
8.0343713057
 40
0.128879879
100
AcDbArc
 50
180.0103772442
 51
194.0163905708
  0
ARC
  5
2CC
100
AcDbEntity
  8
0
100
AcDbCircle
 62
9
  6
CONTINUOUS
 10
17.260923265
 20
7.6550524779
 40
0.0200871351
100
AcDbArc
 50
343.7667100659
 51
351.855539161
  0
ARC
  5
2CD
100
AcDbEntity
  8
0
100
AcDbCircle
 62
7
  6
CONTINUOUS
 10
17.169408686
 20
7.7801344037
 40
0.015
100
AcDbArc
 50
0.0
 51
90.0
  0
ARC
  5
2CE
100
AcDbEntity
  8
0
100
AcDbCircle
 62
7
  6
CONTINUOUS
 10
17.194408686
 20
7.7776344037
 40
0.01
100
AcDbArc
 50
90.0
 51
180.0
  0
ARC
  5
2CF
100
AcDbEntity
  8
0
100
AcDbCircle
 62
7
  6
CONTINUOUS
 10
18.7604801494
 20
-3.8433797383
 40
2.125
100
AcDbArc
 50
52.2852184348
 51
75.001728817
  0
ARC
  5
2D0
100
AcDbEntity
  8
0
100
AcDbCircle
 62
7
  6
CONTINUOUS
 10
18.7604801494
 20
2.3186485458
 40
2.125
100
AcDbArc
 50
284.998271183
 51
307.7147815403
  0
ARC
  5
2D1
100
AcDbEntity
  8
0
100
AcDbCircle
 62
7
  6
CONTINUOUS
 10
18.0954053574
 20
6.1850955017
 40
0.625
100
AcDbArc
 50
55.0110095298
 51
85.1903004544
  0
ARC
  5
2D2
100
AcDbEntity
  8
0
100
AcDbCircle
 62
7
  6
CONTINUOUS
 10
20.3124098282
 20
4.0444982733
 40
0.2500109774
100
AcDbArc
 50
180.0
 51
239.7355898687
  0
ARC
  5
2D3
100
AcDbEntity
  8
0
100
AcDbCircle
 62
7
  6
CONTINUOUS
 10
20.056408686
 20
4.484056218
 40
0.25
100
AcDbArc
 50
180.0
 51
240.7907880662
  0
ARC
  5
2D4
100
AcDbEntity
  8
0
100
AcDbCircle
 62
7
  6
CONTINUOUS
 10
19.812408686
 20
4.0476344037
 40
0.25
100
AcDbArc
 50
0.0644634434
 51
60.7907880662
  0
ARC
  5
2D5
100
AcDbEntity
  8
0
100
AcDbCircle
 62
7
  6
CONTINUOUS
 10
20.060408686
 20
3.6126344037
 40
0.25
100
AcDbArc
 50
0.0
 51
59.7355898687
  0
ARC
  5
2D6
100
AcDbEntity
  8
0
100
AcDbCircle
 62
7
  6
CONTINUOUS
 10
20.560408686
 20
3.6126344037
 40
0.25
100
AcDbArc
 50
180.0
 51
270.0
  0
ARC
  5
2D7
100
AcDbEntity
  8
0
100
AcDbCircle
 62
7
  6
CONTINUOUS
 10
18.6766730892
 20
7.6851592827
 40
0.2039751211
100
AcDbArc
 50
56.9521644936
 51
124.9889904702
  0
ARC
  5
2D8
100
AcDbEntity
  8
0
100
AcDbCircle
 62
7
  6
CONTINUOUS
 10
18.6766730892
 20
6.7901095248
 40
0.2039751211
100
AcDbArc
 50
235.0110095298
 51
303.0478355064
  0
ARC
  5
2D9
100
AcDbEntity
  8
0
100
AcDbCircle
 62
7
  6
CONTINUOUS
 10
19.806408686
 20
6.2447705149
 40
0.1871361111
100
AcDbArc
 50
182.1854050713
 51
270.0
  0
ARC
  5
2DA
100
AcDbEntity
  8
0
100
AcDbCircle
 62
7
  6
CONTINUOUS
 10
19.806408686
 20
8.2304982926
 40
0.1871361111
100
AcDbArc
 50
90.0
 51
177.8145949287
  0
ARC
  5
2DB
100
AcDbEntity
  8
0
100
AcDbCircle
 62
7
  6
CONTINUOUS
 10
19.618408686
 20
6.4246317299
 40
0.187
100
AcDbArc
 50
180.0
 51
270.3063960032
  0
ARC
  5
2DC
100
AcDbEntity
  8
0
100
AcDbCircle
 62
7
  6
CONTINUOUS
 10
19.618408686
 20
8.0506370776
 40
0.187
100
AcDbArc
 50
89.6936039968
 51
180.0
  0
ARC
  5
2DD
100
AcDbEntity
  8
0
100
AcDbCircle
 62
7
  6
CONTINUOUS
 10
18.8814477106
 20
7.9999089374
 40
0.1715245336
100
AcDbArc
 50
236.9521644936
 51
315.0826423158
  0
ARC
  5
2DE
100
AcDbEntity
  8
0
100
AcDbCircle
 62
7
  6
CONTINUOUS
 10
18.8814477106
 20
6.4753598701
 40
0.1715245336
100
AcDbArc
 50
44.9173576842
 51
123.0478355064
  0
ARC
  5
2DF
100
AcDbEntity
  8
0
100
AcDbCircle
 62
7
  6
CONTINUOUS
 10
17.8176942702
 20
6.9805226658
 40
0.1239774096
100
AcDbArc
 50
222.9187712497
 51
224.2168798479
  0
ARC
  5
2E0
100
AcDbEntity
  8
0
100
AcDbCircle
 62
7
  6
CONTINUOUS
 10
17.809408686
 20
7.5991344037
 40
0.06
100
AcDbArc
 50
180.0
 51
270.0
  0
ARC
  5
2E1
100
AcDbEntity
  8
0
100
AcDbCircle
 62
7
  6
CONTINUOUS
 10
17.809408686
 20
6.8761344037
 40
0.06
100
AcDbArc
 50
90.0
 51
180.0
  0
ARC
  5
2E2
100
AcDbEntity
  8
0
100
AcDbCircle
 62
7
  6
CONTINUOUS
 10
18.5723693159
 20
5.4866344037
 40
0.031
100
AcDbArc
 50
44.7546926505
 51
90.0
  0
ARC
  5
2E3
100
AcDbEntity
  8
0
100
AcDbCircle
 62
7
  6
CONTINUOUS
 10
18.4823693159
 20
5.4866344037
 40
0.031
100
AcDbArc
 50
90.0
 51
103.0407610339
  0
ARC
  5
2E4
100
AcDbEntity
  8
0
100
AcDbCircle
 62
7
  6
CONTINUOUS
 10
18.5723693159
 20
4.6486344037
 40
0.031
100
AcDbArc
 50
270.0
 51
315.2453073495
  0
ARC
  5
2E5
100
AcDbEntity
  8
0
100
AcDbCircle
 62
7
  6
CONTINUOUS
 10
18.4823693159
 20
4.6486344037
 40
0.031
100
AcDbArc
 50
256.9592389661
 51
270.0
  0
ARC
  5
2E6
100
AcDbEntity
  8
0
100
AcDbCircle
 62
7
  6
CONTINUOUS
 10
18.3463693159
 20
5.4551344037
 40
0.031
100
AcDbArc
 50
103.0407610339
 51
180.0
  0
ARC
  5
2E7
100
AcDbEntity
  8
0
100
AcDbCircle
 62
7
  6
CONTINUOUS
 10
18.3463693159
 20
4.6801344037
 40
0.031
100
AcDbArc
 50
180.0
 51
256.9592389661
  0
ARC
  5
2E8
100
AcDbEntity
  8
0
100
AcDbCircle
 62
7
  6
CONTINUOUS
 10
18.150408686
 20
6.8387855152
 40
0.031
100
AcDbArc
 50
180.0
 51
265.1903004544
  0
ARC
  5
2E9
100
AcDbEntity
  8
0
100
AcDbCircle
 62
7
  6
CONTINUOUS
 10
18.150408686
 20
7.6364832923
 40
0.031
100
AcDbArc
 50
94.8096995456
 51
180.0
  0
ARC
  5
2EA
100
AcDbEntity
  8
0
100
AcDbCircle
 62
7
  6
CONTINUOUS
 10
19.3993693159
 20
5.2916344037
 40
0.012
100
AcDbArc
 50
90.0
 51
180.0
  0
ARC
  5
2EB
100
AcDbEntity
  8
0
100
AcDbCircle
 62
7
  6
CONTINUOUS
 10
19.3993693159
 20
4.8436344037
 40
0.012
100
AcDbArc
 50
180.0
 51
270.0
  0
ARC
  5
2EC
100
AcDbEntity
  8
0
100
AcDbCircle
 62
7
  6
CONTINUOUS
 10
24.6155681018
 20
19.1854604916
 40
4.5
100
AcDbArc
 50
164.4604045096
 51
173.5855182739
  0
ARC
  5
2ED
100
AcDbEntity
  8
0
100
AcDbCircle
 62
7
  6
CONTINUOUS
 10
24.6155681018
 20
19.2898083159
 40
4.5
100
AcDbArc
 50
186.4144817261
 51
195.5395954904
  0
ARC
  5
2EE
100
AcDbEntity
  8
0
100
AcDbCircle
 62
7
  6
CONTINUOUS
 10
18.0954053574
 20
8.2901733058
 40
0.625
100
AcDbArc
 50
274.8096995456
 51
304.9889904702
  0
ARC
  5
2EF
100
AcDbEntity
  8
0
100
AcDbCircle
 62
7
  6
CONTINUOUS
 10
20.3124098282
 20
10.4307705342
 40
0.2500109774
100
AcDbArc
 50
120.2644101313
 51
180.0
  0
ARC
  5
2F0
100
AcDbEntity
  8
0
100
AcDbCircle
 62
7
  6
CONTINUOUS
 10
20.056408686
 20
9.9912125894
 40
0.25
100
AcDbArc
 50
119.2092119338
 51
180.0
  0
ARC
  5
2F1
100
AcDbEntity
  8
0
100
AcDbCircle
 62
7
  6
CONTINUOUS
 10
19.812408686
 20
10.4276344037
 40
0.25
100
AcDbArc
 50
299.2092119338
 51
359.9355365566
  0
ARC
  5
2F2
100
AcDbEntity
  8
0
100
AcDbCircle
 62
7
  6
CONTINUOUS
 10
20.060408686
 20
10.8626344037
 40
0.25
100
AcDbArc
 50
300.2644101313
 51
360.0
  0
ARC
  5
2F3
100
AcDbEntity
  8
0
100
AcDbCircle
 62
7
  6
CONTINUOUS
 10
20.560408686
 20
10.8626344037
 40
0.25
100
AcDbArc
 50
90.0
 51
180.0
  0
ARC
  5
2F4
100
AcDbEntity
  8
0
100
AcDbCircle
 62
7
  6
CONTINUOUS
 10
20.3282354388
 20
18.0976344037
 40
0.05
100
AcDbArc
 50
195.5395954904
 51
270.0
  0
ARC
  5
2F5
100
AcDbEntity
  8
0
100
AcDbCircle
 62
7
  6
CONTINUOUS
 10
20.3282354388
 20
20.3776344037
 40
0.05
100
AcDbArc
 50
90.0
 51
164.4604045096
  0
LINE
  5
2F6
100
AcDbEntity
  8
0
100
AcDbLine
 62
7
  6
CONTINUOUS
 10
19.310408686
 20
-1.7907707632
 11
19.3075993296
 21
-1.7900233859
  0
SPLINE
  5
2F7
100
AcDbEntity
  8
0
100
AcDbSpline
 62
7
  6
CONTINUOUS
 70
0
 71
3
 72
17
 73
13
 74
0
 42
0.0000001
 43
0.0000001
 44
0.0000000001
 40
0.0
 40
0.0
 40
0.0
 40
0.0
 40
0.1246777555
 40
0.250165869
 40
0.3761256108
 40
0.502129269
 40
0.6277499295
 40
0.752651122
 40
0.8147794654
 40
0.8766922239
 40
0.9384156268
 40
1.0
 40
1.0
 40
1.0
 40
1.0
 10
19.3075993296
 20
-1.7900233859
 30
0.0
 10
19.2763287548
 20
-1.7816806597
 30
0.0
 10
19.2139768255
 20
-1.763460769
 30
0.0
 10
19.1211414743
 20
-1.7332020506
 30
0.0
 10
19.0284546485
 20
-1.7014305609
 30
0.0
 10
18.935730841
 20
-1.6696611955
 30
0.0
 10
18.842783456
 20
-1.6394088274
 30
0.0
 10
18.7648446578
 20
-1.6166883404
 30
0.0
 10
18.7021976465
 20
-1.6008092367
 30
0.0
 10
18.6551367939
 20
-1.5902596739
 30
0.0
 10
18.6079010659
 20
-1.5812418011
 30
0.0
 10
18.5762549656
 20
-1.5763756863
 30
0.0
 10
18.560408686
 20
-1.5742644123
 30
0.0
  0
LINE
  5
2F8
100
AcDbEntity
  8
0
100
AcDbLine
 62
7
  6
CONTINUOUS
 10
19.310408686
 20
0.2660395707
 11
19.3075993229
 21
0.2652921916
  0
SPLINE
  5
2F9
100
AcDbEntity
  8
0
100
AcDbSpline
 62
7
  6
CONTINUOUS
 70
0
 71
3
 72
17
 73
13
 74
0
 42
0.0000001
 43
0.0000001
 44
0.0000000001
 40
0.0
 40
0.0
 40
0.0
 40
0.0
 40
0.1246777555
 40
0.2501658691
 40
0.3761256109
 40
0.5021292691
 40
0.6277499295
 40
0.7526511221
 40
0.8147794655
 40
0.8766922239
 40
0.9384156268
 40
1.0
 40
1.0
 40
1.0
 40
1.0
 10
19.3075993229
 20
0.2652921916
 30
0.0
 10
19.2763287484
 20
0.2569494654
 30
0.0
 10
19.2139768197
 20
0.2387295746
 30
0.0
 10
19.1211414693
 20
0.2084708564
 30
0.0
 10
19.0284546443
 20
0.176699367
 30
0.0
 10
18.9357308377
 20
0.1449300019
 30
0.0
 10
18.8427834535
 20
0.1146776341
 30
0.0
 10
18.764844656
 20
0.0919571474
 30
0.0
 10
18.7021976452
 20
0.0760780439
 30
0.0
 10
18.6551367931
 20
0.0655284812
 30
0.0
 10
18.6079010655
 20
0.0565106086
 30
0.0
 10
18.5762549654
 20
0.0516444937
 30
0.0
 10
18.560408686
 20
0.0495332198
 30
0.0
  0
SPLINE
  5
2FA
100
AcDbEntity
  8
0
100
AcDbSpline
 62
7
  6
CONTINUOUS
 70
0
 71
3
 72
14
 73
10
 74
0
 42
0.0000001
 43
0.0000001
 44
0.0000000001
 40
0.0
 40
0.0
 40
0.0
 40
0.0
 40
0.1271293075
 40
0.2531483526
 40
0.378316871
 40
0.5028869502
 40
0.6271037335
 40
0.7512062821
 40
1.0
 40
1.0
 40
1.0
 40
1.0
 10
18.560408686
 20
-1.5742644123
 30
0.0
 10
18.5076928776
 20
-1.5672408386
 30
0.0
 10
18.4026119378
 20
-1.5540669021
 30
0.0
 10
18.2453124359
 20
-1.5366144936
 30
0.0
 10
18.0888691652
 20
-1.5212753622
 30
0.0
 10
17.9330161391
 20
-1.5077539822
 30
0.0
 10
17.7774865993
 20
-1.4957547258
 30
0.0
 10
17.5700265212
 20
-1.4813797838
 30
0.0
 10
17.4143128255
 20
-1.4720101451
 30
0.0
 10
17.310408686
 20
-1.4660112368
 30
0.0
  0
SPLINE
  5
2FB
100
AcDbEntity
  8
0
100
AcDbSpline
 62
7
  6
CONTINUOUS
 70
0
 71
3
 72
14
 73
10
 74
0
 42
0.0000001
 43
0.0000001
 44
0.0000000001
 40
0.0
 40
0.0
 40
0.0
 40
0.0
 40
0.1271293075
 40
0.2531483526
 40
0.378316871
 40
0.5028869502
 40
0.6271037335
 40
0.7512062821
 40
1.0
 40
1.0
 40
1.0
 40
1.0
 10
18.560408686
 20
0.0495332198
 30
0.0
 10
18.5076928776
 20
0.0425096461
 30
0.0
 10
18.4026119378
 20
0.0293357096
 30
0.0
 10
18.2453124359
 20
0.0118833011
 30
0.0
 10
18.0888691652
 20
-0.0034558303
 30
0.0
 10
17.9330161391
 20
-0.0169772103
 30
0.0
 10
17.7774865993
 20
-0.0289764667
 30
0.0
 10
17.5700265212
 20
-0.0433514087
 30
0.0
 10
17.4143128255
 20
-0.0527210474
 30
0.0
 10
17.310408686
 20
-0.0587199557
 30
0.0
  0
SPLINE
  5
2FC
100
AcDbEntity
  8
0
100
AcDbSpline
 62
7
  6
CONTINUOUS
 70
0
 71
3
 72
11
 73
7
 74
0
 42
0.0000001
 43
0.0000001
 44
0.0000000001
 40
0.0
 40
0.0
 40
0.0
 40
0.0
 40
0.2502688364
 40
0.5003263547
 40
0.7501914553
 40
1.0
 40
1.0
 40
1.0
 40
1.0
 10
17.310408686
 20
-1.4660112368
 30
0.0
 10
17.2061907544
 20
-1.4599942117
 30
0.0
 10
16.9978877714
 20
-1.4472146711
 30
0.0
 10
16.6854865221
 20
-1.4291727821
 30
0.0
 10
16.3730373536
 20
-1.415641286
 30
0.0
 10
16.164608174
 20
-1.4118846491
 30
0.0
 10
16.060408686
 20
-1.4118846491
 30
0.0
  0
SPLINE
  5
2FD
100
AcDbEntity
  8
0
100
AcDbSpline
 62
7
  6
CONTINUOUS
 70
0
 71
3
 72
11
 73
7
 74
0
 42
0.0000001
 43
0.0000001
 44
0.0000000001
 40
0.0
 40
0.0
 40
0.0
 40
0.0
 40
0.2502688364
 40
0.5003263547
 40
0.7501914553
 40
1.0
 40
1.0
 40
1.0
 40
1.0
 10
17.310408686
 20
-0.0587199557
 30
0.0
 10
17.2061907544
 20
-0.0647369808
 30
0.0
 10
16.9978877714
 20
-0.0775165214
 30
0.0
 10
16.6854865221
 20
-0.0955584104
 30
0.0
 10
16.3730373536
 20
-0.1090899065
 30
0.0
 10
16.164608174
 20
-0.1128465434
 30
0.0
 10
16.060408686
 20
-0.1128465434
 30
0.0
  0
SPLINE
  5
2FE
100
AcDbEntity
  8
0
100
AcDbSpline
 62
7
  6
CONTINUOUS
 70
0
 71
3
 72
9
 73
5
 74
0
 42
0.0000001
 43
0.0000001
 44
0.0000000001
 40
0.0
 40
0.0
 40
0.0
 40
0.0
 40
0.4949384984
 40
1.0
 40
1.0
 40
1.0
 40
1.0
 10
16.765387676
 20
7.2131042573
 30
0.0
 10
16.7658282847
 20
7.2098291168
 30
0.0
 10
16.7670658856
 20
7.2032544001
 30
0.0
 10
16.7689585033
 20
7.1968389009
 30
0.0
 10
16.770064488
 20
7.1936531874
 30
0.0
  0
LINE
  5
2FF
100
AcDbEntity
  8
0
100
AcDbLine
 62
7
  6
CONTINUOUS
 10
16.770064488
 20
7.1936531874
 11
16.7701367972
 21
7.1934455935
  0
SPLINE
  5
300
100
AcDbEntity
  8
0
100
AcDbSpline
 62
7
  6
CONTINUOUS
 70
0
 71
3
 72
21
 73
17
 74
0
 42
0.0000001
 43
0.0000001
 44
0.0000000001
 40
0.0
 40
0.0
 40
0.0
 40
0.0
 40
0.1266224205
 40
0.2524600295
 40
0.3151422565
 40
0.3776658356
 40
0.4400629234
 40
0.502366468
 40
0.5646080756
 40
0.6268131239
 40
0.6890026791
 40
0.7511890528
 40
0.81338081
 40
0.8755808134
 40
0.9377881389
 40
1.0
 40
1.0
 40
1.0
 40
1.0
 10
17.3128795438
 20
8.1715042419
 30
0.0
 10
17.3045770607
 20
8.1699232088
 30
0.0
 10
17.288225209
 20
8.1655765179
 30
0.0
 10
17.2688488676
 20
8.1571688647
 30
0.0
 10
17.254356301
 20
8.1487271107
 30
0.0
 10
17.2440684322
 20
8.1415631889
 30
0.0
 10
17.2344304579
 20
8.1335854973
 30
0.0
 10
17.225520929
 20
8.1248272475
 30
0.0
 10
17.2174199442
 20
8.1153320522
 30
0.0
 10
17.2102058892
 20
8.1051550864
 30
0.0
 10
17.20395409
 20
8.0943637648
 30
0.0
 10
17.198733602
 20
8.083037823
 30
0.0
 10
17.194605297
 20
8.0712685859
 30
0.0
 10
17.1916190178
 20
8.0591569444
 30
0.0
 10
17.189811971
 20
8.0468137567
 30
0.0
 10
17.189408686
 20
8.0385035139
 30
0.0
 10
17.189408686
 20
8.0343510524
 30
0.0
  0
SPLINE
  5
301
100
AcDbEntity
  8
0
100
AcDbSpline
 62
7
  6
CONTINUOUS
 70
0
 71
3
 72
13
 73
9
 74
0
 42
0.0000001
 43
0.0000001
 44
0.0000000001
 40
0.0
 40
0.0
 40
0.0
 40
0.0
 40
0.2491319726
 40
0.3744605417
 40
0.5000000346
 40
0.6255395208
 40
0.750868075
 40
1.0
 40
1.0
 40
1.0
 40
1.0
 10
17.62593783
 20
8.1715042416
 30
0.0
 10
17.6002556117
 20
8.1763948794
 30
0.0
 10
17.5612672685
 20
8.1818875336
 30
0.0
 10
17.5089131946
 20
8.1855501122
 30
0.0
 10
17.4694086767
 20
8.1864690133
 30
0.0
 10
17.4299041604
 20
8.1855501114
 30
0.0
 10
17.3775500939
 20
8.1818875322
 30
0.0
 10
17.3385617573
 20
8.1763948787
 30
0.0
 10
17.3128795438
 20
8.1715042419
 30
0.0
  0
SPLINE
  5
302
100
AcDbEntity
  8
0
100
AcDbSpline
 62
7
  6
CONTINUOUS
 70
0
 71
3
 72
21
 73
17
 74
0
 42
0.0000001
 43
0.0000001
 44
0.0000000001
 40
0.0
 40
0.0
 40
0.0
 40
0.0
 40
0.0622104537
 40
0.1244169016
 40
0.1866166557
 40
0.2488086054
 40
0.3109955105
 40
0.3731857859
 40
0.4353915169
 40
0.4976341791
 40
0.5599384606
 40
0.6223360725
 40
0.6848603879
 40
0.7475423147
 40
0.8733795534
 40
1.0
 40
1.0
 40
1.0
 40
1.0
 10
17.749408686
 20
8.0343510524
 30
0.0
 10
17.749408686
 20
8.0385034201
 30
0.0
 10
17.7490054191
 20
8.0468135106
 30
0.0
 10
17.747198432
 20
8.0591565352
 30
0.0
 10
17.744212226
 20
8.0712681315
 30
0.0
 10
17.7400839418
 20
8.0830374092
 30
0.0
 10
17.7348634813
 20
8.0943634719
 30
0.0
 10
17.7286116075
 20
8.1051549003
 30
0.0
 10
17.7213975027
 20
8.1153320335
 30
0.0
 10
17.713296369
 20
8.124827321
 30
0.0
 10
17.7043867403
 20
8.1335856905
 30
0.0
 10
17.6947486173
 20
8.1415634141
 30
0.0
 10
17.6844606852
 20
8.1487273569
 30
0.0
 10
17.669968083
 20
8.1571690602
 30
0.0
 10
17.6505918917
 20
8.1655766146
 30
0.0
 10
17.634240184
 20
8.169923233
 30
0.0
 10
17.6259378301
 20
8.1715042416
 30
0.0
  0
SPLINE
  5
303
100
AcDbEntity
  8
0
100
AcDbSpline
 62
7
  6
CONTINUOUS
 70
0
 71
3
 72
21
 73
17
 74
0
 42
0.0000001
 43
0.0000001
 44
0.0000000001
 40
0.0
 40
0.0
 40
0.0
 40
0.0
 40
0.1266224205
 40
0.2524600294
 40
0.3151422564
 40
0.3776658355
 40
0.4400629233
 40
0.502366468
 40
0.5646080755
 40
0.6268131238
 40
0.6890026791
 40
0.7511890527
 40
0.81338081
 40
0.8755808133
 40
0.9377881389
 40
1.0
 40
1.0
 40
1.0
 40
1.0
 10
17.3128795422
 20
6.3037645659
 30
0.0
 10
17.3045770592
 20
6.305345599
 30
0.0
 10
17.2882252077
 20
6.3096922901
 30
0.0
 10
17.2688488664
 20
6.3180999434
 30
0.0
 10
17.2543563
 20
6.3265416974
 30
0.0
 10
17.2440684314
 20
6.3337056192
 30
0.0
 10
17.2344304572
 20
6.3416833108
 30
0.0
 10
17.2255209285
 20
6.3504415606
 30
0.0
 10
17.2174199437
 20
6.3599367559
 30
0.0
 10
17.2102058889
 20
6.3701137216
 30
0.0
 10
17.2039540897
 20
6.3809050432
 30
0.0
 10
17.1987336018
 20
6.3922309849
 30
0.0
 10
17.1946052969
 20
6.4040002219
 30
0.0
 10
17.1916190177
 20
6.4161118633
 30
0.0
 10
17.1898119709
 20
6.4284550509
 30
0.0
 10
17.189408686
 20
6.4367652936
 30
0.0
 10
17.189408686
 20
6.4409177551
 30
0.0
  0
SPLINE
  5
304
100
AcDbEntity
  8
0
100
AcDbSpline
 62
7
  6
CONTINUOUS
 70
0
 71
3
 72
13
 73
9
 74
0
 42
0.0000001
 43
0.0000001
 44
0.0000000001
 40
0.0
 40
0.0
 40
0.0
 40
0.0
 40
0.2491319726
 40
0.3744605418
 40
0.5000000347
 40
0.6255395209
 40
0.750868075
 40
1.0
 40
1.0
 40
1.0
 40
1.0
 10
17.6259378282
 20
6.3037645656
 30
0.0
 10
17.6002556099
 20
6.2988739278
 30
0.0
 10
17.5612672667
 20
6.2933812737
 30
0.0
 10
17.5089131928
 20
6.2897186952
 30
0.0
 10
17.469408675
 20
6.2887997942
 30
0.0
 10
17.4299041587
 20
6.2897186962
 30
0.0
 10
17.3775500922
 20
6.2933812755
 30
0.0
 10
17.3385617556
 20
6.298873929
 30
0.0
 10
17.3128795422
 20
6.3037645659
 30
0.0
  0
SPLINE
  5
305
100
AcDbEntity
  8
0
100
AcDbSpline
 62
7
  6
CONTINUOUS
 70
0
 71
3
 72
21
 73
17
 74
0
 42
0.0000001
 43
0.0000001
 44
0.0000000001
 40
0.0
 40
0.0
 40
0.0
 40
0.0
 40
0.0622104537
 40
0.1244169016
 40
0.1866166556
 40
0.2488086054
 40
0.3109955104
 40
0.3731857858
 40
0.4353915168
 40
0.497634179
 40
0.5599384605
 40
0.6223360724
 40
0.6848603879
 40
0.7475423146
 40
0.8733795533
 40
1.0
 40
1.0
 40
1.0
 40
1.0
 10
17.749408686
 20
6.4409177551
 30
0.0
 10
17.749408686
 20
6.4367653873
 30
0.0
 10
17.7490054191
 20
6.4284552968
 30
0.0
 10
17.7471984319
 20
6.416112272
 30
0.0
 10
17.7442122259
 20
6.4040006756
 30
0.0
 10
17.7400839416
 20
6.3922313979
 30
0.0
 10
17.734863481
 20
6.3809053351
 30
0.0
 10
17.7286116072
 20
6.3701139065
 30
0.0
 10
17.7213975022
 20
6.3599367733
 30
0.0
 10
17.7132963684
 20
6.3504414858
 30
0.0
 10
17.7043867395
 20
6.3416831163
 30
0.0
 10
17.6947486164
 20
6.3337053927
 30
0.0
 10
17.6844606841
 20
6.3265414499
 30
0.0
 10
17.6699680817
 20
6.3180997466
 30
0.0
 10
17.6505918901
 20
6.3096921923
 30
0.0
 10
17.6342401823
 20
6.3053455741
 30
0.0
 10
17.6259378282
 20
6.3037645656
 30
0.0
  0
SPLINE
  5
306
100
AcDbEntity
  8
0
100
AcDbSpline
 62
7
  6
CONTINUOUS
 70
0
 71
3
 72
15
 73
11
 74
0
 42
0.0000001
 43
0.0000001
 44
0.0000000001
 40
0.0
 40
0.0
 40
0.0
 40
0.0
 40
0.1255085873
 40
0.2507821717
 40
0.3758617015
 40
0.5007918288
 40
0.6256207391
 40
0.7503983846
 40
0.8751747955
 40
1.0
 40
1.0
 40
1.0
 40
1.0
 10
16.8205159757
 20
7.4922900923
 30
0.0
 10
16.8150937364
 20
7.4803053749
 30
0.0
 10
16.8050921033
 20
7.4559713454
 30
0.0
 10
16.7926989598
 20
7.4185458924
 30
0.0
 10
16.7829838908
 20
7.3803979998
 30
0.0
 10
16.7759927161
 20
7.3417059919
 30
0.0
 10
16.7717573574
 20
7.3026479766
 30
0.0
 10
16.7702975329
 20
7.2634037102
 30
0.0
 10
16.7716196121
 20
7.2241569577
 30
0.0
 10
16.7743515253
 20
7.1981138789
 30
0.0
 10
16.7761754765
 20
7.1851590284
 30
0.0
  0
SPLINE
  5
307
100
AcDbEntity
  8
0
100
AcDbSpline
 62
9
  6
CONTINUOUS
 70
0
 71
3
 72
21
 73
17
 74
0
 42
0.0000001
 43
0.0000001
 44
0.0000000001
 40
0.0
 40
0.0
 40
0.0
 40
0.0
 40
0.0531210003
 40
0.1065931996
 40
0.1607515969
 40
0.2159010135
 40
0.2723045158
 40
0.3301759032
 40
0.3896755794
 40
0.4509095738
 40
0.5139308943
 40
0.5787424929
 40
0.7134360211
 40
0.7831986903
 40
0.8543486819
 40
1.0
 40
1.0
 40
1.0
 40
1.0
 10
17.1894086861
 20
8.0343510524
 30
0.0
 10
17.1894087033
 20
8.0373772878
 30
0.0
 10
17.1897612075
 20
8.0434555485
 30
0.0
 10
17.1913418283
 20
8.0524951435
 30
0.0
 10
17.1939629751
 20
8.0614105789
 30
0.0
 10
17.1976052937
 20
8.0701395268
 30
0.0
 10
17.2022424822
 20
8.0786237429
 30
0.0
 10
17.2078417523
 20
8.0868067407
 30
0.0
 10
17.214364327
 20
8.0946347169
 30
0.0
 10
17.2217655131
 20
8.1020563196
 30
0.0
 10
17.2299959268
 20
8.109023539
 30
0.0
 10
17.2421533254
 20
8.117755488
 30
0.0
 10
17.2556061614
 20
8.125256642
 30
0.0
 10
17.2700280192
 20
8.1314844632
 30
0.0
 10
17.2854152645
 20
8.1369658621
 30
0.0
 10
17.2974309544
 20
8.1399953632
 30
0.0
 10
17.3055820475
 20
8.1415475672
 30
0.0
  0
SPLINE
  5
308
100
AcDbEntity
  8
0
100
AcDbSpline
 62
9
  6
CONTINUOUS
 70
0
 71
3
 72
21
 73
17
 74
0
 42
0.0000001
 43
0.0000001
 44
0.0000000001
 40
0.0
 40
0.0
 40
0.0
 40
0.0
 40
0.0276778902
 40
0.0570901226
 40
0.0896821624
 40
0.1265011586
 40
0.1682471203
 40
0.2153610685
 40
0.2681107173
 40
0.3266390465
 40
0.3910081836
 40
0.4612147757
 40
0.5372118148
 40
0.618907983
 40
0.7989060958
 40
1.0
 40
1.0
 40
1.0
 40
1.0
 10
17.3128795454
 20
8.1715042338
 30
0.0
 10
17.3125882355
 20
8.1714487477
 30
0.0
 10
17.3120003291
 20
8.1712525074
 30
0.0
 10
17.3111858337
 20
8.1707278061
 30
0.0
 10
17.3104283685
 20
8.1699793638
 30
0.0
 10
17.3097257954
 20
8.1690127887
 30
0.0
 10
17.3090760624
 20
8.1678302319
 30
0.0
 10
17.3084787391
 20
8.1664334605
 30
0.0
 10
17.3079344605
 20
8.1648246262
 30
0.0
 10
17.307444058
 20
8.1630066889
 30
0.0
 10
17.3070086943
 20
8.1609832807
 30
0.0
 10
17.3066293019
 20
8.158758695
 30
0.0
 10
17.3063068624
 20
8.1563378376
 30
0.0
 10
17.3059421594
 20
8.152737673
 30
0.0
 10
17.3056498561
 20
8.1477857131
 30
0.0
 10
17.3055820475
 20
8.1437021315
 30
0.0
 10
17.3055820475
 20
8.1415475672
 30
0.0
  0
SPLINE
  5
309
100
AcDbEntity
  8
0
100
AcDbSpline
 62
9
  6
CONTINUOUS
 70
0
 71
3
 72
21
 73
17
 74
0
 42
0.0000001
 43
0.0000001
 44
0.0000000001
 40
0.0
 40
0.0
 40
0.0
 40
0.0
 40
0.0276778901
 40
0.057090122
 40
0.0896821613
 40
0.1265011569
 40
0.1682471179
 40
0.2153610656
 40
0.268110714
 40
0.3266390429
 40
0.3910081799
 40
0.461214772
 40
0.5372118113
 40
0.6189079799
 40
0.7989060939
 40
1.0
 40
1.0
 40
1.0
 40
1.0
 10
17.6259378285
 20
8.1715042334
 30
0.0
 10
17.6262291383
 20
8.1714487473
 30
0.0
 10
17.6268170447
 20
8.171252507
 30
0.0
 10
17.6276315401
 20
8.1707278057
 30
0.0
 10
17.6283890052
 20
8.1699793634
 30
0.0
 10
17.6290915782
 20
8.1690127883
 30
0.0
 10
17.6297413112
 20
8.1678302316
 30
0.0
 10
17.6303386344
 20
8.1664334602
 30
0.0
 10
17.6308829128
 20
8.1648246259
 30
0.0
 10
17.6313733152
 20
8.1630066886
 30
0.0
 10
17.6318086788
 20
8.1609832804
 30
0.0
 10
17.6321880711
 20
8.1587586948
 30
0.0
 10
17.6325105104
 20
8.1563378374
 30
0.0
 10
17.6328752131
 20
8.1527376728
 30
0.0
 10
17.6331675162
 20
8.147785713
 30
0.0
 10
17.6332353245
 20
8.1437021315
 30
0.0
 10
17.6332353244
 20
8.1415475672
 30
0.0
  0
SPLINE
  5
30A
100
AcDbEntity
  8
0
100
AcDbSpline
 62
9
  6
CONTINUOUS
 70
0
 71
3
 72
16
 73
12
 74
0
 42
0.0000001
 43
0.0000001
 44
0.0000000001
 40
0.0
 40
0.0
 40
0.0
 40
0.0
 40
0.0510034611
 40
0.103257226
 40
0.2122950286
 40
0.3284864976
 40
0.4520763731
 40
0.5824777428
 40
0.7184535793
 40
0.8582926986
 40
1.0
 40
1.0
 40
1.0
 40
1.0
 10
17.2802095547
 20
7.6494371392
 30
0.0
 10
17.2799806601
 20
7.6486482831
 30
0.0
 10
17.2794216558
 20
7.647077374
 30
0.0
 10
17.2779181127
 20
7.6440003163
 30
0.0
 10
17.2753129529
 20
7.6403278374
 30
0.0
 10
17.2712405874
 20
7.636417947
 30
0.0
 10
17.266299332
 20
7.6330390973
 30
0.0
 10
17.260633399
 20
7.6302832697
 30
0.0
 10
17.2544044594
 20
7.6282249389
 30
0.0
 10
17.247791925
 20
7.6269211182
 30
0.0
 10
17.2432579298
 20
7.6265798117
 30
0.0
 10
17.2409760757
 20
7.6265432432
 30
0.0
  0
SPLINE
  5
30B
100
AcDbEntity
  8
0
100
AcDbSpline
 62
7
  6
CONTINUOUS
 70
0
 71
3
 72
35
 73
31
 74
0
 42
0.0000001
 43
0.0000001
 44
0.0000000001
 40
0.0
 40
0.0
 40
0.0
 40
0.0
 40
0.0318024197
 40
0.0635327997
 40
0.095187739
 40
0.1267647287
 40
0.158261719
 40
0.1896774762
 40
0.2522575118
 40
0.3145229726
 40
0.3455540999
 40
0.3765236549
 40
0.4074410941
 40
0.438317652
 40
0.4691660256
 40
0.5
 40
0.5308339744
 40
0.5616823481
 40
0.5925589059
 40
0.6234763451
 40
0.6544459001
 40
0.6854770274
 40
0.7477424881
 40
0.8103225238
 40
0.841738281
 40
0.8732352712
 40
0.9048122609
 40
0.9364672002
 40
0.9681975803
 40
1.0
 40
1.0
 40
1.0
 40
1.0
 10
19.1194641436
 20
7.8941344037
 30
0.0
 10
19.1157880154
 20
7.8877487684
 30
0.0
 10
19.1085667317
 20
7.8749208401
 30
0.0
 10
19.0981414285
 20
7.8554851089
 30
0.0
 10
19.08816497
 20
7.8358733744
 30
0.0
 10
19.0786790686
 20
7.8160794012
 30
0.0
 10
19.0697221369
 20
7.7961006264
 30
0.0
 10
19.0585539959
 20
7.7692529025
 30
0.0
 10
19.0461157133
 20
7.7352274079
 30
0.0
 10
19.0359849451
 20
7.7005289013
 30
0.0
 10
19.0294646193
 20
7.6724799384
 30
0.0
 10
19.0254060396
 20
7.651332193
 30
0.0
 10
19.0222094403
 20
7.6300731172
 30
0.0
 10
19.0199039442
 20
7.6087268854
 30
0.0
 10
19.0185115913
 20
7.5873208633
 30
0.0
 10
19.0180459343
 20
7.5658844037
 30
0.0
 10
19.0185115913
 20
7.544447944
 30
0.0
 10
19.0199039442
 20
7.5230419219
 30
0.0
 10
19.0222094403
 20
7.5016956901
 30
0.0
 10
19.0254060396
 20
7.4804366144
 30
0.0
 10
19.0294646193
 20
7.4592888689
 30
0.0
 10
19.0359849451
 20
7.431239906
 30
0.0
 10
19.0461157134
 20
7.3965413994
 30
0.0
 10
19.058553996
 20
7.3625159049
 30
0.0
 10
19.069722137
 20
7.335668181
 30
0.0
 10
19.0786790686
 20
7.3156894061
 30
0.0
 10
19.0881649701
 20
7.295895433
 30
0.0
 10
19.0981414285
 20
7.2762836984
 30
0.0
 10
19.1085667319
 20
7.2568479674
 30
0.0
 10
19.1157880157
 20
7.2440200391
 30
0.0
 10
19.119464144
 20
7.2376344037
 30
0.0
  0
SPLINE
  5
30C
100
AcDbEntity
  8
0
100
AcDbSpline
 62
9
  6
CONTINUOUS
 70
0
 71
3
 72
21
 73
17
 74
0
 42
0.0000001
 43
0.0000001
 44
0.0000000001
 40
0.0
 40
0.0
 40
0.0
 40
0.0
 40
0.1248117951
 40
0.1872548345
 40
0.2497160928
 40
0.3121903843
 40
0.3746728059
 40
0.437161891
 40
0.4996577957
 40
0.5621606846
 40
0.624670722
 40
0.6871880802
 40
0.7497142516
 40
0.8122535656
 40
0.8748108747
 40
1.0
 40
1.0
 40
1.0
 40
1.0
 10
19.3104086862
 20
-1.7857990529
 30
0.0
 10
19.3110379548
 20
-1.743430821
 30
0.0
 10
19.3117286608
 20
-1.6798619695
 30
0.0
 10
19.3122974335
 20
-1.5950866526
 30
0.0
 10
19.312586619
 20
-1.5314732777
 30
0.0
 10
19.3127757585
 20
-1.4678461972
 30
0.0
 10
19.3129066045
 20
-1.4042095267
 30
0.0
 10
19.3129859753
 20
-1.3405654338
 30
0.0
 10
19.3130121868
 20
-1.2769143481
 30
0.0
 10
19.3129858926
 20
-1.2132561492
 30
0.0
 10
19.312906548
 20
-1.1495907113
 30
0.0
 10
19.3127760635
 20
-1.0859174532
 30
0.0
 10
19.3125872954
 20
-1.022234398
 30
0.0
 10
19.3122982928
 20
-0.9585381153
 30
0.0
 10
19.3117292336
 20
-0.8735694004
 30
0.0
 10
19.3110379359
 20
-0.809833654
 30
0.0
 10
19.3104086862
 20
-0.7673373062
 30
0.0
  0
SPLINE
  5
30D
100
AcDbEntity
  8
0
100
AcDbSpline
 62
9
  6
CONTINUOUS
 70
0
 71
3
 72
22
 73
18
 74
0
 42
0.0000001
 43
0.0000001
 44
0.0000000001
 40
0.0
 40
0.0
 40
0.0
 40
0.0
 40
0.04686819
 40
0.0923538857
 40
0.1379234862
 40
0.1848832553
 40
0.2343017307
 40
0.2869851119
 40
0.3434412974
 40
0.4038342402
 40
0.4681187355
 40
0.5361077907
 40
0.6074999942
 40
0.6819011881
 40
0.8378368467
 40
0.918416159
 40
1.0
 40
1.0
 40
1.0
 40
1.0
 10
17.2815719702
 20
6.8263175464
 30
0.0
 10
17.2819794907
 20
6.8279516561
 30
0.0
 10
17.2830181646
 20
6.8311199521
 30
0.0
 10
17.2853015217
 20
6.8355418737
 30
0.0
 10
17.288257155
 20
6.8395490222
 30
0.0
 10
17.2918661274
 20
6.8431765736
 30
0.0
 10
17.2961124516
 20
6.8464622459
 30
0.0
 10
17.300981257
 20
6.8494396596
 30
0.0
 10
17.306453648
 20
6.8521327852
 30
0.0
 10
17.3125074907
 20
6.8545395868
 30
0.0
 10
17.3191071415
 20
6.8566476796
 30
0.0
 10
17.3262068153
 20
6.8584410533
 30
0.0
 10
17.3337524402
 20
6.8599026671
 30
0.0
 10
17.3444935068
 20
6.86140917
 30
0.0
 10
17.3556614497
 20
6.8621352046
 30
0.0
 10
17.367093685
 20
6.8621536799
 30
0.0
 10
17.3729185745
 20
6.8619405357
 30
0.0
 10
17.3758461427
 20
6.8617863188
 30
0.0
  0
SPLINE
  5
30E
100
AcDbEntity
  8
0
100
AcDbSpline
 62
9
  6
CONTINUOUS
 70
0
 71
3
 72
17
 73
13
 74
0
 42
0.0000001
 43
0.0000001
 44
0.0000000001
 40
0.0
 40
0.0
 40
0.0
 40
0.0
 40
0.0521800203
 40
0.10534316
 40
0.1597400697
 40
0.2155696958
 40
0.3319232026
 40
0.4550375837
 40
0.5846003066
 40
0.7196435965
 40
0.8587031967
 40
1.0
 40
1.0
 40
1.0
 40
1.0
 10
17.2802095547
 20
6.8262260857
 30
0.0
 10
17.279981296
 20
6.827035794
 30
0.0
 10
17.2794244471
 20
6.8286449406
 30
0.0
 10
17.278312712
 20
6.8309734337
 30
0.0
 10
17.2769264582
 20
6.8332193286
 30
0.0
 10
17.2746969498
 20
6.8361198541
 30
0.0
 10
17.2712519769
 20
6.8394488221
 30
0.0
 10
17.2663064202
 20
6.842801513
 30
0.0
 10
17.2606345908
 20
6.8454828182
 30
0.0
 10
17.25440024
 20
6.8474187632
 30
0.0
 10
17.2477828487
 20
6.8485570618
 30
0.0
 10
17.2432538254
 20
6.8487622867
 30
0.0
 10
17.2409760757
 20
6.8487257839
 30
0.0
  0
SPLINE
  5
30F
100
AcDbEntity
  8
0
100
AcDbSpline
 62
9
  6
CONTINUOUS
 70
0
 71
3
 72
21
 73
17
 74
0
 42
0.0000001
 43
0.0000001
 44
0.0000000001
 40
0.0
 40
0.0
 40
0.0
 40
0.0
 40
0.1252121272
 40
0.1877927062
 40
0.2503575404
 40
0.312907281
 40
0.3754423812
 40
0.437963071
 40
0.5004695157
 40
0.5629618805
 40
0.6254403299
 40
0.6879050265
 40
0.7503557401
 40
0.8127914465
 40
0.8752111809
 40
1.0
 40
1.0
 40
1.0
 40
1.0
 10
19.3104086858
 20
-1.7857990778
 30
0.0
 10
19.3097820981
 20
-1.7432948934
 30
0.0
 10
19.3090963415
 20
-1.6795433917
 30
0.0
 10
19.308534381
 20
-1.5945502826
 30
0.0
 10
19.3082498517
 20
-1.5308294334
 30
0.0
 10
19.3080638663
 20
-1.4671237007
 30
0.0
 10
19.3079343133
 20
-1.4034328183
 30
0.0
 10
19.3078560087
 20
-1.339756551
 30
0.0
 10
19.3078301722
 20
-1.2760947491
 30
0.0
 10
19.3078562111
 20
-1.2124472876
 30
0.0
 10
19.3079345499
 20
-1.1488140426
 30
0.0
 10
19.3080633569
 20
-1.0851950199
 30
0.0
 10
19.3082491417
 20
-1.0215906456
 30
0.0
 10
19.3085340651
 20
-0.9580018621
 30
0.0
 10
19.3090965223
 20
-0.8732509162
 30
0.0
 10
19.3097823536
 20
-0.8096977425
 30
0.0
 10
19.3104086858
 20
-0.7673372807
 30
0.0
  0
SPLINE
  5
310
100
AcDbEntity
  8
0
100
AcDbSpline
 62
9
  6
CONTINUOUS
 70
0
 71
3
 72
21
 73
17
 74
0
 42
0.0000001
 43
0.0000001
 44
0.0000000001
 40
0.0
 40
0.0
 40
0.0
 40
0.0
 40
0.1251890038
 40
0.1877463154
 40
0.2502856574
 40
0.3128118707
 40
0.3753292626
 40
0.4378393038
 40
0.500342183
 40
0.5628380817
 40
0.6253271812
 40
0.6878096526
 40
0.7502839984
 40
0.8127452895
 40
0.8751883305
 40
1.0
 40
1.0
 40
1.0
 40
1.0
 10
19.3104086862
 20
-0.7573938858
 30
0.0
 10
19.3110373553
 20
-0.7148975707
 30
0.0
 10
19.311728235
 20
-0.6511618623
 30
0.0
 10
19.3122973317
 20
-0.5661931786
 30
0.0
 10
19.3125865728
 20
-0.5024968726
 30
0.0
 10
19.3127757386
 20
-0.4388137834
 30
0.0
 10
19.3129065927
 20
-0.375140499
 30
0.0
 10
19.3129859694
 20
-0.3114750516
 30
0.0
 10
19.3130121868
 20
-0.2478168568
 30
0.0
 10
19.3129858985
 20
-0.1841657715
 30
0.0
 10
19.3129065597
 20
-0.120521659
 30
0.0
 10
19.3127760833
 20
-0.0568849475
 30
0.0
 10
19.3125873416
 20
0.0067421808
 30
0.0
 10
19.3122983948
 20
0.070355587
 30
0.0
 10
19.3117296601
 20
0.1551308731
 30
0.0
 10
19.311038537
 20
0.2186996803
 30
0.0
 10
19.3104086863
 20
0.2610678609
 30
0.0
  0
SPLINE
  5
311
100
AcDbEntity
  8
0
100
AcDbSpline
 62
9
  6
CONTINUOUS
 70
0
 71
3
 72
21
 73
17
 74
0
 42
0.0000001
 43
0.0000001
 44
0.0000000001
 40
0.0
 40
0.0
 40
0.0
 40
0.0
 40
0.1247886392
 40
0.1872083284
 40
0.2496440144
 40
0.3120947258
 40
0.374559449
 40
0.4370379754
 40
0.4995304471
 40
0.5620370069
 40
0.6245577974
 40
0.6870929612
 40
0.7496427195
 40
0.8122075333
 40
0.87478806
 40
1.0
 40
1.0
 40
1.0
 40
1.0
 10
19.3104086858
 20
-0.7573939109
 30
0.0
 10
19.3097817419
 20
-0.7150335191
 30
0.0
 10
19.3090960458
 20
-0.6514804165
 30
0.0
 10
19.3085342923
 20
-0.5667295497
 30
0.0
 10
19.3082497974
 20
-0.5031407874
 30
0.0
 10
19.3080638313
 20
-0.4395364126
 30
0.0
 10
19.3079342898
 20
-0.375917357
 30
0.0
 10
19.307855997
 20
-0.3122840403
 30
0.0
 10
19.3078301722
 20
-0.2486364772
 30
0.0
 10
19.3078562229
 20
-0.1849745658
 30
0.0
 10
19.3079345733
 20
-0.1212982039
 30
0.0
 10
19.3080633917
 20
-0.0576072583
 30
0.0
 10
19.308249196
 20
0.0060984959
 30
0.0
 10
19.3085341538
 20
0.0698193246
 30
0.0
 10
19.3090968179
 20
0.1548123414
 30
0.0
 10
19.3097827088
 20
0.2185637564
 30
0.0
 10
19.3104086858
 20
0.2610678863
 30
0.0
  0
SPLINE
  5
312
100
AcDbEntity
  8
0
100
AcDbSpline
 62
7
  6
CONTINUOUS
 70
0
 71
3
 72
32
 73
28
 74
0
 42
0.0000001
 43
0.0000001
 44
0.0000000001
 40
0.0
 40
0.0
 40
0.0
 40
0.0
 40
0.0635306212
 40
0.1267589438
 40
0.1896666752
 40
0.2522475439
 40
0.3145138311
 40
0.3455453706
 40
0.3765153358
 40
0.4074331853
 40
0.4383101546
 40
0.4691589352
 40
0.4999933195
 40
0.5308277036
 40
0.5616764837
 40
0.5925534521
 40
0.6234713004
 40
0.6544412641
 40
0.6854728019
 40
0.7477390853
 40
0.8103199498
 40
0.8417361212
 40
0.8732335276
 40
0.9048109321
 40
0.9364662859
 40
0.9681971204
 40
1.0
 40
1.0
 40
1.0
 40
1.0
 10
19.1194660689
 20
7.2376344037
 30
0.0
 10
19.112122479
 20
7.2248781873
 30
0.0
 10
19.0979527256
 20
7.1991439884
 30
0.0
 10
19.078450444
 20
7.1597486835
 30
0.0
 10
19.0610606027
 20
7.119609036
 30
0.0
 10
19.0461159435
 20
7.0787282982
 30
0.0
 10
19.0359850523
 20
7.0440292907
 30
0.0
 10
19.0294647069
 20
7.0159803547
 30
0.0
 10
19.025406104
 20
6.9948325714
 30
0.0
 10
19.022209486
 20
6.973573472
 30
0.0
 10
19.0199039722
 20
6.952227212
 30
0.0
 10
19.0185116032
 20
6.9308211618
 30
0.0
 10
19.0180459348
 20
6.9093846734
 30
0.0
 10
19.0185115798
 20
6.8879481846
 30
0.0
 10
19.0199039257
 20
6.8665421331
 30
0.0
 10
19.0222094166
 20
6.8451958721
 30
0.0
 10
19.0254060131
 20
6.8239367669
 30
0.0
 10
19.0294645926
 20
6.8027889926
 30
0.0
 10
19.0359849216
 20
6.7747399919
 30
0.0
 10
19.0461156976
 20
6.7400414375
 30
0.0
 10
19.0585540013
 20
6.7060159005
 30
0.0
 10
19.0697221457
 20
6.6791681364
 30
0.0
 10
19.0786791182
 20
6.6591893491
 30
0.0
 10
19.0881650148
 20
6.6393953449
 30
0.0
 10
19.0981413864
 20
6.6197835249
 30
0.0
 10
19.1085669864
 20
6.6003478982
 30
0.0
 10
19.1157884969
 20
6.587520058
 30
0.0
 10
19.1194646301
 20
6.5811344037
 30
0.0
  0
SPLINE
  5
313
100
AcDbEntity
  8
0
100
AcDbSpline
 62
9
  6
CONTINUOUS
 70
0
 71
3
 72
21
 73
17
 74
0
 42
0.0000001
 43
0.0000001
 44
0.0000000001
 40
0.0
 40
0.0
 40
0.0
 40
0.0
 40
0.0531210003
 40
0.1065931996
 40
0.1607515969
 40
0.2159010135
 40
0.2723045158
 40
0.3301759032
 40
0.3896755794
 40
0.4509095738
 40
0.5139308943
 40
0.5787424929
 40
0.7134360211
 40
0.7831986903
 40
0.8543486819
 40
1.0
 40
1.0
 40
1.0
 40
1.0
 10
17.1894086861
 20
6.4409177551
 30
0.0
 10
17.1894087033
 20
6.4378915197
 30
0.0
 10
17.1897612075
 20
6.431813259
 30
0.0
 10
17.1913418283
 20
6.422773664
 30
0.0
 10
17.1939629751
 20
6.4138582286
 30
0.0
 10
17.1976052937
 20
6.4051292807
 30
0.0
 10
17.2022424822
 20
6.3966450646
 30
0.0
 10
17.2078417523
 20
6.3884620668
 30
0.0
 10
17.214364327
 20
6.3806340906
 30
0.0
 10
17.2217655131
 20
6.3732124879
 30
0.0
 10
17.2299959268
 20
6.3662452685
 30
0.0
 10
17.2421533254
 20
6.3575133195
 30
0.0
 10
17.2556061614
 20
6.3500121655
 30
0.0
 10
17.2700280192
 20
6.3437843442
 30
0.0
 10
17.2854152645
 20
6.3383029454
 30
0.0
 10
17.2974309544
 20
6.3352734443
 30
0.0
 10
17.3055820475
 20
6.3337212403
 30
0.0
  0
SPLINE
  5
314
100
AcDbEntity
  8
0
100
AcDbSpline
 62
9
  6
CONTINUOUS
 70
0
 71
3
 72
21
 73
17
 74
0
 42
0.0000001
 43
0.0000001
 44
0.0000000001
 40
0.0
 40
0.0
 40
0.0
 40
0.0
 40
0.0276778902
 40
0.0570901221
 40
0.0896821614
 40
0.126501157
 40
0.1682471181
 40
0.2153610659
 40
0.2681107142
 40
0.3266390432
 40
0.3910081801
 40
0.4612147723
 40
0.5372118115
 40
0.6189079801
 40
0.798906094
 40
1.0
 40
1.0
 40
1.0
 40
1.0
 10
17.3128795438
 20
6.303764574
 30
0.0
 10
17.3125882339
 20
6.3038200601
 30
0.0
 10
17.3120003276
 20
6.3040163004
 30
0.0
 10
17.3111858321
 20
6.3045410017
 30
0.0
 10
17.310428367
 20
6.305289444
 30
0.0
 10
17.309725794
 20
6.3062560191
 30
0.0
 10
17.309076061
 20
6.3074385758
 30
0.0
 10
17.3084787378
 20
6.3088353472
 30
0.0
 10
17.3079344593
 20
6.3104441816
 30
0.0
 10
17.3074440569
 20
6.3122621188
 30
0.0
 10
17.3070086933
 20
6.314285527
 30
0.0
 10
17.3066293011
 20
6.3165101126
 30
0.0
 10
17.3063068617
 20
6.31893097
 30
0.0
 10
17.3059421589
 20
6.3225311346
 30
0.0
 10
17.3056498558
 20
6.3274830945
 30
0.0
 10
17.3055820474
 20
6.331566676
 30
0.0
 10
17.3055820475
 20
6.3337212403
 30
0.0
  0
SPLINE
  5
315
100
AcDbEntity
  8
0
100
AcDbSpline
 62
9
  6
CONTINUOUS
 70
0
 71
3
 72
21
 73
17
 74
0
 42
0.0000001
 43
0.0000001
 44
0.0000000001
 40
0.0
 40
0.0
 40
0.0
 40
0.0
 40
0.0276778903
 40
0.0570901226
 40
0.0896821624
 40
0.1265011586
 40
0.1682471203
 40
0.2153610685
 40
0.2681107173
 40
0.3266390464
 40
0.3910081836
 40
0.4612147757
 40
0.5372118148
 40
0.618907983
 40
0.7989060958
 40
1.0
 40
1.0
 40
1.0
 40
1.0
 10
17.6259378266
 20
6.3037645737
 30
0.0
 10
17.6262291365
 20
6.3038200598
 30
0.0
 10
17.6268170428
 20
6.3040163001
 30
0.0
 10
17.6276315383
 20
6.3045410014
 30
0.0
 10
17.6283890035
 20
6.3052894437
 30
0.0
 10
17.6290915766
 20
6.3062560188
 30
0.0
 10
17.6297413096
 20
6.3074385755
 30
0.0
 10
17.6303386329
 20
6.308835347
 30
0.0
 10
17.6308829114
 20
6.3104441813
 30
0.0
 10
17.631373314
 20
6.3122621186
 30
0.0
 10
17.6318086777
 20
6.3142855268
 30
0.0
 10
17.6321880701
 20
6.3165101124
 30
0.0
 10
17.6325105095
 20
6.3189309699
 30
0.0
 10
17.6328752125
 20
6.3225311345
 30
0.0
 10
17.6331675159
 20
6.3274830944
 30
0.0
 10
17.6332353245
 20
6.331566676
 30
0.0
 10
17.6332353245
 20
6.3337212403
 30
0.0
  0
SPLINE
  5
316
100
AcDbEntity
  8
0
100
AcDbSpline
 62
9
  6
CONTINUOUS
 70
0
 71
3
 72
22
 73
18
 74
0
 42
0.0000001
 43
0.0000001
 44
0.0000000001
 40
0.0
 40
0.0
 40
0.0
 40
0.0
 40
0.066175592
 40
0.1306207129
 40
0.1935699043
 40
0.2553039646
 40
0.3161491544
 40
0.3764358009
 40
0.4364812022
 40
0.4965749583
 40
0.5569659872
 40
0.6178601558
 40
0.6794190191
 40
0.7417520419
 40
0.8049452726
 40
0.8690410536
 40
1.0
 40
1.0
 40
1.0
 40
1.0
 10
17.2686036232
 20
6.7746662322
 30
0.0
 10
17.2671939719
 20
6.7758031486
 30
0.0
 10
17.2644852244
 20
6.7781409196
 30
0.0
 10
17.2607320906
 20
6.7818859247
 30
0.0
 10
17.2573525892
 20
6.7858130063
 30
0.0
 10
17.2543505438
 20
6.7899142181
 30
0.0
 10
17.25171895
 20
6.794176847
 30
0.0
 10
17.2494467713
 20
6.7985891538
 30
0.0
 10
17.2475174051
 20
6.8031389072
 30
0.0
 10
17.2459102795
 20
6.8078146143
 30
0.0
 10
17.2446006138
 20
6.8126056149
 30
0.0
 10
17.2435603531
 20
6.8175025315
 30
0.0
 10
17.2427560233
 20
6.8224968849
 30
0.0
 10
17.242154456
 20
6.8275824871
 30
0.0
 10
17.2417152978
 20
6.8327538574
 30
0.0
 10
17.2412901979
 20
6.839808893
 30
0.0
 10
17.2411001331
 20
6.8451439365
 30
0.0
 10
17.2409760784
 20
6.8487256741
 30
0.0
  0
SPLINE
  5
317
100
AcDbEntity
  8
0
100
AcDbSpline
 62
9
  6
CONTINUOUS
 70
0
 71
3
 72
20
 73
16
 74
0
 42
0.0000001
 43
0.0000001
 44
0.0000000001
 40
0.0
 40
0.0
 40
0.0
 40
0.0
 40
0.1310481695
 40
0.258136721
 40
0.3202601573
 40
0.3815376415
 40
0.4420983602
 40
0.502135295
 40
0.561890769
 40
0.6216659583
 40
0.6818021175
 40
0.7426671959
 40
0.8046265461
 40
0.8680061889
 40
1.0
 40
1.0
 40
1.0
 40
1.0
 10
17.2409760736
 20
7.6265430518
 30
0.0
 10
17.2408489422
 20
7.6302402908
 30
0.0
 10
17.2406339313
 20
7.637524495
 30
0.0
 10
17.2407625901
 20
7.6465712123
 30
0.0
 10
17.2412898687
 20
7.6536250795
 30
0.0
 10
17.2419330836
 20
7.6587807418
 30
0.0
 10
17.2428624452
 20
7.6638335155
 30
0.0
 10
17.2441134246
 20
7.6687729628
 30
0.0
 10
17.245714367
 20
7.6735877726
 30
0.0
 10
17.2476914473
 20
7.678264537
 30
0.0
 10
17.2500651885
 20
7.6827889866
 30
0.0
 10
17.2528495415
 20
7.6871465349
 30
0.0
 10
17.2560520452
 20
7.6913230636
 30
0.0
 10
17.2609376477
 20
7.696707508
 30
0.0
 10
17.2651262341
 20
7.7003368638
 30
0.0
 10
17.2680986703
 20
7.7025837697
 30
0.0
  0
SPLINE
  5
318
100
AcDbEntity
  8
0
100
AcDbSpline
 62
9
  6
CONTINUOUS
 70
0
 71
3
 72
26
 73
22
 74
0
 42
0.0000001
 43
0.0000001
 44
0.0000000001
 40
0.0
 40
0.0
 40
0.0
 40
0.0
 40
0.0707775036
 40
0.1412557175
 40
0.2112856761
 40
0.2806885218
 40
0.3492566825
 40
0.4167542288
 40
0.4829293867
 40
0.5475370298
 40
0.6103684605
 40
0.671286317
 40
0.7302686615
 40
0.7590681678
 40
0.7874184643
 40
0.8153397468
 40
0.8428481953
 40
0.8699635165
 40
0.896697196
 40
0.9490664506
 40
1.0
 40
1.0
 40
1.0
 40
1.0
 10
17.3759606102
 20
7.4787359048
 30
0.0
 10
17.3707569902
 20
7.4793359561
 30
0.0
 10
17.3604169777
 20
7.4809743798
 30
0.0
 10
17.3452212107
 20
7.4847401038
 30
0.0
 10
17.3305066558
 20
7.4897861057
 30
0.0
 10
17.3164346822
 20
7.4960800204
 30
0.0
 10
17.3031760764
 20
7.5035735057
 30
0.0
 10
17.2909093086
 20
7.5121935777
 30
0.0
 10
17.2798116851
 20
7.5218359189
 30
0.0
 10
17.2700450833
 20
7.5323599657
 30
0.0
 10
17.2617420831
 20
7.5435950996
 30
0.0
 10
17.2549954986
 20
7.5553501589
 30
0.0
 10
17.2506376426
 20
7.5654824669
 30
0.0
 10
17.2478920532
 20
7.5736301215
 30
0.0
 10
17.2461887104
 20
7.5796941243
 30
0.0
 10
17.2447994291
 20
7.5857390946
 30
0.0
 10
17.2436959711
 20
7.5917494455
 30
0.0
 10
17.2428436655
 20
7.5977113172
 30
0.0
 10
17.2420009434
 20
7.6055283268
 30
0.0
 10
17.2413746877
 20
7.6151352653
 30
0.0
 10
17.2411065531
 20
7.6227758195
 30
0.0
 10
17.2409760736
 20
7.6265430518
 30
0.0
  0
SPLINE
  5
319
100
AcDbEntity
  8
0
100
AcDbSpline
 62
9
  6
CONTINUOUS
 70
0
 71
3
 72
28
 73
24
 74
0
 42
0.0000001
 43
0.0000001
 44
0.0000000001
 40
0.0
 40
0.0
 40
0.0
 40
0.0
 40
0.125003879
 40
0.250007758
 40
0.3750116368
 40
0.4375135764
 40
0.5000155164
 40
0.5625174539
 40
0.6250193968
 40
0.6875213357
 40
0.7187722886
 40
0.7500232587
 40
0.7812742836
 40
0.8125252808
 40
0.8281507178
 40
0.8437761068
 40
0.8594014916
 40
0.8750269624
 40
0.8906527408
 40
0.9062789969
 40
0.9375291059
 40
0.9687774648
 40
1.0
 40
1.0
 40
1.0
 40
1.0
 10
17.6494100658
 20
7.4772780435
 30
0.0
 10
17.6380139477
 20
7.4772780436
 30
0.0
 10
17.6152217116
 20
7.477278043
 30
0.0
 10
17.5810333575
 20
7.477278045
 30
0.0
 10
17.5525430623
 20
7.4772780437
 30
0.0
 10
17.5297508262
 20
7.4772780206
 30
0.0
 10
17.5126566492
 20
7.4772781411
 30
0.0
 10
17.4955624719
 20
7.4772778707
 30
0.0
 10
17.4784682948
 20
7.4772780609
 30
0.0
 10
17.4642231484
 20
7.4772788716
 30
0.0
 10
17.4528270322
 20
7.4772767032
 30
0.0
 10
17.4442799398
 20
7.4772759292
 30
0.0
 10
17.4357328448
 20
7.4772804173
 30
0.0
 10
17.4286102684
 20
7.4772842185
 30
0.0
 10
17.4229122195
 20
7.4772815268
 30
0.0
 10
17.4186387025
 20
7.4772748937
 30
0.0
 10
17.4143651802
 20
7.4772692561
 30
0.0
 10
17.4100916174
 20
7.4772714319
 30
0.0
 10
17.4058179908
 20
7.4772880492
 30
0.0
 10
17.4001201359
 20
7.4773377342
 30
0.0
 10
17.3929986897
 20
7.4774834992
 30
0.0
 10
17.3844632882
 20
7.4779018902
 30
0.0
 10
17.3787882558
 20
7.4784093697
 30
0.0
 10
17.3759606102
 20
7.4787359048
 30
0.0
  0
SPLINE
  5
31A
100
AcDbEntity
  8
0
100
AcDbSpline
 62
9
  6
CONTINUOUS
 70
0
 71
3
 72
28
 73
24
 74
0
 42
0.0000001
 43
0.0000001
 44
0.0000000001
 40
0.0
 40
0.0
 40
0.0
 40
0.0
 40
0.0156133959
 40
0.0312266238
 40
0.0468476119
 40
0.0624752673
 40
0.0781009651
 40
0.0937262072
 40
0.1249770266
 40
0.1562278825
 40
0.1874786732
 40
0.2187295078
 40
0.2499803232
 40
0.281231143
 40
0.3124819638
 40
0.3437327832
 40
0.374983603
 40
0.4374852428
 40
0.4999868824
 40
0.6249901617
 40
0.749993441
 40
0.8749967205
 40
1.0
 40
1.0
 40
1.0
 40
1.0
 10
17.3758461427
 20
6.9970136494
 30
0.0
 10
17.3772661089
 20
6.9971198052
 30
0.0
 10
17.3801028923
 20
6.9973709327
 30
0.0
 10
17.3843602503
 20
6.9977337838
 30
0.0
 10
17.3886296147
 20
6.9979470583
 30
0.0
 10
17.3929040783
 20
6.9980343669
 30
0.0
 10
17.3971795165
 20
6.9980265821
 30
0.0
 10
17.4028794026
 20
6.9979764013
 30
0.0
 10
17.4100046185
 20
6.9979911169
 30
0.0
 10
17.4185547307
 20
6.9979907307
 30
0.0
 10
17.4271048881
 20
6.9979890263
 30
0.0
 10
17.4356550301
 20
6.997989027
 30
0.0
 10
17.4442051779
 20
6.9979879584
 30
0.0
 10
17.4527553236
 20
6.99798721
 30
0.0
 10
17.4613054699
 20
6.9979862976
 30
0.0
 10
17.4698556161
 20
6.9979852786
 30
0.0
 10
17.481255811
 20
6.9979838703
 30
0.0
 10
17.4955060546
 20
6.9979819808
 30
0.0
 10
17.5183064443
 20
6.9979787903
 30
0.0
 10
17.5468069315
 20
6.9979747176
 30
0.0
 10
17.5810075161
 20
6.997970359
 30
0.0
 10
17.615208101
 20
6.9979672054
 30
0.0
 10
17.638008491
 20
6.9979663548
 30
0.0
 10
17.649408686
 20
6.9979663548
 30
0.0
  0
SPLINE
  5
31B
100
AcDbEntity
  8
0
100
AcDbSpline
 62
9
  6
CONTINUOUS
 70
0
 71
3
 72
27
 73
23
 74
0
 42
0.0000001
 43
0.0000001
 44
0.0000000001
 40
0.0
 40
0.0
 40
0.0
 40
0.0
 40
0.050882272
 40
0.1031753129
 40
0.1298612908
 40
0.1569245677
 40
0.1843792066
 40
0.2122485953
 40
0.2405528077
 40
0.269315648
 40
0.2985551336
 40
0.3282872475
 40
0.3892225674
 40
0.4521071063
 40
0.5167895467
 40
0.5830471639
 40
0.6506221806
 40
0.7192540401
 40
0.7887022335
 40
0.858757605
 40
0.9292403195
 40
1.0
 40
1.0
 40
1.0
 40
1.0
 10
17.2409760791
 20
6.8487256741
 30
0.0
 10
17.2408451517
 20
6.8525333083
 30
0.0
 10
17.2406296163
 20
6.8602563929
 30
0.0
 10
17.2407732242
 20
6.8699848039
 30
0.0
 10
17.2412982881
 20
6.8779093081
 30
0.0
 10
17.2419456443
 20
6.8839568969
 30
0.0
 10
17.2428791363
 20
6.8900570787
 30
0.0
 10
17.244133501
 20
6.8961947687
 30
0.0
 10
17.2457364803
 20
6.9023524583
 30
0.0
 10
17.2477135757
 20
6.9085085956
 30
0.0
 10
17.2500851829
 20
6.9146391098
 30
0.0
 10
17.2538221254
 20
6.9228077213
 30
0.0
 10
17.2595606193
 20
6.9328060696
 30
0.0
 10
17.2680108785
 20
6.9441505537
 30
0.0
 10
17.2779759909
 20
6.9547436793
 30
0.0
 10
17.2893066162
 20
6.9644082895
 30
0.0
 10
17.3018261354
 20
6.9730036922
 30
0.0
 10
17.3153454554
 20
6.9804264656
 30
0.0
 10
17.3296777133
 20
6.9866041796
 30
0.0
 10
17.3446457688
 20
6.9914877705
 30
0.0
 10
17.3600823066
 20
6.9950433703
 30
0.0
 10
17.3705719875
 20
6.996509094
 30
0.0
 10
17.3758461427
 20
6.9970136494
 30
0.0
  0
SPLINE
  5
31C
100
AcDbEntity
  8
0
100
AcDbSpline
 62
9
  6
CONTINUOUS
 70
0
 71
3
 72
35
 73
31
 74
0
 42
0.0000001
 43
0.0000001
 44
0.0000000001
 40
0.0
 40
0.0
 40
0.0
 40
0.0
 40
0.015558618
 40
0.0233488869
 40
0.0311467393
 40
0.0389496673
 40
0.0467561194
 40
0.054567279
 40
0.0623826519
 40
0.0701982721
 40
0.0780120009
 40
0.0858248117
 40
0.0936377446
 40
0.1092647961
 40
0.1248919371
 40
0.1405187741
 40
0.1561456809
 40
0.1873995758
 40
0.2186534294
 40
0.2499072952
 40
0.281161157
 40
0.31241502
 40
0.3749227453
 40
0.4374304707
 40
0.4999381959
 40
0.5624459212
 40
0.6249536465
 40
0.7499690972
 40
0.8749845484
 40
1.0
 40
1.0
 40
1.0
 40
1.0
 10
17.3758461427
 20
6.8617863188
 30
0.0
 10
17.3772576321
 20
6.8616411334
 30
0.0
 10
17.379377972
 20
6.8614431579
 30
0.0
 10
17.3822094975
 20
6.861216548
 30
0.0
 10
17.3843373006
 20
6.8610636478
 30
0.0
 10
17.3864685631
 20
6.8609403539
 30
0.0
 10
17.3886033
 20
6.860862052
 30
0.0
 10
17.390740424
 20
6.8608395819
 30
0.0
 10
17.3928783241
 20
6.8608466555
 30
0.0
 10
17.3950164495
 20
6.8608563056
 30
0.0
 10
17.3971543655
 20
6.8608561423
 30
0.0
 10
17.399292028
 20
6.860853115
 30
0.0
 10
17.4021422633
 20
6.8608502408
 30
0.0
 10
17.4057051618
 20
6.8608520859
 30
0.0
 10
17.4099806831
 20
6.8608530505
 30
0.0
 10
17.4142561915
 20
6.860852494
 30
0.0
 10
17.4199568502
 20
6.86085281
 30
0.0
 10
17.4270826835
 20
6.860853405
 30
0.0
 10
17.4356336859
 20
6.860853908
 30
0.0
 10
17.4441846853
 20
6.8608546755
 30
0.0
 10
17.4527356855
 20
6.8608554625
 30
0.0
 10
17.4641370188
 20
6.8608566514
 30
0.0
 10
17.4783886855
 20
6.8608582954
 30
0.0
 10
17.4954906855
 20
6.8608604703
 30
0.0
 10
17.5125926854
 20
6.8608627582
 30
0.0
 10
17.5296946854
 20
6.8608650807
 30
0.0
 10
17.552497352
 20
6.8608681155
 30
0.0
 10
17.5810006853
 20
6.8608715916
 30
0.0
 10
17.6152046856
 20
6.8608746102
 30
0.0
 10
17.6380073525
 20
6.8608754243
 30
0.0
 10
17.649408686
 20
6.8608754243
 30
0.0
  0
SPLINE
  5
31D
100
AcDbEntity
  8
0
100
AcDbSpline
 62
7
  6
CONTINUOUS
 70
0
 71
3
 72
15
 73
11
 74
0
 42
0.0000001
 43
0.0000001
 44
0.0000000001
 40
0.0
 40
0.0
 40
0.0
 40
0.0
 40
0.1638605522
 40
0.313217906
 40
0.449688374
 40
0.5749687895
 40
0.6907902289
 40
0.7989642171
 40
0.9013849996
 40
1.0
 40
1.0
 40
1.0
 40
1.0
 10
17.739408686
 20
6.8807710343
 30
0.0
 10
17.7402065172
 20
6.8795135994
 30
0.0
 10
17.7417187896
 20
6.8771017268
 30
0.0
 10
17.7437879705
 20
6.8735763742
 30
0.0
 10
17.7455338035
 20
6.8702712579
 30
0.0
 10
17.7469547907
 20
6.8671451253
 30
0.0
 10
17.7480539552
 20
6.8641636453
 30
0.0
 10
17.7488353051
 20
6.8612973442
 30
0.0
 10
17.7493028835
 20
6.8585214827
 30
0.0
 10
17.749408686
 20
6.8566929683
 30
0.0
 10
17.749408686
 20
6.8557967419
 30
0.0
  0
SPLINE
  5
31E
100
AcDbEntity
  8
0
100
AcDbSpline
 62
9
  6
CONTINUOUS
 70
0
 71
3
 72
22
 73
18
 74
0
 42
0.0000001
 43
0.0000001
 44
0.0000000001
 40
0.0
 40
0.0
 40
0.0
 40
0.0
 40
0.1448632709
 40
0.2164760814
 40
0.2870771641
 40
0.3563691994
 40
0.4240895943
 40
0.490019749
 40
0.5539945973
 40
0.6159122921
 40
0.6757436956
 40
0.733541016
 40
0.7894444684
 40
0.8436853133
 40
0.8965832104
 40
0.9485358815
 40
1.0
 40
1.0
 40
1.0
 40
1.0
 10
17.649408686
 20
6.5116284332
 30
0.0
 10
17.6559274483
 20
6.5116284332
 30
0.0
 10
17.6656875766
 20
6.5109555929
 30
0.0
 10
17.6784162782
 20
6.508706499
 30
0.0
 10
17.6876535623
 20
6.5063754502
 30
0.0
 10
17.696524462
 20
6.5034165229
 30
0.0
 10
17.7049452838
 20
6.4998574979
 30
0.0
 10
17.7128352881
 20
6.4957318876
 30
0.0
 10
17.7201190665
 20
6.491078358
 30
0.0
 10
17.7267267222
 20
6.4859403891
 30
0.0
 10
17.7325944947
 20
6.4803658569
 30
0.0
 10
17.7376651496
 20
6.4744067036
 30
0.0
 10
17.741888354
 20
6.4681186187
 30
0.0
 10
17.7452210899
 20
6.4615611329
 30
0.0
 10
17.7476282528
 20
6.4547967526
 30
0.0
 10
17.7490835325
 20
6.4478936618
 30
0.0
 10
17.749408686
 20
6.4432336103
 30
0.0
 10
17.749408686
 20
6.4409177551
 30
0.0
  0
SPLINE
  5
31F
100
AcDbEntity
  8
0
100
AcDbSpline
 62
9
  6
CONTINUOUS
 70
0
 71
3
 72
18
 73
14
 74
0
 42
0.0000001
 43
0.0000001
 44
0.0000000001
 40
0.0
 40
0.0
 40
0.0
 40
0.0
 40
0.1803450902
 40
0.3440357122
 40
0.4178306457
 40
0.4865088056
 40
0.5505758254
 40
0.6106126255
 40
0.6671991298
 40
0.7208415895
 40
0.8209054681
 40
0.9134100065
 40
1.0
 40
1.0
 40
1.0
 40
1.0
 10
17.649408686
 20
6.8608754243
 30
0.0
 10
17.654694686
 20
6.860875366
 30
0.0
 10
17.6647891254
 20
6.8614429872
 30
0.0
 10
17.6768821111
 20
6.8635612177
 30
0.0
 10
17.6855475575
 20
6.8659111525
 30
0.0
 10
17.6912903926
 20
6.8678378595
 30
0.0
 10
17.6965336702
 20
6.8699532479
 30
0.0
 10
17.701320711
 20
6.87222593
 30
0.0
 10
17.7057012198
 20
6.8746226396
 30
0.0
 10
17.7109391961
 20
6.8778763779
 30
0.0
 10
17.7167678963
 20
6.8821535898
 30
0.0
 10
17.7228899201
 20
6.887597241
 30
0.0
 10
17.7265098526
 20
6.8914076807
 30
0.0
 10
17.7281860166
 20
6.8933134315
 30
0.0
  0
LINE
  5
320
100
AcDbEntity
  8
0
100
AcDbLine
 62
9
  6
CONTINUOUS
 10
17.7281860166
 20
6.8933134315
 11
17.728839067
 21
6.8940637051
  0
SPLINE
  5
321
100
AcDbEntity
  8
0
100
AcDbSpline
 62
7
  6
CONTINUOUS
 70
0
 71
3
 72
9
 73
5
 74
0
 42
0.0000001
 43
0.0000001
 44
0.0000000001
 40
0.0
 40
0.0
 40
0.0
 40
0.0
 40
0.5083766678
 40
1.0
 40
1.0
 40
1.0
 40
1.0
 10
17.728839067
 20
6.8940637051
 30
0.0
 10
17.7308491583
 20
6.8919988264
 30
0.0
 10
17.7346105287
 20
6.8877441778
 30
0.0
 10
17.7379156942
 20
6.8831240882
 30
0.0
 10
17.739408686
 20
6.8807710343
 30
0.0
  0
SPLINE
  5
322
100
AcDbEntity
  8
0
100
AcDbSpline
 62
9
  6
CONTINUOUS
 70
0
 71
3
 72
18
 73
14
 74
0
 42
0.0000001
 43
0.0000001
 44
0.0000000001
 40
0.0
 40
0.0
 40
0.0
 40
0.0
 40
0.1456955712
 40
0.2865731093
 40
0.4213069506
 40
0.5490767875
 40
0.6697259656
 40
0.7276146179
 40
0.7840351452
 40
0.8392014567
 40
0.8933742708
 40
0.9468663887
 40
1.0
 40
1.0
 40
1.0
 40
1.0
 10
17.6072310961
 20
6.4727099533
 30
0.0
 10
17.6101904274
 20
6.4732734957
 30
0.0
 10
17.615952847
 20
6.4747264038
 30
0.0
 10
17.6240880697
 20
6.4779068838
 30
0.0
 10
17.631398019
 20
6.481982715
 30
0.0
 10
17.6376882818
 20
6.4868511303
 30
0.0
 10
17.6420020065
 20
6.4915397125
 30
0.0
 10
17.6447491952
 20
6.4955548365
 30
0.0
 10
17.6464329013
 20
6.4986352094
 30
0.0
 10
17.64775518
 20
6.5018042893
 30
0.0
 10
17.6487068886
 20
6.5050411492
 30
0.0
 10
17.6492806462
 20
6.5083230353
 30
0.0
 10
17.649408686
 20
6.5105298028
 30
0.0
 10
17.649408686
 20
6.5116284332
 30
0.0
  0
SPLINE
  5
323
100
AcDbEntity
  8
0
100
AcDbSpline
 62
9
  6
CONTINUOUS
 70
0
 71
3
 72
21
 73
17
 74
0
 42
0.0000001
 43
0.0000001
 44
0.0000000001
 40
0.0
 40
0.0
 40
0.0
 40
0.0
 40
0.145651318
 40
0.2168013107
 40
0.2865639799
 40
0.4212575087
 40
0.4860691075
 40
0.549090428
 40
0.6103244234
 40
0.6698240968
 40
0.7276954944
 40
0.7840989646
 40
0.8392484753
 40
0.8934066321
 40
0.9468793081
 40
1.0
 40
1.0
 40
1.0
 40
1.0
 10
17.6332353244
 20
6.3337212403
 30
0.0
 10
17.6413864176
 20
6.3352734443
 30
0.0
 10
17.6534021074
 20
6.3383029455
 30
0.0
 10
17.6687893528
 20
6.3437843442
 30
0.0
 10
17.6832112107
 20
6.3500121655
 30
0.0
 10
17.6966640468
 20
6.3575133195
 30
0.0
 10
17.7088214453
 20
6.3662452686
 30
0.0
 10
17.7170518593
 20
6.3732124879
 30
0.0
 10
17.7244530445
 20
6.380634091
 30
0.0
 10
17.7309756212
 20
6.3884620665
 30
0.0
 10
17.7365748864
 20
6.3966450654
 30
0.0
 10
17.741212086
 20
6.405129281
 30
0.0
 10
17.7448543825
 20
6.413858226
 30
0.0
 10
17.7474755643
 20
6.4227736718
 30
0.0
 10
17.749056145
 20
6.4318132687
 30
0.0
 10
17.749408686
 20
6.4378915372
 30
0.0
 10
17.749408686
 20
6.4409177551
 30
0.0
  0
SPLINE
  5
324
100
AcDbEntity
  8
0
100
AcDbSpline
 62
9
  6
CONTINUOUS
 70
0
 71
3
 72
22
 73
18
 74
0
 42
0.0000001
 43
0.0000001
 44
0.0000000001
 40
0.0
 40
0.0
 40
0.0
 40
0.0
 40
0.0526859819
 40
0.1093973249
 40
0.1696288851
 40
0.2328347856
 40
0.2984358704
 40
0.3658267759
 40
0.5034612629
 40
0.572430693
 40
0.6406439348
 40
0.7074675307
 40
0.7722829112
 40
0.8344932584
 40
0.8935304561
 40
0.9488622647
 40
1.0
 40
1.0
 40
1.0
 40
1.0
 10
17.6072310961
 20
6.4727099533
 30
0.0
 10
17.6081185832
 20
6.4703797221
 30
0.0
 10
17.6098769976
 20
6.4655088646
 30
0.0
 10
17.6123873614
 20
6.4578823757
 30
0.0
 10
17.6148503828
 20
6.4497189792
 30
0.0
 10
17.6172420432
 20
6.4410970927
 30
0.0
 10
17.6195392177
 20
6.4320994336
 30
0.0
 10
17.6224665103
 20
6.4196296629
 30
0.0
 10
17.6250785557
 20
6.4069243581
 30
0.0
 10
17.6273558846
 20
6.3941182656
 30
0.0
 10
17.6288727888
 20
6.3845823956
 30
0.0
 10
17.6301830773
 20
6.3752144413
 30
0.0
 10
17.6312742024
 20
6.3661044397
 30
0.0
 10
17.632135879
 20
6.3573400299
 30
0.0
 10
17.6327601127
 20
6.3490053891
 30
0.0
 10
17.6331412691
 20
6.3411806729
 30
0.0
 10
17.6332353246
 20
6.3361414788
 30
0.0
 10
17.6332353244
 20
6.3337212403
 30
0.0
  0
SPLINE
  5
325
100
AcDbEntity
  8
0
100
AcDbSpline
 62
9
  6
CONTINUOUS
 70
0
 71
3
 72
13
 73
9
 74
0
 42
0.0000001
 43
0.0000001
 44
0.0000000001
 40
0.0
 40
0.0
 40
0.0
 40
0.0
 40
0.2488885655
 40
0.3743086263
 40
0.4999999998
 40
0.6256913732
 40
0.7511114342
 40
1.0
 40
1.0
 40
1.0
 40
1.0
 10
17.3315862758
 20
6.4727099533
 30
0.0
 10
17.3541769099
 20
6.4684080427
 30
0.0
 10
17.3884922195
 20
6.4635784872
 30
0.0
 10
17.4345891461
 20
6.4603562019
 30
0.0
 10
17.4694086859
 20
6.4595470244
 30
0.0
 10
17.5042282257
 20
6.4603562019
 30
0.0
 10
17.5503251524
 20
6.4635784872
 30
0.0
 10
17.584640462
 20
6.4684080427
 30
0.0
 10
17.6072310961
 20
6.4727099533
 30
0.0
  0
SPLINE
  5
326
100
AcDbEntity
  8
0
100
AcDbSpline
 62
9
  6
CONTINUOUS
 70
0
 71
3
 72
13
 73
9
 74
0
 42
0.0000001
 43
0.0000001
 44
0.0000000001
 40
0.0
 40
0.0
 40
0.0
 40
0.0
 40
0.2488885472
 40
0.374308766
 40
0.5
 40
0.625691234
 40
0.7511114528
 40
1.0
 40
1.0
 40
1.0
 40
1.0
 10
17.3055820475
 20
6.3337212403
 30
0.0
 10
17.3324350631
 20
6.3286076488
 30
0.0
 10
17.3732249766
 20
6.3228668743
 30
0.0
 10
17.4280194351
 20
6.3190365966
 30
0.0
 10
17.469408686
 20
6.3180747608
 30
0.0
 10
17.5107979368
 20
6.3190365966
 30
0.0
 10
17.5655923954
 20
6.3228668743
 30
0.0
 10
17.6063823088
 20
6.3286076488
 30
0.0
 10
17.6332353244
 20
6.3337212403
 30
0.0
  0
SPLINE
  5
327
100
AcDbEntity
  8
0
100
AcDbSpline
 62
9
  6
CONTINUOUS
 70
0
 71
3
 72
22
 73
18
 74
0
 42
0.0000001
 43
0.0000001
 44
0.0000000001
 40
0.0
 40
0.0
 40
0.0
 40
0.0
 40
0.0526859815
 40
0.1093973244
 40
0.1696288844
 40
0.232834785
 40
0.2984358699
 40
0.3658267756
 40
0.5034612629
 40
0.5724306932
 40
0.6406439352
 40
0.7074675312
 40
0.7722829119
 40
0.834493259
 40
0.8935304566
 40
0.9488622651
 40
1.0
 40
1.0
 40
1.0
 40
1.0
 10
17.3315862758
 20
6.4727099533
 30
0.0
 10
17.3306987889
 20
6.4703797221
 30
0.0
 10
17.3289403748
 20
6.4655088645
 30
0.0
 10
17.3264300114
 20
6.4578823755
 30
0.0
 10
17.3239669903
 20
6.449718979
 30
0.0
 10
17.3215753302
 20
6.4410970925
 30
0.0
 10
17.3192781559
 20
6.4320994333
 30
0.0
 10
17.3163508635
 20
6.4196296625
 30
0.0
 10
17.3137388182
 20
6.4069243578
 30
0.0
 10
17.3114614892
 20
6.3941182653
 30
0.0
 10
17.3099445849
 20
6.3845823952
 30
0.0
 10
17.3086342962
 20
6.375214441
 30
0.0
 10
17.3075431709
 20
6.3661044394
 30
0.0
 10
17.306681494
 20
6.3573400297
 30
0.0
 10
17.30605726
 20
6.349005389
 30
0.0
 10
17.3056761032
 20
6.3411806728
 30
0.0
 10
17.3055820475
 20
6.3361414788
 30
0.0
 10
17.3055820475
 20
6.3337212403
 30
0.0
  0
SPLINE
  5
328
100
AcDbEntity
  8
0
100
AcDbSpline
 62
9
  6
CONTINUOUS
 70
0
 71
3
 72
21
 73
17
 74
0
 42
0.0000001
 43
0.0000001
 44
0.0000000001
 40
0.0
 40
0.0
 40
0.0
 40
0.0
 40
0.0544517099
 40
0.1085035258
 40
0.1626044207
 40
0.2172170918
 40
0.2727653045
 40
0.3296241736
 40
0.3880997557
 40
0.4484206138
 40
0.5107348918
 40
0.575112095
 40
0.7098520465
 40
0.7801330762
 40
0.8520864377
 40
1.0
 40
1.0
 40
1.0
 40
1.0
 10
17.2902746441
 20
6.5186273381
 30
0.0
 10
17.2899711687
 20
6.5174103404
 30
0.0
 10
17.2895195392
 20
6.5149438434
 30
0.0
 10
17.2893299437
 20
6.5111928346
 30
0.0
 10
17.2896341135
 20
6.5074450837
 30
0.0
 10
17.2904288266
 20
6.5037351778
 30
0.0
 10
17.2917064108
 20
6.5000958016
 30
0.0
 10
17.293454504
 20
6.4965588283
 30
0.0
 10
17.2956568544
 20
6.4931545347
 30
0.0
 10
17.2982934234
 20
6.4899117257
 30
0.0
 10
17.3013411792
 20
6.4868572837
 30
0.0
 10
17.3059859914
 20
6.4830132674
 30
0.0
 10
17.3112868481
 20
6.4797201424
 30
0.0
 10
17.3170659107
 20
6.4770071052
 30
0.0
 10
17.3233170844
 20
6.474628346
 30
0.0
 10
17.3282393143
 20
6.4733473117
 30
0.0
 10
17.3315862758
 20
6.4727099533
 30
0.0
  0
SPLINE
  5
329
100
AcDbEntity
  8
0
100
AcDbSpline
 62
9
  6
CONTINUOUS
 70
0
 71
3
 72
20
 73
16
 74
0
 42
0.0000001
 43
0.0000001
 44
0.0000000001
 40
0.0
 40
0.0
 40
0.0
 40
0.0
 40
0.1466149975
 40
0.218426963
 40
0.2888954862
 40
0.4249045111
 40
0.4902288219
 40
0.5536056353
 40
0.6743196489
 40
0.7319097864
 40
0.7878057024
 40
0.8422390876
 40
0.8955067896
 40
0.9479625203
 40
1.0
 40
1.0
 40
1.0
 40
1.0
 10
17.2902746441
 20
6.5186273381
 30
0.0
 10
17.2845968625
 20
6.5193352551
 30
0.0
 10
17.2760598943
 20
6.5198751262
 30
0.0
 10
17.2647855899
 20
6.5194889133
 30
0.0
 10
17.2539746791
 20
6.5183922934
 30
0.0
 10
17.2435435862
 20
6.5162333682
 30
0.0
 10
17.2337311082
 20
6.5129703562
 30
0.0
 10
17.2247695896
 20
6.5091525196
 30
0.0
 10
17.2165808646
 20
6.504342328
 30
0.0
 10
17.2094742235
 20
6.4985733015
 30
0.0
 10
17.2048400112
 20
6.4939211056
 30
0.0
 10
17.200858294
 20
6.4889126768
 30
0.0
 10
17.1975606318
 20
6.4835852998
 30
0.0
 10
17.1949747994
 20
6.4779814897
 30
0.0
 10
17.193737246
 20
6.4740825955
 30
0.0
 10
17.1932458899
 20
6.4721121386
 30
0.0
  0
SPLINE
  5
32A
100
AcDbEntity
  8
0
100
AcDbSpline
 62
7
  6
CONTINUOUS
 70
0
 71
3
 72
19
 73
15
 74
0
 42
0.0000001
 43
0.0000001
 44
0.0000000001
 40
0.0
 40
0.0
 40
0.0
 40
0.0
 40
0.0663423975
 40
0.1321204071
 40
0.1973066968
 40
0.2618936021
 40
0.3892729353
 40
0.5144030833
 40
0.6375245955
 40
0.6984464907
 40
0.7590246826
 40
0.8193425856
 40
0.8795102529
 40
1.0
 40
1.0
 40
1.0
 40
1.0
 10
17.649408686
 20
6.9979663548
 30
0.0
 10
17.6515251355
 20
6.9960753126
 30
0.0
 10
17.6556481864
 20
6.9922050541
 30
0.0
 10
17.6615188742
 20
6.9861358693
 30
0.0
 10
17.6670605659
 20
6.9798651355
 30
0.0
 10
17.674007182
 20
6.9713312281
 30
0.0
 10
17.6820153381
 20
6.9603704536
 30
0.0
 10
17.6908948794
 20
6.9469740855
 30
0.0
 10
17.697990229
 20
6.9358114512
 30
0.0
 10
17.7036679555
 20
6.9270201698
 30
0.0
 10
17.7079656445
 20
6.9205366445
 30
0.0
 10
17.712371504
 20
6.9141642049
 30
0.0
 10
17.7184693062
 20
6.9058520888
 30
0.0
 10
17.72339288
 20
6.8998736645
 30
0.0
 10
17.7269031532
 20
6.8960989063
 30
0.0
  0
SPLINE
  5
32B
100
AcDbEntity
  8
0
100
AcDbSpline
 62
9
  6
CONTINUOUS
 70
0
 71
3
 72
17
 73
13
 74
0
 42
0.0000001
 43
0.0000001
 44
0.0000000001
 40
0.0
 40
0.0
 40
0.0
 40
0.0
 40
0.0498801509
 40
0.1030605485
 40
0.1592435436
 40
0.2181184882
 40
0.3425695355
 40
0.4735322226
 40
0.6079277382
 40
0.7425794689
 40
0.874302764
 40
1.0
 40
1.0
 40
1.0
 40
1.0
 10
17.3758461427
 20
6.8617863188
 30
0.0
 10
17.3762514166
 20
6.86400602
 30
0.0
 10
17.3770104491
 20
6.8686068021
 30
0.0
 10
17.3779785465
 20
6.8757458561
 30
0.0
 10
17.3788083186
 20
6.883311759
 30
0.0
 10
17.3797401845
 20
6.8941069053
 30
0.0
 10
17.3805063447
 20
6.9083076789
 30
0.0
 10
17.3808053858
 20
6.9259421907
 30
0.0
 10
17.380490454
 20
6.9440378991
 30
0.0
 10
17.3795690596
 20
6.9621473391
 30
0.0
 10
17.3780642618
 20
6.9798226705
 30
0.0
 10
17.3766542234
 20
6.9913852801
 30
0.0
 10
17.3758461427
 20
6.9970136494
 30
0.0
  0
SPLINE
  5
32C
100
AcDbEntity
  8
0
100
AcDbSpline
 62
9
  6
CONTINUOUS
 70
0
 71
3
 72
25
 73
21
 74
0
 42
0.0000001
 43
0.0000001
 44
0.0000000001
 40
0.0
 40
0.0
 40
0.0
 40
0.0
 40
0.1250208754
 40
0.2500417508
 40
0.3750626262
 40
0.4375730639
 40
0.5000835016
 40
0.5625939393
 40
0.625104377
 40
0.6876148147
 40
0.7188700334
 40
0.7501252526
 40
0.7813804705
 40
0.8126356915
 40
0.8438909073
 40
0.8751461194
 40
0.9064007201
 40
0.9376482822
 40
0.9688648633
 40
1.0
 40
1.0
 40
1.0
 40
1.0
 10
17.649408686
 20
7.6144167423
 30
0.0
 10
17.6380112529
 20
7.6144167423
 30
0.0
 10
17.6152163866
 20
7.6144167421
 30
0.0
 10
17.5810240872
 20
7.614416743
 30
0.0
 10
17.5525305044
 20
7.6144167408
 30
0.0
 10
17.5297356382
 20
7.6144167462
 30
0.0
 10
17.5126394885
 20
7.6144167254
 30
0.0
 10
17.4955433388
 20
7.6144167971
 30
0.0
 10
17.4784471891
 20
7.614416597
 30
0.0
 10
17.4642003977
 20
7.6144169945
 30
0.0
 10
17.4528029646
 20
7.6144164664
 30
0.0
 10
17.4442548898
 20
7.6144164651
 30
0.0
 10
17.4357068148
 20
7.6144180368
 30
0.0
 10
17.4271587405
 20
7.6144167341
 30
0.0
 10
17.4186106659
 20
7.6144101111
 30
0.0
 10
17.4100626499
 20
7.6144313838
 30
0.0
 10
17.4015153362
 20
7.6143881731
 30
0.0
 10
17.3929724998
 20
7.6142214306
 30
0.0
 10
17.38444786
 20
7.6138169221
 30
0.0
 10
17.3787819016
 20
7.613334726
 30
0.0
 10
17.3759606102
 20
7.613023451
 30
0.0
  0
SPLINE
  5
32D
100
AcDbEntity
  8
0
100
AcDbSpline
 62
7
  6
CONTINUOUS
 70
0
 71
3
 72
15
 73
11
 74
0
 42
0.0000001
 43
0.0000001
 44
0.0000000001
 40
0.0
 40
0.0
 40
0.0
 40
0.0
 40
0.0986150004
 40
0.2010357829
 40
0.3092097711
 40
0.4250312105
 40
0.550311626
 40
0.686782094
 40
0.8361394478
 40
1.0
 40
1.0
 40
1.0
 40
1.0
 10
17.749408686
 20
7.6194720656
 30
0.0
 10
17.749408686
 20
7.6185758392
 30
0.0
 10
17.7493028835
 20
7.6167473248
 30
0.0
 10
17.7488353051
 20
7.6139714633
 30
0.0
 10
17.7480539552
 20
7.6111051622
 30
0.0
 10
17.7469547907
 20
7.6081236822
 30
0.0
 10
17.7455338035
 20
7.6049975496
 30
0.0
 10
17.7437879705
 20
7.6016924332
 30
0.0
 10
17.7417187896
 20
7.5981670807
 30
0.0
 10
17.7402065172
 20
7.5957552081
 30
0.0
 10
17.739408686
 20
7.5944977732
 30
0.0
  0
SPLINE
  5
32E
100
AcDbEntity
  8
0
100
AcDbSpline
 62
7
  6
CONTINUOUS
 70
0
 71
3
 72
9
 73
5
 74
0
 42
0.0000001
 43
0.0000001
 44
0.0000000001
 40
0.0
 40
0.0
 40
0.0
 40
0.0
 40
0.2441071415
 40
1.0
 40
1.0
 40
1.0
 40
1.0
 10
17.739408686
 20
7.5944977732
 30
0.0
 10
17.7387020817
 20
7.593384118
 30
0.0
 10
17.7356875698
 20
7.5888986331
 30
0.0
 10
17.7322121628
 20
7.5847269845
 30
0.0
 10
17.729389383
 20
7.5817754396
 30
0.0
  0
SPLINE
  5
32F
100
AcDbEntity
  8
0
100
AcDbSpline
 62
9
  6
CONTINUOUS
 70
0
 71
3
 72
36
 73
32
 74
0
 42
0.0000001
 43
0.0000001
 44
0.0000000001
 40
0.0
 40
0.0
 40
0.0
 40
0.0
 40
0.0428352153
 40
0.0868250822
 40
0.1320113665
 40
0.1551007425
 40
0.1785568772
 40
0.2267329454
 40
0.2515482484
 40
0.2769077542
 40
0.3028765725
 40
0.3295389304
 40
0.3852889603
 40
0.4145146531
 40
0.444730619
 40
0.4760515906
 40
0.5085938014
 40
0.5424266167
 40
0.5776041546
 40
0.6141815856
 40
0.6522076587
 40
0.6917062268
 40
0.7326286341
 40
0.7535717975
 40
0.7748151681
 40
0.7963582577
 40
0.8182023729
 40
0.8626974447
 40
0.9080006755
 40
0.9538603124
 40
1.0
 40
1.0
 40
1.0
 40
1.0
 10
17.729389383
 20
7.5817754396
 30
0.0
 10
17.7286042526
 20
7.5827934783
 30
0.0
 10
17.7269839835
 20
7.584835071
 30
0.0
 10
17.7244110017
 20
7.5878492814
 30
0.0
 10
17.7221107814
 20
7.590313599
 30
0.0
 10
17.7201495458
 20
7.5922463761
 30
0.0
 10
17.7180637717
 20
7.5941787173
 30
0.0
 10
17.7158486585
 20
7.5960452995
 30
0.0
 10
17.7135156631
 20
7.5978540634
 30
0.0
 10
17.7116727063
 20
7.599206029
 30
0.0
 10
17.7097396028
 20
7.6005269051
 30
0.0
 10
17.706982994
 20
7.6022555379
 30
0.0
 10
17.7040295852
 20
7.603846328
 30
0.0
 10
17.7009106453
 20
7.6053384405
 30
0.0
 10
17.6984169818
 20
7.6064363648
 30
0.0
 10
17.6957927923
 20
7.6074805001
 30
0.0
 10
17.693028132
 20
7.6084594514
 30
0.0
 10
17.6901204068
 20
7.6093751114
 30
0.0
 10
17.6870678755
 20
7.6102285015
 30
0.0
 10
17.6838676254
 20
7.6110147391
 30
0.0
 10
17.6805177576
 20
7.6117289183
 30
0.0
 10
17.6770179635
 20
7.6123564766
 30
0.0
 10
17.6740083317
 20
7.6128031823
 30
0.0
 10
17.6715359567
 20
7.6131338193
 30
0.0
 10
17.6696376064
 20
7.6133683223
 30
0.0
 10
17.6677094966
 20
7.613581351
 30
0.0
 10
17.6650834832
 20
7.613829918
 30
0.0
 10
17.6617407731
 20
7.6140676703
 30
0.0
 10
17.6576742914
 20
7.6142752576
 30
0.0
 10
17.6535547985
 20
7.6143956603
 30
0.0
 10
17.6507934894
 20
7.6144170655
 30
0.0
 10
17.649408686
 20
7.6144167423
 30
0.0
  0
SPLINE
  5
330
100
AcDbEntity
  8
0
100
AcDbSpline
 62
9
  6
CONTINUOUS
 70
0
 71
3
 72
22
 73
18
 74
0
 42
0.0000001
 43
0.0000001
 44
0.0000000001
 40
0.0
 40
0.0
 40
0.0
 40
0.0
 40
0.1448632722
 40
0.2164760835
 40
0.287077167
 40
0.356369203
 40
0.4240895987
 40
0.490019754
 40
0.5539946028
 40
0.6159122978
 40
0.6757437013
 40
0.7335410214
 40
0.7894444733
 40
0.8436853174
 40
0.8965832133
 40
0.9485358831
 40
1.0
 40
1.0
 40
1.0
 40
1.0
 10
17.649408686
 20
7.9636403743
 30
0.0
 10
17.6559274484
 20
7.9636403745
 30
0.0
 10
17.6656875767
 20
7.9643132151
 30
0.0
 10
17.6784162782
 20
7.9665623093
 30
0.0
 10
17.6876535623
 20
7.9688933582
 30
0.0
 10
17.6965244619
 20
7.9718522857
 30
0.0
 10
17.7049452838
 20
7.9754113108
 30
0.0
 10
17.7128352881
 20
7.9795369212
 30
0.0
 10
17.7201190665
 20
7.9841904507
 30
0.0
 10
17.7267267222
 20
7.9893284196
 30
0.0
 10
17.7325944947
 20
7.9949029517
 30
0.0
 10
17.7376651496
 20
8.0008621049
 30
0.0
 10
17.741888354
 20
8.0071501897
 30
0.0
 10
17.7452210899
 20
8.0137076753
 30
0.0
 10
17.7476282528
 20
8.0204720554
 30
0.0
 10
17.7490835325
 20
8.0273751459
 30
0.0
 10
17.749408686
 20
8.0320351973
 30
0.0
 10
17.749408686
 20
8.0343510524
 30
0.0
  0
SPLINE
  5
331
100
AcDbEntity
  8
0
100
AcDbSpline
 62
9
  6
CONTINUOUS
 70
0
 71
3
 72
18
 73
14
 74
0
 42
0.0000001
 43
0.0000001
 44
0.0000000001
 40
0.0
 40
0.0
 40
0.0
 40
0.0
 40
0.0531336113
 40
0.1066257292
 40
0.1607985433
 40
0.2159648548
 40
0.2723853821
 40
0.3302740344
 40
0.4509232125
 40
0.5786930494
 40
0.7134268907
 40
0.8543044288
 40
1.0
 40
1.0
 40
1.0
 40
1.0
 10
17.649408686
 20
7.9636403743
 30
0.0
 10
17.649408686
 20
7.9647390046
 30
0.0
 10
17.6492806462
 20
7.9669457722
 30
0.0
 10
17.6487068886
 20
7.9702276583
 30
0.0
 10
17.64775518
 20
7.9734645182
 30
0.0
 10
17.6464329013
 20
7.9766335981
 30
0.0
 10
17.6447491952
 20
7.979713971
 30
0.0
 10
17.6420020065
 20
7.983729095
 30
0.0
 10
17.6376882818
 20
7.9884176772
 30
0.0
 10
17.631398019
 20
7.9932860925
 30
0.0
 10
17.6240880697
 20
7.9973619237
 30
0.0
 10
17.615952847
 20
8.0005424037
 30
0.0
 10
17.6101904274
 20
8.0019953118
 30
0.0
 10
17.6072310961
 20
8.0025588542
 30
0.0
  0
SPLINE
  5
332
100
AcDbEntity
  8
0
100
AcDbSpline
 62
9
  6
CONTINUOUS
 70
0
 71
3
 72
22
 73
18
 74
0
 42
0.0000001
 43
0.0000001
 44
0.0000000001
 40
0.0
 40
0.0
 40
0.0
 40
0.0
 40
0.0526859815
 40
0.1093973244
 40
0.1696288844
 40
0.232834785
 40
0.2984358699
 40
0.3658267756
 40
0.5034612629
 40
0.5724306932
 40
0.6406439352
 40
0.7074675312
 40
0.7722829118
 40
0.834493259
 40
0.8935304566
 40
0.9488622651
 40
1.0
 40
1.0
 40
1.0
 40
1.0
 10
17.6072310961
 20
8.0025588542
 30
0.0
 10
17.6081185831
 20
8.0048890854
 30
0.0
 10
17.6098769971
 20
8.009759943
 30
0.0
 10
17.6123873606
 20
8.017386432
 30
0.0
 10
17.6148503816
 20
8.0255498285
 30
0.0
 10
17.6172420418
 20
8.034171715
 30
0.0
 10
17.6195392161
 20
8.0431693742
 30
0.0
 10
17.6224665085
 20
8.055639145
 30
0.0
 10
17.6250785538
 20
8.0683444497
 30
0.0
 10
17.6273558828
 20
8.0811505422
 30
0.0
 10
17.6288727871
 20
8.0906864123
 30
0.0
 10
17.6301830757
 20
8.1000543665
 30
0.0
 10
17.6312742011
 20
8.109164368
 30
0.0
 10
17.632135878
 20
8.1179287778
 30
0.0
 10
17.632760112
 20
8.1262634185
 30
0.0
 10
17.6331412687
 20
8.1340881347
 30
0.0
 10
17.6332353245
 20
8.1391273287
 30
0.0
 10
17.6332353245
 20
8.1415475672
 30
0.0
  0
SPLINE
  5
333
100
AcDbEntity
  8
0
100
AcDbSpline
 62
9
  6
CONTINUOUS
 70
0
 71
3
 72
13
 73
9
 74
0
 42
0.0000001
 43
0.0000001
 44
0.0000000001
 40
0.0
 40
0.0
 40
0.0
 40
0.0
 40
0.2488885658
 40
0.3743086268
 40
0.5000000002
 40
0.6256913737
 40
0.7511114345
 40
1.0
 40
1.0
 40
1.0
 40
1.0
 10
17.6072310961
 20
8.0025588542
 30
0.0
 10
17.584640462
 20
8.0068607648
 30
0.0
 10
17.5503251524
 20
8.0116903203
 30
0.0
 10
17.5042282257
 20
8.0149126056
 30
0.0
 10
17.4694086859
 20
8.0157217831
 30
0.0
 10
17.4345891461
 20
8.0149126056
 30
0.0
 10
17.3884922195
 20
8.0116903203
 30
0.0
 10
17.3541769099
 20
8.0068607648
 30
0.0
 10
17.3315862758
 20
8.0025588542
 30
0.0
  0
SPLINE
  5
334
100
AcDbEntity
  8
0
100
AcDbSpline
 62
9
  6
CONTINUOUS
 70
0
 71
3
 72
22
 73
18
 74
0
 42
0.0000001
 43
0.0000001
 44
0.0000000001
 40
0.0
 40
0.0
 40
0.0
 40
0.0
 40
0.0526859818
 40
0.1093973249
 40
0.169628885
 40
0.2328347855
 40
0.2984358704
 40
0.3658267759
 40
0.5034612629
 40
0.572430693
 40
0.6406439348
 40
0.7074675308
 40
0.7722829113
 40
0.8344932585
 40
0.8935304562
 40
0.9488622648
 40
1.0
 40
1.0
 40
1.0
 40
1.0
 10
17.3315862758
 20
8.0025588542
 30
0.0
 10
17.3306987888
 20
8.0048890854
 30
0.0
 10
17.3289403744
 20
8.0097599429
 30
0.0
 10
17.3264300107
 20
8.0173864318
 30
0.0
 10
17.3239669893
 20
8.0255498283
 30
0.0
 10
17.3215753289
 20
8.0341717148
 30
0.0
 10
17.3192781545
 20
8.043169374
 30
0.0
 10
17.3163508619
 20
8.0556391447
 30
0.0
 10
17.3137388166
 20
8.0683444494
 30
0.0
 10
17.3114614876
 20
8.0811505419
 30
0.0
 10
17.3099445834
 20
8.090686412
 30
0.0
 10
17.3086342949
 20
8.1000543662
 30
0.0
 10
17.3075431697
 20
8.1091643678
 30
0.0
 10
17.3066814931
 20
8.1179287777
 30
0.0
 10
17.3060572594
 20
8.1262634184
 30
0.0
 10
17.3056761029
 20
8.1340881346
 30
0.0
 10
17.3055820474
 20
8.1391273286
 30
0.0
 10
17.3055820475
 20
8.1415475672
 30
0.0
  0
SPLINE
  5
335
100
AcDbEntity
  8
0
100
AcDbSpline
 62
9
  6
CONTINUOUS
 70
0
 71
3
 72
21
 73
17
 74
0
 42
0.0000001
 43
0.0000001
 44
0.0000000001
 40
0.0
 40
0.0
 40
0.0
 40
0.0
 40
0.1479135623
 40
0.2198669238
 40
0.2901479535
 40
0.424887905
 40
0.4892651082
 40
0.5515793862
 40
0.6119002443
 40
0.6703758264
 40
0.7272346955
 40
0.7827829082
 40
0.8373955793
 40
0.8914964742
 40
0.9455482901
 40
1.0
 40
1.0
 40
1.0
 40
1.0
 10
17.3315862758
 20
8.0025588542
 30
0.0
 10
17.3282393143
 20
8.0019214958
 30
0.0
 10
17.3233170844
 20
8.0006404615
 30
0.0
 10
17.3170659107
 20
7.9982617023
 30
0.0
 10
17.3112868481
 20
7.9955486651
 30
0.0
 10
17.3059859914
 20
7.9922555401
 30
0.0
 10
17.3013411792
 20
7.9884115238
 30
0.0
 10
17.2982934234
 20
7.9853570818
 30
0.0
 10
17.2956568544
 20
7.9821142728
 30
0.0
 10
17.293454504
 20
7.9787099792
 30
0.0
 10
17.2917064108
 20
7.9751730059
 30
0.0
 10
17.2904288266
 20
7.9715336296
 30
0.0
 10
17.2896341135
 20
7.9678237238
 30
0.0
 10
17.2893299437
 20
7.9640759729
 30
0.0
 10
17.2895195392
 20
7.9603249641
 30
0.0
 10
17.2899711687
 20
7.9578584671
 30
0.0
 10
17.2902746441
 20
7.9566414694
 30
0.0
  0
SPLINE
  5
336
100
AcDbEntity
  8
0
100
AcDbSpline
 62
9
  6
CONTINUOUS
 70
0
 71
3
 72
22
 73
18
 74
0
 42
0.0000001
 43
0.0000001
 44
0.0000000001
 40
0.0
 40
0.0
 40
0.0
 40
0.0
 40
0.0805841344
 40
0.1600085492
 40
0.3134729826
 40
0.386691366
 40
0.4570091314
 40
0.5240868766
 40
0.5876709905
 40
0.6476131274
 40
0.7039186517
 40
0.7568750411
 40
0.8070600428
 40
0.8553018933
 40
0.9026649028
 40
0.9504298434
 40
1.0
 40
1.0
 40
1.0
 40
1.0
 10
17.3759606102
 20
7.613023451
 30
0.0
 10
17.3730596413
 20
7.6127538366
 30
0.0
 10
17.3672881544
 20
7.6123279434
 30
0.0
 10
17.3559574213
 20
7.6119904279
 30
0.0
 10
17.3448768375
 20
7.6124452117
 30
0.0
 10
17.3342139117
 20
7.6137484492
 30
0.0
 10
17.3267146118
 20
7.6150937672
 30
0.0
 10
17.3196477331
 20
7.6168044941
 30
0.0
 10
17.3130656112
 20
7.6188635685
 30
0.0
 10
17.3070128313
 20
7.6212552353
 30
0.0
 10
17.3015212644
 20
7.6239690883
 30
0.0
 10
17.2966163111
 20
7.6270180947
 30
0.0
 10
17.2923185132
 20
7.6304294072
 30
0.0
 10
17.2886467464
 20
7.6342350044
 30
0.0
 10
17.2856213539
 20
7.638468755
 30
0.0
 10
17.2832640129
 20
7.6431616445
 30
0.0
 10
17.2821771867
 20
7.6465243521
 30
0.0
 10
17.2817435309
 20
7.6482632738
 30
0.0
  0
SPLINE
  5
337
100
AcDbEntity
  8
0
100
AcDbSpline
 62
9
  6
CONTINUOUS
 70
0
 71
3
 72
20
 73
16
 74
0
 42
0.0000001
 43
0.0000001
 44
0.0000000001
 40
0.0
 40
0.0
 40
0.0
 40
0.0
 40
0.1466149963
 40
0.2184269612
 40
0.2888954838
 40
0.4249045074
 40
0.4902288177
 40
0.5536056307
 40
0.674319644
 40
0.7319097818
 40
0.7878056983
 40
0.8422390841
 40
0.895506787
 40
0.9479625189
 40
1.0
 40
1.0
 40
1.0
 40
1.0
 10
17.2902746441
 20
7.9566414694
 30
0.0
 10
17.2845968625
 20
7.9559335523
 30
0.0
 10
17.2760598944
 20
7.9553936809
 30
0.0
 10
17.2647855901
 20
7.9557798935
 30
0.0
 10
17.2539746793
 20
7.9568765133
 30
0.0
 10
17.2435435864
 20
7.9590354383
 30
0.0
 10
17.2337311084
 20
7.9622984503
 30
0.0
 10
17.2247695899
 20
7.9661162868
 30
0.0
 10
17.2165808648
 20
7.9709264784
 30
0.0
 10
17.2094742237
 20
7.976695505
 30
0.0
 10
17.2048400114
 20
7.9813477009
 30
0.0
 10
17.2008582942
 20
7.9863561298
 30
0.0
 10
17.1975606319
 20
7.991683507
 30
0.0
 10
17.1949747995
 20
7.9972873173
 30
0.0
 10
17.1937372461
 20
8.0011862115
 30
0.0
 10
17.19324589
 20
8.0031566686
 30
0.0
  0
SPLINE
  5
338
100
AcDbEntity
  8
0
100
AcDbSpline
 62
9
  6
CONTINUOUS
 70
0
 71
3
 72
18
 73
14
 74
0
 42
0.0000001
 43
0.0000001
 44
0.0000000001
 40
0.0
 40
0.0
 40
0.0
 40
0.0
 40
0.0500012912
 40
0.1032597991
 40
0.1594886977
 40
0.218385733
 40
0.2796188981
 40
0.3428391496
 40
0.4737578797
 40
0.6080913001
 40
0.742675507
 40
0.8743381959
 40
1.0
 40
1.0
 40
1.0
 40
1.0
 10
17.3759606102
 20
7.613023451
 30
0.0
 10
17.37644404
 20
7.6108262794
 30
0.0
 10
17.3773499309
 20
7.6062681531
 30
0.0
 10
17.3785062155
 20
7.5991848256
 30
0.0
 10
17.3794973875
 20
7.5916726544
 30
0.0
 10
17.3803170744
 20
7.583779198
 30
0.0
 10
17.3809599661
 20
7.5755538741
 30
0.0
 10
17.3815828297
 20
7.5640798341
 30
0.0
 10
17.3818836114
 20
7.5492987735
 30
0.0
 10
17.3815074284
 20
7.5313080203
 30
0.0
 10
17.3804063465
 20
7.5133131558
 30
0.0
 10
17.3786086535
 20
7.4957669108
 30
0.0
 10
17.3769249587
 20
7.484307004
 30
0.0
 10
17.3759606102
 20
7.4787359048
 30
0.0
  0
SPLINE
  5
339
100
AcDbEntity
  8
0
100
AcDbSpline
 62
7
  6
CONTINUOUS
 70
0
 71
3
 72
22
 73
18
 74
0
 42
0.0000001
 43
0.0000001
 44
0.0000000001
 40
0.0
 40
0.0
 40
0.0
 40
0.0
 40
0.060363937
 40
0.120425095
 40
0.1804234436
 40
0.2405516619
 40
0.3009461947
 40
0.3617159873
 40
0.4846853797
 40
0.5469933374
 40
0.609897195
 40
0.6734147746
 40
0.7375541946
 40
0.8023046641
 40
0.867650233
 40
0.9335629268
 40
1.0
 40
1.0
 40
1.0
 40
1.0
 10
17.7293917692
 20
7.5817782023
 30
0.0
 10
17.7275557656
 20
7.579858447
 30
0.0
 10
17.7240257625
 20
7.5759000562
 30
0.0
 10
17.7190843949
 20
7.5696815234
 30
0.0
 10
17.7144291268
 20
7.5632601668
 30
0.0
 10
17.7099712249
 20
7.5566838094
 30
0.0
 10
17.7056380305
 20
7.5499847495
 30
0.0
 10
17.6999040923
 20
7.540899537
 30
0.0
 10
17.6941493024
 20
7.5317272957
 30
0.0
 10
17.6881454763
 20
7.5226033188
 30
0.0
 10
17.683432954
 20
7.5157635382
 30
0.0
 10
17.6784884568
 20
7.5089889266
 30
0.0
 10
17.6732770846
 20
7.5023134725
 30
0.0
 10
17.667776754
 20
7.4957681414
 30
0.0
 10
17.6619719992
 20
7.4893848521
 30
0.0
 10
17.6558571411
 20
7.4831931319
 30
0.0
 10
17.6515916021
 20
7.4792244655
 30
0.0
 10
17.6494100658
 20
7.4772780435
 30
0.0
  0
SPLINE
  5
33A
100
AcDbEntity
  8
0
100
AcDbSpline
 62
7
  6
CONTINUOUS
 70
0
 71
3
 72
23
 73
19
 74
0
 42
0.0000001
 43
0.0000001
 44
0.0000000001
 40
0.0
 40
0.0
 40
0.0
 40
0.0
 40
0.062136471
 40
0.1233138835
 40
0.1836978568
 40
0.243500286
 40
0.3029543453
 40
0.3623125767
 40
0.4218371127
 40
0.4817876678
 40
0.5424104039
 40
0.6039284703
 40
0.6665342916
 40
0.7303844033
 40
0.7955966015
 40
0.8622475156
 40
0.9303825193
 40
1.0
 40
1.0
 40
1.0
 40
1.0
 10
19.7724272491
 20
0.4500693885
 30
0.0
 10
19.7837233798
 20
0.4439518597
 30
0.0
 10
19.8058063621
 20
0.431177643
 30
0.0
 10
19.8374758217
 20
0.4101717317
 30
0.0
 10
19.8673221878
 20
0.3874281342
 30
0.0
 10
19.8952580571
 20
0.3629082796
 30
0.0
 10
19.9212046728
 20
0.3365862204
 30
0.0
 10
19.9450895334
 20
0.3084535126
 30
0.0
 10
19.9668486335
 20
0.2785183987
 30
0.0
 10
19.9864269503
 20
0.2468061913
 30
0.0
 10
20.0037794967
 20
0.2133594033
 30
0.0
 10
20.0188702642
 20
0.1782363463
 30
0.0
 10
20.0316714954
 20
0.1415102293
 30
0.0
 10
20.0421625694
 20
0.1032682046
 30
0.0
 10
20.0503286994
 20
0.0636111217
 30
0.0
 10
20.0561606968
 20
0.0226508241
 30
0.0
 10
20.0596515359
 20
-0.0194859739
 30
0.0
 10
20.0604086692
 20
-0.0479720643
 30
0.0
 10
20.060408686
 20
-0.0623649826
 30
0.0
  0
SPLINE
  5
33B
100
AcDbEntity
  8
0
100
AcDbSpline
 62
7
  6
CONTINUOUS
 70
0
 71
3
 72
21
 73
17
 74
0
 42
0.0000001
 43
0.0000001
 44
0.0000000001
 40
0.0
 40
0.0
 40
0.0
 40
0.0
 40
0.0569598007
 40
0.1150506898
 40
0.1742060878
 40
0.2343544314
 40
0.2954078393
 40
0.3572722202
 40
0.4198487938
 40
0.483037409
 40
0.6108277288
 40
0.7399481438
 40
0.8048296467
 40
0.8698291637
 40
0.9349020915
 40
1.0
 40
1.0
 40
1.0
 40
1.0
 10
20.060408686
 20
-0.0623659124
 30
0.0
 10
20.0604086863
 20
-0.0770608402
 30
0.0
 10
20.0596031141
 20
-0.1067478831
 30
0.0
 10
20.0560662334
 20
-0.1515697682
 30
0.0
 10
20.0501931407
 20
-0.1969758513
 30
0.0
 10
20.0419933902
 20
-0.242795527
 30
0.0
 10
20.0314788743
 20
-0.2888568715
 30
0.0
 10
20.0186670407
 20
-0.3349827114
 30
0.0
 10
20.0035801516
 20
-0.3809961578
 30
0.0
 10
19.9803863799
 20
-0.4421806186
 30
0.0
 10
19.9458769158
 20
-0.5173382116
 30
0.0
 10
19.9045218804
 20
-0.589461393
 30
0.0
 10
19.8674358097
 20
-0.6450666405
 30
0.0
 10
19.8376592983
 20
-0.6856231784
 30
0.0
 10
19.8060532119
 20
-0.7248397563
 30
0.0
 10
19.7838198119
 20
-0.7500260913
 30
0.0
 10
19.7724272491
 20
-0.7623655963
 30
0.0
  0
SPLINE
  5
33C
100
AcDbEntity
  8
0
100
AcDbSpline
 62
7
  6
CONTINUOUS
 70
0
 71
3
 72
21
 73
17
 74
0
 42
0.0000001
 43
0.0000001
 44
0.0000000001
 40
0.0
 40
0.0
 40
0.0
 40
0.0
 40
0.0650978891
 40
0.1301708116
 40
0.1951703283
 40
0.2600518059
 40
0.3891722294
 40
0.5169625285
 40
0.5801511553
 40
0.6427277239
 40
0.7045920982
 40
0.7656455289
 40
0.8257938643
 40
0.8849492673
 40
0.9430401831
 40
1.0
 40
1.0
 40
1.0
 40
1.0
 10
19.7724272491
 20
-0.7623655963
 30
0.0
 10
19.7838197918
 20
-0.7747050794
 30
0.0
 10
19.8060531573
 20
-0.7998913705
 30
0.0
 10
19.8376591945
 20
-0.8391078847
 30
0.0
 10
19.8674356673
 20
-0.8796643491
 30
0.0
 10
19.904521695
 20
-0.9352695017
 30
0.0
 10
19.9458766915
 20
-1.007392553
 30
0.0
 10
19.9803861417
 20
-1.0825500181
 30
0.0
 10
20.0035799154
 20
-1.1437343713
 30
0.0
 10
20.0186668157
 20
-1.189747739
 30
0.0
 10
20.0314786662
 20
-1.2358735042
 30
0.0
 10
20.0419932067
 20
-1.2819347738
 30
0.0
 10
20.0501929923
 20
-1.3277543789
 30
0.0
 10
20.0560661237
 20
-1.373160395
 30
0.0
 10
20.0596030556
 20
-1.4179822221
 30
0.0
 10
20.0604086657
 20
-1.4476692314
 30
0.0
 10
20.060408686
 20
-1.4623641418
 30
0.0
  0
SPLINE
  5
33D
100
AcDbEntity
  8
0
100
AcDbSpline
 62
9
  6
CONTINUOUS
 70
0
 71
3
 72
21
 73
17
 74
0
 42
0.0000001
 43
0.0000001
 44
0.0000000001
 40
0.0
 40
0.0
 40
0.0
 40
0.0
 40
0.145651318
 40
0.2168013107
 40
0.2865639799
 40
0.4212575087
 40
0.4860691075
 40
0.549090428
 40
0.6103244234
 40
0.6698240968
 40
0.7276954944
 40
0.7840989646
 40
0.8392484753
 40
0.8934066321
 40
0.9468793081
 40
1.0
 40
1.0
 40
1.0
 40
1.0
 10
17.6332353244
 20
8.1415475672
 30
0.0
 10
17.6413864176
 20
8.1399953632
 30
0.0
 10
17.6534021074
 20
8.136965862
 30
0.0
 10
17.6687893528
 20
8.1314844633
 30
0.0
 10
17.6832112106
 20
8.125256642
 30
0.0
 10
17.6966640467
 20
8.117755488
 30
0.0
 10
17.7088214453
 20
8.1090235389
 30
0.0
 10
17.7170518593
 20
8.1020563196
 30
0.0
 10
17.7244530445
 20
8.0946347165
 30
0.0
 10
17.7309756212
 20
8.086806741
 30
0.0
 10
17.7365748864
 20
8.0786237421
 30
0.0
 10
17.741212086
 20
8.0701395265
 30
0.0
 10
17.7448543825
 20
8.0614105815
 30
0.0
 10
17.7474755643
 20
8.0524951357
 30
0.0
 10
17.7490561449
 20
8.0434555388
 30
0.0
 10
17.749408686
 20
8.0373772703
 30
0.0
 10
17.749408686
 20
8.0343510524
 30
0.0
  0
SPLINE
  5
33E
100
AcDbEntity
  8
0
100
AcDbSpline
 62
9
  6
CONTINUOUS
 70
0
 71
3
 72
13
 73
9
 74
0
 42
0.0000001
 43
0.0000001
 44
0.0000000001
 40
0.0
 40
0.0
 40
0.0
 40
0.0
 40
0.2488885472
 40
0.374308766
 40
0.5
 40
0.625691234
 40
0.7511114528
 40
1.0
 40
1.0
 40
1.0
 40
1.0
 10
17.3055820475
 20
8.1415475672
 30
0.0
 10
17.3324350631
 20
8.1466611587
 30
0.0
 10
17.3732249766
 20
8.1524019332
 30
0.0
 10
17.4280194351
 20
8.1562322109
 30
0.0
 10
17.469408686
 20
8.1571940467
 30
0.0
 10
17.5107979368
 20
8.1562322109
 30
0.0
 10
17.5655923954
 20
8.1524019332
 30
0.0
 10
17.6063823088
 20
8.1466611587
 30
0.0
 10
17.6332353244
 20
8.1415475672
 30
0.0
  0
SPLINE
  5
33F
100
AcDbEntity
  8
0
100
AcDbSpline
 62
7
  6
CONTINUOUS
 70
0
 71
3
 72
11
 73
7
 74
0
 42
0.0000001
 43
0.0000001
 44
0.0000000001
 40
0.0
 40
0.0
 40
0.0
 40
0.0
 40
0.260970239
 40
0.5136953452
 40
0.7595338042
 40
1.0
 40
1.0
 40
1.0
 40
1.0
 10
16.7807585361
 20
7.1576344037
 30
0.0
 10
16.7790814581
 20
7.1604623252
 30
0.0
 10
16.7759826185
 20
7.1661524738
 30
0.0
 10
16.7720865517
 20
7.1749038972
 30
0.0
 10
16.7690301213
 20
7.1837104385
 30
0.0
 10
16.7675427592
 20
7.1896641611
 30
0.0
 10
16.7669465139
 20
7.1926344037
 30
0.0
  0
SPLINE
  5
340
100
AcDbEntity
  8
0
100
AcDbSpline
 62
7
  6
CONTINUOUS
 70
0
 71
3
 72
15
 73
11
 74
0
 42
0.0000001
 43
0.0000001
 44
0.0000000001
 40
0.0
 40
0.0
 40
0.0
 40
0.0
 40
0.1248067801
 40
0.2495704616
 40
0.3743409308
 40
0.4991681927
 40
0.6241020456
 40
0.7491898109
 40
0.874475266
 40
1.0
 40
1.0
 40
1.0
 40
1.0
 10
16.7735152039
 20
7.1849333526
 30
0.0
 10
16.7717925347
 20
7.1979286344
 30
0.0
 10
16.7692649617
 20
7.2240458525
 30
0.0
 10
16.7682528434
 20
7.2633826191
 30
0.0
 10
16.7700245266
 20
7.3026966566
 30
0.0
 10
16.7745722056
 20
7.3418043974
 30
0.0
 10
16.7818747886
 20
7.3805263322
 30
0.0
 10
16.7918989946
 20
7.4186846239
 30
0.0
 10
16.8045976756
 20
7.4561014296
 30
0.0
 10
16.8147994763
 20
7.4804170037
 30
0.0
 10
16.8203207711
 20
7.4923895979
 30
0.0
  0
SPLINE
  5
341
100
AcDbEntity
  8
0
100
AcDbSpline
 62
7
  6
CONTINUOUS
 70
0
 71
3
 72
28
 73
24
 74
0
 42
0.0000001
 43
0.0000001
 44
0.0000000001
 40
0.0
 40
0.0
 40
0.0
 40
0.0
 40
0.0625026137
 40
0.0937633864
 40
0.125021202
 40
0.1875197153
 40
0.2500157672
 40
0.2812715587
 40
0.3125268261
 40
0.3750178083
 40
0.4375071153
 40
0.4999955067
 40
0.562483762
 40
0.6249726306
 40
0.6562272643
 40
0.6874823438
 40
0.7187379678
 40
0.7499941022
 40
0.8124878682
 40
0.8749838095
 40
0.9062416643
 40
0.9375016004
 40
1.0
 40
1.0
 40
1.0
 40
1.0
 10
14.733408686
 20
-1.4118846491
 30
0.0
 10
14.7217260099
 20
-1.4118846491
 30
0.0
 10
14.7041861244
 20
-1.4126835572
 30
0.0
 10
14.6809651947
 20
-1.4153571415
 30
0.0
 10
14.657892065
 20
-1.4191029045
 30
0.0
 10
14.6294168034
 20
-1.4257950062
 30
0.0
 10
14.6016963508
 20
-1.4351362448
 30
0.0
 10
14.5801348619
 20
-1.4441597498
 30
0.0
 10
14.559029504
 20
-1.4542012448
 30
0.0
 10
14.5335871091
 20
-1.4686358788
 30
0.0
 10
14.5048796096
 20
-1.4888227395
 30
0.0
 10
14.4782732342
 20
-1.5117115522
 30
0.0
 10
14.4540430886
 20
-1.5371004947
 30
0.0
 10
14.4360381847
 20
-1.5601582399
 30
0.0
 10
14.4230715769
 20
-1.5796036412
 30
0.0
 10
14.4140861749
 20
-1.5946600479
 30
0.0
 10
14.4058689283
 20
-1.6101494345
 30
0.0
 10
14.3959698574
 20
-1.6313234261
 30
0.0
 10
14.3856259602
 20
-1.6586923081
 30
0.0
 10
14.3781267059
 20
-1.686974212
 30
0.0
 10
14.3738957095
 20
-1.7099646276
 30
0.0
 10
14.3708577827
 20
-1.7331411073
 30
0.0
 10
14.3699373578
 20
-1.7506837078
 30
0.0
 10
14.3699373578
 20
-1.7623655963
 30
0.0
  0
SPLINE
  5
342
100
AcDbEntity
  8
0
100
AcDbSpline
 62
7
  6
CONTINUOUS
 70
0
 71
3
 72
39
 73
35
 74
0
 42
0.0000001
 43
0.0000001
 44
0.0000000001
 40
0.0
 40
0.0
 40
0.0
 40
0.0
 40
0.0312493256
 40
0.0625005825
 40
0.0937502287
 40
0.1250003659
 40
0.1562504583
 40
0.1875004629
 40
0.2187504808
 40
0.2500004648
 40
0.28125042
 40
0.3125003554
 40
0.3437502718
 40
0.3750001671
 40
0.4062500463
 40
0.4374999176
 40
0.4687497825
 40
0.4999996418
 40
0.5312495043
 40
0.562499377
 40
0.5937492587
 40
0.6249991542
 40
0.6562490726
 40
0.6874990156
 40
0.7187489822
 40
0.7499989765
 40
0.7812490081
 40
0.812499074
 40
0.8437491335
 40
0.8749993083
 40
0.906249493
 40
0.9374992221
 40
0.9687506271
 40
1.0
 40
1.0
 40
1.0
 40
1.0
 10
14.733408686
 20
-0.1128465434
 30
0.0
 10
14.7065276425
 20
-0.1128465434
 30
0.0
 10
14.6527543002
 20
-0.1141867883
 30
0.0
 10
14.5723024959
 20
-0.1202065892
 30
0.0
 10
14.492246677
 20
-0.1302181669
 30
0.0
 10
14.4127881562
 20
-0.144191225
 30
0.0
 10
14.3341200713
 20
-0.1620881289
 30
0.0
 10
14.2564355048
 20
-0.1838605937
 30
0.0
 10
14.1799239294
 20
-0.2094513773
 30
0.0
 10
14.104771633
 20
-0.2387946043
 30
0.0
 10
14.0311609853
 20
-0.271814954
 30
0.0
 10
13.959270066
 20
-0.3084284461
 30
0.0
 10
13.8892724542
 20
-0.3485429037
 30
0.0
 10
13.8213367798
 20
-0.3920579878
 30
0.0
 10
13.755625982
 20
-0.4388649697
 30
0.0
 10
13.6922973232
 20
-0.4888476768
 30
0.0
 10
13.631502131
 20
-0.5418827936
 30
0.0
 10
13.5733850655
 20
-0.5978396986
 30
0.0
 10
13.5180838151
 20
-0.6565809299
 30
0.0
 10
13.4657291543
 20
-0.7179628918
 30
0.0
 10
13.4164446072
 20
-0.7818360864
 30
0.0
 10
13.3703455551
 20
-0.8480450407
 30
0.0
 10
13.3275395548
 20
-0.9164292092
 30
0.0
 10
13.2881262545
 20
-0.9868233938
 30
0.0
 10
13.252196705
 20
-1.0590578568
 30
0.0
 10
13.21983306
 20
-1.1329587836
 30
0.0
 10
13.1911089911
 20
-1.2083490034
 30
0.0
 10
13.1660894904
 20
-1.2850482952
 30
0.0
 10
13.1448297976
 20
-1.3628736727
 30
0.0
 10
13.1273763804
 20
-1.4416401312
 30
0.0
 10
13.1137667097
 20
-1.5211604027
 30
0.0
 10
13.1040279931
 20
-1.6012484704
 30
0.0
 10
13.0981799392
 20
-1.681711521
 30
0.0
 10
13.0968800142
 20
-1.7354845121
 30
0.0
 10
13.0968800142
 20
-1.7623655963
 30
0.0
  0
SPLINE
  5
343
100
AcDbEntity
  8
0
100
AcDbSpline
 62
7
  6
CONTINUOUS
 70
0
 71
3
 72
9
 73
5
 74
0
 42
0.0000001
 43
0.0000001
 44
0.0000000001
 40
0.0
 40
0.0
 40
0.0
 40
0.0
 40
0.5098824321
 40
1.0
 40
1.0
 40
1.0
 40
1.0
 10
16.7802265689
 20
7.1603310913
 30
0.0
 10
16.7780864959
 20
7.1641345068
 30
0.0
 10
16.7742608911
 20
7.1718113729
 30
0.0
 10
16.7713198818
 20
7.1798731179
 30
0.0
 10
16.770125967
 20
7.1838946219
 30
0.0
  0
SPLINE
  5
344
100
AcDbEntity
  8
0
100
AcDbSpline
 62
7
  6
CONTINUOUS
 70
0
 71
3
 72
23
 73
19
 74
0
 42
0.0000001
 43
0.0000001
 44
0.0000000001
 40
0.0
 40
0.0
 40
0.0
 40
0.0
 40
0.0696175009
 40
0.1377525005
 40
0.20440343
 40
0.2696156615
 40
0.3334657611
 40
0.3960715778
 40
0.4575896534
 40
0.5182123864
 40
0.5781629233
 40
0.6376874713
 40
0.6970456951
 40
0.756499735
 40
0.816302169
 40
0.8766861282
 40
0.9378635319
 40
1.0
 40
1.0
 40
1.0
 40
1.0
 10
20.060408686
 20
-1.4623652615
 30
0.0
 10
20.060408686
 20
-1.4767582061
 30
0.0
 10
20.0596515837
 20
-1.5052443441
 30
0.0
 10
20.0561607888
 20
-1.5473812172
 30
0.0
 10
20.0503288242
 20
-1.5883415927
 30
0.0
 10
20.0421627257
 20
-1.627998753
 30
0.0
 10
20.0316716739
 20
-1.6662408502
 30
0.0
 10
20.0188704616
 20
-1.7029670352
 30
0.0
 10
20.0037797031
 20
-1.7380901601
 30
0.0
 10
19.9864271623
 20
-1.771537013
 30
0.0
 10
19.9668488425
 20
-1.8032492835
 30
0.0
 10
19.9450897293
 20
-1.8331844542
 30
0.0
 10
19.921204855
 20
-1.8613172204
 30
0.0
 10
19.8952582113
 20
-1.8876393252
 30
0.0
 10
19.8673223141
 20
-1.9121592251
 30
0.0
 10
19.8374759117
 20
-1.9349028637
 30
0.0
 10
19.8058064091
 20
-1.9559088058
 30
0.0
 10
19.7837233966
 20
-1.9686830432
 30
0.0
 10
19.7724272491
 20
-1.974800581
 30
0.0
  0
LINE
  5
345
100
AcDbEntity
  8
0
100
AcDbLine
 62
7
  6
CONTINUOUS
 10
19.310408686
 20
-0.7623655963
 11
19.7724272491
 21
-0.7623655963
  0
ENDSEC
  0
SECTION
  2
OBJECTS
  0
DICTIONARY
  5
C
100
AcDbDictionary
280
0
281
1
  3
ACAD_GROUP
350
D
  3
ACAD_MLINESTYLE
350
17
  3
ACAD_LAYOUT
350
1A
  3
ACAD_PLOTSETTINGS
350
19
  3
ACAD_PLOTSTYLENAME
350
E
  0
DICTIONARY
  5
D
102
{ACAD_REACTORS
330
C
102
}
100
AcDbDictionary
280
0
281
1
  0
ACDBDICTIONARYWDFLT
  5
E
102
{ACAD_REACTORS
330
C
102
}
100
AcDbDictionary
281
1
  3
Normal
350
F
100
AcDbDictionaryWithDefault
340
F
  0
DICTIONARY
  5
17
102
{ACAD_REACTORS
330
C
102
}
100
AcDbDictionary
280
0
281
1
  3
Standard
350
18
  0
DICTIONARY
  5
19
102
{ACAD_REACTORS
330
C
102
}
100
AcDbDictionary
281
1
  0
DICTIONARY
  5
1A
102
{ACAD_REACTORS
330
C
102
}
100
AcDbDictionary
281
1
  3
Model
350
346
  3
Layout1
350
347
  0
ACDBPLACEHOLDER
  5
F
102
{ACAD_REACTORS
330
E
102
}
  0
MLINESTYLE
  5
18
102
{ACAD_REACTORS
330
17
102
}
100
AcDbMlineStyle
  2
STANDARD
 70
0
  3

 62
256
 51
90.0
 52
90.0
 71
2
 49
0.5
 62
256
  6
BYLAYER
 49
-0.5
 62
256
  6
BYLAYER
  0
LAYOUT
  5
346
102
{ACAD_REACTORS
330
1A
102
}
100
AcDbPlotSettings
  1

  2
none_device
  4
ANSI_C_(22.00_x_17.00_Inches)
  6

 40
0.0
 41
0.0
 42
0.0
 43
0.0
 44
558.8
 45
431.8
 46
0.0
 47
0.0
 48
0.0
 49
0.0
140
0.0
141
0.0
142
1.0
143
1.0
 70
1024
 72
0
 73
0
 74
0
  7

 75
0
147
1.0
148
0.0
149
0.0
100
AcDbLayout
  1
Model
 70
0
 71
0
 10
0.0
 20
0.0
 11
22.0
 21
17.0
 12
0.0
 22
0.0
 32
0.0
 14
0.0
 24
0.0
 34
0.0
 15
0.0
 25
0.0
 35
0.0
146
0.0
 13
0.0
 23
0.0
 33
0.0
 16
1.0
 26
0.0
 36
0.0
 17
0.0
 27
1.0
 37
0.0
 76
0
330
205
345
0
346
0
  0
LAYOUT
  5
347
102
{ACAD_REACTORS
330
1A
102
}
100
AcDbPlotSettings
  1

  2
none_device
  4
ANSI_C_(22.00_x_17.00_Inches)
  6

 40
0.0
 41
0.0
 42
0.0
 43
0.0
 44
558.8
 45
431.8
 46
0.0
 47
0.0
 48
0.0
 49
0.0
140
0.0
141
0.0
142
1.0
143
1.0
 70
0
 72
0
 73
0
 74
0
  7

 75
0
147
1.0
148
0.0
149
0.0
100
AcDbLayout
  1
Layout1
 70
0
 71
1
 10
0.0
 20
0.0
 11
22.0
 21
17.0
 12
0.0
 22
0.0
 32
0.0
 14
0.0
 24
0.0
 34
0.0
 15
0.0
 25
0.0
 35
0.0
146
0.0
 13
0.0
 23
0.0
 33
0.0
 16
1.0
 26
0.0
 36
0.0
 17
0.0
 27
1.0
 37
0.0
 76
0
330
206
345
0
346
0
  0
ENDSEC
  0
EOF
