999
DXF file: 3-1003tr_RIGHT.dxf
999
Pro/ENGINEER 2013150 by Parametric Technology Corporation
  0
SECTION
  2
HEADER
  9
$ACADVER
  1
AC1021
  9
$DWGCODEPAGE
  3
ANSI_1252
  9
$EXTMAX
 10
11.0
 20
8.5
 30
0.0
  9
$EXTMIN
 10
0.0
 20
0.0
 30
0.0
  9
$LIMMIN
 10
0.0
 20
0.0
  9
$LIMMAX
 10
11.0
 20
8.5
  9
$VIEWCTR
 10
5.5
 20
4.25
  9
$VIEWSIZE
 40
8.5
  9
$CLAYER
  8
0
  9
$LTSCALE
 40
0.605
  9
$CELTYPE
  6
BYLAYER
  9
$DIMSCALE
 40
1.0
  9
$DIMASZ
 40
0.1
  9
$DIMEXO
 40
0.0625
  9
$DIMDLI
 40
0.418
  9
$DIMEXE
 40
0.125
  9
$DIMCEN
 40
0.099
  9
$DIMLFAC
 40
1.0
  9
$DIMBLK
  1
_FILLED
  9
$DIMTXT
 40
0.08
  9
$DIMTOL
 70
1
  9
$DIMLIM
 70
0
  9
$DIMTFAC
 40
1.0
  9
$DIMTP
 40
0.001
  9
$DIMTM
 40
0.001
  9
$DIMGAP
 40
0.09
  9
$DIMDSEP
 70
46
  9
$PDMODE
 70
3
  9
$PDSIZE
 40
0.06
  9
$HANDSEED
  5
382
  9
$TILEMODE
 70
1
  9
$MEASUREMENT
 70
0
  9
$INSUNITS
 70
1
  0
ENDSEC
  0
SECTION
  2
CLASSES
  0
CLASS
  1
ACDBDICTIONARYWDFLT
  2
AcDbDictionaryWithDefault
  3
AutoCAD 2000
 90
0
 91
1
280
0
281
0
  0
CLASS
  1
ACDBPLACEHOLDER
  2
AcDbPlaceHolder
  3
AutoCAD 2000
 90
0
 91
1
280
0
281
0
  0
CLASS
  1
LAYOUT
  2
AcDbLayout
  3
AutoCAD 2000
 90
0
 91
0
280
0
281
0
  0
ENDSEC
  0
SECTION
  2
TABLES
  0
TABLE
  2
VPORT
  5
8
100
AcDbSymbolTable
 70
2
  0
VPORT
  5
1F4
100
AcDbSymbolTableRecord
100
AcDbViewportTableRecord
  2
*ACTIVE
 70
0
 10
0.0
 20
0.0
 11
1.0
 21
1.0
 12
5.5
 22
4.25
 13
0.0
 23
0.0
 14
1.0
 24
1.0
 15
0.0
 25
0.0
 16
0.0
 26
0.0
 36
1.0
 17
0.0
 27
0.0
 37
0.0
 40
8.5
 41
1.2941176471
 42
50.0
 43
0.0
 44
0.0
 50
0.0
 51
0.0
 71
0
 72
100
 73
1
 74
1
 75
0
 76
0
 77
0
 78
0
  0
ENDTAB
  0
TABLE
  2
LTYPE
  5
5
100
AcDbSymbolTable
 70
6
  0
LTYPE
  5
14
100
AcDbSymbolTableRecord
100
AcDbLinetypeTableRecord
  2
BYBLOCK
 70
0
  3

 72
65
 73
0
 40
0.0
  0
LTYPE
  5
15
100
AcDbSymbolTableRecord
100
AcDbLinetypeTableRecord
  2
BYLAYER
 70
0
  3

 72
65
 73
0
 40
0.0
  0
LTYPE
  5
16
100
AcDbSymbolTableRecord
100
AcDbLinetypeTableRecord
  2
CONTINUOUS
 70
64
  3
Solid line
 72
65
 73
0
 40
0.0
  0
LTYPE
  5
1F5
100
AcDbSymbolTableRecord
100
AcDbLinetypeTableRecord
  2
CENTER
 70
64
  3
____ _ ____ _ ____ _ ____ _ ____ _ ____ _ ____
 72
65
 73
4
 40
0.6
 49
0.375
 74
0
 49
-0.075
 74
0
 49
0.075
 74
0
 49
-0.075
 74
0
  0
LTYPE
  5
1F6
100
AcDbSymbolTableRecord
100
AcDbLinetypeTableRecord
  2
HIDDEN
 70
64
  3
- - - - - - - - - - - - - - - - - - - -
 72
65
 73
2
 40
0.2
 49
0.1
 74
0
 49
-0.1
 74
0
  0
LTYPE
  5
1F7
100
AcDbSymbolTableRecord
100
AcDbLinetypeTableRecord
  2
PHANTOM
 70
64
  3
_____ _ _ _____ _ _ _____ _ _ _____
 72
65
 73
6
 40
0.8
 49
0.45
 74
0
 49
-0.05
 74
0
 49
0.1
 74
0
 49
-0.05
 74
0
 49
0.1
 74
0
 49
-0.05
 74
0
  0
LTYPE
  5
1F8
100
AcDbSymbolTableRecord
100
AcDbLinetypeTableRecord
  2
DOT
 70
64
  3
. . . . . . . . . . . . . . . . . . . .
 72
65
 73
2
 40
0.2
 49
0.1
 74
0
 49
-0.1
 74
0
  0
LTYPE
  5
1F9
100
AcDbSymbolTableRecord
100
AcDbLinetypeTableRecord
  2
DASHED
 70
64
  3
- - - - - - - - - - - - - - - - - - - -
 72
65
 73
2
 40
0.2
 49
0.1
 74
0
 49
-0.1
 74
0
  0
ENDTAB
  0
TABLE
  2
LAYER
  5
2
100
AcDbSymbolTable
 70
36
  0
LAYER
  5
10
100
AcDbSymbolTableRecord
100
AcDbLayerTableRecord
  2
0
 70
0
 62
7
  6
CONTINUOUS
370
-3
390
F
  0
LAYER
  5
1FA
100
AcDbSymbolTableRecord
100
AcDbLayerTableRecord
  2
DEFAULT_1
 70
0
 62
7
  6
CENTER
370
-3
390
F
  0
LAYER
  5
1FB
100
AcDbSymbolTableRecord
100
AcDbLayerTableRecord
  2
DEFAULT_2
 70
0
 62
8
  6
HIDDEN
370
-3
390
F
  0
LAYER
  5
1FC
100
AcDbSymbolTableRecord
100
AcDbLayerTableRecord
  2
DEFAULT_3
 70
0
 62
7
  6
PHANTOM
370
-3
390
F
  0
LAYER
  5
1FD
100
AcDbSymbolTableRecord
100
AcDbLayerTableRecord
  2
ALL_ASSEMBLY_MEMBERS
 70
0
 62
7
  6
CONTINUOUS
370
-3
390
F
  0
LAYER
  5
1FE
100
AcDbSymbolTableRecord
100
AcDbLayerTableRecord
  2
ALL_FEATURES
 70
0
 62
7
  6
CONTINUOUS
370
-3
390
F
  0
LAYER
  5
1FF
100
AcDbSymbolTableRecord
100
AcDbLayerTableRecord
  2
AXES_FEATURES
 70
0
 62
7
  6
CONTINUOUS
370
-3
390
F
  0
LAYER
  5
200
100
AcDbSymbolTableRecord
100
AcDbLayerTableRecord
  2
CHAMFER_FEATURES
 70
0
 62
7
  6
CONTINUOUS
370
-3
390
F
  0
LAYER
  5
201
100
AcDbSymbolTableRecord
100
AcDbLayerTableRecord
  2
COORDINATE_SYSTEMS
 70
0
 62
7
  6
CONTINUOUS
370
-3
390
F
  0
LAYER
  5
202
100
AcDbSymbolTableRecord
100
AcDbLayerTableRecord
  2
CUT_FEATURES
 70
0
 62
7
  6
CONTINUOUS
370
-3
390
F
  0
LAYER
  5
203
100
AcDbSymbolTableRecord
100
AcDbLayerTableRecord
  2
DATUM_CURVES
 70
0
 62
7
  6
CONTINUOUS
370
-3
390
F
  0
LAYER
  5
204
100
AcDbSymbolTableRecord
100
AcDbLayerTableRecord
  2
DATUM_PLANES
 70
0
 62
7
  6
CONTINUOUS
370
-3
390
F
  0
LAYER
  5
205
100
AcDbSymbolTableRecord
100
AcDbLayerTableRecord
  2
DATUM_POINTS
 70
0
 62
7
  6
CONTINUOUS
370
-3
390
F
  0
LAYER
  5
206
100
AcDbSymbolTableRecord
100
AcDbLayerTableRecord
  2
DEFAULT_COORDINATE_SYSTEM
 70
0
 62
7
  6
CONTINUOUS
370
-3
390
F
  0
LAYER
  5
207
100
AcDbSymbolTableRecord
100
AcDbLayerTableRecord
  2
DEFAULT_DATUM_AXES
 70
0
 62
7
  6
CONTINUOUS
370
-3
390
F
  0
LAYER
  5
208
100
AcDbSymbolTableRecord
100
AcDbLayerTableRecord
  2
DEFAULT_DATUM_CURVES
 70
0
 62
7
  6
CONTINUOUS
370
-3
390
F
  0
LAYER
  5
209
100
AcDbSymbolTableRecord
100
AcDbLayerTableRecord
  2
DEFAULT_DATUM_PLANES
 70
0
 62
7
  6
CONTINUOUS
370
-3
390
F
  0
LAYER
  5
20A
100
AcDbSymbolTableRecord
100
AcDbLayerTableRecord
  2
DEFAULT_SURFACES
 70
0
 62
7
  6
CONTINUOUS
370
-3
390
F
  0
LAYER
  5
20B
100
AcDbSymbolTableRecord
100
AcDbLayerTableRecord
  2
DIMENSIONS
 70
0
 62
7
  6
CONTINUOUS
370
-3
390
F
  0
LAYER
  5
20C
100
AcDbSymbolTableRecord
100
AcDbLayerTableRecord
  2
FEATURE_4_DRAWING
 70
0
 62
7
  6
CONTINUOUS
370
-3
390
F
  0
LAYER
  5
20D
100
AcDbSymbolTableRecord
100
AcDbLayerTableRecord
  2
HOLE_FEATURES
 70
0
 62
7
  6
CONTINUOUS
370
-3
390
F
  0
LAYER
  5
20E
100
AcDbSymbolTableRecord
100
AcDbLayerTableRecord
  2
IMPORT_FEATURE
 70
0
 62
7
  6
CONTINUOUS
370
-3
390
F
  0
LAYER
  5
20F
100
AcDbSymbolTableRecord
100
AcDbLayerTableRecord
  2
INTFCLR_1
 70
0
 62
7
  6
CONTINUOUS
370
-3
390
F
  0
LAYER
  5
210
100
AcDbSymbolTableRecord
100
AcDbLayerTableRecord
  2
NOTES
 70
0
 62
7
  6
CONTINUOUS
370
-3
390
F
  0
LAYER
  5
211
100
AcDbSymbolTableRecord
100
AcDbLayerTableRecord
  2
PART_REFERENCE_DIMENSIONS
 70
0
 62
7
  6
CONTINUOUS
370
-3
390
F
  0
LAYER
  5
212
100
AcDbSymbolTableRecord
100
AcDbLayerTableRecord
  2
PLATED_SURFACE_AREA
 70
0
 62
7
  6
CONTINUOUS
370
-3
390
F
  0
LAYER
  5
213
100
AcDbSymbolTableRecord
100
AcDbLayerTableRecord
  2
POINTS
 70
0
 62
7
  6
CONTINUOUS
370
-3
390
F
  0
LAYER
  5
214
100
AcDbSymbolTableRecord
100
AcDbLayerTableRecord
  2
PROTRUSION
 70
0
 62
7
  6
CONTINUOUS
370
-3
390
F
  0
LAYER
  5
215
100
AcDbSymbolTableRecord
100
AcDbLayerTableRecord
  2
PROTRUSION_FEATURES
 70
0
 62
7
  6
CONTINUOUS
370
-3
390
F
  0
LAYER
  5
216
100
AcDbSymbolTableRecord
100
AcDbLayerTableRecord
  2
QUILTS
 70
0
 62
7
  6
CONTINUOUS
370
-3
390
F
  0
LAYER
  5
217
100
AcDbSymbolTableRecord
100
AcDbLayerTableRecord
  2
REFERENCE_DIMENSIONS
 70
0
 62
7
  6
CONTINUOUS
370
-3
390
F
  0
LAYER
  5
218
100
AcDbSymbolTableRecord
100
AcDbLayerTableRecord
  2
ROUND_FEATURES
 70
0
 62
7
  6
CONTINUOUS
370
-3
390
F
  0
LAYER
  5
219
100
AcDbSymbolTableRecord
100
AcDbLayerTableRecord
  2
SHELL_FEATURES
 70
0
 62
7
  6
CONTINUOUS
370
-3
390
F
  0
LAYER
  5
21A
100
AcDbSymbolTableRecord
100
AcDbLayerTableRecord
  2
SIZE_REF
 70
0
 62
7
  6
CONTINUOUS
370
-3
390
F
  0
LAYER
  5
21B
100
AcDbSymbolTableRecord
100
AcDbLayerTableRecord
  2
SURFACE_FEATURES
 70
0
 62
7
  6
CONTINUOUS
370
-3
390
F
  0
LAYER
  5
21C
100
AcDbSymbolTableRecord
100
AcDbLayerTableRecord
  2
WETTED_SURFACES
 70
0
 62
7
  6
CONTINUOUS
370
-3
390
F
  0
LAYER
  5
21D
100
AcDbSymbolTableRecord
100
AcDbLayerTableRecord
  2
XSEC_DATUMS
 70
0
 62
7
  6
CONTINUOUS
370
-3
390
F
  0
ENDTAB
  0
TABLE
  2
STYLE
  5
3
100
AcDbSymbolTable
 70
1
  0
STYLE
  5
11
100
AcDbSymbolTableRecord
100
AcDbTextStyleTableRecord
  2
STANDARD
 70
0
 40
0.0
 41
0.8
 50
0.0
 71
0
 42
0.2
  3
txt
  4

  0
STYLE
  5
21E
100
AcDbSymbolTableRecord
100
AcDbTextStyleTableRecord
  2
TEXTSTYLE_1
 70
0
 40
0.0
 41
0.8
 50
0.0
 71
0
 42
0.2
  3
gdt
  4

  0
ENDTAB
  0
TABLE
  2
VIEW
  5
6
100
AcDbSymbolTable
 70
0
  0
ENDTAB
  0
TABLE
  2
UCS
  5
7
100
AcDbSymbolTable
 70
0
  0
ENDTAB
  0
TABLE
  2
APPID
  5
9
100
AcDbSymbolTable
 70
1
  0
APPID
  5
21F
100
AcDbSymbolTableRecord
100
AcDbRegAppTableRecord
  2
ACAD
 70
0
  0
ENDTAB
  0
TABLE
  2
BLOCK_RECORD
  5
1
100
AcDbSymbolTable
 70
0
  0
BLOCK_RECORD
  5
220
100
AcDbSymbolTableRecord
100
AcDbBlockTableRecord
  2
*Model_Space
  0
BLOCK_RECORD
  5
221
100
AcDbSymbolTableRecord
100
AcDbBlockTableRecord
  2
*Paper_Space
  0
ENDTAB
  0
TABLE
  2
DIMSTYLE
  5
A
100
AcDbSymbolTable
 70
1
100
AcDbDimStyleTable
 71
0
  0
DIMSTYLE
105
222
100
AcDbSymbolTableRecord
100
AcDbDimStyleTableRecord
  2
STANDARD
 70
0
  3

  4

 40
1.0
 41
0.1
 42
0.0625
 43
0.38
 44
0.125
 45
0.0
 46
0.0
 47
0.001
 48
0.001
140
0.08
141
0.09
142
0.0
143
25.4
144
1.0
145
0.0
146
1.0
147
0.09
 71
1.0
 72
0.0
 73
1
 74
1
 75
0
 76
0
 77
0
 78
4
170
0
171
2
172
0
173
0
174
0
175
0
176
0
177
0
178
0
270
2
271
3
272
3
273
2
274
2
275
0
280
0
281
0
282
0
283
1
284
4
285
0
286
0
287
3
288
0
340
11
278
46
  0
ENDTAB
  0
ENDSEC
  0
SECTION
  2
BLOCKS
  0
BLOCK
  5
20
100
AcDbEntity
  8
0
100
AcDbBlockBegin
  2
*Model_Space
 70
0
 10
0.0
 20
0.0
 30
0.0
  3
*Model_Space
  1

  0
ENDBLK
  5
21
100
AcDbEntity
  8
0
100
AcDbBlockEnd
  0
BLOCK
  5
1C
100
AcDbEntity
  8
0
100
AcDbBlockBegin
  2
*Paper_Space
 70
0
 10
0.0
 20
0.0
 30
0.0
  3
*Paper_Space
  1

  0
ENDBLK
  5
1D
100
AcDbEntity
  8
0
100
AcDbBlockEnd
  0
ENDSEC
  0
SECTION
  2
ENTITIES
  0
LINE
  5
223
100
AcDbEntity
  8
0
100
AcDbLine
 62
7
  6
CONTINUOUS
 10
0.0
 20
0.0
 11
0.0
 21
8.5
  0
LINE
  5
224
100
AcDbEntity
  8
0
100
AcDbLine
 62
7
  6
CONTINUOUS
 10
0.0
 20
0.0
 11
11.0
 21
0.0
  0
LINE
  5
225
100
AcDbEntity
  8
0
100
AcDbLine
 62
7
  6
CONTINUOUS
 10
0.0
 20
8.5
 11
11.0
 21
8.5
  0
LINE
  5
226
100
AcDbEntity
  8
0
100
AcDbLine
 62
7
  6
CONTINUOUS
 10
11.0
 20
0.0
 11
11.0
 21
8.5
  0
LINE
  5
227
100
AcDbEntity
  8
ALL_FEATURES
100
AcDbLine
 62
7
  6
CONTINUOUS
 10
5.9717969107
 20
1.3507058313
 11
6.0280469107
 21
1.3507058313
  0
LINE
  5
228
100
AcDbEntity
  8
0
100
AcDbLine
 62
7
  6
CONTINUOUS
 10
6.0280469107
 20
1.3545291726
 11
6.1030469107
 21
1.3545291726
  0
LINE
  5
229
100
AcDbEntity
  8
0
100
AcDbLine
 62
7
  6
CONTINUOUS
 10
5.7891542565
 20
1.8152158742
 11
5.8274395649
 21
1.8142133381
  0
LINE
  5
22A
100
AcDbEntity
  8
ALL_ASSEMBLY_MEMBERS
100
AcDbLine
 62
9
  6
CONTINUOUS
 10
3.4906314186
 20
1.9887086735
 11
3.4167708372
 21
2.0017322868
  0
LINE
  5
22B
100
AcDbEntity
  8
ALL_ASSEMBLY_MEMBERS
100
AcDbLine
 62
9
  6
CONTINUOUS
 10
3.7599819501
 20
1.9812852139
 11
3.8349819501
 21
1.9812852139
  0
LINE
  5
22C
100
AcDbEntity
  8
ALL_ASSEMBLY_MEMBERS
100
AcDbLine
 62
7
  6
CONTINUOUS
 10
3.2087319501
 20
2.5207058313
 11
3.2122427584
 21
2.5076033163
  0
LINE
  5
22D
100
AcDbEntity
  8
ALL_ASSEMBLY_MEMBERS
100
AcDbLine
 62
7
  6
CONTINUOUS
 10
3.4874927584
 20
5.5075583462
 11
3.4839819501
 21
5.4944558313
  0
LINE
  5
22E
100
AcDbEntity
  8
0
100
AcDbLine
 62
7
  6
CONTINUOUS
 10
5.6019819501
 20
2.2060808313
 11
4.5571526059
 21
2.2060808313
  0
LINE
  5
22F
100
AcDbEntity
  8
ALL_FEATURES
100
AcDbLine
 62
7
  6
CONTINUOUS
 10
4.5571526059
 20
2.2060808313
 11
5.6019819501
 21
2.2060808313
  0
LINE
  5
230
100
AcDbEntity
  8
0
100
AcDbLine
 62
7
  6
CONTINUOUS
 10
5.6308008477
 20
2.2062520911
 11
5.7745469107
 21
2.2062520911
  0
LINE
  5
231
100
AcDbEntity
  8
0
100
AcDbLine
 62
7
  6
CONTINUOUS
 10
4.4663740089
 20
2.2582721883
 11
4.4559264032
 21
2.260510961
  0
LINE
  5
232
100
AcDbEntity
  8
ALL_ASSEMBLY_MEMBERS
100
AcDbLine
 62
9
  6
CONTINUOUS
 10
3.2041676982
 20
2.531642446
 11
3.2041676982
 21
3.1210192165
  0
LINE
  5
233
100
AcDbEntity
  8
ALL_ASSEMBLY_MEMBERS
100
AcDbLine
 62
7
  6
CONTINUOUS
 10
3.2087319501
 20
2.5207058313
 11
3.2087319501
 21
3.1319558313
  0
LINE
  5
234
100
AcDbEntity
  8
ALL_ASSEMBLY_MEMBERS
100
AcDbLine
 62
9
  6
CONTINUOUS
 10
3.2122427584
 20
2.5076033163
 11
3.2122427584
 21
3.1450583462
  0
LINE
  5
235
100
AcDbEntity
  8
ALL_ASSEMBLY_MEMBERS
100
AcDbLine
 62
7
  6
CONTINUOUS
 10
3.2987319501
 20
2.4382058313
 11
3.2987319501
 21
3.2144558313
  0
LINE
  5
236
100
AcDbEntity
  8
ALL_ASSEMBLY_MEMBERS
100
AcDbLine
 62
9
  6
CONTINUOUS
 10
3.3354742962
 20
2.4082058313
 11
3.3354742962
 21
3.2444558313
  0
LINE
  5
237
100
AcDbEntity
  8
ALL_ASSEMBLY_MEMBERS
100
AcDbLine
 62
7
  6
CONTINUOUS
 10
3.3999819501
 20
2.4082058313
 11
3.3354742962
 21
2.4082058313
  0
LINE
  5
238
100
AcDbEntity
  8
ALL_ASSEMBLY_MEMBERS
100
AcDbLine
 62
7
  6
CONTINUOUS
 10
3.4536574949
 20
2.4138308313
 11
3.4187319501
 21
2.4138308313
  0
LWPOLYLINE
  5
239
100
AcDbEntity
  8
ALL_ASSEMBLY_MEMBERS
100
AcDbPolyline
 62
7
  6
CONTINUOUS
 90
20
 70
0
 10
3.4536565777
 20
2.413830833
 10
3.455676681
 20
2.4137623736
 10
3.4582680965
 20
2.4134724565
 10
3.4608075625
 20
2.41296224
 10
3.4632881516
 20
2.412236688
 10
3.465727241
 20
2.4112874577
 10
3.468107146
 20
2.4101119035
 10
3.4703993641
 20
2.4087143027
 10
3.4725989991
 20
2.4070846037
 10
3.4746936756
 20
2.4052104814
 10
3.476637781
 20
2.4031091653
 10
3.4783807969
 20
2.4008213877
 10
3.4799001531
 20
2.398371868
 10
3.4811830067
 20
2.3957756641
 10
3.4822085512
 20
2.3930714522
 10
3.4829666116
 20
2.3902916802
 10
3.4834540149
 20
2.387455502
 10
3.4836673184
 20
2.3845845126
 10
3.4836040492
 20
2.381703548
 10
3.4832222385
 20
2.378596911
  0
LINE
  5
23A
100
AcDbEntity
  8
ALL_ASSEMBLY_MEMBERS
100
AcDbLine
 62
9
  6
CONTINUOUS
 10
3.7283487577
 20
1.9400059323
 11
3.7478519289
 21
1.86758614
  0
LINE
  5
23B
100
AcDbEntity
  8
ALL_ASSEMBLY_MEMBERS
100
AcDbLine
 62
9
  6
CONTINUOUS
 10
3.3999819501
 20
2.4082058313
 11
3.3999819501
 21
3.2444558313
  0
LINE
  5
23C
100
AcDbEntity
  8
ALL_ASSEMBLY_MEMBERS
100
AcDbLine
 62
7
  6
CONTINUOUS
 10
3.4112319501
 20
2.4194558313
 11
3.4112319501
 21
3.2332058313
  0
LINE
  5
23D
100
AcDbEntity
  8
ALL_ASSEMBLY_MEMBERS
100
AcDbLine
 62
9
  6
CONTINUOUS
 10
3.4187319501
 20
2.4138308313
 11
3.4187319501
 21
2.8031311332
  0
LINE
  5
23E
100
AcDbEntity
  8
ALL_ASSEMBLY_MEMBERS
100
AcDbLine
 62
9
  6
CONTINUOUS
 10
3.4187319501
 20
2.8495305293
 11
3.4187319501
 21
3.2388308313
  0
LINE
  5
23F
100
AcDbEntity
  8
ALL_ASSEMBLY_MEMBERS
100
AcDbLine
 62
9
  6
CONTINUOUS
 10
3.4794176982
 20
4.894142446
 11
3.4794176982
 21
5.4835192165
  0
LINE
  5
240
100
AcDbEntity
  8
ALL_ASSEMBLY_MEMBERS
100
AcDbLine
 62
7
  6
CONTINUOUS
 10
3.4839819501
 20
4.8832058313
 11
3.4839819501
 21
5.4944558313
  0
LINE
  5
241
100
AcDbEntity
  8
ALL_ASSEMBLY_MEMBERS
100
AcDbLine
 62
9
  6
CONTINUOUS
 10
3.4874927584
 20
4.8701033163
 11
3.4874927584
 21
5.5075583462
  0
LINE
  5
242
100
AcDbEntity
  8
ALL_ASSEMBLY_MEMBERS
100
AcDbLine
 62
7
  6
CONTINUOUS
 10
3.5739819501
 20
4.8007058313
 11
3.5739819501
 21
5.5769558313
  0
LINE
  5
243
100
AcDbEntity
  8
ALL_ASSEMBLY_MEMBERS
100
AcDbLine
 62
7
  6
CONTINUOUS
 10
3.2122427584
 20
3.1450583462
 11
3.2087319501
 21
3.1319558313
  0
LINE
  5
244
100
AcDbEntity
  8
ALL_ASSEMBLY_MEMBERS
100
AcDbLine
 62
9
  6
CONTINUOUS
 10
4.0035987577
 20
6.0751557303
 11
4.0231019289
 21
6.1475755225
  0
LINE
  5
245
100
AcDbEntity
  8
ALL_ASSEMBLY_MEMBERS
100
AcDbLine
 62
7
  6
CONTINUOUS
 10
4.0974819501
 20
2.6002058313
 11
4.00898195
 21
2.6002058313
  0
LINE
  5
246
100
AcDbEntity
  8
ALL_ASSEMBLY_MEMBERS
100
AcDbLine
 62
7
  6
CONTINUOUS
 10
3.8986569501
 20
2.6002058313
 11
3.8799819501
 21
2.6002058313
  0
LINE
  5
247
100
AcDbEntity
  8
ALL_ASSEMBLY_MEMBERS
100
AcDbLine
 62
7
  6
CONTINUOUS
 10
3.9962995676
 20
2.6013308313
 11
3.9009877891
 21
2.6013308313
  0
LINE
  5
248
100
AcDbEntity
  8
0
100
AcDbLine
 62
7
  6
CONTINUOUS
 10
4.1349819501
 20
2.6875808313
 11
4.0974819501
 21
2.6875808313
  0
LINE
  5
249
100
AcDbEntity
  8
ALL_ASSEMBLY_MEMBERS
100
AcDbLine
 62
7
  6
CONTINUOUS
 10
3.7599819501
 20
2.7513308313
 11
3.4899842449
 21
2.7513308313
  0
LINE
  5
24A
100
AcDbEntity
  8
0
100
AcDbLine
 62
7
  6
CONTINUOUS
 10
4.4985175417
 20
2.2343162159
 11
4.492126238
 21
2.2423298497
  0
LINE
  5
24B
100
AcDbEntity
  8
ALL_ASSEMBLY_MEMBERS
100
AcDbLine
 62
9
  6
CONTINUOUS
 10
3.5216151425
 20
3.7126557303
 11
3.5021119712
 21
3.7850755225
  0
LINE
  5
24C
100
AcDbEntity
  8
ALL_ASSEMBLY_MEMBERS
100
AcDbLine
 62
7
  6
CONTINUOUS
 10
3.4832222612
 20
3.2740646231
 11
3.4167708372
 21
3.6509293757
  0
LINE
  5
24D
100
AcDbEntity
  8
ALL_ASSEMBLY_MEMBERS
100
AcDbLine
 62
9
  6
CONTINUOUS
 10
3.4906314186
 20
3.6639529891
 11
3.5548958932
 21
3.2994910427
  0
LWPOLYLINE
  5
24E
100
AcDbEntity
  8
ALL_ASSEMBLY_MEMBERS
100
AcDbPolyline
 62
7
  6
CONTINUOUS
 90
20
 70
0
 10
3.4832222385
 20
3.2740647514
 10
3.4836037781
 20
3.2709619749
 10
3.4836674695
 20
3.2680829505
 10
3.4834549565
 20
3.2652138361
 10
3.4829687016
 20
3.2623794162
 10
3.4822121327
 20
3.259601236
 10
3.4811884124
 20
3.2568984204
 10
3.4799076794
 20
3.2543033475
 10
3.4783906576
 20
3.251854599
 10
3.4766501434
 20
3.2495672159
 10
3.4747086382
 20
3.2474658937
 10
3.4726164996
 20
3.2455913132
 10
3.4704191761
 20
3.2439606983
 10
3.4681290591
 20
3.2425618252
 10
3.4657511641
 20
3.241384748
 10
3.4633139011
 20
3.2404337382
 10
3.4608349825
 20
3.2397061898
 10
3.4582973749
 20
3.2391937965
 10
3.4557081104
 20
3.2389014385
 10
3.4536565868
 20
3.2388308295
  0
LINE
  5
24F
100
AcDbEntity
  8
ALL_ASSEMBLY_MEMBERS
100
AcDbLine
 62
9
  6
CONTINUOUS
 10
3.6107242962
 20
4.7707058313
 11
3.6107242962
 21
5.6069558313
  0
LINE
  5
250
100
AcDbEntity
  8
ALL_ASSEMBLY_MEMBERS
100
AcDbLine
 62
9
  6
CONTINUOUS
 10
3.6752319501
 20
4.7707058313
 11
3.6752319501
 21
5.6069558313
  0
LINE
  5
251
100
AcDbEntity
  8
ALL_ASSEMBLY_MEMBERS
100
AcDbLine
 62
7
  6
CONTINUOUS
 10
3.6864819501
 20
4.7819558313
 11
3.6864819501
 21
5.5957058313
  0
LINE
  5
252
100
AcDbEntity
  8
ALL_ASSEMBLY_MEMBERS
100
AcDbLine
 62
9
  6
CONTINUOUS
 10
3.6939819501
 20
4.7763308313
 11
3.6939819501
 21
5.1656311332
  0
LINE
  5
253
100
AcDbEntity
  8
ALL_ASSEMBLY_MEMBERS
100
AcDbLine
 62
9
  6
CONTINUOUS
 10
3.6939819501
 20
5.2120305293
 11
3.6939819501
 21
5.6013308313
  0
LINE
  5
254
100
AcDbEntity
  8
ALL_ASSEMBLY_MEMBERS
100
AcDbLine
 62
9
  6
CONTINUOUS
 10
3.7599819501
 20
2.7513308313
 11
3.7599819501
 21
2.6908830701
  0
LINE
  5
255
100
AcDbEntity
  8
ALL_ASSEMBLY_MEMBERS
100
AcDbLine
 62
9
  6
CONTINUOUS
 10
3.7599819501
 20
1.9812852139
 11
3.7599819501
 21
2.4366959278
  0
LINE
  5
256
100
AcDbEntity
  8
ALL_ASSEMBLY_MEMBERS
100
AcDbLine
 62
9
  6
CONTINUOUS
 10
3.7599819501
 20
2.9013308313
 11
3.7599819501
 21
2.9617593808
  0
LINE
  5
257
100
AcDbEntity
  8
ALL_ASSEMBLY_MEMBERS
100
AcDbLine
 62
9
  6
CONTINUOUS
 10
3.7599819501
 20
3.2159590566
 11
3.7599819501
 21
3.6713764487
  0
LINE
  5
258
100
AcDbEntity
  8
ALL_ASSEMBLY_MEMBERS
100
AcDbLine
 62
7
  6
CONTINUOUS
 10
3.7584722612
 20
4.7410970394
 11
3.6920208372
 21
4.3642322868
  0
LINE
  5
259
100
AcDbEntity
  8
ALL_ASSEMBLY_MEMBERS
100
AcDbLine
 62
9
  6
CONTINUOUS
 10
3.8300600426
 20
4.715183737
 11
3.7658814186
 21
4.3512086735
  0
LINE
  5
25A
100
AcDbEntity
  8
ALL_ASSEMBLY_MEMBERS
100
AcDbLine
 62
7
  6
CONTINUOUS
 10
3.4832222612
 20
2.3785970394
 11
3.4167708372
 21
2.0017322868
  0
LINE
  5
25B
100
AcDbEntity
  8
ALL_ASSEMBLY_MEMBERS
100
AcDbLine
 62
9
  6
CONTINUOUS
 10
3.7968651425
 20
4.3025059323
 11
3.7773619712
 21
4.23008614
  0
LINE
  5
25C
100
AcDbEntity
  8
ALL_ASSEMBLY_MEMBERS
100
AcDbLine
 62
9
  6
CONTINUOUS
 10
3.5548113519
 20
2.9013308319
 11
3.5549095706
 21
2.9013342831
  0
LINE
  5
25D
100
AcDbEntity
  8
ALL_ASSEMBLY_MEMBERS
100
AcDbLine
 62
9
  6
CONTINUOUS
 10
3.4149819501
 20
2.8263308313
 11
3.8349819501
 21
2.8263308313
  0
LINE
  5
25E
100
AcDbEntity
  8
ALL_ASSEMBLY_MEMBERS
100
AcDbLine
 62
7
  6
CONTINUOUS
 10
3.4899818548
 20
2.9013308313
 11
3.7599819501
 21
2.9013308313
  0
LINE
  5
25F
100
AcDbEntity
  8
0
100
AcDbLine
 62
7
  6
CONTINUOUS
 10
4.1349819501
 20
2.9650808313
 11
4.0974819501
 21
2.9650808313
  0
LINE
  5
260
100
AcDbEntity
  8
ALL_ASSEMBLY_MEMBERS
100
AcDbLine
 62
7
  6
CONTINUOUS
 10
3.4839819501
 20
4.8832058313
 11
3.4874927584
 21
4.8701033163
  0
LINE
  5
261
100
AcDbEntity
  8
ALL_ASSEMBLY_MEMBERS
100
AcDbLine
 62
9
  6
CONTINUOUS
 10
3.8274819501
 20
2.4151283264
 11
3.8274819501
 21
2.7936390892
  0
LINE
  5
262
100
AcDbEntity
  8
ALL_ASSEMBLY_MEMBERS
100
AcDbLine
 62
9
  6
CONTINUOUS
 10
3.8274819501
 20
2.8590225733
 11
3.8274819501
 21
3.2375333361
  0
LINE
  5
263
100
AcDbEntity
  8
ALL_ASSEMBLY_MEMBERS
100
AcDbLine
 62
7
  6
CONTINUOUS
 10
3.8349819501
 20
1.9812852139
 11
3.8349819501
 21
3.6713764487
  0
LINE
  5
264
100
AcDbEntity
  8
ALL_ASSEMBLY_MEMBERS
100
AcDbLine
 62
9
  6
CONTINUOUS
 10
3.8799819501
 20
3.0524558313
 11
3.8799819501
 21
2.6002058313
  0
LINE
  5
265
100
AcDbEntity
  8
ALL_ASSEMBLY_MEMBERS
100
AcDbLine
 62
7
  6
CONTINUOUS
 10
3.99629945
 20
2.6013308313
 11
3.99629945
 21
2.6029823951
  0
LINE
  5
266
100
AcDbEntity
  8
ALL_ASSEMBLY_MEMBERS
100
AcDbLine
 62
9
  6
CONTINUOUS
 10
3.5548100426
 20
2.352683737
 11
3.4906314186
 21
1.9887086735
  0
LINE
  5
267
100
AcDbEntity
  8
ALL_ASSEMBLY_MEMBERS
100
AcDbLine
 62
9
  6
CONTINUOUS
 10
3.7283487577
 20
3.7126557303
 11
3.7478519289
 21
3.7850755225
  0
LINE
  5
268
100
AcDbEntity
  8
ALL_ASSEMBLY_MEMBERS
100
AcDbLine
 62
7
  6
CONTINUOUS
 10
4.0974819501
 20
3.0524558313
 11
3.8799819501
 21
3.0524558313
  0
LWPOLYLINE
  5
269
100
AcDbEntity
  8
ALL_ASSEMBLY_MEMBERS
100
AcDbPolyline
 62
7
  6
CONTINUOUS
 90
20
 70
0
 10
3.7584722385
 20
5.6365647514
 10
3.7588537781
 20
5.6334619749
 10
3.7589174695
 20
5.6305829505
 10
3.7587049565
 20
5.6277138361
 10
3.7582187016
 20
5.6248794162
 10
3.7574621327
 20
5.622101236
 10
3.7564384124
 20
5.6193984204
 10
3.7551576794
 20
5.6168033475
 10
3.7536406576
 20
5.614354599
 10
3.7519001434
 20
5.6120672159
 10
3.7499586382
 20
5.6099658937
 10
3.7478664996
 20
5.6080913132
 10
3.7456691761
 20
5.6064606983
 10
3.7433790591
 20
5.6050618252
 10
3.7410011641
 20
5.603884748
 10
3.7385639011
 20
5.6029337382
 10
3.7360849825
 20
5.6022061898
 10
3.7335473749
 20
5.6016937965
 10
3.7309581104
 20
5.6014014385
 10
3.7289065868
 20
5.6013308295
  0
LINE
  5
26A
100
AcDbEntity
  8
ALL_ASSEMBLY_MEMBERS
100
AcDbLine
 62
9
  6
CONTINUOUS
 10
4.0352319501
 20
5.1138308313
 11
4.0352319501
 21
5.0533830701
  0
LINE
  5
26B
100
AcDbEntity
  8
ALL_ASSEMBLY_MEMBERS
100
AcDbLine
 62
9
  6
CONTINUOUS
 10
4.0352319501
 20
4.3437852139
 11
4.0352319501
 21
4.7991959278
  0
LINE
  5
26C
100
AcDbEntity
  8
ALL_ASSEMBLY_MEMBERS
100
AcDbLine
 62
9
  6
CONTINUOUS
 10
4.0352319501
 20
5.2638308313
 11
4.0352319501
 21
5.3242593808
  0
LINE
  5
26D
100
AcDbEntity
  8
ALL_ASSEMBLY_MEMBERS
100
AcDbLine
 62
9
  6
CONTINUOUS
 10
4.0352319501
 20
5.5784590566
 11
4.0352319501
 21
6.0338764487
  0
LINE
  5
26E
100
AcDbEntity
  8
ALL_ASSEMBLY_MEMBERS
100
AcDbLine
 62
7
  6
CONTINUOUS
 10
4.0974819501
 20
2.6002058313
 11
4.0974819501
 21
3.0524558313
  0
LINE
  5
26F
100
AcDbEntity
  8
ALL_ASSEMBLY_MEMBERS
100
AcDbLine
 62
9
  6
CONTINUOUS
 10
4.1027319501
 20
4.7776283264
 11
4.1027319501
 21
5.1561390892
  0
LINE
  5
270
100
AcDbEntity
  8
ALL_ASSEMBLY_MEMBERS
100
AcDbLine
 62
9
  6
CONTINUOUS
 10
4.1027319501
 20
5.2215225733
 11
4.1027319501
 21
5.6000333361
  0
LINE
  5
271
100
AcDbEntity
  8
ALL_ASSEMBLY_MEMBERS
100
AcDbLine
 62
7
  6
CONTINUOUS
 10
4.1102319501
 20
4.3437852139
 11
4.1102319501
 21
6.0338764487
  0
LINE
  5
272
100
AcDbEntity
  8
ALL_FEATURES
100
AcDbLine
 62
7
  6
CONTINUOUS
 10
4.1349819501
 20
3.0888308313
 11
4.1349819501
 21
2.5638308313
  0
LINE
  5
273
100
AcDbEntity
  8
0
100
AcDbLine
 62
9
  6
CONTINUOUS
 10
4.1445258697
 20
2.5324882588
 11
4.1445258697
 21
3.1201734038
  0
LINE
  5
274
100
AcDbEntity
  8
ALL_ASSEMBLY_MEMBERS
100
AcDbLine
 62
9
  6
CONTINUOUS
 10
4.1552319501
 20
5.4149558313
 11
4.1552319501
 21
4.9627058313
  0
LINE
  5
275
100
AcDbEntity
  8
0
100
AcDbLine
 62
9
  6
CONTINUOUS
 10
4.1603385393
 20
2.5191617057
 11
4.1603385393
 21
3.1334999569
  0
LINE
  5
276
100
AcDbEntity
  8
ALL_ASSEMBLY_MEMBERS
100
AcDbLine
 62
9
  6
CONTINUOUS
 10
3.5216151425
 20
1.9400059323
 11
3.5021119712
 21
1.86758614
  0
LINE
  5
277
100
AcDbEntity
  8
ALL_ASSEMBLY_MEMBERS
100
AcDbLine
 62
7
  6
CONTINUOUS
 10
3.4187319501
 20
3.2388308313
 11
3.4536574951
 21
3.2388308313
  0
LINE
  5
278
100
AcDbEntity
  8
ALL_ASSEMBLY_MEMBERS
100
AcDbLine
 62
7
  6
CONTINUOUS
 10
3.3999819501
 20
3.2444558313
 11
3.3354742962
 21
3.2444558313
  0
LINE
  5
279
100
AcDbEntity
  8
ALL_ASSEMBLY_MEMBERS
100
AcDbLine
 62
9
  6
CONTINUOUS
 10
4.0035987577
 20
4.3025059323
 11
4.0231019289
 21
4.23008614
  0
LINE
  5
27A
100
AcDbEntity
  8
ALL_ASSEMBLY_MEMBERS
100
AcDbLine
 62
7
  6
CONTINUOUS
 10
3.7584722612
 20
5.6365646231
 11
3.6920208372
 21
6.0134293757
  0
LINE
  5
27B
100
AcDbEntity
  8
ALL_ASSEMBLY_MEMBERS
100
AcDbLine
 62
9
  6
CONTINUOUS
 10
3.7658814186
 20
6.0264529891
 11
3.8301458932
 21
5.6619910427
  0
LINE
  5
27C
100
AcDbEntity
  8
ALL_ASSEMBLY_MEMBERS
100
AcDbLine
 62
7
  6
CONTINUOUS
 10
4.27154945
 20
4.9638308313
 11
4.27154945
 21
4.9654823951
  0
LINE
  5
27D
100
AcDbEntity
  8
ALL_ASSEMBLY_MEMBERS
100
AcDbLine
 62
7
  6
CONTINUOUS
 10
4.3727319501
 20
4.9627058313
 11
4.3727319501
 21
5.4149558313
  0
LINE
  5
27E
100
AcDbEntity
  8
0
100
AcDbLine
 62
7
  6
CONTINUOUS
 10
4.4102319501
 20
4.9464726781
 11
4.4102319501
 21
5.4311889845
  0
LINE
  5
27F
100
AcDbEntity
  8
0
100
AcDbLine
 62
9
  6
CONTINUOUS
 10
4.4166748212
 20
3.3637206571
 11
4.4166748212
 21
2.2889410054
  0
LINE
  5
280
100
AcDbEntity
  8
0
100
AcDbLine
 62
9
  6
CONTINUOUS
 10
4.4283988275
 20
4.9189049939
 11
4.4283988275
 21
5.4587566686
  0
LINE
  5
281
100
AcDbEntity
  8
0
100
AcDbLine
 62
7
  6
CONTINUOUS
 10
4.4663740089
 20
3.3943894742
 11
4.4559264032
 21
3.3921507015
  0
LINE
  5
282
100
AcDbEntity
  8
0
100
AcDbLine
 62
7
  6
CONTINUOUS
 10
5.7745469107
 20
3.4460139868
 11
5.6769112525
 21
3.4460139868
  0
LINE
  5
283
100
AcDbEntity
  8
0
100
AcDbLine
 62
7
  6
CONTINUOUS
 10
5.6308008477
 20
3.4464095714
 11
5.6544155743
 21
3.4464095714
  0
LINE
  5
284
100
AcDbEntity
  8
0
100
AcDbLine
 62
7
  6
CONTINUOUS
 10
4.6697319501
 20
3.4465808313
 11
4.5571526059
 21
3.4465808313
  0
LINE
  5
285
100
AcDbEntity
  8
ALL_FEATURES
100
AcDbLine
 62
7
  6
CONTINUOUS
 10
4.5571526059
 20
3.4465808313
 11
4.6697319501
 21
3.4465808313
  0
LINE
  5
286
100
AcDbEntity
  8
0
100
AcDbLine
 62
7
  6
CONTINUOUS
 10
4.9742319501
 20
3.4465808313
 11
5.6019819501
 21
3.4465808313
  0
LINE
  5
287
100
AcDbEntity
  8
ALL_FEATURES
100
AcDbLine
 62
7
  6
CONTINUOUS
 10
4.9742319501
 20
3.4465808313
 11
5.6019819501
 21
3.4465808313
  0
LINE
  5
288
100
AcDbEntity
  8
0
100
AcDbLine
 62
9
  6
CONTINUOUS
 10
4.6776069501
 20
3.5440808313
 11
4.9663569501
 21
3.5440808313
  0
LINE
  5
289
100
AcDbEntity
  8
0
100
AcDbLine
 62
7
  6
CONTINUOUS
 10
4.6851085543
 20
3.5515808313
 11
4.9588553459
 21
3.5515808313
  0
LINE
  5
28A
100
AcDbEntity
  8
ALL_ASSEMBLY_MEMBERS
100
AcDbLine
 62
9
  6
CONTINUOUS
 10
3.7968651425
 20
6.0751557303
 11
3.7773619712
 21
6.1475755225
  0
LINE
  5
28B
100
AcDbEntity
  8
0
100
AcDbLine
 62
9
  6
CONTINUOUS
 10
4.4559264031
 20
3.3921507015
 11
4.4559264031
 21
2.2605109611
  0
LINE
  5
28C
100
AcDbEntity
  8
0
100
AcDbLine
 62
9
  6
CONTINUOUS
 10
4.4663740089
 20
2.2582721884
 11
4.4663740089
 21
3.3943894742
  0
LINE
  5
28D
100
AcDbEntity
  8
0
100
AcDbLine
 62
9
  6
CONTINUOUS
 10
4.492126238
 20
2.2423298497
 11
4.492126238
 21
3.4103318128
  0
LINE
  5
28E
100
AcDbEntity
  8
0
100
AcDbLine
 62
9
  6
CONTINUOUS
 10
4.4985175417
 20
2.2343162159
 11
4.4985175417
 21
3.4183454466
  0
LINE
  5
28F
100
AcDbEntity
  8
0
100
AcDbLine
 62
9
  6
CONTINUOUS
 10
4.5571526059
 20
3.4465808313
 11
4.5571526059
 21
2.2060808313
  0
LINE
  5
290
100
AcDbEntity
  8
0
100
AcDbLine
 62
7
  6
CONTINUOUS
 10
5.7891542565
 20
3.8374457884
 11
5.8274395649
 21
3.8384483245
  0
LINE
  5
291
100
AcDbEntity
  8
ALL_ASSEMBLY_MEMBERS
100
AcDbLine
 62
9
  6
CONTINUOUS
 10
3.7599819501
 20
3.6713764487
 11
3.8349819501
 21
3.6713764487
  0
LINE
  5
292
100
AcDbEntity
  8
0
100
AcDbLine
 62
9
  6
CONTINUOUS
 10
4.6607975258
 20
5.6437430354
 11
4.6607975258
 21
4.7339186271
  0
LINE
  5
293
100
AcDbEntity
  8
0
100
AcDbLine
 62
7
  6
CONTINUOUS
 10
4.6776069501
 20
3.444698863
 11
4.6776069501
 21
3.5440808313
  0
LINE
  5
294
100
AcDbEntity
  8
0
100
AcDbLine
 62
9
  6
CONTINUOUS
 10
4.7213255652
 20
5.6744558313
 11
4.7213255652
 21
4.7032058313
  0
LINE
  5
295
100
AcDbEntity
  8
ALL_ASSEMBLY_MEMBERS
100
AcDbLine
 62
9
  6
CONTINUOUS
 10
3.4906314186
 20
3.6639529891
 11
3.4167708372
 21
3.6509293757
  0
LINE
  5
296
100
AcDbEntity
  8
0
100
AcDbLine
 62
7
  6
CONTINUOUS
 10
4.8580469107
 20
4.6812533313
 11
4.8580469107
 21
5.6964023742
  0
LINE
  5
297
100
AcDbEntity
  8
0
100
AcDbLine
 62
7
  6
CONTINUOUS
 10
4.9663569501
 20
3.4446988972
 11
4.9663569501
 21
3.5440808313
  0
LINE
  5
298
100
AcDbEntity
  8
0
100
AcDbLine
 62
9
  6
CONTINUOUS
 10
4.9705469107
 20
4.5687533313
 11
4.9705469107
 21
5.8089083313
  0
LINE
  5
299
100
AcDbEntity
  8
0
100
AcDbLine
 62
7
  6
CONTINUOUS
 10
4.4985175417
 20
3.4183454466
 11
4.492126238
 21
3.4103318128
  0
LINE
  5
29A
100
AcDbEntity
  8
ALL_ASSEMBLY_MEMBERS
100
AcDbLine
 62
9
  6
CONTINUOUS
 10
3.7658814186
 20
4.3512086735
 11
3.6920208372
 21
4.3642322868
  0
LINE
  5
29B
100
AcDbEntity
  8
ALL_ASSEMBLY_MEMBERS
100
AcDbLine
 62
9
  6
CONTINUOUS
 10
4.0352319501
 20
4.3437852139
 11
4.1102319501
 21
4.3437852139
  0
LINE
  5
29C
100
AcDbEntity
  8
0
100
AcDbLine
 62
7
  6
CONTINUOUS
 10
5.8420469107
 20
4.5687533313
 11
4.9705469107
 21
4.5687533313
  0
LINE
  5
29D
100
AcDbEntity
  8
0
100
AcDbLine
 62
7
  6
CONTINUOUS
 10
5.6019819501
 20
3.4465808313
 11
5.6019819501
 21
2.2060808313
  0
LINE
  5
29E
100
AcDbEntity
  8
0
100
AcDbLine
 62
7
  6
CONTINUOUS
 10
5.6160370682
 20
3.4316457919
 11
5.6160370682
 21
2.2210158707
  0
LINE
  5
29F
100
AcDbEntity
  8
0
100
AcDbLine
 62
9
  6
CONTINUOUS
 10
5.6308008477
 20
2.2062521065
 11
5.6308008477
 21
3.4464095714
  0
LINE
  5
2A0
100
AcDbEntity
  8
ALL_FEATURES
100
AcDbLine
 62
7
  6
CONTINUOUS
 10
4.7213255652
 20
4.7032058313
 11
4.8580469107
 21
4.7032058313
  0
LINE
  5
2A1
100
AcDbEntity
  8
ALL_ASSEMBLY_MEMBERS
100
AcDbLine
 62
7
  6
CONTINUOUS
 10
3.6752319501
 20
4.7707058313
 11
3.6107242962
 21
4.7707058313
  0
LINE
  5
2A2
100
AcDbEntity
  8
ALL_ASSEMBLY_MEMBERS
100
AcDbLine
 62
7
  6
CONTINUOUS
 10
3.7289074949
 20
4.7763308313
 11
3.6939819501
 21
4.7763308313
  0
LWPOLYLINE
  5
2A3
100
AcDbEntity
  8
ALL_ASSEMBLY_MEMBERS
100
AcDbPolyline
 62
7
  6
CONTINUOUS
 90
20
 70
0
 10
3.7289065777
 20
4.776330833
 10
3.730926681
 20
4.7762623736
 10
3.7335180965
 20
4.7759724565
 10
3.7360575625
 20
4.77546224
 10
3.7385381516
 20
4.774736688
 10
3.740977241
 20
4.7737874577
 10
3.743357146
 20
4.7726119035
 10
3.7456493641
 20
4.7712143027
 10
3.7478489991
 20
4.7695846037
 10
3.7499436756
 20
4.7677104814
 10
3.751887781
 20
4.7656091653
 10
3.7536307969
 20
4.7633213877
 10
3.7551501531
 20
4.760871868
 10
3.7564330067
 20
4.7582756641
 10
3.7574585512
 20
4.7555714522
 10
3.7582166116
 20
4.7527916802
 10
3.7587040149
 20
4.749955502
 10
3.7589173184
 20
4.7470845126
 10
3.7588540492
 20
4.744203548
 10
3.7584722385
 20
4.741096911
  0
LINE
  5
2A4
100
AcDbEntity
  8
ALL_FEATURES
100
AcDbLine
 62
7
  6
CONTINUOUS
 10
5.7745469107
 20
1.830210734
 11
5.7745469107
 21
3.8224509285
  0
LINE
  5
2A5
100
AcDbEntity
  8
ALL_FEATURES
100
AcDbLine
 62
9
  6
CONTINUOUS
 10
5.7891542565
 20
1.8152158742
 11
5.7891542565
 21
3.8374457884
  0
LINE
  5
2A6
100
AcDbEntity
  8
ALL_FEATURES
100
AcDbLine
 62
9
  6
CONTINUOUS
 10
5.8274395649
 20
1.8142133381
 11
5.8274395649
 21
3.8384483245
  0
LINE
  5
2A7
100
AcDbEntity
  8
ALL_FEATURES
100
AcDbLine
 62
7
  6
CONTINUOUS
 10
5.8420469107
 20
6.4329307996
 11
5.8420469107
 21
1.5834308313
  0
LINE
  5
2A8
100
AcDbEntity
  8
ALL_FEATURES
100
AcDbLine
 62
9
  6
CONTINUOUS
 10
5.8535570526
 20
1.5480934055
 11
5.8535570526
 21
6.468268257
  0
LINE
  5
2A9
100
AcDbEntity
  8
ALL_ASSEMBLY_MEMBERS
100
AcDbLine
 62
7
  6
CONTINUOUS
 10
4.3727319501
 20
4.9627058313
 11
4.28423195
 21
4.9627058313
  0
LINE
  5
2AA
100
AcDbEntity
  8
ALL_ASSEMBLY_MEMBERS
100
AcDbLine
 62
7
  6
CONTINUOUS
 10
4.1739069501
 20
4.9627058313
 11
4.1552319501
 21
4.9627058313
  0
LINE
  5
2AB
100
AcDbEntity
  8
ALL_ASSEMBLY_MEMBERS
100
AcDbLine
 62
7
  6
CONTINUOUS
 10
4.2715495676
 20
4.9638308313
 11
4.1762377891
 21
4.9638308313
  0
LINE
  5
2AC
100
AcDbEntity
  8
0
100
AcDbLine
 62
7
  6
CONTINUOUS
 10
4.4102319501
 20
5.0500808313
 11
4.3727319501
 21
5.0500808313
  0
LINE
  5
2AD
100
AcDbEntity
  8
ALL_FEATURES
100
AcDbLine
 62
9
  6
CONTINUOUS
 10
5.9123658761
 20
1.4024625231
 11
5.9123658761
 21
6.6138991394
  0
LINE
  5
2AE
100
AcDbEntity
  8
ALL_FEATURES
100
AcDbLine
 62
9
  6
CONTINUOUS
 10
5.9717969107
 20
1.3507058313
 11
5.9717969107
 21
6.6656558313
  0
LINE
  5
2AF
100
AcDbEntity
  8
0
100
AcDbLine
 62
7
  6
CONTINUOUS
 10
6.0280469107
 20
1.3545291726
 11
6.0280469107
 21
1.3507059655
  0
LINE
  5
2B0
100
AcDbEntity
  8
ALL_FEATURES
100
AcDbLine
 62
7
  6
CONTINUOUS
 10
6.1030469107
 20
6.6656558313
 11
6.1030469107
 21
4.0081808313
  0
LINE
  5
2B1
100
AcDbEntity
  8
0
100
AcDbLine
 62
7
  6
CONTINUOUS
 10
6.1030469107
 20
1.3545291726
 11
6.1030469107
 21
4.0081808313
  0
LINE
  5
2B2
100
AcDbEntity
  8
ALL_ASSEMBLY_MEMBERS
100
AcDbLine
 62
9
  6
CONTINUOUS
 10
3.8300613519
 20
5.2638308319
 11
3.8301595706
 21
5.2638342831
  0
LINE
  5
2B3
100
AcDbEntity
  8
ALL_ASSEMBLY_MEMBERS
100
AcDbLine
 62
7
  6
CONTINUOUS
 10
4.0352319501
 20
5.1138308313
 11
3.7652342449
 21
5.1138308313
  0
LINE
  5
2B4
100
AcDbEntity
  8
ALL_ASSEMBLY_MEMBERS
100
AcDbLine
 62
9
  6
CONTINUOUS
 10
3.6902319501
 20
5.1888308313
 11
4.1102319501
 21
5.1888308313
  0
LINE
  5
2B5
100
AcDbEntity
  8
ALL_ASSEMBLY_MEMBERS
100
AcDbLine
 62
7
  6
CONTINUOUS
 10
3.7652318548
 20
5.2638308313
 11
4.0352319501
 21
5.2638308313
  0
LINE
  5
2B6
100
AcDbEntity
  8
0
100
AcDbLine
 62
7
  6
CONTINUOUS
 10
4.4102319501
 20
5.3275808313
 11
4.3727319501
 21
5.3275808313
  0
LINE
  5
2B7
100
AcDbEntity
  8
ALL_ASSEMBLY_MEMBERS
100
AcDbLine
 62
7
  6
CONTINUOUS
 10
4.3727319501
 20
5.4149558313
 11
4.1552319501
 21
5.4149558313
  0
LINE
  5
2B8
100
AcDbEntity
  8
ALL_ASSEMBLY_MEMBERS
100
AcDbLine
 62
7
  6
CONTINUOUS
 10
3.6939819501
 20
5.6013308313
 11
3.7289074951
 21
5.6013308313
  0
LINE
  5
2B9
100
AcDbEntity
  8
ALL_ASSEMBLY_MEMBERS
100
AcDbLine
 62
7
  6
CONTINUOUS
 10
3.6752319501
 20
5.6069558313
 11
3.6107242962
 21
5.6069558313
  0
LINE
  5
2BA
100
AcDbEntity
  8
ALL_FEATURES
100
AcDbLine
 62
7
  6
CONTINUOUS
 10
4.7213255652
 20
5.6744558313
 11
4.8580469107
 21
5.6744558313
  0
LINE
  5
2BB
100
AcDbEntity
  8
0
100
AcDbLine
 62
7
  6
CONTINUOUS
 10
5.8420469107
 20
5.8089083313
 11
4.9705469107
 21
5.8089083313
  0
LINE
  5
2BC
100
AcDbEntity
  8
ALL_ASSEMBLY_MEMBERS
100
AcDbLine
 62
9
  6
CONTINUOUS
 10
4.0352319501
 20
6.0338764487
 11
4.1102319501
 21
6.0338764487
  0
LINE
  5
2BD
100
AcDbEntity
  8
ALL_ASSEMBLY_MEMBERS
100
AcDbLine
 62
9
  6
CONTINUOUS
 10
3.7658814186
 20
6.0264529891
 11
3.6920208372
 21
6.0134293757
  0
LINE
  5
2BE
100
AcDbEntity
  8
ALL_FEATURES
100
AcDbLine
 62
7
  6
CONTINUOUS
 10
5.9717969107
 20
6.6656558313
 11
6.1030469107
 21
6.6656558313
  0
ARC
  5
2BF
100
AcDbEntity
  8
ALL_ASSEMBLY_MEMBERS
100
AcDbCircle
 62
7
  6
CONTINUOUS
 10
3.6249819501
 20
2.3238308313
 40
0.4725
100
AcDbArc
 50
254.9274288995
 51
285.0725710959
  0
ARC
  5
2C0
100
AcDbEntity
  8
ALL_ASSEMBLY_MEMBERS
100
AcDbCircle
 62
7
  6
CONTINUOUS
 10
3.7569567833
 20
1.9856031468
 40
0.4352765547
100
AcDbArc
 50
80.6756149128
 51
81.7315144361
  0
ARC
  5
2C1
100
AcDbEntity
  8
ALL_ASSEMBLY_MEMBERS
100
AcDbCircle
 62
9
  6
CONTINUOUS
 10
3.6249819501
 20
2.3238308313
 40
0.3975000161
100
AcDbArc
 50
254.9274288999
 51
285.0725711001
  0
ARC
  5
2C2
100
AcDbEntity
  8
ALL_ASSEMBLY_MEMBERS
100
AcDbCircle
 62
9
  6
CONTINUOUS
 10
3.6238891672
 20
2.4826147761
 40
0.2065801786
100
AcDbArc
 50
340.8729506842
 51
341.2919567896
  0
ARC
  5
2C3
100
AcDbEntity
  8
ALL_ASSEMBLY_MEMBERS
100
AcDbCircle
 62
7
  6
CONTINUOUS
 10
3.8365326497
 20
2.5332572715
 40
0.1181286845
100
AcDbArc
 50
261.024331122
 51
261.7365925594
  0
ARC
  5
2C4
100
AcDbEntity
  8
ALL_ASSEMBLY_MEMBERS
100
AcDbCircle
 62
7
  6
CONTINUOUS
 10
3.7172319501
 20
1.9812852139
 40
0.11775
100
AcDbArc
 50
285.0725710859
 51
360.0
  0
ARC
  5
2C5
100
AcDbEntity
  8
ALL_ASSEMBLY_MEMBERS
100
AcDbCircle
 62
7
  6
CONTINUOUS
 10
3.5327319501
 20
1.9812852139
 40
0.11775
100
AcDbArc
 50
169.9999999866
 51
254.9274289007
  0
ARC
  5
2C6
100
AcDbEntity
  8
ALL_ASSEMBLY_MEMBERS
100
AcDbCircle
 62
7
  6
CONTINUOUS
 10
3.3027983046
 20
2.5318676018
 40
0.09375
100
AcDbArc
 50
195.0
 51
267.5140472802
  0
ARC
  5
2C7
100
AcDbEntity
  8
ALL_ASSEMBLY_MEMBERS
100
AcDbCircle
 62
7
  6
CONTINUOUS
 10
3.8799819501
 20
2.5552058313
 40
0.045
100
AcDbArc
 50
90.0
 51
179.9999999996
  0
ARC
  5
2C8
100
AcDbEntity
  8
ALL_ASSEMBLY_MEMBERS
100
AcDbCircle
 62
9
  6
CONTINUOUS
 10
3.7172319501
 20
1.9812852139
 40
0.0427500022
100
AcDbArc
 50
285.0725711001
 51
360.0
  0
ARC
  5
2C9
100
AcDbEntity
  8
ALL_ASSEMBLY_MEMBERS
100
AcDbCircle
 62
9
  6
CONTINUOUS
 10
3.5327319501
 20
1.9812852139
 40
0.0427499999
100
AcDbArc
 50
170.0
 51
254.9274288999
  0
ARC
  5
2CA
100
AcDbEntity
  8
ALL_ASSEMBLY_MEMBERS
100
AcDbCircle
 62
7
  6
CONTINUOUS
 10
3.3354742962
 20
2.4457058313
 40
0.0375
100
AcDbArc
 50
191.5369590328
 51
270.0
  0
ARC
  5
2CB
100
AcDbEntity
  8
ALL_ASSEMBLY_MEMBERS
100
AcDbCircle
 62
7
  6
CONTINUOUS
 10
3.2156191256
 20
2.5413308313
 40
0.015
100
AcDbArc
 50
220.2326139158
 51
242.6611609867
  0
ARC
  5
2CC
100
AcDbEntity
  8
ALL_ASSEMBLY_MEMBERS
100
AcDbCircle
 62
7
  6
CONTINUOUS
 10
3.3999819501
 20
2.4194558313
 40
0.01125
100
AcDbArc
 50
270.0
 51
360.0
  0
ARC
  5
2CD
100
AcDbEntity
  8
ALL_ASSEMBLY_MEMBERS
100
AcDbCircle
 62
7
  6
CONTINUOUS
 10
3.4187319501
 20
2.4213308313
 40
0.0075
100
AcDbArc
 50
180.0
 51
270.0
  0
ARC
  5
2CE
100
AcDbEntity
  8
ALL_ASSEMBLY_MEMBERS
100
AcDbCircle
 62
7
  6
CONTINUOUS
 10
3.3027983046
 20
3.1207940607
 40
0.09375
100
AcDbArc
 50
92.4859527198
 51
165.0
  0
ARC
  5
2CF
100
AcDbEntity
  8
ALL_ASSEMBLY_MEMBERS
100
AcDbCircle
 62
7
  6
CONTINUOUS
 10
3.4899819501
 20
2.8263308313
 40
0.075
100
AcDbArc
 50
90.0000241635
 51
269.9999758361
  0
ARC
  5
2D0
100
AcDbEntity
  8
ALL_ASSEMBLY_MEMBERS
100
AcDbCircle
 62
7
  6
CONTINUOUS
 10
3.3354742962
 20
3.2069558313
 40
0.0375
100
AcDbArc
 50
90.0
 51
168.4630409672
  0
ARC
  5
2D1
100
AcDbEntity
  8
ALL_ASSEMBLY_MEMBERS
100
AcDbCircle
 62
7
  6
CONTINUOUS
 10
3.2156191256
 20
3.1113308313
 40
0.015
100
AcDbArc
 50
117.3388390133
 51
139.7673860842
  0
ARC
  5
2D2
100
AcDbEntity
  8
ALL_ASSEMBLY_MEMBERS
100
AcDbCircle
 62
7
  6
CONTINUOUS
 10
3.3999819501
 20
3.2332058313
 40
0.01125
100
AcDbArc
 50
0.0
 51
90.0
  0
ARC
  5
2D3
100
AcDbEntity
  8
ALL_ASSEMBLY_MEMBERS
100
AcDbCircle
 62
7
  6
CONTINUOUS
 10
3.4187319501
 20
3.2313308313
 40
0.0075
100
AcDbArc
 50
90.0
 51
180.0
  0
ARC
  5
2D4
100
AcDbEntity
  8
ALL_ASSEMBLY_MEMBERS
100
AcDbCircle
 62
7
  6
CONTINUOUS
 10
3.5327319501
 20
3.6713764487
 40
0.11775
100
AcDbArc
 50
105.0725710993
 51
190.0000000134
  0
ARC
  5
2D5
100
AcDbEntity
  8
ALL_ASSEMBLY_MEMBERS
100
AcDbCircle
 62
9
  6
CONTINUOUS
 10
3.5327319501
 20
3.6713764487
 40
0.0427499999
100
AcDbArc
 50
105.0725711001
 51
190.0
  0
ARC
  5
2D6
100
AcDbEntity
  8
ALL_ASSEMBLY_MEMBERS
100
AcDbCircle
 62
9
  6
CONTINUOUS
 10
3.4536540057
 20
3.2688543777
 40
0.0300235007
100
AcDbArc
 50
270.006650605
 51
4.2203676543
  0
ARC
  5
2D7
100
AcDbEntity
  8
ALL_ASSEMBLY_MEMBERS
100
AcDbCircle
 62
9
  6
CONTINUOUS
 10
3.4538067272
 20
3.2688807996
 40
0.0298688075
100
AcDbArc
 50
4.1913809495
 51
9.9946725914
  0
ARC
  5
2D8
100
AcDbEntity
  8
ALL_ASSEMBLY_MEMBERS
100
AcDbCircle
 62
7
  6
CONTINUOUS
 10
3.5524819501
 20
2.8263308313
 40
0.45625
100
AcDbArc
 50
139.7673860839
 51
220.2326139161
  0
ARC
  5
2D9
100
AcDbEntity
  8
ALL_ASSEMBLY_MEMBERS
100
AcDbCircle
 62
7
  6
CONTINUOUS
 10
3.7599819501
 20
2.8263308313
 40
0.075
100
AcDbArc
 50
270.0
 51
90.0
  0
ARC
  5
2DA
100
AcDbEntity
  8
ALL_ASSEMBLY_MEMBERS
100
AcDbCircle
 62
7
  6
CONTINUOUS
 10
3.8799819501
 20
3.0974558313
 40
0.045
100
AcDbArc
 50
180.0000000001
 51
270.0
  0
ARC
  5
2DB
100
AcDbEntity
  8
ALL_ASSEMBLY_MEMBERS
100
AcDbCircle
 62
7
  6
CONTINUOUS
 10
3.6249819501
 20
3.3288308313
 40
0.4725
100
AcDbArc
 50
74.9274289041
 51
105.0725711005
  0
ARC
  5
2DC
100
AcDbEntity
  8
ALL_ASSEMBLY_MEMBERS
100
AcDbCircle
 62
7
  6
CONTINUOUS
 10
3.7567486421
 20
3.6683965568
 40
0.43663064
100
AcDbArc
 50
278.3249967893
 51
279.3228886888
  0
ARC
  5
2DD
100
AcDbEntity
  8
ALL_ASSEMBLY_MEMBERS
100
AcDbCircle
 62
9
  6
CONTINUOUS
 10
3.6249819501
 20
3.3288308313
 40
0.3975000161
100
AcDbArc
 50
74.9274288999
 51
105.0725711001
  0
ARC
  5
2DE
100
AcDbEntity
  8
ALL_ASSEMBLY_MEMBERS
100
AcDbCircle
 62
7
  6
CONTINUOUS
 10
3.7172319501
 20
3.6713764487
 40
0.11775
100
AcDbArc
 50
0.0
 51
74.9274289141
  0
ARC
  5
2DF
100
AcDbEntity
  8
ALL_ASSEMBLY_MEMBERS
100
AcDbCircle
 62
9
  6
CONTINUOUS
 10
3.7172319501
 20
3.6713764487
 40
0.0427500022
100
AcDbArc
 50
0.0
 51
74.9274288999
  0
ARC
  5
2E0
100
AcDbEntity
  8
ALL_ASSEMBLY_MEMBERS
100
AcDbCircle
 62
7
  6
CONTINUOUS
 10
4.0574651207
 20
1.8404757051
 40
0.7749355058
100
AcDbArc
 50
98.5926664527
 51
99.1047632385
  0
ARC
  5
2E1
100
AcDbEntity
  8
0
100
AcDbCircle
 62
7
  6
CONTINUOUS
 10
3.9301833371
 20
2.0050808313
 40
0.56325
100
AcDbArc
 50
30.2628931686
 51
65.8818266345
  0
ARC
  5
2E2
100
AcDbEntity
  8
ALL_ASSEMBLY_MEMBERS
100
AcDbCircle
 62
7
  6
CONTINUOUS
 10
3.9398399184
 20
2.3461937129
 40
0.2632542057
100
AcDbArc
 50
74.7730181228
 51
76.843112767
  0
ARC
  5
2E3
100
AcDbEntity
  8
ALL_ASSEMBLY_MEMBERS
100
AcDbCircle
 62
7
  6
CONTINUOUS
 10
3.9513992854
 20
2.3560188269
 40
0.2498180606
100
AcDbArc
 50
100.8790441885
 51
102.1722511445
  0
ARC
  5
2E4
100
AcDbEntity
  8
ALL_ASSEMBLY_MEMBERS
100
AcDbCircle
 62
7
  6
CONTINUOUS
 10
3.9659110829
 20
2.3741977364
 40
0.2333841754
100
AcDbArc
 50
100.7397579617
 51
102.0789838341
  0
ARC
  5
2E5
100
AcDbEntity
  8
ALL_ASSEMBLY_MEMBERS
100
AcDbCircle
 62
7
  6
CONTINUOUS
 10
3.9259162639
 20
2.4782664111
 40
0.1251883603
100
AcDbArc
 50
100.5742147513
 51
101.0976440729
  0
ARC
  5
2E6
100
AcDbEntity
  8
0
100
AcDbCircle
 62
7
  6
CONTINUOUS
 10
4.5571526059
 20
2.2810808313
 40
0.075
100
AcDbArc
 50
218.574242923
 51
270.0
  0
ARC
  5
2E7
100
AcDbEntity
  8
0
100
AcDbCircle
 62
7
  6
CONTINUOUS
 10
4.4684981488
 20
2.3191791058
 40
0.06
100
AcDbArc
 50
210.2628924365
 51
257.9052426455
  0
ARC
  5
2E8
100
AcDbEntity
  8
0
100
AcDbCircle
 62
7
  6
CONTINUOUS
 10
4.1912189731
 20
2.5638308313
 40
0.0562370231
100
AcDbArc
 50
180.0
 51
213.871340548
  0
ARC
  5
2E9
100
AcDbEntity
  8
ALL_FEATURES
100
AcDbCircle
 62
7
  6
CONTINUOUS
 10
4.1912189731
 20
2.5638308313
 40
0.0562370231
100
AcDbArc
 50
180.0
 51
213.871340548
  0
ARC
  5
2EA
100
AcDbEntity
  8
0
100
AcDbCircle
 62
7
  6
CONTINUOUS
 10
4.4569452002
 20
2.2142710797
 40
0.045
100
AcDbArc
 50
38.5742443677
 51
77.9052432775
  0
ARC
  5
2EB
100
AcDbEntity
  8
0
100
AcDbCircle
 62
7
  6
CONTINUOUS
 10
4.1756617884
 20
2.5533881287
 40
0.0375
100
AcDbArc
 50
213.8713405478
 51
245.8818266345
  0
ARC
  5
2EC
100
AcDbEntity
  8
0
100
AcDbCircle
 62
7
  6
CONTINUOUS
 10
3.9301833371
 20
3.6475808313
 40
0.56325
100
AcDbArc
 50
294.1181733655
 51
329.7371068314
  0
ARC
  5
2ED
100
AcDbEntity
  8
ALL_ASSEMBLY_MEMBERS
100
AcDbCircle
 62
7
  6
CONTINUOUS
 10
3.930855223
 20
2.9565234999
 40
0.139824006
100
AcDbArc
 50
214.1653019733
 51
216.2554692007
  0
ARC
  5
2EE
100
AcDbEntity
  8
ALL_ASSEMBLY_MEMBERS
100
AcDbCircle
 62
7
  6
CONTINUOUS
 10
3.9173088403
 20
2.9466184619
 40
0.1230426587
100
AcDbArc
 50
216.2665724298
 51
217.2069163301
  0
ARC
  5
2EF
100
AcDbEntity
  8
ALL_ASSEMBLY_MEMBERS
100
AcDbCircle
 62
7
  6
CONTINUOUS
 10
3.9125809281
 20
2.9430450762
 40
0.1171162716
100
AcDbArc
 50
217.213226453
 51
217.4101874444
  0
ARC
  5
2F0
100
AcDbEntity
  8
0
100
AcDbCircle
 62
7
  6
CONTINUOUS
 10
4.5571526059
 20
3.3715808313
 40
0.075
100
AcDbArc
 50
90.0
 51
141.425757077
  0
ARC
  5
2F1
100
AcDbEntity
  8
0
100
AcDbCircle
 62
7
  6
CONTINUOUS
 10
4.4684981488
 20
3.3334825567
 40
0.06
100
AcDbArc
 50
102.0947573545
 51
149.7371075635
  0
ARC
  5
2F2
100
AcDbEntity
  8
0
100
AcDbCircle
 62
7
  6
CONTINUOUS
 10
4.1912189731
 20
3.0888308313
 40
0.0562370231
100
AcDbArc
 50
146.128659452
 51
180.0
  0
ARC
  5
2F3
100
AcDbEntity
  8
ALL_FEATURES
100
AcDbCircle
 62
7
  6
CONTINUOUS
 10
4.1912189731
 20
3.0888308313
 40
0.0562370231
100
AcDbArc
 50
146.128659452
 51
180.0
  0
ARC
  5
2F4
100
AcDbEntity
  8
0
100
AcDbCircle
 62
7
  6
CONTINUOUS
 10
4.4569452002
 20
3.4383905829
 40
0.045
100
AcDbArc
 50
282.0947567225
 51
321.4257556323
  0
ARC
  5
2F5
100
AcDbEntity
  8
0
100
AcDbCircle
 62
7
  6
CONTINUOUS
 10
4.1756617884
 20
3.0992735338
 40
0.0375
100
AcDbArc
 50
114.1181733657
 51
146.1286594522
  0
ARC
  5
2F6
100
AcDbEntity
  8
ALL_ASSEMBLY_MEMBERS
100
AcDbCircle
 62
7
  6
CONTINUOUS
 10
3.9002319501
 20
4.6863308313
 40
0.4725
100
AcDbArc
 50
254.9274288995
 51
285.0725710959
  0
ARC
  5
2F7
100
AcDbEntity
  8
ALL_ASSEMBLY_MEMBERS
100
AcDbCircle
 62
9
  6
CONTINUOUS
 10
3.9002319501
 20
4.6863308313
 40
0.3975000161
100
AcDbArc
 50
254.9274288999
 51
285.0725711001
  0
ARC
  5
2F8
100
AcDbEntity
  8
ALL_ASSEMBLY_MEMBERS
100
AcDbCircle
 62
9
  6
CONTINUOUS
 10
3.8991391672
 20
4.8451147761
 40
0.2065801785
100
AcDbArc
 50
340.8729506842
 51
341.2919567896
  0
ARC
  5
2F9
100
AcDbEntity
  8
ALL_ASSEMBLY_MEMBERS
100
AcDbCircle
 62
7
  6
CONTINUOUS
 10
3.8079819501
 20
4.3437852139
 40
0.11775
100
AcDbArc
 50
169.9999999866
 51
254.9274289007
  0
ARC
  5
2FA
100
AcDbEntity
  8
ALL_ASSEMBLY_MEMBERS
100
AcDbCircle
 62
7
  6
CONTINUOUS
 10
3.5780483046
 20
4.8943676018
 40
0.09375
100
AcDbArc
 50
195.0
 51
267.5140472802
  0
ARC
  5
2FB
100
AcDbEntity
  8
ALL_ASSEMBLY_MEMBERS
100
AcDbCircle
 62
9
  6
CONTINUOUS
 10
3.8079819501
 20
4.3437852139
 40
0.0427499999
100
AcDbArc
 50
170.0
 51
254.9274288999
  0
ARC
  5
2FC
100
AcDbEntity
  8
ALL_ASSEMBLY_MEMBERS
100
AcDbCircle
 62
7
  6
CONTINUOUS
 10
3.6107242962
 20
4.8082058313
 40
0.0375
100
AcDbArc
 50
191.5369590328
 51
270.0
  0
ARC
  5
2FD
100
AcDbEntity
  8
ALL_ASSEMBLY_MEMBERS
100
AcDbCircle
 62
7
  6
CONTINUOUS
 10
3.4908691256
 20
4.9038308313
 40
0.015
100
AcDbArc
 50
220.2326139158
 51
242.6611609867
  0
ARC
  5
2FE
100
AcDbEntity
  8
ALL_ASSEMBLY_MEMBERS
100
AcDbCircle
 62
7
  6
CONTINUOUS
 10
3.6752319501
 20
4.7819558313
 40
0.01125
100
AcDbArc
 50
270.0
 51
360.0
  0
ARC
  5
2FF
100
AcDbEntity
  8
ALL_ASSEMBLY_MEMBERS
100
AcDbCircle
 62
7
  6
CONTINUOUS
 10
3.6939819501
 20
4.7838308313
 40
0.0075
100
AcDbArc
 50
180.0
 51
270.0
  0
ARC
  5
300
100
AcDbEntity
  8
ALL_ASSEMBLY_MEMBERS
100
AcDbCircle
 62
7
  6
CONTINUOUS
 10
3.9002319501
 20
5.6913308313
 40
0.4725
100
AcDbArc
 50
74.9274289041
 51
105.0725711005
  0
ARC
  5
301
100
AcDbEntity
  8
ALL_ASSEMBLY_MEMBERS
100
AcDbCircle
 62
7
  6
CONTINUOUS
 10
3.8277319501
 20
5.1888308313
 40
0.45625
100
AcDbArc
 50
139.7673860839
 51
220.2326139161
  0
ARC
  5
302
100
AcDbEntity
  8
ALL_ASSEMBLY_MEMBERS
100
AcDbCircle
 62
9
  6
CONTINUOUS
 10
3.9002319501
 20
5.6913308313
 40
0.3975000161
100
AcDbArc
 50
74.9274288999
 51
105.0725711001
  0
ARC
  5
303
100
AcDbEntity
  8
ALL_ASSEMBLY_MEMBERS
100
AcDbCircle
 62
7
  6
CONTINUOUS
 10
3.8079819501
 20
6.0338764487
 40
0.11775
100
AcDbArc
 50
105.0725710993
 51
190.0000000134
  0
ARC
  5
304
100
AcDbEntity
  8
ALL_ASSEMBLY_MEMBERS
100
AcDbCircle
 62
7
  6
CONTINUOUS
 10
3.5780483046
 20
5.4832940607
 40
0.09375
100
AcDbArc
 50
92.4859527198
 51
165.0
  0
ARC
  5
305
100
AcDbEntity
  8
ALL_ASSEMBLY_MEMBERS
100
AcDbCircle
 62
7
  6
CONTINUOUS
 10
3.7652319501
 20
5.1888308313
 40
0.075
100
AcDbArc
 50
90.0000241635
 51
269.9999758361
  0
ARC
  5
306
100
AcDbEntity
  8
ALL_ASSEMBLY_MEMBERS
100
AcDbCircle
 62
9
  6
CONTINUOUS
 10
3.8079819501
 20
6.0338764487
 40
0.0427499999
100
AcDbArc
 50
105.0725711001
 51
190.0
  0
ARC
  5
307
100
AcDbEntity
  8
ALL_ASSEMBLY_MEMBERS
100
AcDbCircle
 62
7
  6
CONTINUOUS
 10
3.6107242962
 20
5.5694558313
 40
0.0375
100
AcDbArc
 50
90.0
 51
168.4630409672
  0
ARC
  5
308
100
AcDbEntity
  8
ALL_ASSEMBLY_MEMBERS
100
AcDbCircle
 62
9
  6
CONTINUOUS
 10
3.7289040057
 20
5.6313543777
 40
0.0300235007
100
AcDbArc
 50
270.0066506078
 51
4.2203676516
  0
ARC
  5
309
100
AcDbEntity
  8
ALL_ASSEMBLY_MEMBERS
100
AcDbCircle
 62
9
  6
CONTINUOUS
 10
3.7290567272
 20
5.6313807996
 40
0.0298688075
100
AcDbArc
 50
4.1913809496
 51
9.9946725914
  0
ARC
  5
30A
100
AcDbEntity
  8
ALL_ASSEMBLY_MEMBERS
100
AcDbCircle
 62
7
  6
CONTINUOUS
 10
3.4908691256
 20
5.4738308313
 40
0.015
100
AcDbArc
 50
117.3388390133
 51
139.7673860842
  0
ARC
  5
30B
100
AcDbEntity
  8
ALL_ASSEMBLY_MEMBERS
100
AcDbCircle
 62
7
  6
CONTINUOUS
 10
3.6752319501
 20
5.5957058313
 40
0.01125
100
AcDbArc
 50
0.0
 51
90.0
  0
ARC
  5
30C
100
AcDbEntity
  8
ALL_ASSEMBLY_MEMBERS
100
AcDbCircle
 62
7
  6
CONTINUOUS
 10
3.6939819501
 20
5.5938308313
 40
0.0075
100
AcDbArc
 50
90.0
 51
180.0
  0
ARC
  5
30D
100
AcDbEntity
  8
ALL_ASSEMBLY_MEMBERS
100
AcDbCircle
 62
7
  6
CONTINUOUS
 10
4.3327151207
 20
4.2029757051
 40
0.7749355058
100
AcDbArc
 50
98.5926664527
 51
99.1047632385
  0
ARC
  5
30E
100
AcDbEntity
  8
0
100
AcDbCircle
 62
7
  6
CONTINUOUS
 10
4.2062319501
 20
4.4013217242
 40
0.56325
100
AcDbArc
 50
36.1922176694
 51
66.7691079294
  0
ARC
  5
30F
100
AcDbEntity
  8
ALL_ASSEMBLY_MEMBERS
100
AcDbCircle
 62
7
  6
CONTINUOUS
 10
4.0322067833
 20
4.3481031468
 40
0.4352765547
100
AcDbArc
 50
80.6756149128
 51
81.7315144362
  0
ARC
  5
310
100
AcDbEntity
  8
ALL_ASSEMBLY_MEMBERS
100
AcDbCircle
 62
7
  6
CONTINUOUS
 10
4.2150899184
 20
4.7086937129
 40
0.2632542057
100
AcDbArc
 50
74.7730181228
 51
76.843112767
  0
ARC
  5
311
100
AcDbEntity
  8
ALL_ASSEMBLY_MEMBERS
100
AcDbCircle
 62
7
  6
CONTINUOUS
 10
4.2266492854
 20
4.7185188269
 40
0.2498180606
100
AcDbArc
 50
100.8790441885
 51
102.1722511445
  0
ARC
  5
312
100
AcDbEntity
  8
ALL_ASSEMBLY_MEMBERS
100
AcDbCircle
 62
7
  6
CONTINUOUS
 10
4.2411610829
 20
4.7366977364
 40
0.2333841754
100
AcDbArc
 50
100.7397579617
 51
102.0789838341
  0
ARC
  5
313
100
AcDbEntity
  8
ALL_ASSEMBLY_MEMBERS
100
AcDbCircle
 62
7
  6
CONTINUOUS
 10
4.2011662639
 20
4.8407664111
 40
0.1251883603
100
AcDbArc
 50
100.5742147513
 51
101.0976440729
  0
ARC
  5
314
100
AcDbEntity
  8
ALL_ASSEMBLY_MEMBERS
100
AcDbCircle
 62
7
  6
CONTINUOUS
 10
4.1117826497
 20
4.8957572715
 40
0.1181286845
100
AcDbArc
 50
261.024331122
 51
261.7365925595
  0
ARC
  5
315
100
AcDbEntity
  8
ALL_ASSEMBLY_MEMBERS
100
AcDbCircle
 62
7
  6
CONTINUOUS
 10
3.9924819501
 20
4.3437852139
 40
0.11775
100
AcDbArc
 50
285.0725710859
 51
360.0
  0
ARC
  5
316
100
AcDbEntity
  8
ALL_ASSEMBLY_MEMBERS
100
AcDbCircle
 62
7
  6
CONTINUOUS
 10
4.1552319501
 20
4.9177058313
 40
0.045
100
AcDbArc
 50
90.0
 51
179.9999999996
  0
ARC
  5
317
100
AcDbEntity
  8
ALL_ASSEMBLY_MEMBERS
100
AcDbCircle
 62
9
  6
CONTINUOUS
 10
3.9924819501
 20
4.3437852139
 40
0.0427500022
100
AcDbArc
 50
285.0725711001
 51
360.0
  0
ARC
  5
318
100
AcDbEntity
  8
0
100
AcDbCircle
 62
7
  6
CONTINUOUS
 10
4.4402319501
 20
4.9464726781
 40
0.03
100
AcDbArc
 50
180.0
 51
246.7691079294
  0
ARC
  5
319
100
AcDbEntity
  8
0
100
AcDbCircle
 62
7
  6
CONTINUOUS
 10
4.2062319501
 20
5.9763399383
 40
0.56325
100
AcDbArc
 50
293.2308920706
 51
323.8077823306
  0
ARC
  5
31A
100
AcDbEntity
  8
ALL_ASSEMBLY_MEMBERS
100
AcDbCircle
 62
7
  6
CONTINUOUS
 10
4.0319986421
 20
6.0308965568
 40
0.43663064
100
AcDbArc
 50
278.3249967894
 51
279.3228886888
  0
ARC
  5
31B
100
AcDbEntity
  8
ALL_ASSEMBLY_MEMBERS
100
AcDbCircle
 62
7
  6
CONTINUOUS
 10
4.206105223
 20
5.3190234999
 40
0.139824006
100
AcDbArc
 50
214.1653019733
 51
216.2554692007
  0
ARC
  5
31C
100
AcDbEntity
  8
ALL_ASSEMBLY_MEMBERS
100
AcDbCircle
 62
7
  6
CONTINUOUS
 10
4.1925588403
 20
5.3091184619
 40
0.1230426587
100
AcDbArc
 50
216.2665724298
 51
217.2069163301
  0
ARC
  5
31D
100
AcDbEntity
  8
ALL_ASSEMBLY_MEMBERS
100
AcDbCircle
 62
7
  6
CONTINUOUS
 10
3.9924819501
 20
6.0338764487
 40
0.11775
100
AcDbArc
 50
0.0
 51
74.9274289141
  0
ARC
  5
31E
100
AcDbEntity
  8
ALL_ASSEMBLY_MEMBERS
100
AcDbCircle
 62
7
  6
CONTINUOUS
 10
4.1878309284
 20
5.3055450764
 40
0.117116272
100
AcDbArc
 50
217.2132264533
 51
217.410187444
  0
ARC
  5
31F
100
AcDbEntity
  8
ALL_ASSEMBLY_MEMBERS
100
AcDbCircle
 62
7
  6
CONTINUOUS
 10
4.0352319501
 20
5.1888308313
 40
0.075
100
AcDbArc
 50
270.0
 51
90.0
  0
ARC
  5
320
100
AcDbEntity
  8
ALL_ASSEMBLY_MEMBERS
100
AcDbCircle
 62
7
  6
CONTINUOUS
 10
4.1552319501
 20
5.4599558313
 40
0.045
100
AcDbArc
 50
180.0000000001
 51
270.0
  0
ARC
  5
321
100
AcDbEntity
  8
ALL_ASSEMBLY_MEMBERS
100
AcDbCircle
 62
9
  6
CONTINUOUS
 10
3.9924819501
 20
6.0338764487
 40
0.0427500022
100
AcDbArc
 50
0.0
 51
74.9274288999
  0
ARC
  5
322
100
AcDbEntity
  8
0
100
AcDbCircle
 62
7
  6
CONTINUOUS
 10
4.4402319501
 20
5.4311889845
 40
0.03
100
AcDbArc
 50
113.2308920706
 51
180.0
  0
ARC
  5
323
100
AcDbEntity
  8
ALL_FEATURES
100
AcDbCircle
 62
7
  6
CONTINUOUS
 10
5.5929240653
 20
1.3581547419
 40
0.3225
100
AcDbArc
 50
7.8967562426
 51
36.083035471
  0
ARC
  5
324
100
AcDbEntity
  8
ALL_FEATURES
100
AcDbCircle
 62
7
  6
CONTINUOUS
 10
5.9020469107
 20
1.5834308313
 40
0.06
100
AcDbArc
 50
180.0
 51
216.083035471
  0
ARC
  5
325
100
AcDbEntity
  8
ALL_FEATURES
100
AcDbCircle
 62
7
  6
CONTINUOUS
 10
5.9717969107
 20
1.4107058313
 40
0.06
100
AcDbArc
 50
187.8967562426
 51
270.0
  0
ARC
  5
326
100
AcDbEntity
  8
ALL_FEATURES
100
AcDbCircle
 62
7
  6
CONTINUOUS
 10
5.7895469107
 20
1.830210734
 40
0.015
100
AcDbArc
 50
179.9999999837
 51
268.4999999996
  0
ARC
  5
327
100
AcDbEntity
  8
ALL_FEATURES
100
AcDbCircle
 62
7
  6
CONTINUOUS
 10
5.7895469107
 20
3.8224509285
 40
0.015
100
AcDbArc
 50
91.5000000004
 51
180.0000000163
  0
ARC
  5
328
100
AcDbEntity
  8
ALL_FEATURES
100
AcDbCircle
 62
7
  6
CONTINUOUS
 10
5.8270469107
 20
3.8534431843
 40
0.015
100
AcDbArc
 50
271.4999999996
 51
359.9999999835
  0
ARC
  5
329
100
AcDbEntity
  8
ALL_FEATURES
100
AcDbCircle
 62
7
  6
CONTINUOUS
 10
5.8270469107
 20
1.7992184782
 40
0.015
100
AcDbArc
 50
0.0000000165
 51
88.5000000004
  0
ARC
  5
32A
100
AcDbEntity
  8
0
100
AcDbCircle
 62
7
  6
CONTINUOUS
 10
5.6308008477
 20
2.2210158707
 40
0.0147637795
100
AcDbArc
 50
180.0000000785
 51
270.0
  0
ARC
  5
32B
100
AcDbEntity
  8
0
100
AcDbCircle
 62
7
  6
CONTINUOUS
 10
5.6308008477
 20
3.4316457919
 40
0.0147637795
100
AcDbArc
 50
90.0
 51
179.9999999215
  0
ARC
  5
32C
100
AcDbEntity
  8
0
100
AcDbCircle
 62
7
  6
CONTINUOUS
 10
4.6851069501
 20
3.5440808313
 40
0.0075
100
AcDbArc
 50
90.0
 51
180.0
  0
ARC
  5
32D
100
AcDbEntity
  8
0
100
AcDbCircle
 62
7
  6
CONTINUOUS
 10
4.9588569501
 20
3.5440808313
 40
0.0075
100
AcDbArc
 50
0.0
 51
90.0
  0
ARC
  5
32E
100
AcDbEntity
  8
0
100
AcDbCircle
 62
7
  6
CONTINUOUS
 10
5.6769156432
 20
4.0857061466
 40
0.6396921648
100
AcDbArc
 50
267.9855100186
 51
269.9996067105
  0
ARC
  5
32F
100
AcDbEntity
  8
ALL_FEATURES
100
AcDbCircle
 62
7
  6
CONTINUOUS
 10
5.5929240653
 20
6.6582069206
 40
0.3225
100
AcDbArc
 50
323.916964529
 51
352.1032437574
  0
ARC
  5
330
100
AcDbEntity
  8
0
100
AcDbCircle
 62
7
  6
CONTINUOUS
 10
4.7213255652
 20
4.7782058313
 40
0.075
100
AcDbArc
 50
216.1922176693
 51
270.0
  0
ARC
  5
331
100
AcDbEntity
  8
0
100
AcDbCircle
 62
7
  6
CONTINUOUS
 10
4.7213255652
 20
5.5994558313
 40
0.075
100
AcDbArc
 50
90.0
 51
143.8077823307
  0
ARC
  5
332
100
AcDbEntity
  8
ALL_FEATURES
100
AcDbCircle
 62
7
  6
CONTINUOUS
 10
5.9020469107
 20
6.4329308313
 40
0.06
100
AcDbArc
 50
143.916964529
 51
180.0
  0
ARC
  5
333
100
AcDbEntity
  8
ALL_FEATURES
100
AcDbCircle
 62
7
  6
CONTINUOUS
 10
5.9717969107
 20
6.6056558313
 40
0.06
100
AcDbArc
 50
90.0
 51
172.1032437574
  0
SPLINE
  5
334
100
AcDbEntity
  8
ALL_ASSEMBLY_MEMBERS
100
AcDbSpline
 62
7
  6
CONTINUOUS
 70
0
 71
3
 72
15
 73
11
 74
0
 42
0.0000001
 43
0.0000001
 44
0.0000000001
 40
0.0
 40
0.0
 40
0.0
 40
0.0
 40
0.1431589425
 40
0.2837048277
 40
0.4202166243
 40
0.5514548386
 40
0.6761876387
 40
0.7932367322
 40
0.9015086641
 40
1.0
 40
1.0
 40
1.0
 40
1.0
 10
3.9520883973
 20
2.6013308313
 30
0.0
 10
3.9536562796
 20
2.6014511716
 30
0.0
 10
3.9567633434
 20
2.6016907357
 30
0.0
 10
3.9613649321
 20
2.602052246
 30
0.0
 10
3.965835175
 20
2.6024136709
 30
0.0
 10
3.9701311527
 20
2.6027749224
 30
0.0
 10
3.9742125778
 20
2.6031359616
 30
0.0
 10
3.9780407271
 20
2.6034966972
 30
0.0
 10
3.9815792999
 20
2.6038570426
 30
0.0
 10
3.983836426
 20
2.6041095202
 30
0.0
 10
3.9849106967
 20
2.6042373851
 30
0.0
  0
LINE
  5
335
100
AcDbEntity
  8
ALL_ASSEMBLY_MEMBERS
100
AcDbLine
 62
7
  6
CONTINUOUS
 10
3.9123799291
 20
2.6013308313
 11
3.9170731345
 21
2.6024148
  0
LINE
  5
336
100
AcDbEntity
  8
ALL_ASSEMBLY_MEMBERS
100
AcDbLine
 62
7
  6
CONTINUOUS
 10
3.9224203123
 20
2.6034938903
 11
3.9348392065
 21
2.6056475311
  0
SPLINE
  5
337
100
AcDbEntity
  8
ALL_ASSEMBLY_MEMBERS
100
AcDbSpline
 62
7
  6
CONTINUOUS
 70
0
 71
3
 72
15
 73
11
 74
0
 42
0.0000001
 43
0.0000001
 44
0.0000000001
 40
0.0
 40
0.0
 40
0.0
 40
0.0
 40
0.1431589425
 40
0.2837048277
 40
0.4202166243
 40
0.5514548386
 40
0.6761876387
 40
0.7932367322
 40
0.9015086641
 40
1.0
 40
1.0
 40
1.0
 40
1.0
 10
4.2273383973
 20
4.9638308313
 30
0.0
 10
4.2289062796
 20
4.9639511716
 30
0.0
 10
4.2320133434
 20
4.9641907357
 30
0.0
 10
4.2366149321
 20
4.964552246
 30
0.0
 10
4.241085175
 20
4.9649136709
 30
0.0
 10
4.2453811527
 20
4.9652749224
 30
0.0
 10
4.2494625778
 20
4.9656359616
 30
0.0
 10
4.2532907271
 20
4.9659966972
 30
0.0
 10
4.2568292999
 20
4.9663570426
 30
0.0
 10
4.259086426
 20
4.9666095202
 30
0.0
 10
4.2601606967
 20
4.9667373851
 30
0.0
  0
LINE
  5
338
100
AcDbEntity
  8
ALL_ASSEMBLY_MEMBERS
100
AcDbLine
 62
7
  6
CONTINUOUS
 10
4.1876299291
 20
4.9638308313
 11
4.1923231345
 21
4.9649148
  0
LINE
  5
339
100
AcDbEntity
  8
ALL_ASSEMBLY_MEMBERS
100
AcDbLine
 62
7
  6
CONTINUOUS
 10
4.1976703123
 20
4.9659938903
 11
4.2100892065
 21
4.9681475311
  0
LINE
  5
33A
100
AcDbEntity
  8
0
100
AcDbLine
 62
7
  6
CONTINUOUS
 10
5.6544253973
 20
3.4464094751
 11
5.6564874578
 21
3.4463402652
  0
SPLINE
  5
33B
100
AcDbEntity
  8
0
100
AcDbSpline
 62
7
  6
CONTINUOUS
 70
0
 71
3
 72
35
 73
31
 74
0
 42
0.0000001
 43
0.0000001
 44
0.0000000001
 40
0.0
 40
0.0
 40
0.0
 40
0.0
 40
0.0198798482
 40
0.0389061
 40
0.0572349263
 40
0.0750085906
 40
0.1093037191
 40
0.1423092093
 40
0.1743589853
 40
0.2056530689
 40
0.2363464043
 40
0.2665723801
 40
0.3259971954
 40
0.3844687642
 40
0.4423690724
 40
0.5
 40
0.5576309276
 40
0.6155312358
 40
0.6740028046
 40
0.7334276199
 40
0.7636535957
 40
0.7943469311
 40
0.8256410147
 40
0.8576907907
 40
0.8906962809
 40
0.9249914094
 40
0.9427650737
 40
0.9610939
 40
0.9801201518
 40
1.0
 40
1.0
 40
1.0
 40
1.0
 10
4.9705469107
 20
4.5687533313
 30
0.0
 10
4.9694029028
 20
4.5687533313
 30
0.0
 10
4.9671635883
 20
4.5688083371
 30
0.0
 10
4.963877623
 20
4.5690494589
 30
0.0
 10
4.9607265027
 20
4.5694256559
 30
0.0
 10
4.9567262388
 20
4.5700705371
 30
0.0
 10
4.951936097
 20
4.5711012391
 30
0.0
 10
4.9464324458
 20
4.5726612131
 30
0.0
 10
4.9411869896
 20
4.574465694
 30
0.0
 10
4.9361669887
 20
4.576492716
 30
0.0
 10
4.9313479626
 20
4.578719301
 30
0.0
 10
4.9251961321
 20
4.5819034602
 30
0.0
 10
4.9178649581
 20
4.586270564
 30
0.0
 10
4.9095842363
 20
4.592096963
 30
0.0
 10
4.9018134865
 20
4.5984247244
 30
0.0
 10
4.8945313509
 20
4.6052377715
 30
0.0
 10
4.8877183039
 20
4.6125199071
 30
0.0
 10
4.8813905424
 20
4.6202906568
 30
0.0
 10
4.8755641434
 20
4.6285713786
 30
0.0
 10
4.8711970396
 20
4.6359025526
 30
0.0
 10
4.8680128804
 20
4.6420543831
 30
0.0
 10
4.8657862954
 20
4.6468734093
 30
0.0
 10
4.8637592735
 20
4.6518934101
 30
0.0
 10
4.8619547926
 20
4.6571388664
 30
0.0
 10
4.8603948186
 20
4.6626425176
 30
0.0
 10
4.8593641166
 20
4.6674326593
 30
0.0
 10
4.8587192354
 20
4.6714329233
 30
0.0
 10
4.8583430384
 20
4.6745840435
 30
0.0
 10
4.8581019165
 20
4.6778700089
 30
0.0
 10
4.8580469107
 20
4.6801093234
 30
0.0
 10
4.8580469107
 20
4.6812533313
 30
0.0
  0
SPLINE
  5
33C
100
AcDbEntity
  8
0
100
AcDbSpline
 62
7
  6
CONTINUOUS
 70
0
 71
3
 72
35
 73
31
 74
0
 42
0.0000001
 43
0.0000001
 44
0.0000000001
 40
0.0
 40
0.0
 40
0.0
 40
0.0
 40
0.0198798482
 40
0.0389061
 40
0.0572349263
 40
0.0750085906
 40
0.1093037191
 40
0.1423092093
 40
0.1743589853
 40
0.2056530689
 40
0.2363464043
 40
0.2665723801
 40
0.3259971954
 40
0.3844687642
 40
0.4423690724
 40
0.5
 40
0.5576309276
 40
0.6155312358
 40
0.6740028046
 40
0.7334276199
 40
0.7636535957
 40
0.7943469311
 40
0.8256410147
 40
0.8576907907
 40
0.8906962809
 40
0.9249914094
 40
0.9427650737
 40
0.9610939
 40
0.9801201518
 40
1.0
 40
1.0
 40
1.0
 40
1.0
 10
4.9705469107
 20
5.8089083313
 30
0.0
 10
4.9694029028
 20
5.8089083313
 30
0.0
 10
4.9671635883
 20
5.8088533255
 30
0.0
 10
4.963877623
 20
5.8086122036
 30
0.0
 10
4.9607265027
 20
5.8082360066
 30
0.0
 10
4.9567262388
 20
5.8075911254
 30
0.0
 10
4.951936097
 20
5.8065604234
 30
0.0
 10
4.9464324458
 20
5.8050004494
 30
0.0
 10
4.9411869896
 20
5.8031959685
 30
0.0
 10
4.9361669887
 20
5.8011689465
 30
0.0
 10
4.9313479626
 20
5.7989423616
 30
0.0
 10
4.9251961321
 20
5.7957582024
 30
0.0
 10
4.9178649581
 20
5.7913910986
 30
0.0
 10
4.9095842363
 20
5.7855646996
 30
0.0
 10
4.9018134865
 20
5.7792369381
 30
0.0
 10
4.8945313509
 20
5.7724238911
 30
0.0
 10
4.8877183039
 20
5.7651417554
 30
0.0
 10
4.8813905424
 20
5.7573710057
 30
0.0
 10
4.8755641434
 20
5.7490902839
 30
0.0
 10
4.8711970396
 20
5.7417591099
 30
0.0
 10
4.8680128804
 20
5.7356072794
 30
0.0
 10
4.8657862954
 20
5.7307882533
 30
0.0
 10
4.8637592735
 20
5.7257682524
 30
0.0
 10
4.8619547926
 20
5.7205227962
 30
0.0
 10
4.8603948186
 20
5.715019145
 30
0.0
 10
4.8593641166
 20
5.7102290032
 30
0.0
 10
4.8587192354
 20
5.7062287393
 30
0.0
 10
4.8583430384
 20
5.703077619
 30
0.0
 10
4.8581019165
 20
5.6997916537
 30
0.0
 10
4.8580469107
 20
5.6975523392
 30
0.0
 10
4.8580469107
 20
5.6964083313
 30
0.0
  0
LINE
  5
33D
100
AcDbEntity
  8
ALL_ASSEMBLY_MEMBERS
100
AcDbLine
 62
7
  6
CONTINUOUS
 10
4.1739880173
 20
4.9629204729
 11
4.1739069501
 21
4.9627058313
  0
LINE
  5
33E
100
AcDbEntity
  8
ALL_ASSEMBLY_MEMBERS
100
AcDbLine
 62
7
  6
CONTINUOUS
 10
4.1736426573
 20
4.9627967651
 11
4.1739607921
 21
4.9629159684
  0
LINE
  5
33F
100
AcDbEntity
  8
ALL_ASSEMBLY_MEMBERS
100
AcDbLine
 62
7
  6
CONTINUOUS
 10
4.1739607921
 20
4.9629159684
 11
4.1770698059
 21
4.9636138216
  0
SPLINE
  5
340
100
AcDbEntity
  8
ALL_ASSEMBLY_MEMBERS
100
AcDbSpline
 62
7
  6
CONTINUOUS
 70
0
 71
3
 72
19
 73
15
 74
0
 42
0.0000001
 43
0.0000001
 44
0.0000000001
 40
0.0
 40
0.0
 40
0.0
 40
0.0
 40
0.1232577561
 40
0.180002406
 40
0.2348592682
 40
0.2887699448
 40
0.3426165445
 40
0.4530293798
 40
0.5711716708
 40
0.634316707
 40
0.7006446393
 40
0.7703091279
 40
0.8434501915
 40
1.0
 40
1.0
 40
1.0
 40
1.0
 10
4.0952192625
 20
5.5988671107
 30
0.0
 10
4.0926375841
 20
5.5984894508
 30
0.0
 10
4.0888835383
 20
5.5978076059
 30
0.0
 10
4.0840557575
 20
5.5966163671
 30
0.0
 10
4.08068828
 20
5.595646109
 30
0.0
 10
4.0774155578
 20
5.5945772339
 30
0.0
 10
4.0730692446
 20
5.5930141259
 30
0.0
 10
4.0675160536
 20
5.5907978787
 30
0.0
 10
4.0618182486
 20
5.5884186353
 30
0.0
 10
4.0569685841
 20
5.5864297362
 30
0.0
 10
4.0530549029
 20
5.5848634717
 30
0.0
 10
4.0489259946
 20
5.583266071
 30
0.0
 10
4.042983725
 20
5.5810645011
 30
0.0
 10
4.0383841595
 20
5.5794847127
 30
0.0
 10
4.0352329849
 20
5.5784590566
 30
0.0
  0
SPLINE
  5
341
100
AcDbEntity
  8
ALL_ASSEMBLY_MEMBERS
100
AcDbSpline
 62
9
  6
CONTINUOUS
 70
0
 71
3
 72
35
 73
31
 74
0
 42
0.0000001
 43
0.0000001
 44
0.0000000001
 40
0.0
 40
0.0
 40
0.0
 40
0.0
 40
0.0156239546
 40
0.0234380326
 40
0.0312543384
 40
0.0390687235
 40
0.0468791682
 40
0.0546899309
 40
0.062504295
 40
0.0703189498
 40
0.0781316652
 40
0.0859434669
 40
0.0937553888
 40
0.109380412
 40
0.1250055249
 40
0.1406303335
 40
0.1562552118
 40
0.1875050499
 40
0.2187548467
 40
0.2500046558
 40
0.2812544608
 40
0.3125042671
 40
0.3750038792
 40
0.4375034913
 40
0.5000031034
 40
0.5625027154
 40
0.6250023275
 40
0.7500015517
 40
0.8750007758
 40
1.0
 40
1.0
 40
1.0
 40
1.0
 10
3.8300600426
 20
4.715183737
 30
0.0
 10
3.831117721
 20
4.7150298811
 30
0.0
 10
3.8327075096
 20
4.7148199233
 30
0.0
 10
3.8348320275
 20
4.7145794614
 30
0.0
 10
3.8364276877
 20
4.7144172971
 30
0.0
 10
3.8380260665
 20
4.7142865089
 30
0.0
 10
3.8396274537
 20
4.7142034153
 30
0.0
 10
3.8412307193
 20
4.7141795694
 30
0.0
 10
3.8428341827
 20
4.7141870739
 30
0.0
 10
3.8444377664
 20
4.7141973088
 30
0.0
 10
3.8460412111
 20
4.7141971358
 30
0.0
 10
3.8476444562
 20
4.7141939249
 30
0.0
 10
3.8497821327
 20
4.7141908763
 30
0.0
 10
3.8524543071
 20
4.7141928332
 30
0.0
 10
3.8556609479
 20
4.7141938565
 30
0.0
 10
3.8588675792
 20
4.7141932661
 30
0.0
 10
3.8631430733
 20
4.7141936013
 30
0.0
 10
3.8684874482
 20
4.7141942324
 30
0.0
 10
3.8749007
 20
4.7141947659
 30
0.0
 10
3.8813139496
 20
4.71419558
 30
0.0
 10
3.8877271998
 20
4.7141964147
 30
0.0
 10
3.8962781997
 20
4.7141976757
 30
0.0
 10
3.9069669498
 20
4.7141994195
 30
0.0
 10
3.9197934497
 20
4.7142017263
 30
0.0
 10
3.9326199497
 20
4.7142041529
 30
0.0
 10
3.9454464496
 20
4.7142066164
 30
0.0
 10
3.9625484496
 20
4.7142098353
 30
0.0
 10
3.9839259496
 20
4.7142135222
 30
0.0
 10
4.0095789497
 20
4.7142167239
 30
0.0
 10
4.02668095
 20
4.7142175874
 30
0.0
 10
4.0352319501
 20
4.7142175874
 30
0.0
  0
SPLINE
  5
342
100
AcDbEntity
  8
ALL_ASSEMBLY_MEMBERS
100
AcDbSpline
 62
7
  6
CONTINUOUS
 70
0
 71
3
 72
15
 73
11
 74
0
 42
0.0000001
 43
0.0000001
 44
0.0000000001
 40
0.0
 40
0.0
 40
0.0
 40
0.0
 40
0.1587061134
 40
0.2991483144
 40
0.426485234
 40
0.5454420391
 40
0.6596316723
 40
0.7720843592
 40
0.8849753374
 40
1.0
 40
1.0
 40
1.0
 40
1.0
 10
4.1027319501
 20
4.7776283264
 30
0.0
 10
4.1033147875
 20
4.7775326521
 30
0.0
 10
4.1044391616
 20
4.7774737888
 30
0.0
 10
4.1060123966
 20
4.7777722695
 30
0.0
 10
4.1073378912
 20
4.7783664235
 30
0.0
 10
4.1084103359
 20
4.779192036
 30
0.0
 10
4.109235301
 20
4.7801923148
 30
0.0
 10
4.1098158718
 20
4.7813250645
 30
0.0
 10
4.1101591399
 20
4.7825522846
 30
0.0
 10
4.1102319501
 20
4.7834027575
 30
0.0
 10
4.1102319501
 20
4.7838308313
 30
0.0
  0
SPLINE
  5
343
100
AcDbEntity
  8
ALL_ASSEMBLY_MEMBERS
100
AcDbSpline
 62
9
  6
CONTINUOUS
 70
0
 71
3
 72
19
 73
15
 74
0
 42
0.0000001
 43
0.0000001
 44
0.0000000001
 40
0.0
 40
0.0
 40
0.0
 40
0.0
 40
0.0657402211
 40
0.1310985256
 40
0.1958279824
 40
0.2598505494
 40
0.3232086732
 40
0.386003459
 40
0.5102700891
 40
0.5720151374
 40
0.6335576378
 40
0.7561554026
 40
0.8782817015
 40
1.0
 40
1.0
 40
1.0
 40
1.0
 10
4.0352319501
 20
4.7142175874
 30
0.0
 10
4.0372484931
 20
4.7142175707
 30
0.0
 10
4.0412775428
 20
4.7145460411
 30
0.0
 10
4.0471321702
 20
4.7159897889
 30
0.0
 10
4.0526569886
 20
4.7182629668
 30
0.0
 10
4.0577767991
 20
4.7212103996
 30
0.0
 10
4.06247543
 20
4.7246865086
 30
0.0
 10
4.0681776829
 20
4.7298477095
 30
0.0
 10
4.0731605016
 20
4.7356729077
 30
0.0
 10
4.0775273469
 20
4.7418875877
 30
0.0
 10
4.0815237744
 20
4.7482883339
 30
0.0
 10
4.0859326014
 20
4.7565974955
 30
0.0
 10
4.0904745471
 20
4.7668870116
 30
0.0
 10
4.0930928745
 20
4.7738979218
 30
0.0
 10
4.094314948
 20
4.7774258942
 30
0.0
  0
SPLINE
  5
344
100
AcDbEntity
  8
ALL_ASSEMBLY_MEMBERS
100
AcDbSpline
 62
9
  6
CONTINUOUS
 70
0
 71
3
 72
34
 73
30
 74
0
 42
0.0000001
 43
0.0000001
 44
0.0000000001
 40
0.0
 40
0.0
 40
0.0
 40
0.0
 40
0.0006598079
 40
0.0012942964
 40
0.0019572989
 40
0.0027169503
 40
0.0036426017
 40
0.0047959423
 40
0.0062303803
 40
0.0079928579
 40
0.0126653991
 40
0.0191246847
 40
0.0276370014
 40
0.0384350351
 40
0.051718487
 40
0.0676531657
 40
0.0863692886
 40
0.1079608685
 40
0.1324630414
 40
0.1598523844
 40
0.223005517
 40
0.2965976559
 40
0.3794990936
 40
0.4704066322
 40
0.5679649654
 40
0.6708651574
 40
0.7778941064
 40
0.8879447161
 40
1.0
 40
1.0
 40
1.0
 40
1.0
 10
3.7289065726
 20
4.776330833
 30
0.0
 10
3.7288833754
 20
4.7763309211
 30
0.0
 10
3.7288374205
 20
4.7763376895
 30
0.0
 10
3.7287757678
 20
4.7763717639
 30
0.0
 10
3.7287296683
 20
4.7764298546
 30
0.0
 10
3.7287046666
 20
4.7765101455
 30
0.0
 10
3.7287039896
 20
4.7766110248
 30
0.0
 10
3.7287307345
 20
4.776732399
 30
0.0
 10
3.7287885691
 20
4.7768745877
 30
0.0
 10
3.7289258606
 20
4.7771154995
 30
0.0
 10
3.7292133673
 20
4.7774693035
 30
0.0
 10
3.7297156164
 20
4.7779448254
 30
0.0
 10
3.7304308918
 20
4.7785027975
 30
0.0
 10
3.7313834658
 20
4.7791410458
 30
0.0
 10
3.7325956179
 20
4.7798564347
 30
0.0
 10
3.7340858572
 20
4.7806444487
 30
0.0
 10
3.7358693219
 20
4.7814993897
 30
0.0
 10
3.7379568904
 20
4.7824135382
 30
0.0
 10
3.7403536068
 20
4.7833789146
 30
0.0
 10
3.7441442599
 20
4.7847908959
 30
0.0
 10
3.7496240607
 20
4.786606166
 30
0.0
 10
3.75704685
 20
4.788742047
 30
0.0
 10
3.7654894134
 20
4.7908423141
 30
0.0
 10
3.7748229198
 20
4.7928280745
 30
0.0
 10
3.7849088157
 20
4.7946297527
 30
0.0
 10
3.7956081237
 20
4.7961891926
 30
0.0
 10
3.8067877779
 20
4.7974597445
 30
0.0
 10
3.8183224876
 20
4.7984054857
 30
0.0
 10
3.826122816
 20
4.7987991133
 30
0.0
 10
3.8300600426
 20
4.7989358932
 30
0.0
  0
SPLINE
  5
345
100
AcDbEntity
  8
ALL_ASSEMBLY_MEMBERS
100
AcDbSpline
 62
9
  6
CONTINUOUS
 70
0
 71
3
 72
32
 73
28
 74
0
 42
0.0000001
 43
0.0000001
 44
0.0000000001
 40
0.0
 40
0.0
 40
0.0
 40
0.0
 40
0.000443918
 40
0.0010400899
 40
0.0027305202
 40
0.0051039083
 40
0.0081556441
 40
0.0118725975
 40
0.0162389233
 40
0.0268507971
 40
0.0398573856
 40
0.0551308268
 40
0.0725552441
 40
0.0920274481
 40
0.1134563851
 40
0.1367624019
 40
0.1887248874
 40
0.2474440199
 40
0.3125323319
 40
0.3836381887
 40
0.460331293
 40
0.5420646871
 40
0.6281751857
 40
0.7178963286
 40
0.8103803847
 40
0.9047251703
 40
1.0
 40
1.0
 40
1.0
 40
1.0
 10
3.7584722462
 20
4.7410969542
 30
0.0
 10
3.7584702519
 20
4.7410855928
 30
0.0
 10
3.7584712153
 20
4.7410581288
 30
0.0
 10
3.758487293
 20
4.7409889197
 30
0.0
 10
3.7585355083
 20
4.7408770313
 30
0.0
 10
3.7586247182
 20
4.7407151235
 30
0.0
 10
3.7587529615
 20
4.7405149174
 30
0.0
 10
3.7589201082
 20
4.7402786834
 30
0.0
 10
3.7592152343
 20
4.739892692
 30
0.0
 10
3.75968441
 20
4.7393365963
 30
0.0
 10
3.7603721577
 20
4.7385957122
 30
0.0
 10
3.7612163794
 20
4.7377599392
 30
0.0
 10
3.7622163218
 20
4.7368441352
 30
0.0
 10
3.7633712738
 20
4.735862275
 30
0.0
 10
3.7646804058
 20
4.7348274168
 30
0.0
 10
3.7667049826
 20
4.733338552
 30
0.0
 10
3.7696174896
 20
4.7314255637
 30
0.0
 10
3.773597277
 20
4.729177811
 30
0.0
 10
3.7781659583
 20
4.7269836915
 30
0.0
 10
3.7832890424
 20
4.7248892006
 30
0.0
 10
3.7889241715
 20
4.7229274383
 30
0.0
 10
3.7950196166
 20
4.7211249646
 30
0.0
 10
3.801514447
 20
4.7195018846
 30
0.0
 10
3.8083396435
 20
4.7180706955
 30
0.0
 10
3.8154218803
 20
4.7168448204
 30
0.0
 10
3.822685687
 20
4.7158483445
 30
0.0
 10
3.8275911955
 20
4.7153676608
 30
0.0
 10
3.8300600426
 20
4.715183737
 30
0.0
  0
SPLINE
  5
346
100
AcDbEntity
  8
ALL_ASSEMBLY_MEMBERS
100
AcDbSpline
 62
9
  6
CONTINUOUS
 70
0
 71
3
 72
27
 73
23
 74
0
 42
0.0000001
 43
0.0000001
 44
0.0000000001
 40
0.0
 40
0.0
 40
0.0
 40
0.0
 40
0.0118862923
 40
0.0241719745
 40
0.037196971
 40
0.0512421454
 40
0.066527312
 40
0.0832138778
 40
0.1014112269
 40
0.1211923666
 40
0.1656562998
 40
0.216731896
 40
0.2742578154
 40
0.337933041
 40
0.407307678
 40
0.4818642584
 40
0.5609769935
 40
0.6439694057
 40
0.7301399918
 40
0.8187666698
 40
0.909039626
 40
1.0
 40
1.0
 40
1.0
 40
1.0
 10
4.0035987577
 20
5.1138308313
 30
0.0
 10
4.0039187369
 20
5.1138308313
 30
0.0
 10
4.0045709934
 20
5.1138938162
 30
0.0
 10
4.0055377829
 20
5.1141729342
 30
0.0
 10
4.0064966361
 20
5.1146337281
 30
0.0
 10
4.0074448297
 20
5.1152730492
 30
0.0
 10
4.0083806473
 20
5.1160887613
 30
0.0
 10
4.0093025814
 20
5.1170784296
 30
0.0
 10
4.0102097483
 20
5.1182391029
 30
0.0
 10
4.01144591
 20
5.1200842436
 30
0.0
 10
4.0129227568
 20
5.1228226445
 30
0.0
 10
4.0145448536
 20
5.126614527
 30
0.0
 10
4.0160657367
 20
5.1309991399
 30
0.0
 10
4.0174689095
 20
5.1359361222
 30
0.0
 10
4.018742493
 20
5.1413796609
 30
0.0
 10
4.0198720444
 20
5.1472782579
 30
0.0
 10
4.0208479468
 20
5.1535752132
 30
0.0
 10
4.0216597247
 20
5.1602103716
 30
0.0
 10
4.0222996025
 20
5.1671214441
 30
0.0
 10
4.0227612098
 20
5.1742430701
 30
0.0
 10
4.0230394654
 20
5.1815031476
 30
0.0
 10
4.0231019289
 20
5.1863821766
 30
0.0
 10
4.0231019289
 20
5.1888308313
 30
0.0
  0
SPLINE
  5
347
100
AcDbEntity
  8
ALL_ASSEMBLY_MEMBERS
100
AcDbSpline
 62
9
  6
CONTINUOUS
 70
0
 71
3
 72
27
 73
23
 74
0
 42
0.0000001
 43
0.0000001
 44
0.0000000001
 40
0.0
 40
0.0
 40
0.0
 40
0.0
 40
0.0118862937
 40
0.0241719774
 40
0.0371969753
 40
0.0512421507
 40
0.0665273182
 40
0.0832138846
 40
0.1014112341
 40
0.121192374
 40
0.1656563074
 40
0.2167319033
 40
0.2742578222
 40
0.3379330471
 40
0.4073076832
 40
0.4818642628
 40
0.560976997
 40
0.6439694083
 40
0.7301399937
 40
0.8187666711
 40
0.9090396268
 40
1.0
 40
1.0
 40
1.0
 40
1.0
 10
3.7968651425
 20
5.1138308313
 30
0.0
 10
3.7965451633
 20
5.1138308313
 30
0.0
 10
3.7958929066
 20
5.1138938162
 30
0.0
 10
3.7949261171
 20
5.1141729342
 30
0.0
 10
3.7939672637
 20
5.1146337281
 30
0.0
 10
3.79301907
 20
5.1152730492
 30
0.0
 10
3.7920832523
 20
5.1160887612
 30
0.0
 10
3.7911613181
 20
5.1170784296
 30
0.0
 10
3.7902541511
 20
5.1182391029
 30
0.0
 10
3.7890179893
 20
5.1200842435
 30
0.0
 10
3.7875411423
 20
5.1228226444
 30
0.0
 10
3.7859190455
 20
5.126614527
 30
0.0
 10
3.7843981623
 20
5.1309991398
 30
0.0
 10
3.7829949895
 20
5.1359361221
 30
0.0
 10
3.781721406
 20
5.1413796608
 30
0.0
 10
3.7805918547
 20
5.1472782577
 30
0.0
 10
3.7796159524
 20
5.1535752131
 30
0.0
 10
3.7788041747
 20
5.1602103715
 30
0.0
 10
3.778164297
 20
5.167121444
 30
0.0
 10
3.77770269
 20
5.1742430701
 30
0.0
 10
3.7774244345
 20
5.1815031476
 30
0.0
 10
3.7773619712
 20
5.1863821766
 30
0.0
 10
3.7773619712
 20
5.1888308313
 30
0.0
  0
SPLINE
  5
348
100
AcDbEntity
  8
ALL_ASSEMBLY_MEMBERS
100
AcDbSpline
 62
9
  6
CONTINUOUS
 70
0
 71
3
 72
12
 73
8
 74
0
 42
0.0000001
 43
0.0000001
 44
0.0000000001
 40
0.0
 40
0.0
 40
0.0
 40
0.0
 40
0.0985412752
 40
0.1988793531
 40
0.4181628092
 40
0.6808827491
 40
1.0
 40
1.0
 40
1.0
 40
1.0
 10
3.8301595664
 20
5.2638343065
 30
0.0
 10
3.8302513676
 20
5.2638407562
 30
0.0
 10
3.8304358909
 20
5.2638723887
 30
0.0
 10
3.8308020687
 20
5.2640147582
 30
0.0
 10
3.8312404997
 20
5.2643545146
 30
0.0
 10
3.831691003
 20
5.2649582717
 30
0.0
 10
3.8319350585
 20
5.2654463405
 30
0.0
 10
3.8320532188
 20
5.2657199383
 30
0.0
  0
SPLINE
  5
349
100
AcDbEntity
  8
ALL_ASSEMBLY_MEMBERS
100
AcDbSpline
 62
9
  6
CONTINUOUS
 70
0
 71
3
 72
19
 73
15
 74
0
 42
0.0000001
 43
0.0000001
 44
0.0000000001
 40
0.0
 40
0.0
 40
0.0
 40
0.0
 40
0.0247008496
 40
0.0549301288
 40
0.0907966655
 40
0.1323046068
 40
0.1793587884
 40
0.2318128673
 40
0.2895001916
 40
0.3522012684
 40
0.4915954526
 40
0.6477863504
 40
0.818295336
 40
1.0
 40
1.0
 40
1.0
 40
1.0
 10
3.8320532188
 20
5.2657199383
 30
0.0
 10
3.8322429991
 20
5.2661593708
 30
0.0
 10
3.8325783534
 20
5.2671736305
 30
0.0
 10
3.8329591085
 20
5.2688928875
 30
0.0
 10
3.8332646222
 20
5.2709570354
 30
0.0
 10
3.8334924326
 20
5.2733582302
 30
0.0
 10
3.8336414367
 20
5.2760874184
 30
0.0
 10
3.8337105771
 20
5.2791332365
 30
0.0
 10
3.8336988446
 20
5.2824829448
 30
0.0
 10
3.8335704635
 20
5.2875157929
 30
0.0
 10
3.8331937648
 20
5.2944500014
 30
0.0
 10
3.8324465496
 20
5.3034520909
 30
0.0
 10
3.8313995178
 20
5.3132491312
 30
0.0
 10
3.8305365667
 20
5.3200201725
 30
0.0
 10
3.8300600426
 20
5.3235089187
 30
0.0
  0
SPLINE
  5
34A
100
AcDbEntity
  8
ALL_ASSEMBLY_MEMBERS
100
AcDbSpline
 62
9
  6
CONTINUOUS
 70
0
 71
3
 72
26
 73
22
 74
0
 42
0.0000001
 43
0.0000001
 44
0.0000000001
 40
0.0
 40
0.0
 40
0.0
 40
0.0
 40
0.0084200406
 40
0.0169513789
 40
0.0261291961
 40
0.0363841991
 40
0.0480248997
 40
0.0612598317
 40
0.0762200692
 40
0.0929839175
 40
0.1115983318
 40
0.1320898933
 40
0.1787339139
 40
0.2328528548
 40
0.2942423798
 40
0.3626309377
 40
0.4376339184
 40
0.5188272876
 40
0.6057543315
 40
0.7947911451
 40
1.0
 40
1.0
 40
1.0
 40
1.0
 10
3.8301480698
 20
5.1138308301
 30
0.0
 10
3.830319568
 20
5.1138306491
 30
0.0
 10
3.8306667913
 20
5.1137859335
 30
0.0
 10
3.8311624058
 20
5.1135765645
 30
0.0
 10
3.831621569
 20
5.1132315932
 30
0.0
 10
3.8320444981
 20
5.1127564532
 30
0.0
 10
3.8324332726
 20
5.11215315
 30
0.0
 10
3.832788712
 20
5.1114221302
 30
0.0
 10
3.8331113408
 20
5.1105640402
 30
0.0
 10
3.8334012208
 20
5.1095798318
 30
0.0
 10
3.8336581048
 20
5.108470707
 30
0.0
 10
3.8339694837
 20
5.1067515916
 30
0.0
 10
3.8342581509
 20
5.1042965769
 30
0.0
 10
3.8344571105
 20
5.1009987322
 30
0.0
 10
3.8345188654
 20
5.0972526522
 30
0.0
 10
3.8344417776
 20
5.0930817465
 30
0.0
 10
3.8342266388
 20
5.0885119698
 30
0.0
 10
3.8338742265
 20
5.0835722008
 30
0.0
 10
3.8332043315
 20
5.0763281387
 30
0.0
 10
3.832026719
 20
5.0665966753
 30
0.0
 10
3.8308245118
 20
5.0586561009
 30
0.0
 10
3.8301458932
 20
5.0545318928
 30
0.0
  0
SPLINE
  5
34B
100
AcDbEntity
  8
ALL_ASSEMBLY_MEMBERS
100
AcDbSpline
 62
9
  6
CONTINUOUS
 70
0
 71
3
 72
27
 73
23
 74
0
 42
0.0000001
 43
0.0000001
 44
0.0000000001
 40
0.0
 40
0.0
 40
0.0
 40
0.0
 40
0.011886294
 40
0.0241719778
 40
0.0371969759
 40
0.0512421514
 40
0.0665273189
 40
0.0832138853
 40
0.1014112347
 40
0.1211923745
 40
0.1656563078
 40
0.2167319034
 40
0.2742578221
 40
0.3379330466
 40
0.4073076826
 40
0.4818642621
 40
0.5609769961
 40
0.6439694073
 40
0.7301399929
 40
0.8187666708
 40
0.9090396268
 40
1.0
 40
1.0
 40
1.0
 40
1.0
 10
4.0035987577
 20
5.2638308313
 30
0.0
 10
4.0039187369
 20
5.2638308313
 30
0.0
 10
4.0045709936
 20
5.2637678463
 30
0.0
 10
4.0055377832
 20
5.2634887283
 30
0.0
 10
4.0064966365
 20
5.2630279345
 30
0.0
 10
4.0074448303
 20
5.2623886134
 30
0.0
 10
4.008380648
 20
5.2615729013
 30
0.0
 10
4.0093025822
 20
5.260583233
 30
0.0
 10
4.0102097492
 20
5.2594225597
 30
0.0
 10
4.011445911
 20
5.2575774191
 30
0.0
 10
4.012922758
 20
5.2548390182
 30
0.0
 10
4.0145448548
 20
5.2510471357
 30
0.0
 10
4.016065738
 20
5.2466625229
 30
0.0
 10
4.0174689109
 20
5.2417255406
 30
0.0
 10
4.0187424943
 20
5.2362820019
 30
0.0
 10
4.0198720456
 20
5.2303834049
 30
0.0
 10
4.0208479479
 20
5.2240864496
 30
0.0
 10
4.0216597256
 20
5.2174512912
 30
0.0
 10
4.0222996033
 20
5.2105402186
 30
0.0
 10
4.0227612103
 20
5.2034185925
 30
0.0
 10
4.0230394657
 20
5.1961585149
 30
0.0
 10
4.023101929
 20
5.1912794859
 30
0.0
 10
4.0231019289
 20
5.1888308313
 30
0.0
  0
SPLINE
  5
34C
100
AcDbEntity
  8
ALL_ASSEMBLY_MEMBERS
100
AcDbSpline
 62
9
  6
CONTINUOUS
 70
0
 71
3
 72
27
 73
23
 74
0
 42
0.0000001
 43
0.0000001
 44
0.0000000001
 40
0.0
 40
0.0
 40
0.0
 40
0.0
 40
0.0118862923
 40
0.0241719744
 40
0.037196971
 40
0.0512421453
 40
0.0665273119
 40
0.0832138776
 40
0.1014112267
 40
0.1211923663
 40
0.1656562995
 40
0.2167318957
 40
0.2742578151
 40
0.3379330406
 40
0.4073076776
 40
0.4818642581
 40
0.5609769932
 40
0.6439694054
 40
0.7301399916
 40
0.8187666697
 40
0.909039626
 40
1.0
 40
1.0
 40
1.0
 40
1.0
 10
3.7968651425
 20
5.2638308313
 30
0.0
 10
3.7965451633
 20
5.2638308313
 30
0.0
 10
3.7958929068
 20
5.2637678463
 30
0.0
 10
3.7949261173
 20
5.2634887283
 30
0.0
 10
3.7939672641
 20
5.2630279344
 30
0.0
 10
3.7930190705
 20
5.2623886133
 30
0.0
 10
3.7920832529
 20
5.2615729013
 30
0.0
 10
3.7911613188
 20
5.2605832329
 30
0.0
 10
3.7902541519
 20
5.2594225596
 30
0.0
 10
3.7890179902
 20
5.257577419
 30
0.0
 10
3.7875411434
 20
5.2548390181
 30
0.0
 10
3.7859190466
 20
5.2510471355
 30
0.0
 10
3.7843981635
 20
5.2466625227
 30
0.0
 10
3.7829949907
 20
5.2417255404
 30
0.0
 10
3.7817214072
 20
5.2362820016
 30
0.0
 10
3.7805918558
 20
5.2303834047
 30
0.0
 10
3.7796159533
 20
5.2240864494
 30
0.0
 10
3.7788041755
 20
5.217451291
 30
0.0
 10
3.7781642977
 20
5.2105402184
 30
0.0
 10
3.7777026904
 20
5.2034185924
 30
0.0
 10
3.7774244347
 20
5.1961585149
 30
0.0
 10
3.7773619712
 20
5.1912794859
 30
0.0
 10
3.7773619712
 20
5.1888308313
 30
0.0
  0
SPLINE
  5
34D
100
AcDbEntity
  8
ALL_ASSEMBLY_MEMBERS
100
AcDbSpline
 62
7
  6
CONTINUOUS
 70
0
 71
3
 72
16
 73
12
 74
0
 42
0.0000001
 43
0.0000001
 44
0.0000000001
 40
0.0
 40
0.0
 40
0.0
 40
0.0
 40
0.1556896358
 40
0.227963922
 40
0.2966087479
 40
0.4243996548
 40
0.5421927562
 40
0.6538395254
 40
0.7637347767
 40
0.8770246396
 40
1.0
 40
1.0
 40
1.0
 40
1.0
 10
4.0352319501
 20
4.7991959278
 30
0.0
 10
4.0382734015
 20
4.7982046688
 30
0.0
 10
4.0426968805
 20
4.7966594279
 30
0.0
 10
4.0483909723
 20
4.7944868337
 30
0.0
 10
4.0535173085
 20
4.7924360038
 30
0.0
 10
4.0594683748
 20
4.7899315298
 30
0.0
 10
4.0662250183
 20
4.7870642031
 30
0.0
 10
4.0727042607
 20
4.7844854539
 30
0.0
 10
4.0792140489
 20
4.7822479319
 30
0.0
 10
4.0860848232
 20
4.7803869913
 30
0.0
 10
4.0908570167
 20
4.7794694096
 30
0.0
 10
4.0933528005
 20
4.7790751102
 30
0.0
  0
SPLINE
  5
34E
100
AcDbEntity
  8
ALL_ASSEMBLY_MEMBERS
100
AcDbSpline
 62
9
  6
CONTINUOUS
 70
0
 71
3
 72
20
 73
16
 74
0
 42
0.0000001
 43
0.0000001
 44
0.0000000001
 40
0.0
 40
0.0
 40
0.0
 40
0.0
 40
0.1624690627
 40
0.3211194546
 40
0.4720026766
 40
0.5434413363
 40
0.6116420645
 40
0.6761956195
 40
0.7367416184
 40
0.792937818
 40
0.8444830387
 40
0.8911385142
 40
0.9326946141
 40
0.9690048857
 40
1.0
 40
1.0
 40
1.0
 40
1.0
 10
3.8300600426
 20
4.715183737
 30
0.0
 10
3.8306443214
 20
4.7197093872
 30
0.0
 10
3.8316755678
 20
4.7286708183
 30
0.0
 10
3.8328190123
 20
4.7418800787
 30
0.0
 10
3.8334180709
 20
4.7525656556
 30
0.0
 10
3.833659912
 20
4.7607222691
 30
0.0
 10
3.8337216808
 20
4.7664574167
 30
0.0
 10
3.8336663213
 20
4.7718867301
 30
0.0
 10
3.8334950233
 20
4.7769763676
 30
0.0
 10
3.8332090152
 20
4.7816949963
 30
0.0
 10
3.8328098907
 20
4.786013947
 30
0.0
 10
3.8323011492
 20
4.7899072401
 30
0.0
 10
3.8316854105
 20
4.7933517896
 30
0.0
 10
3.8309680187
 20
4.7963259279
 30
0.0
 10
3.8303801622
 20
4.7981263386
 30
0.0
 10
3.8300600426
 20
4.7989358932
 30
0.0
  0
SPLINE
  5
34F
100
AcDbEntity
  8
ALL_ASSEMBLY_MEMBERS
100
AcDbSpline
 62
7
  6
CONTINUOUS
 70
0
 71
3
 72
15
 73
11
 74
0
 42
0.0000001
 43
0.0000001
 44
0.0000000001
 40
0.0
 40
0.0
 40
0.0
 40
0.0
 40
0.1150246626
 40
0.2279156408
 40
0.3403683277
 40
0.4545579609
 40
0.573514766
 40
0.7008516855
 40
0.8412938865
 40
1.0
 40
1.0
 40
1.0
 40
1.0
 10
4.1102319501
 20
5.5938308313
 30
0.0
 10
4.1102319501
 20
5.594258905
 30
0.0
 10
4.1101591399
 20
5.595109378
 30
0.0
 10
4.1098158718
 20
5.596336598
 30
0.0
 10
4.109235301
 20
5.5974693477
 30
0.0
 10
4.1084103359
 20
5.5984696266
 30
0.0
 10
4.1073378912
 20
5.599295239
 30
0.0
 10
4.1060123966
 20
5.599889393
 30
0.0
 10
4.1044391616
 20
5.6001878737
 30
0.0
 10
4.1033147875
 20
5.6001290105
 30
0.0
 10
4.1027319501
 20
5.6000333361
 30
0.0
  0
SPLINE
  5
350
100
AcDbEntity
  8
ALL_ASSEMBLY_MEMBERS
100
AcDbSpline
 62
9
  6
CONTINUOUS
 70
0
 71
3
 72
20
 73
16
 74
0
 42
0.0000001
 43
0.0000001
 44
0.0000000001
 40
0.0
 40
0.0
 40
0.0
 40
0.0
 40
0.1622817559
 40
0.3207371549
 40
0.4714126567
 40
0.5427472521
 40
0.6108470201
 40
0.6753078398
 40
0.7357772779
 40
0.7919241171
 40
0.8434629277
 40
0.8901773424
 40
0.9318894946
 40
0.9684981476
 40
1.0
 40
1.0
 40
1.0
 40
1.0
 10
3.8301458932
 20
5.6619910427
 30
0.0
 10
3.8308432764
 20
5.6575085761
 30
0.0
 10
3.8320745548
 20
5.6486256673
 30
0.0
 10
3.8334404507
 20
5.6355164359
 30
0.0
 10
3.8341563343
 20
5.6249020426
 30
0.0
 10
3.8344453492
 20
5.616796956
 30
0.0
 10
3.8345191743
 20
5.6110972346
 30
0.0
 10
3.8344530017
 20
5.6057010859
 30
0.0
 10
3.8342482606
 20
5.6006426736
 30
0.0
 10
3.8339064109
 20
5.5959535963
 30
0.0
 10
3.8334293251
 20
5.5916627359
 30
0.0
 10
3.8328211532
 20
5.5877961397
 30
0.0
 10
3.832084793
 20
5.584376861
 30
0.0
 10
3.8312264621
 20
5.5814265107
 30
0.0
 10
3.8305255758
 20
5.5796510677
 30
0.0
 10
3.8301458932
 20
5.5788565293
 30
0.0
  0
SPLINE
  5
351
100
AcDbEntity
  8
ALL_ASSEMBLY_MEMBERS
100
AcDbSpline
 62
7
  6
CONTINUOUS
 70
0
 71
3
 72
19
 73
15
 74
0
 42
0.0000001
 43
0.0000001
 44
0.0000000001
 40
0.0
 40
0.0
 40
0.0
 40
0.0
 40
0.1239159641
 40
0.1858999558
 40
0.2478859866
 40
0.3099261111
 40
0.3720529862
 40
0.4966072618
 40
0.6216828269
 40
0.7472846288
 40
0.810278599
 40
0.8733974103
 40
0.9366500903
 40
1.0
 40
1.0
 40
1.0
 40
1.0
 10
4.0352319501
 20
5.3242593808
 30
0.0
 10
4.0382656975
 20
5.3214146972
 30
0.0
 10
4.0425934052
 20
5.3169014213
 30
0.0
 10
4.0479131403
 20
5.3105028875
 30
0.0
 10
4.051688609
 20
5.3055285004
 30
0.0
 10
4.055270872
 20
5.3004083667
 30
0.0
 10
4.0598281816
 20
5.2934131487
 30
0.0
 10
4.0651755454
 20
5.2844152552
 30
0.0
 10
4.0712674809
 20
5.2733930069
 30
0.0
 10
4.0762892493
 20
5.2641405378
 30
0.0
 10
4.0804090072
 20
5.2567649757
 30
0.0
 10
4.0835920459
 20
5.2512636789
 30
0.0
 10
4.0868993964
 20
5.2458219523
 30
0.0
 10
4.0892165058
 20
5.2422590334
 30
0.0
 10
4.0904119297
 20
5.2405007992
 30
0.0
  0
SPLINE
  5
352
100
AcDbEntity
  8
ALL_ASSEMBLY_MEMBERS
100
AcDbSpline
 62
7
  6
CONTINUOUS
 70
0
 71
3
 72
20
 73
16
 74
0
 42
0.0000001
 43
0.0000001
 44
0.0000000001
 40
0.0
 40
0.0
 40
0.0
 40
0.0
 40
0.1266234449
 40
0.1898064733
 40
0.2528351304
 40
0.3157279823
 40
0.378483302
 40
0.5035782874
 40
0.565929924
 40
0.628150273
 40
0.6902631182
 40
0.7522962649
 40
0.8142622752
 40
0.8761956488
 40
1.0
 40
1.0
 40
1.0
 40
1.0
 10
4.0952192625
 20
5.1438141724
 30
0.0
 10
4.0924583688
 20
5.1401354466
 30
0.0
 10
4.0886543258
 20
5.1343686911
 30
0.0
 10
4.0840024502
 20
5.1264505696
 30
0.0
 10
4.0806630952
 20
5.120446946
 30
0.0
 10
4.0774175432
 20
5.1144105516
 30
0.0
 10
4.0731409356
 20
5.1063690777
 30
0.0
 10
4.0688317891
 20
5.0983659435
 30
0.0
 10
4.0643041424
 20
5.0905070975
 30
0.0
 10
4.0607723001
 20
5.0847172046
 30
0.0
 10
4.0570650202
 20
5.079051274
 30
0.0
 10
4.0531556065
 20
5.0735338934
 30
0.0
 10
4.0490305376
 20
5.068183271
 30
0.0
 10
4.0432246876
 20
5.061306752
 30
0.0
 10
4.0385157407
 20
5.0564567584
 30
0.0
 10
4.0352329849
 20
5.0533830701
 30
0.0
  0
SPLINE
  5
353
100
AcDbEntity
  8
ALL_ASSEMBLY_MEMBERS
100
AcDbSpline
 62
9
  6
CONTINUOUS
 70
0
 71
3
 72
28
 73
24
 74
0
 42
0.0000001
 43
0.0000001
 44
0.0000000001
 40
0.0
 40
0.0
 40
0.0
 40
0.0
 40
0.1113150866
 40
0.2205963938
 40
0.3267130682
 40
0.4285721764
 40
0.525050651
 40
0.6148689036
 40
0.6967302243
 40
0.7694236385
 40
0.8319194808
 40
0.8835016939
 40
0.9051505944
 40
0.9241250302
 40
0.9543645166
 40
0.9659383154
 40
0.9754129302
 40
0.9888380179
 40
0.9932174893
 40
0.9963563686
 40
0.9975360643
 40
0.998502742
 40
1.0
 40
1.0
 40
1.0
 40
1.0
 10
3.8301458932
 20
5.5788565293
 30
0.0
 10
3.8262643552
 20
5.5790186932
 30
0.0
 10
3.8185766331
 20
5.5794584263
 30
0.0
 10
3.8072161892
 20
5.5804549159
 30
0.0
 10
3.7962195457
 20
5.5817626219
 30
0.0
 10
3.785710236
 20
5.5833414939
 30
0.0
 10
3.7758156594
 20
5.5851494559
 30
0.0
 10
3.7666660383
 20
5.5871249666
 30
0.0
 10
3.758393022
 20
5.5892043399
 30
0.0
 10
3.7511139089
 20
5.5913074346
 30
0.0
 10
3.7449240784
 20
5.5933560601
 30
0.0
 10
3.7404938938
 20
5.5950386248
 30
0.0
 10
3.7375348856
 20
5.5963046422
 30
0.0
 10
3.7352895805
 20
5.5973416886
 30
0.0
 10
3.7334009552
 20
5.5983125985
 30
0.0
 10
3.7318616619
 20
5.5992270954
 30
0.0
 10
3.7308529944
 20
5.5998833319
 30
0.0
 10
3.7300863608
 20
5.6004501537
 30
0.0
 10
3.729528138
 20
5.6009221967
 30
0.0
 10
3.7292987714
 20
5.6011209203
 30
0.0
 10
3.7291516896
 20
5.6012328657
 30
0.0
 10
3.729044889
 20
5.6013009799
 30
0.0
 10
3.7289597482
 20
5.6013308323
 30
0.0
 10
3.7289074936
 20
5.6013308313
 30
0.0
  0
SPLINE
  5
354
100
AcDbEntity
  8
ALL_ASSEMBLY_MEMBERS
100
AcDbSpline
 62
9
  6
CONTINUOUS
 70
0
 71
3
 72
25
 73
21
 74
0
 42
0.0000001
 43
0.0000001
 44
0.0000000001
 40
0.0
 40
0.0
 40
0.0
 40
0.0
 40
0.1249998492
 40
0.2499996984
 40
0.3749995475
 40
0.4999993967
 40
0.5624993213
 40
0.6249992459
 40
0.6874991704
 40
0.7187491329
 40
0.7499990952
 40
0.7812490567
 40
0.8124990205
 40
0.8437489841
 40
0.8593739622
 40
0.8749989176
 40
0.9062494426
 40
0.9374996718
 40
0.9687502516
 40
1.0
 40
1.0
 40
1.0
 40
1.0
 10
4.0352319501
 20
5.6634688512
 30
0.0
 10
4.0266839239
 20
5.6634688512
 30
0.0
 10
4.0095878714
 20
5.6634688515
 30
0.0
 10
3.9839437928
 20
5.6634688505
 30
0.0
 10
3.9582997141
 20
5.6634688542
 30
0.0
 10
3.9369296486
 20
5.6634688426
 30
0.0
 10
3.9198335961
 20
5.6634688645
 30
0.0
 10
3.9070115568
 20
5.6634688141
 30
0.0
 10
3.896326524
 20
5.6634689216
 30
0.0
 10
3.8877784978
 20
5.6634687993
 30
0.0
 10
3.8813674781
 20
5.663468694
 30
0.0
 10
3.8749564585
 20
5.6634692759
 30
0.0
 10
3.8685454386
 20
5.6634689194
 30
0.0
 10
3.8632029226
 20
5.6634669887
 30
0.0
 10
3.8589289106
 20
5.6634699829
 30
0.0
 10
3.8546548674
 20
5.6634708747
 30
0.0
 10
3.8493122481
 20
5.6634399245
 30
0.0
 10
3.8429026056
 20
5.6632607541
 30
0.0
 10
3.8365038503
 20
5.6628328192
 30
0.0
 10
3.8322573744
 20
5.6623202564
 30
0.0
 10
3.8301458932
 20
5.6619910427
 30
0.0
  0
SPLINE
  5
355
100
AcDbEntity
  8
ALL_ASSEMBLY_MEMBERS
100
AcDbSpline
 62
9
  6
CONTINUOUS
 70
0
 71
3
 72
24
 73
20
 74
0
 42
0.0000001
 43
0.0000001
 44
0.0000000001
 40
0.0
 40
0.0
 40
0.0
 40
0.0
 40
0.1225022253
 40
0.2452200711
 40
0.3679420928
 40
0.4293583084
 40
0.4908636289
 40
0.5525598308
 40
0.6145608566
 40
0.6770290081
 40
0.7084878423
 40
0.7401273491
 40
0.7719670366
 40
0.8040256299
 40
0.8362904076
 40
0.8687420634
 40
0.9013825427
 40
0.9341855386
 40
1.0
 40
1.0
 40
1.0
 40
1.0
 10
4.0952174729
 20
5.598866818
 30
0.0
 10
4.0940538103
 20
5.6025511491
 30
0.0
 10
4.0915831708
 20
5.6098835324
 30
0.0
 10
4.0872763115
 20
5.6206674077
 30
0.0
 10
4.0829892493
 20
5.6293620379
 30
0.0
 10
4.0790116439
 20
5.6360154423
 30
0.0
 10
4.0757138251
 20
5.640819724
 30
0.0
 10
4.0720666284
 20
5.6453900399
 30
0.0
 10
4.068029116
 20
5.6496635026
 30
0.0
 10
4.064316895
 20
5.6529043587
 30
0.0
 10
4.0611240227
 20
5.6552508331
 30
0.0
 10
4.0586077016
 20
5.6568773588
 30
0.0
 10
4.0559811217
 20
5.6583578566
 30
0.0
 10
4.0532514077
 20
5.6596842935
 30
0.0
 10
4.050424111
 20
5.6608405623
 30
0.0
 10
4.0475044151
 20
5.6618002594
 30
0.0
 10
4.0445045319
 20
5.6625436242
 30
0.0
 10
4.0404237417
 20
5.6632533254
 30
0.0
 10
4.037307743
 20
5.6634698758
 30
0.0
 10
4.0352319501
 20
5.6634688512
 30
0.0
  0
SPLINE
  5
356
100
AcDbEntity
  8
ALL_ASSEMBLY_MEMBERS
100
AcDbSpline
 62
9
  6
CONTINUOUS
 70
0
 71
3
 72
38
 73
34
 74
0
 42
0.0000001
 43
0.0000001
 44
0.0000000001
 40
0.0
 40
0.0
 40
0.0
 40
0.0
 40
0.0962369449
 40
0.1915335591
 40
0.2849595854
 40
0.3756170695
 40
0.4626607841
 40
0.5453190809
 40
0.6229100951
 40
0.6948516144
 40
0.7606523705
 40
0.8198425891
 40
0.8467997645
 40
0.8719024342
 40
0.8950723052
 40
0.916223384
 40
0.9352600164
 40
0.9520758901
 40
0.9596148424
 40
0.9665535008
 40
0.9728755552
 40
0.9785640838
 40
0.9836017394
 40
0.9879712162
 40
0.9916557031
 40
0.9946396359
 40
0.996911548
 40
0.9977799369
 40
0.998472547
 40
0.9989973136
 40
0.9993764109
 40
0.9996715091
 40
1.0
 40
1.0
 40
1.0
 40
1.0
 10
3.8301458932
 20
5.6619910427
 30
0.0
 10
3.8276963964
 20
5.6616690884
 30
0.0
 10
3.8228331064
 20
5.6609368481
 30
0.0
 10
3.8156342651
 20
5.6596314006
 30
0.0
 10
3.8086139662
 20
5.6581587997
 30
0.0
 10
3.8018443756
 20
5.6565362476
 30
0.0
 10
3.7953961938
 20
5.6547721337
 30
0.0
 10
3.7893356225
 20
5.6528769568
 30
0.0
 10
3.7837215321
 20
5.6508685016
 30
0.0
 10
3.7786048401
 20
5.6487702951
 30
0.0
 10
3.774030087
 20
5.6466129618
 30
0.0
 10
3.7705930545
 20
5.6447642528
 30
0.0
 10
3.7681321133
 20
5.6433145008
 30
0.0
 10
3.7664927116
 20
5.642293248
 30
0.0
 10
3.7650029242
 20
5.6413147644
 30
0.0
 10
3.7636643461
 20
5.6403905614
 30
0.0
 10
3.7624784597
 20
5.6395329719
 30
0.0
 10
3.7615889241
 20
5.6388623588
 30
0.0
 10
3.7609538045
 20
5.6383704089
 30
0.0
 10
3.7605339999
 20
5.6380404328
 30
0.0
 10
3.7601532515
 20
5.6377376543
 30
0.0
 10
3.7598116635
 20
5.6374640471
 30
0.0
 10
3.7595093192
 20
5.6372216219
 30
0.0
 10
3.7592463125
 20
5.6370123931
 30
0.0
 10
3.7590226894
 20
5.6368383153
 30
0.0
 10
3.7588384396
 20
5.636701493
 30
0.0
 10
3.7587082807
 20
5.6366129725
 30
0.0
 10
3.7586228087
 20
5.6365641752
 30
0.0
 10
3.7585742105
 20
5.636541317
 30
0.0
 10
3.758535068
 20
5.636529086
 30
0.0
 10
3.7585035083
 20
5.6365267884
 30
0.0
 10
3.7584792489
 20
5.6365400856
 30
0.0
 10
3.7584737149
 20
5.6365564004
 30
0.0
 10
3.7584722468
 20
5.6365647046
 30
0.0
  0
LINE
  5
357
100
AcDbEntity
  8
ALL_ASSEMBLY_MEMBERS
100
AcDbLine
 62
7
  6
CONTINUOUS
 10
4.1739069501
 20
4.9627058313
 11
4.1736019151
 21
4.9627610591
  0
SPLINE
  5
358
100
AcDbEntity
  8
ALL_ASSEMBLY_MEMBERS
100
AcDbSpline
 62
9
  6
CONTINUOUS
 70
0
 71
3
 72
21
 73
17
 74
0
 42
0.0000001
 43
0.0000001
 44
0.0000000001
 40
0.0
 40
0.0
 40
0.0
 40
0.0
 40
0.1250164314
 40
0.2500326091
 40
0.3750494946
 40
0.5000651999
 40
0.6250815844
 40
0.6875963463
 40
0.7501015784
 40
0.7813451082
 40
0.8125867851
 40
0.8438364162
 40
0.8751039613
 40
0.9063962471
 40
0.9376807702
 40
1.0
 40
1.0
 40
1.0
 40
1.0
 10
4.0352329849
 20
5.5784590566
 30
0.0
 10
4.0266863811
 20
5.5784590566
 30
0.0
 10
4.009593191
 20
5.5784591356
 30
0.0
 10
3.983953366
 20
5.5784588919
 30
0.0
 10
3.9583135906
 20
5.5784592131
 30
0.0
 10
3.9326738012
 20
5.5784594418
 30
0.0
 10
3.9113068967
 20
5.5784569644
 30
0.0
 10
3.8942134498
 20
5.5784623065
 30
0.0
 10
3.8835306737
 20
5.5784626132
 30
0.0
 10
3.8749858488
 20
5.5784560659
 30
0.0
 10
3.8685777787
 20
5.5784500728
 30
0.0
 10
3.8621680598
 20
5.5784477251
 30
0.0
 10
3.8557548951
 20
5.5784540487
 30
0.0
 10
3.8493393151
 20
5.5784707567
 30
0.0
 10
3.8408012864
 20
5.5785354506
 30
0.0
 10
3.8344025528
 20
5.5786784713
 30
0.0
 10
3.8301458932
 20
5.5788565293
 30
0.0
  0
SPLINE
  5
359
100
AcDbEntity
  8
ALL_ASSEMBLY_MEMBERS
100
AcDbSpline
 62
9
  6
CONTINUOUS
 70
0
 71
3
 72
28
 73
24
 74
0
 42
0.0000001
 43
0.0000001
 44
0.0000000001
 40
0.0
 40
0.0
 40
0.0
 40
0.0
 40
0.0312483849
 40
0.0624931638
 40
0.0937364671
 40
0.10936436
 40
0.1249939319
 40
0.14062201
 40
0.1562479818
 40
0.1874969133
 40
0.2031210881
 40
0.2187456572
 40
0.2499958408
 40
0.2812465341
 40
0.3124968623
 40
0.3749969308
 40
0.4062470655
 40
0.4374972553
 40
0.4999975912
 40
0.624998179
 40
0.7499987877
 40
0.8749993937
 40
1.0
 40
1.0
 40
1.0
 40
1.0
 10
3.8300600426
 20
5.3235089187
 30
0.0
 10
3.8321908279
 20
5.3236763604
 30
0.0
 10
3.8364532608
 20
5.3239973791
 30
0.0
 10
3.8428580321
 20
5.3243234851
 30
0.0
 10
3.848202206
 20
5.324358845
 30
0.0
 10
3.8524769549
 20
5.3243232981
 30
0.0
 10
3.8556836787
 20
5.3242861654
 30
0.0
 10
3.8588903858
 20
5.3242621647
 30
0.0
 10
3.863165528
 20
5.3242536576
 30
0.0
 10
3.8674403859
 20
5.3242658035
 30
0.0
 10
3.8717151369
 20
5.3242783359
 30
0.0
 10
3.8759899911
 20
5.3242840394
 30
0.0
 10
3.8813336848
 20
5.3242818705
 30
0.0
 10
3.8877461569
 20
5.3242746941
 30
0.0
 10
3.8962960904
 20
5.3242722813
 30
0.0
 10
3.9048459849
 20
5.3242743693
 30
0.0
 10
3.9133958702
 20
5.3242731411
 30
0.0
 10
3.9219457736
 20
5.3242713242
 30
0.0
 10
3.9369081018
 20
5.3242689189
 30
0.0
 10
3.9582828525
 20
5.3242660835
 30
0.0
 10
3.9839325507
 20
5.3242624972
 30
0.0
 10
4.0095822504
 20
5.3242600601
 30
0.0
 10
4.0266820502
 20
5.3242593808
 30
0.0
 10
4.0352319501
 20
5.3242593808
 30
0.0
  0
SPLINE
  5
35A
100
AcDbEntity
  8
ALL_ASSEMBLY_MEMBERS
100
AcDbSpline
 62
9
  6
CONTINUOUS
 70
0
 71
3
 72
20
 73
16
 74
0
 42
0.0000001
 43
0.0000001
 44
0.0000000001
 40
0.0
 40
0.0
 40
0.0
 40
0.0
 40
0.0623414752
 40
0.1245983025
 40
0.1867934371
 40
0.2489475482
 40
0.311095037
 40
0.3732732979
 40
0.4355050233
 40
0.4978178628
 40
0.6226863999
 40
0.7480194499
 40
0.8109165062
 40
0.8739238382
 40
1.0
 40
1.0
 40
1.0
 40
1.0
 10
3.7376294473
 20
5.2585218374
 30
0.0
 10
3.7385514834
 20
5.2608125645
 30
0.0
 10
3.7405598422
 20
5.265326575
 30
0.0
 10
3.7440721492
 20
5.2718462535
 30
0.0
 10
3.7480601235
 20
5.278077913
 30
0.0
 10
3.7525059618
 20
5.283986261
 30
0.0
 10
3.7573856695
 20
5.2895405482
 30
0.0
 10
3.7626648688
 20
5.2947205312
 30
0.0
 10
3.7683138727
 20
5.2995048477
 30
0.0
 10
3.7762953392
 20
5.3053385933
 30
0.0
 10
3.7870252788
 20
5.3115912333
 30
0.0
 10
3.7984921736
 20
5.3164043296
 30
0.0
 10
3.8079876376
 20
5.3193999902
 30
0.0
 10
3.8176727782
 20
5.3218293717
 30
0.0
 10
3.8250912572
 20
5.3230092999
 30
0.0
 10
3.8300600426
 20
5.3235089187
 30
0.0
  0
SPLINE
  5
35B
100
AcDbEntity
  8
ALL_ASSEMBLY_MEMBERS
100
AcDbSpline
 62
9
  6
CONTINUOUS
 70
0
 71
3
 72
20
 73
16
 74
0
 42
0.0000001
 43
0.0000001
 44
0.0000000001
 40
0.0
 40
0.0
 40
0.0
 40
0.0
 40
0.1260512759
 40
0.1890379486
 40
0.251917276
 40
0.3772324647
 40
0.5021007822
 40
0.5644212142
 40
0.626664647
 40
0.6888579168
 40
0.7510219365
 40
0.813189423
 40
0.8753951302
 40
0.9376598614
 40
1.0
 40
1.0
 40
1.0
 40
1.0
 10
3.8301458932
 20
5.0545318928
 30
0.0
 10
3.8253271115
 20
5.0551164141
 30
0.0
 10
3.8181401408
 20
5.0563940072
 30
0.0
 10
3.8087635821
 20
5.0588974439
 30
0.0
 10
3.7995735361
 20
5.0619303787
 30
0.0
 10
3.7884767888
 20
5.0667218421
 30
0.0
 10
3.7780848044
 20
5.072862691
 30
0.0
 10
3.7703392309
 20
5.0785539367
 30
0.0
 10
3.7648457182
 20
5.0832048323
 30
0.0
 10
3.759697565
 20
5.0882265409
 30
0.0
 10
3.754920775
 20
5.0935991567
 30
0.0
 10
3.7505455978
 20
5.0993043808
 30
0.0
 10
3.7465935664
 20
5.1053150299
 30
0.0
 10
3.7430777141
 20
5.1115979679
 30
0.0
 10
3.7410375721
 20
5.1159462068
 30
0.0
 10
3.740092796
 20
5.1181531362
 30
0.0
  0
SPLINE
  5
35C
100
AcDbEntity
  8
ALL_ASSEMBLY_MEMBERS
100
AcDbSpline
 62
9
  6
CONTINUOUS
 70
0
 71
3
 72
26
 73
22
 74
0
 42
0.0000001
 43
0.0000001
 44
0.0000000001
 40
0.0
 40
0.0
 40
0.0
 40
0.0
 40
0.1249974235
 40
0.2499948887
 40
0.3124935711
 40
0.3749922009
 40
0.4374909669
 40
0.4999899843
 40
0.5624886063
 40
0.6249862661
 40
0.687485476
 40
0.7187367483
 40
0.7499879813
 40
0.7812370717
 40
0.8124820149
 40
0.8437239032
 40
0.8749704218
 40
0.9062319706
 40
0.9375115084
 40
0.9687726337
 40
1.0
 40
1.0
 40
1.0
 40
1.0
 10
4.0352329849
 20
5.0533830701
 30
0.0
 10
4.0266861847
 20
5.0533830701
 30
0.0
 10
4.0095925814
 20
5.0533829872
 30
0.0
 10
3.98822558
 20
5.0533832022
 30
0.0
 10
3.9711319843
 20
5.0533831086
 30
0.0
 10
3.9583117879
 20
5.0533827417
 30
0.0
 10
3.9454915685
 20
5.0533827505
 30
0.0
 10
3.9326713498
 20
5.0533840005
 30
0.0
 10
3.9198512063
 20
5.0533844205
 30
0.0
 10
3.9070310512
 20
5.0533798147
 30
0.0
 10
3.8963474559
 20
5.0533789706
 30
0.0
 10
3.887800366
 20
5.0533875298
 30
0.0
 10
3.8813900281
 20
5.0533941506
 30
0.0
 10
3.874980117
 20
5.0533946826
 30
0.0
 10
3.8685708538
 20
5.0533811986
 30
0.0
 10
3.8621618201
 20
5.0533544102
 30
0.0
 10
3.8557515409
 20
5.0533519562
 30
0.0
 10
3.8493388814
 20
5.0534073744
 30
0.0
 10
3.8429262885
 20
5.0535536277
 30
0.0
 10
3.8365219491
 20
5.0538784529
 30
0.0
 10
3.8322655065
 20
5.0542743974
 30
0.0
 10
3.8301458932
 20
5.0545318928
 30
0.0
  0
SPLINE
  5
35D
100
AcDbEntity
  8
ALL_ASSEMBLY_MEMBERS
100
AcDbSpline
 62
9
  6
CONTINUOUS
 70
0
 71
3
 72
28
 73
24
 74
0
 42
0.0000001
 43
0.0000001
 44
0.0000000001
 40
0.0
 40
0.0
 40
0.0
 40
0.0
 40
0.0155543193
 40
0.023330372
 40
0.0311193614
 40
0.0467289631
 40
0.0623559124
 40
0.0701704896
 40
0.0779842897
 40
0.0936111806
 40
0.1092386247
 40
0.1248661035
 40
0.1561208372
 40
0.1873756341
 40
0.2186304138
 40
0.2498851985
 40
0.3123947651
 40
0.3749043318
 40
0.4999234651
 40
0.6249425982
 40
0.7499617317
 40
0.8749808656
 40
1.0
 40
1.0
 40
1.0
 40
1.0
 10
3.8300600426
 20
4.7989358932
 30
0.0
 10
3.8311234407
 20
4.7989647577
 30
0.0
 10
3.8327179986
 20
4.7990236232
 30
0.0
 10
3.8348449704
 20
4.7990991448
 30
0.0
 10
3.8369761862
 20
4.7991607893
 30
0.0
 10
3.8396449843
 20
4.7992066933
 30
0.0
 10
3.8423158244
 20
4.799204676
 30
0.0
 10
3.8444534265
 20
4.7992015654
 30
0.0
 10
3.8465910366
 20
4.7992016764
 30
0.0
 10
3.8492629799
 20
4.799203187
 30
0.0
 10
3.8524693175
 20
4.7992025657
 30
0.0
 10
3.8567444726
 20
4.7992023186
 30
0.0
 10
3.8620884125
 20
4.7992024875
 30
0.0
 10
3.8685011335
 20
4.7992022084
 30
0.0
 10
3.8749138579
 20
4.7992020814
 30
0.0
 10
3.883464156
 20
4.7992017863
 30
0.0
 10
3.8941520289
 20
4.7992013922
 30
0.0
 10
3.9112526254
 20
4.7992006338
 30
0.0
 10
3.9326283709
 20
4.7991995538
 30
0.0
 10
3.9582792656
 20
4.7991982155
 30
0.0
 10
3.9839301603
 20
4.7991970234
 30
0.0
 10
4.0095810552
 20
4.7991961605
 30
0.0
 10
4.0266816518
 20
4.7991959278
 30
0.0
 10
4.0352319501
 20
4.7991959278
 30
0.0
  0
LINE
  5
35E
100
AcDbEntity
  8
ALL_ASSEMBLY_MEMBERS
100
AcDbLine
 62
7
  6
CONTINUOUS
 10
3.8987380173
 20
2.6004204729
 11
3.8986569501
 21
2.6002058313
  0
LINE
  5
35F
100
AcDbEntity
  8
ALL_ASSEMBLY_MEMBERS
100
AcDbLine
 62
7
  6
CONTINUOUS
 10
3.8983926573
 20
2.6002967651
 11
3.8987107921
 21
2.6004159684
  0
LINE
  5
360
100
AcDbEntity
  8
ALL_ASSEMBLY_MEMBERS
100
AcDbLine
 62
7
  6
CONTINUOUS
 10
3.8987107921
 20
2.6004159684
 11
3.9018198059
 21
2.6011138216
  0
SPLINE
  5
361
100
AcDbEntity
  8
ALL_ASSEMBLY_MEMBERS
100
AcDbSpline
 62
7
  6
CONTINUOUS
 70
0
 71
3
 72
19
 73
15
 74
0
 42
0.0000001
 43
0.0000001
 44
0.0000000001
 40
0.0
 40
0.0
 40
0.0
 40
0.0
 40
0.1232577561
 40
0.180002406
 40
0.2348592682
 40
0.2887699448
 40
0.3426165445
 40
0.4530293798
 40
0.5711716708
 40
0.634316707
 40
0.7006446393
 40
0.7703091279
 40
0.8434501915
 40
1.0
 40
1.0
 40
1.0
 40
1.0
 10
3.8199692625
 20
3.2363671107
 30
0.0
 10
3.8173875841
 20
3.2359894508
 30
0.0
 10
3.8136335383
 20
3.2353076059
 30
0.0
 10
3.8088057575
 20
3.2341163671
 30
0.0
 10
3.80543828
 20
3.233146109
 30
0.0
 10
3.8021655578
 20
3.2320772339
 30
0.0
 10
3.7978192446
 20
3.2305141259
 30
0.0
 10
3.7922660536
 20
3.2282978787
 30
0.0
 10
3.7865682486
 20
3.2259186353
 30
0.0
 10
3.7817185841
 20
3.2239297362
 30
0.0
 10
3.7778049029
 20
3.2223634717
 30
0.0
 10
3.7736759946
 20
3.220766071
 30
0.0
 10
3.767733725
 20
3.2185645011
 30
0.0
 10
3.7631341595
 20
3.2169847127
 30
0.0
 10
3.7599829849
 20
3.2159590566
 30
0.0
  0
SPLINE
  5
362
100
AcDbEntity
  8
ALL_ASSEMBLY_MEMBERS
100
AcDbSpline
 62
9
  6
CONTINUOUS
 70
0
 71
3
 72
35
 73
31
 74
0
 42
0.0000001
 43
0.0000001
 44
0.0000000001
 40
0.0
 40
0.0
 40
0.0
 40
0.0
 40
0.0156239546
 40
0.0234380326
 40
0.0312543384
 40
0.0390687235
 40
0.0468791682
 40
0.0546899309
 40
0.062504295
 40
0.0703189498
 40
0.0781316652
 40
0.0859434669
 40
0.0937553888
 40
0.109380412
 40
0.1250055249
 40
0.1406303335
 40
0.1562552118
 40
0.1875050499
 40
0.2187548467
 40
0.2500046558
 40
0.2812544608
 40
0.3125042671
 40
0.3750038792
 40
0.4375034913
 40
0.5000031034
 40
0.5625027154
 40
0.6250023275
 40
0.7500015517
 40
0.8750007758
 40
1.0
 40
1.0
 40
1.0
 40
1.0
 10
3.5548100426
 20
2.352683737
 30
0.0
 10
3.555867721
 20
2.3525298811
 30
0.0
 10
3.5574575096
 20
2.3523199233
 30
0.0
 10
3.5595820275
 20
2.3520794614
 30
0.0
 10
3.5611776877
 20
2.3519172971
 30
0.0
 10
3.5627760665
 20
2.3517865089
 30
0.0
 10
3.5643774537
 20
2.3517034153
 30
0.0
 10
3.5659807193
 20
2.3516795694
 30
0.0
 10
3.5675841827
 20
2.3516870739
 30
0.0
 10
3.5691877664
 20
2.3516973088
 30
0.0
 10
3.5707912111
 20
2.3516971358
 30
0.0
 10
3.5723944562
 20
2.3516939249
 30
0.0
 10
3.5745321327
 20
2.3516908763
 30
0.0
 10
3.5772043071
 20
2.3516928332
 30
0.0
 10
3.5804109479
 20
2.3516938565
 30
0.0
 10
3.5836175792
 20
2.3516932661
 30
0.0
 10
3.5878930733
 20
2.3516936013
 30
0.0
 10
3.5932374482
 20
2.3516942324
 30
0.0
 10
3.5996507
 20
2.3516947659
 30
0.0
 10
3.6060639496
 20
2.35169558
 30
0.0
 10
3.6124771998
 20
2.3516964147
 30
0.0
 10
3.6210281997
 20
2.3516976757
 30
0.0
 10
3.6317169498
 20
2.3516994195
 30
0.0
 10
3.6445434497
 20
2.3517017263
 30
0.0
 10
3.6573699497
 20
2.3517041529
 30
0.0
 10
3.6701964496
 20
2.3517066164
 30
0.0
 10
3.6872984496
 20
2.3517098353
 30
0.0
 10
3.7086759496
 20
2.3517135222
 30
0.0
 10
3.7343289497
 20
2.3517167239
 30
0.0
 10
3.75143095
 20
2.3517175874
 30
0.0
 10
3.7599819501
 20
2.3517175874
 30
0.0
  0
SPLINE
  5
363
100
AcDbEntity
  8
ALL_ASSEMBLY_MEMBERS
100
AcDbSpline
 62
7
  6
CONTINUOUS
 70
0
 71
3
 72
15
 73
11
 74
0
 42
0.0000001
 43
0.0000001
 44
0.0000000001
 40
0.0
 40
0.0
 40
0.0
 40
0.0
 40
0.1587061134
 40
0.2991483144
 40
0.426485234
 40
0.5454420391
 40
0.6596316723
 40
0.7720843592
 40
0.8849753374
 40
1.0
 40
1.0
 40
1.0
 40
1.0
 10
3.8274819501
 20
2.4151283264
 30
0.0
 10
3.8280647875
 20
2.4150326521
 30
0.0
 10
3.8291891616
 20
2.4149737888
 30
0.0
 10
3.8307623966
 20
2.4152722695
 30
0.0
 10
3.8320878912
 20
2.4158664235
 30
0.0
 10
3.8331603359
 20
2.416692036
 30
0.0
 10
3.833985301
 20
2.4176923148
 30
0.0
 10
3.8345658718
 20
2.4188250645
 30
0.0
 10
3.8349091399
 20
2.4200522846
 30
0.0
 10
3.8349819501
 20
2.4209027575
 30
0.0
 10
3.8349819501
 20
2.4213308313
 30
0.0
  0
SPLINE
  5
364
100
AcDbEntity
  8
ALL_ASSEMBLY_MEMBERS
100
AcDbSpline
 62
9
  6
CONTINUOUS
 70
0
 71
3
 72
19
 73
15
 74
0
 42
0.0000001
 43
0.0000001
 44
0.0000000001
 40
0.0
 40
0.0
 40
0.0
 40
0.0
 40
0.0657402211
 40
0.1310985256
 40
0.1958279824
 40
0.2598505494
 40
0.3232086732
 40
0.386003459
 40
0.5102700891
 40
0.5720151374
 40
0.6335576378
 40
0.7561554026
 40
0.8782817015
 40
1.0
 40
1.0
 40
1.0
 40
1.0
 10
3.7599819501
 20
2.3517175874
 30
0.0
 10
3.7619984931
 20
2.3517175707
 30
0.0
 10
3.7660275428
 20
2.3520460411
 30
0.0
 10
3.7718821702
 20
2.3534897889
 30
0.0
 10
3.7774069886
 20
2.3557629668
 30
0.0
 10
3.7825267991
 20
2.3587103996
 30
0.0
 10
3.78722543
 20
2.3621865086
 30
0.0
 10
3.7929276829
 20
2.3673477095
 30
0.0
 10
3.7979105016
 20
2.3731729077
 30
0.0
 10
3.8022773469
 20
2.3793875877
 30
0.0
 10
3.8062737744
 20
2.3857883339
 30
0.0
 10
3.8106826014
 20
2.3940974955
 30
0.0
 10
3.8152245471
 20
2.4043870116
 30
0.0
 10
3.8178428745
 20
2.4113979218
 30
0.0
 10
3.819064948
 20
2.4149258942
 30
0.0
  0
SPLINE
  5
365
100
AcDbEntity
  8
ALL_ASSEMBLY_MEMBERS
100
AcDbSpline
 62
9
  6
CONTINUOUS
 70
0
 71
3
 72
34
 73
30
 74
0
 42
0.0000001
 43
0.0000001
 44
0.0000000001
 40
0.0
 40
0.0
 40
0.0
 40
0.0
 40
0.0006598079
 40
0.0012942964
 40
0.0019572989
 40
0.0027169503
 40
0.0036426017
 40
0.0047959423
 40
0.0062303803
 40
0.0079928579
 40
0.0126653991
 40
0.0191246847
 40
0.0276370014
 40
0.0384350351
 40
0.051718487
 40
0.0676531657
 40
0.0863692886
 40
0.1079608685
 40
0.1324630414
 40
0.1598523844
 40
0.223005517
 40
0.2965976559
 40
0.3794990936
 40
0.4704066322
 40
0.5679649654
 40
0.6708651574
 40
0.7778941064
 40
0.8879447161
 40
1.0
 40
1.0
 40
1.0
 40
1.0
 10
3.4536565726
 20
2.413830833
 30
0.0
 10
3.4536333754
 20
2.4138309211
 30
0.0
 10
3.4535874205
 20
2.4138376895
 30
0.0
 10
3.4535257678
 20
2.4138717639
 30
0.0
 10
3.4534796683
 20
2.4139298546
 30
0.0
 10
3.4534546666
 20
2.4140101455
 30
0.0
 10
3.4534539896
 20
2.4141110248
 30
0.0
 10
3.4534807345
 20
2.414232399
 30
0.0
 10
3.4535385691
 20
2.4143745877
 30
0.0
 10
3.4536758606
 20
2.4146154995
 30
0.0
 10
3.4539633673
 20
2.4149693035
 30
0.0
 10
3.4544656164
 20
2.4154448254
 30
0.0
 10
3.4551808918
 20
2.4160027975
 30
0.0
 10
3.4561334658
 20
2.4166410458
 30
0.0
 10
3.4573456179
 20
2.4173564347
 30
0.0
 10
3.4588358572
 20
2.4181444487
 30
0.0
 10
3.4606193219
 20
2.4189993897
 30
0.0
 10
3.4627068904
 20
2.4199135382
 30
0.0
 10
3.4651036068
 20
2.4208789146
 30
0.0
 10
3.4688942599
 20
2.4222908959
 30
0.0
 10
3.4743740607
 20
2.424106166
 30
0.0
 10
3.48179685
 20
2.426242047
 30
0.0
 10
3.4902394134
 20
2.4283423141
 30
0.0
 10
3.4995729198
 20
2.4303280745
 30
0.0
 10
3.5096588157
 20
2.4321297527
 30
0.0
 10
3.5203581237
 20
2.4336891926
 30
0.0
 10
3.5315377779
 20
2.4349597445
 30
0.0
 10
3.5430724876
 20
2.4359054857
 30
0.0
 10
3.550872816
 20
2.4362991133
 30
0.0
 10
3.5548100426
 20
2.4364358932
 30
0.0
  0
SPLINE
  5
366
100
AcDbEntity
  8
ALL_ASSEMBLY_MEMBERS
100
AcDbSpline
 62
9
  6
CONTINUOUS
 70
0
 71
3
 72
32
 73
28
 74
0
 42
0.0000001
 43
0.0000001
 44
0.0000000001
 40
0.0
 40
0.0
 40
0.0
 40
0.0
 40
0.000443918
 40
0.0010400899
 40
0.0027305202
 40
0.0051039083
 40
0.0081556441
 40
0.0118725975
 40
0.0162389233
 40
0.0268507971
 40
0.0398573856
 40
0.0551308268
 40
0.0725552441
 40
0.0920274481
 40
0.1134563851
 40
0.1367624019
 40
0.1887248874
 40
0.2474440199
 40
0.3125323319
 40
0.3836381887
 40
0.460331293
 40
0.5420646871
 40
0.6281751857
 40
0.7178963286
 40
0.8103803847
 40
0.9047251703
 40
1.0
 40
1.0
 40
1.0
 40
1.0
 10
3.4832222462
 20
2.3785969542
 30
0.0
 10
3.4832202519
 20
2.3785855928
 30
0.0
 10
3.4832212153
 20
2.3785581288
 30
0.0
 10
3.483237293
 20
2.3784889197
 30
0.0
 10
3.4832855083
 20
2.3783770313
 30
0.0
 10
3.4833747182
 20
2.3782151235
 30
0.0
 10
3.4835029615
 20
2.3780149174
 30
0.0
 10
3.4836701082
 20
2.3777786834
 30
0.0
 10
3.4839652343
 20
2.377392692
 30
0.0
 10
3.48443441
 20
2.3768365963
 30
0.0
 10
3.4851221577
 20
2.3760957122
 30
0.0
 10
3.4859663794
 20
2.3752599392
 30
0.0
 10
3.4869663218
 20
2.3743441352
 30
0.0
 10
3.4881212738
 20
2.373362275
 30
0.0
 10
3.4894304058
 20
2.3723274168
 30
0.0
 10
3.4914549826
 20
2.370838552
 30
0.0
 10
3.4943674896
 20
2.3689255637
 30
0.0
 10
3.498347277
 20
2.366677811
 30
0.0
 10
3.5029159583
 20
2.3644836915
 30
0.0
 10
3.5080390424
 20
2.3623892006
 30
0.0
 10
3.5136741715
 20
2.3604274383
 30
0.0
 10
3.5197696166
 20
2.3586249646
 30
0.0
 10
3.526264447
 20
2.3570018846
 30
0.0
 10
3.5330896435
 20
2.3555706955
 30
0.0
 10
3.5401718803
 20
2.3543448204
 30
0.0
 10
3.547435687
 20
2.3533483445
 30
0.0
 10
3.5523411955
 20
2.3528676608
 30
0.0
 10
3.5548100426
 20
2.352683737
 30
0.0
  0
SPLINE
  5
367
100
AcDbEntity
  8
ALL_ASSEMBLY_MEMBERS
100
AcDbSpline
 62
9
  6
CONTINUOUS
 70
0
 71
3
 72
27
 73
23
 74
0
 42
0.0000001
 43
0.0000001
 44
0.0000000001
 40
0.0
 40
0.0
 40
0.0
 40
0.0
 40
0.0118862923
 40
0.0241719745
 40
0.037196971
 40
0.0512421454
 40
0.066527312
 40
0.0832138778
 40
0.1014112269
 40
0.1211923666
 40
0.1656562998
 40
0.216731896
 40
0.2742578154
 40
0.337933041
 40
0.407307678
 40
0.4818642584
 40
0.5609769935
 40
0.6439694057
 40
0.7301399918
 40
0.8187666698
 40
0.909039626
 40
1.0
 40
1.0
 40
1.0
 40
1.0
 10
3.7283487577
 20
2.7513308313
 30
0.0
 10
3.7286687369
 20
2.7513308313
 30
0.0
 10
3.7293209934
 20
2.7513938162
 30
0.0
 10
3.7302877829
 20
2.7516729342
 30
0.0
 10
3.7312466361
 20
2.7521337281
 30
0.0
 10
3.7321948297
 20
2.7527730492
 30
0.0
 10
3.7331306473
 20
2.7535887613
 30
0.0
 10
3.7340525814
 20
2.7545784296
 30
0.0
 10
3.7349597483
 20
2.7557391029
 30
0.0
 10
3.73619591
 20
2.7575842436
 30
0.0
 10
3.7376727568
 20
2.7603226445
 30
0.0
 10
3.7392948536
 20
2.764114527
 30
0.0
 10
3.7408157367
 20
2.7684991399
 30
0.0
 10
3.7422189095
 20
2.7734361222
 30
0.0
 10
3.743492493
 20
2.7788796609
 30
0.0
 10
3.7446220444
 20
2.7847782579
 30
0.0
 10
3.7455979468
 20
2.7910752132
 30
0.0
 10
3.7464097247
 20
2.7977103716
 30
0.0
 10
3.7470496025
 20
2.8046214441
 30
0.0
 10
3.7475112098
 20
2.8117430701
 30
0.0
 10
3.7477894654
 20
2.8190031476
 30
0.0
 10
3.7478519289
 20
2.8238821766
 30
0.0
 10
3.7478519289
 20
2.8263308313
 30
0.0
  0
SPLINE
  5
368
100
AcDbEntity
  8
ALL_ASSEMBLY_MEMBERS
100
AcDbSpline
 62
9
  6
CONTINUOUS
 70
0
 71
3
 72
27
 73
23
 74
0
 42
0.0000001
 43
0.0000001
 44
0.0000000001
 40
0.0
 40
0.0
 40
0.0
 40
0.0
 40
0.0118862937
 40
0.0241719774
 40
0.0371969753
 40
0.0512421507
 40
0.0665273182
 40
0.0832138846
 40
0.1014112341
 40
0.121192374
 40
0.1656563074
 40
0.2167319033
 40
0.2742578222
 40
0.3379330471
 40
0.4073076832
 40
0.4818642628
 40
0.560976997
 40
0.6439694083
 40
0.7301399937
 40
0.8187666711
 40
0.9090396268
 40
1.0
 40
1.0
 40
1.0
 40
1.0
 10
3.5216151425
 20
2.7513308313
 30
0.0
 10
3.5212951633
 20
2.7513308313
 30
0.0
 10
3.5206429066
 20
2.7513938162
 30
0.0
 10
3.5196761171
 20
2.7516729342
 30
0.0
 10
3.5187172637
 20
2.7521337281
 30
0.0
 10
3.51776907
 20
2.7527730492
 30
0.0
 10
3.5168332523
 20
2.7535887612
 30
0.0
 10
3.5159113181
 20
2.7545784296
 30
0.0
 10
3.5150041511
 20
2.7557391029
 30
0.0
 10
3.5137679893
 20
2.7575842435
 30
0.0
 10
3.5122911423
 20
2.7603226444
 30
0.0
 10
3.5106690455
 20
2.764114527
 30
0.0
 10
3.5091481623
 20
2.7684991398
 30
0.0
 10
3.5077449895
 20
2.7734361221
 30
0.0
 10
3.506471406
 20
2.7788796608
 30
0.0
 10
3.5053418547
 20
2.7847782577
 30
0.0
 10
3.5043659524
 20
2.7910752131
 30
0.0
 10
3.5035541747
 20
2.7977103715
 30
0.0
 10
3.502914297
 20
2.804621444
 30
0.0
 10
3.50245269
 20
2.8117430701
 30
0.0
 10
3.5021744345
 20
2.8190031476
 30
0.0
 10
3.5021119712
 20
2.8238821766
 30
0.0
 10
3.5021119712
 20
2.8263308313
 30
0.0
  0
SPLINE
  5
369
100
AcDbEntity
  8
ALL_ASSEMBLY_MEMBERS
100
AcDbSpline
 62
9
  6
CONTINUOUS
 70
0
 71
3
 72
12
 73
8
 74
0
 42
0.0000001
 43
0.0000001
 44
0.0000000001
 40
0.0
 40
0.0
 40
0.0
 40
0.0
 40
0.0985412752
 40
0.1988793531
 40
0.4181628092
 40
0.6808827491
 40
1.0
 40
1.0
 40
1.0
 40
1.0
 10
3.5549095664
 20
2.9013343065
 30
0.0
 10
3.5550013676
 20
2.9013407562
 30
0.0
 10
3.5551858909
 20
2.9013723887
 30
0.0
 10
3.5555520687
 20
2.9015147582
 30
0.0
 10
3.5559904997
 20
2.9018545146
 30
0.0
 10
3.556441003
 20
2.9024582717
 30
0.0
 10
3.5566850585
 20
2.9029463405
 30
0.0
 10
3.5568032188
 20
2.9032199383
 30
0.0
  0
SPLINE
  5
36A
100
AcDbEntity
  8
ALL_ASSEMBLY_MEMBERS
100
AcDbSpline
 62
9
  6
CONTINUOUS
 70
0
 71
3
 72
19
 73
15
 74
0
 42
0.0000001
 43
0.0000001
 44
0.0000000001
 40
0.0
 40
0.0
 40
0.0
 40
0.0
 40
0.0247008496
 40
0.0549301288
 40
0.0907966655
 40
0.1323046068
 40
0.1793587884
 40
0.2318128673
 40
0.2895001916
 40
0.3522012684
 40
0.4915954526
 40
0.6477863504
 40
0.818295336
 40
1.0
 40
1.0
 40
1.0
 40
1.0
 10
3.5568032188
 20
2.9032199383
 30
0.0
 10
3.5569929991
 20
2.9036593708
 30
0.0
 10
3.5573283534
 20
2.9046736305
 30
0.0
 10
3.5577091085
 20
2.9063928875
 30
0.0
 10
3.5580146222
 20
2.9084570354
 30
0.0
 10
3.5582424326
 20
2.9108582302
 30
0.0
 10
3.5583914367
 20
2.9135874184
 30
0.0
 10
3.5584605771
 20
2.9166332365
 30
0.0
 10
3.5584488446
 20
2.9199829448
 30
0.0
 10
3.5583204635
 20
2.9250157929
 30
0.0
 10
3.5579437648
 20
2.9319500014
 30
0.0
 10
3.5571965496
 20
2.9409520909
 30
0.0
 10
3.5561495178
 20
2.9507491312
 30
0.0
 10
3.5552865667
 20
2.9575201725
 30
0.0
 10
3.5548100426
 20
2.9610089187
 30
0.0
  0
SPLINE
  5
36B
100
AcDbEntity
  8
ALL_ASSEMBLY_MEMBERS
100
AcDbSpline
 62
9
  6
CONTINUOUS
 70
0
 71
3
 72
26
 73
22
 74
0
 42
0.0000001
 43
0.0000001
 44
0.0000000001
 40
0.0
 40
0.0
 40
0.0
 40
0.0
 40
0.0084200406
 40
0.0169513789
 40
0.0261291961
 40
0.0363841991
 40
0.0480248997
 40
0.0612598317
 40
0.0762200692
 40
0.0929839175
 40
0.1115983318
 40
0.1320898933
 40
0.1787339139
 40
0.2328528548
 40
0.2942423798
 40
0.3626309377
 40
0.4376339184
 40
0.5188272876
 40
0.6057543315
 40
0.7947911451
 40
1.0
 40
1.0
 40
1.0
 40
1.0
 10
3.5548980698
 20
2.7513308301
 30
0.0
 10
3.555069568
 20
2.7513306491
 30
0.0
 10
3.5554167913
 20
2.7512859335
 30
0.0
 10
3.5559124058
 20
2.7510765645
 30
0.0
 10
3.556371569
 20
2.7507315932
 30
0.0
 10
3.5567944981
 20
2.7502564532
 30
0.0
 10
3.5571832726
 20
2.74965315
 30
0.0
 10
3.557538712
 20
2.7489221302
 30
0.0
 10
3.5578613408
 20
2.7480640402
 30
0.0
 10
3.5581512208
 20
2.7470798318
 30
0.0
 10
3.5584081048
 20
2.745970707
 30
0.0
 10
3.5587194837
 20
2.7442515916
 30
0.0
 10
3.5590081509
 20
2.7417965769
 30
0.0
 10
3.5592071105
 20
2.7384987322
 30
0.0
 10
3.5592688654
 20
2.7347526522
 30
0.0
 10
3.5591917776
 20
2.7305817465
 30
0.0
 10
3.5589766388
 20
2.7260119698
 30
0.0
 10
3.5586242265
 20
2.7210722008
 30
0.0
 10
3.5579543315
 20
2.7138281387
 30
0.0
 10
3.556776719
 20
2.7040966753
 30
0.0
 10
3.5555745118
 20
2.6961561009
 30
0.0
 10
3.5548958932
 20
2.6920318928
 30
0.0
  0
SPLINE
  5
36C
100
AcDbEntity
  8
ALL_ASSEMBLY_MEMBERS
100
AcDbSpline
 62
9
  6
CONTINUOUS
 70
0
 71
3
 72
27
 73
23
 74
0
 42
0.0000001
 43
0.0000001
 44
0.0000000001
 40
0.0
 40
0.0
 40
0.0
 40
0.0
 40
0.011886294
 40
0.0241719778
 40
0.0371969759
 40
0.0512421514
 40
0.0665273189
 40
0.0832138853
 40
0.1014112347
 40
0.1211923745
 40
0.1656563078
 40
0.2167319034
 40
0.2742578221
 40
0.3379330466
 40
0.4073076826
 40
0.4818642621
 40
0.5609769961
 40
0.6439694073
 40
0.7301399929
 40
0.8187666708
 40
0.9090396268
 40
1.0
 40
1.0
 40
1.0
 40
1.0
 10
3.7283487577
 20
2.9013308313
 30
0.0
 10
3.7286687369
 20
2.9013308313
 30
0.0
 10
3.7293209936
 20
2.9012678463
 30
0.0
 10
3.7302877832
 20
2.9009887283
 30
0.0
 10
3.7312466365
 20
2.9005279345
 30
0.0
 10
3.7321948303
 20
2.8998886134
 30
0.0
 10
3.733130648
 20
2.8990729013
 30
0.0
 10
3.7340525822
 20
2.898083233
 30
0.0
 10
3.7349597492
 20
2.8969225597
 30
0.0
 10
3.736195911
 20
2.8950774191
 30
0.0
 10
3.737672758
 20
2.8923390182
 30
0.0
 10
3.7392948548
 20
2.8885471357
 30
0.0
 10
3.740815738
 20
2.8841625229
 30
0.0
 10
3.7422189109
 20
2.8792255406
 30
0.0
 10
3.7434924943
 20
2.8737820019
 30
0.0
 10
3.7446220456
 20
2.8678834049
 30
0.0
 10
3.7455979479
 20
2.8615864496
 30
0.0
 10
3.7464097256
 20
2.8549512912
 30
0.0
 10
3.7470496033
 20
2.8480402186
 30
0.0
 10
3.7475112103
 20
2.8409185925
 30
0.0
 10
3.7477894657
 20
2.8336585149
 30
0.0
 10
3.747851929
 20
2.8287794859
 30
0.0
 10
3.7478519289
 20
2.8263308313
 30
0.0
  0
SPLINE
  5
36D
100
AcDbEntity
  8
ALL_ASSEMBLY_MEMBERS
100
AcDbSpline
 62
9
  6
CONTINUOUS
 70
0
 71
3
 72
27
 73
23
 74
0
 42
0.0000001
 43
0.0000001
 44
0.0000000001
 40
0.0
 40
0.0
 40
0.0
 40
0.0
 40
0.0118862923
 40
0.0241719744
 40
0.037196971
 40
0.0512421453
 40
0.0665273119
 40
0.0832138776
 40
0.1014112267
 40
0.1211923663
 40
0.1656562995
 40
0.2167318957
 40
0.2742578151
 40
0.3379330406
 40
0.4073076776
 40
0.4818642581
 40
0.5609769932
 40
0.6439694054
 40
0.7301399916
 40
0.8187666697
 40
0.909039626
 40
1.0
 40
1.0
 40
1.0
 40
1.0
 10
3.5216151425
 20
2.9013308313
 30
0.0
 10
3.5212951633
 20
2.9013308313
 30
0.0
 10
3.5206429068
 20
2.9012678463
 30
0.0
 10
3.5196761173
 20
2.9009887283
 30
0.0
 10
3.5187172641
 20
2.9005279344
 30
0.0
 10
3.5177690705
 20
2.8998886133
 30
0.0
 10
3.5168332529
 20
2.8990729013
 30
0.0
 10
3.5159113188
 20
2.8980832329
 30
0.0
 10
3.5150041519
 20
2.8969225596
 30
0.0
 10
3.5137679902
 20
2.895077419
 30
0.0
 10
3.5122911434
 20
2.8923390181
 30
0.0
 10
3.5106690466
 20
2.8885471355
 30
0.0
 10
3.5091481635
 20
2.8841625227
 30
0.0
 10
3.5077449907
 20
2.8792255404
 30
0.0
 10
3.5064714072
 20
2.8737820016
 30
0.0
 10
3.5053418558
 20
2.8678834047
 30
0.0
 10
3.5043659533
 20
2.8615864494
 30
0.0
 10
3.5035541755
 20
2.854951291
 30
0.0
 10
3.5029142977
 20
2.8480402184
 30
0.0
 10
3.5024526904
 20
2.8409185924
 30
0.0
 10
3.5021744347
 20
2.8336585149
 30
0.0
 10
3.5021119712
 20
2.8287794859
 30
0.0
 10
3.5021119712
 20
2.8263308313
 30
0.0
  0
SPLINE
  5
36E
100
AcDbEntity
  8
ALL_ASSEMBLY_MEMBERS
100
AcDbSpline
 62
7
  6
CONTINUOUS
 70
0
 71
3
 72
16
 73
12
 74
0
 42
0.0000001
 43
0.0000001
 44
0.0000000001
 40
0.0
 40
0.0
 40
0.0
 40
0.0
 40
0.1556896358
 40
0.227963922
 40
0.2966087479
 40
0.4243996548
 40
0.5421927562
 40
0.6538395254
 40
0.7637347767
 40
0.8770246396
 40
1.0
 40
1.0
 40
1.0
 40
1.0
 10
3.7599819501
 20
2.4366959278
 30
0.0
 10
3.7630234015
 20
2.4357046688
 30
0.0
 10
3.7674468805
 20
2.4341594279
 30
0.0
 10
3.7731409723
 20
2.4319868337
 30
0.0
 10
3.7782673085
 20
2.4299360038
 30
0.0
 10
3.7842183748
 20
2.4274315298
 30
0.0
 10
3.7909750183
 20
2.4245642031
 30
0.0
 10
3.7974542607
 20
2.4219854539
 30
0.0
 10
3.8039640489
 20
2.4197479319
 30
0.0
 10
3.8108348232
 20
2.4178869913
 30
0.0
 10
3.8156070167
 20
2.4169694096
 30
0.0
 10
3.8181028005
 20
2.4165751102
 30
0.0
  0
SPLINE
  5
36F
100
AcDbEntity
  8
ALL_ASSEMBLY_MEMBERS
100
AcDbSpline
 62
9
  6
CONTINUOUS
 70
0
 71
3
 72
20
 73
16
 74
0
 42
0.0000001
 43
0.0000001
 44
0.0000000001
 40
0.0
 40
0.0
 40
0.0
 40
0.0
 40
0.1624690627
 40
0.3211194546
 40
0.4720026766
 40
0.5434413363
 40
0.6116420645
 40
0.6761956195
 40
0.7367416184
 40
0.792937818
 40
0.8444830387
 40
0.8911385142
 40
0.9326946141
 40
0.9690048857
 40
1.0
 40
1.0
 40
1.0
 40
1.0
 10
3.5548100426
 20
2.352683737
 30
0.0
 10
3.5553943214
 20
2.3572093872
 30
0.0
 10
3.5564255678
 20
2.3661708183
 30
0.0
 10
3.5575690123
 20
2.3793800787
 30
0.0
 10
3.5581680709
 20
2.3900656556
 30
0.0
 10
3.558409912
 20
2.3982222691
 30
0.0
 10
3.5584716808
 20
2.4039574167
 30
0.0
 10
3.5584163213
 20
2.4093867301
 30
0.0
 10
3.5582450233
 20
2.4144763676
 30
0.0
 10
3.5579590152
 20
2.4191949963
 30
0.0
 10
3.5575598907
 20
2.423513947
 30
0.0
 10
3.5570511492
 20
2.4274072401
 30
0.0
 10
3.5564354105
 20
2.4308517896
 30
0.0
 10
3.5557180187
 20
2.4338259279
 30
0.0
 10
3.5551301622
 20
2.4356263386
 30
0.0
 10
3.5548100426
 20
2.4364358932
 30
0.0
  0
SPLINE
  5
370
100
AcDbEntity
  8
ALL_ASSEMBLY_MEMBERS
100
AcDbSpline
 62
7
  6
CONTINUOUS
 70
0
 71
3
 72
15
 73
11
 74
0
 42
0.0000001
 43
0.0000001
 44
0.0000000001
 40
0.0
 40
0.0
 40
0.0
 40
0.0
 40
0.1150246626
 40
0.2279156408
 40
0.3403683277
 40
0.4545579609
 40
0.573514766
 40
0.7008516855
 40
0.8412938865
 40
1.0
 40
1.0
 40
1.0
 40
1.0
 10
3.8349819501
 20
3.2313308313
 30
0.0
 10
3.8349819501
 20
3.231758905
 30
0.0
 10
3.8349091399
 20
3.232609378
 30
0.0
 10
3.8345658718
 20
3.233836598
 30
0.0
 10
3.833985301
 20
3.2349693477
 30
0.0
 10
3.8331603359
 20
3.2359696266
 30
0.0
 10
3.8320878912
 20
3.236795239
 30
0.0
 10
3.8307623966
 20
3.237389393
 30
0.0
 10
3.8291891616
 20
3.2376878737
 30
0.0
 10
3.8280647875
 20
3.2376290105
 30
0.0
 10
3.8274819501
 20
3.2375333361
 30
0.0
  0
SPLINE
  5
371
100
AcDbEntity
  8
ALL_ASSEMBLY_MEMBERS
100
AcDbSpline
 62
9
  6
CONTINUOUS
 70
0
 71
3
 72
20
 73
16
 74
0
 42
0.0000001
 43
0.0000001
 44
0.0000000001
 40
0.0
 40
0.0
 40
0.0
 40
0.0
 40
0.1622817559
 40
0.3207371549
 40
0.4714126567
 40
0.5427472521
 40
0.6108470201
 40
0.6753078398
 40
0.7357772779
 40
0.7919241171
 40
0.8434629277
 40
0.8901773424
 40
0.9318894946
 40
0.9684981476
 40
1.0
 40
1.0
 40
1.0
 40
1.0
 10
3.5548958932
 20
3.2994910427
 30
0.0
 10
3.5555932764
 20
3.2950085761
 30
0.0
 10
3.5568245548
 20
3.2861256673
 30
0.0
 10
3.5581904507
 20
3.2730164359
 30
0.0
 10
3.5589063343
 20
3.2624020426
 30
0.0
 10
3.5591953492
 20
3.254296956
 30
0.0
 10
3.5592691743
 20
3.2485972346
 30
0.0
 10
3.5592030017
 20
3.2432010859
 30
0.0
 10
3.5589982606
 20
3.2381426736
 30
0.0
 10
3.5586564109
 20
3.2334535963
 30
0.0
 10
3.5581793251
 20
3.2291627359
 30
0.0
 10
3.5575711532
 20
3.2252961397
 30
0.0
 10
3.556834793
 20
3.221876861
 30
0.0
 10
3.5559764621
 20
3.2189265107
 30
0.0
 10
3.5552755758
 20
3.2171510677
 30
0.0
 10
3.5548958932
 20
3.2163565293
 30
0.0
  0
SPLINE
  5
372
100
AcDbEntity
  8
ALL_ASSEMBLY_MEMBERS
100
AcDbSpline
 62
7
  6
CONTINUOUS
 70
0
 71
3
 72
19
 73
15
 74
0
 42
0.0000001
 43
0.0000001
 44
0.0000000001
 40
0.0
 40
0.0
 40
0.0
 40
0.0
 40
0.1239159641
 40
0.1858999558
 40
0.2478859866
 40
0.3099261111
 40
0.3720529862
 40
0.4966072618
 40
0.6216828269
 40
0.7472846288
 40
0.810278599
 40
0.8733974103
 40
0.9366500903
 40
1.0
 40
1.0
 40
1.0
 40
1.0
 10
3.7599819501
 20
2.9617593808
 30
0.0
 10
3.7630156975
 20
2.9589146972
 30
0.0
 10
3.7673434052
 20
2.9544014213
 30
0.0
 10
3.7726631403
 20
2.9480028875
 30
0.0
 10
3.776438609
 20
2.9430285004
 30
0.0
 10
3.780020872
 20
2.9379083667
 30
0.0
 10
3.7845781816
 20
2.9309131487
 30
0.0
 10
3.7899255454
 20
2.9219152552
 30
0.0
 10
3.7960174809
 20
2.9108930069
 30
0.0
 10
3.8010392493
 20
2.9016405378
 30
0.0
 10
3.8051590072
 20
2.8942649757
 30
0.0
 10
3.8083420459
 20
2.8887636789
 30
0.0
 10
3.8116493964
 20
2.8833219523
 30
0.0
 10
3.8139665058
 20
2.8797590334
 30
0.0
 10
3.8151619297
 20
2.8780007992
 30
0.0
  0
SPLINE
  5
373
100
AcDbEntity
  8
ALL_ASSEMBLY_MEMBERS
100
AcDbSpline
 62
7
  6
CONTINUOUS
 70
0
 71
3
 72
20
 73
16
 74
0
 42
0.0000001
 43
0.0000001
 44
0.0000000001
 40
0.0
 40
0.0
 40
0.0
 40
0.0
 40
0.1266234449
 40
0.1898064733
 40
0.2528351304
 40
0.3157279823
 40
0.378483302
 40
0.5035782874
 40
0.565929924
 40
0.628150273
 40
0.6902631182
 40
0.7522962649
 40
0.8142622752
 40
0.8761956488
 40
1.0
 40
1.0
 40
1.0
 40
1.0
 10
3.8199692625
 20
2.7813141724
 30
0.0
 10
3.8172083688
 20
2.7776354466
 30
0.0
 10
3.8134043258
 20
2.7718686911
 30
0.0
 10
3.8087524502
 20
2.7639505696
 30
0.0
 10
3.8054130952
 20
2.757946946
 30
0.0
 10
3.8021675432
 20
2.7519105516
 30
0.0
 10
3.7978909356
 20
2.7438690777
 30
0.0
 10
3.7935817891
 20
2.7358659435
 30
0.0
 10
3.7890541424
 20
2.7280070975
 30
0.0
 10
3.7855223001
 20
2.7222172046
 30
0.0
 10
3.7818150202
 20
2.716551274
 30
0.0
 10
3.7779056065
 20
2.7110338934
 30
0.0
 10
3.7737805376
 20
2.705683271
 30
0.0
 10
3.7679746876
 20
2.698806752
 30
0.0
 10
3.7632657407
 20
2.6939567584
 30
0.0
 10
3.7599829849
 20
2.6908830701
 30
0.0
  0
SPLINE
  5
374
100
AcDbEntity
  8
ALL_ASSEMBLY_MEMBERS
100
AcDbSpline
 62
9
  6
CONTINUOUS
 70
0
 71
3
 72
28
 73
24
 74
0
 42
0.0000001
 43
0.0000001
 44
0.0000000001
 40
0.0
 40
0.0
 40
0.0
 40
0.0
 40
0.1113150866
 40
0.2205963938
 40
0.3267130682
 40
0.4285721764
 40
0.525050651
 40
0.6148689036
 40
0.6967302243
 40
0.7694236385
 40
0.8319194808
 40
0.8835016939
 40
0.9051505944
 40
0.9241250302
 40
0.9543645166
 40
0.9659383154
 40
0.9754129302
 40
0.9888380179
 40
0.9932174893
 40
0.9963563686
 40
0.9975360643
 40
0.998502742
 40
1.0
 40
1.0
 40
1.0
 40
1.0
 10
3.5548958932
 20
3.2163565293
 30
0.0
 10
3.5510143552
 20
3.2165186932
 30
0.0
 10
3.5433266331
 20
3.2169584263
 30
0.0
 10
3.5319661892
 20
3.2179549159
 30
0.0
 10
3.5209695457
 20
3.2192626219
 30
0.0
 10
3.510460236
 20
3.2208414939
 30
0.0
 10
3.5005656594
 20
3.2226494559
 30
0.0
 10
3.4914160383
 20
3.2246249666
 30
0.0
 10
3.483143022
 20
3.2267043399
 30
0.0
 10
3.4758639089
 20
3.2288074346
 30
0.0
 10
3.4696740784
 20
3.2308560601
 30
0.0
 10
3.4652438938
 20
3.2325386248
 30
0.0
 10
3.4622848856
 20
3.2338046422
 30
0.0
 10
3.4600395805
 20
3.2348416886
 30
0.0
 10
3.4581509552
 20
3.2358125985
 30
0.0
 10
3.4566116619
 20
3.2367270954
 30
0.0
 10
3.4556029944
 20
3.2373833319
 30
0.0
 10
3.4548363608
 20
3.2379501537
 30
0.0
 10
3.454278138
 20
3.2384221967
 30
0.0
 10
3.4540487714
 20
3.2386209203
 30
0.0
 10
3.4539016896
 20
3.2387328657
 30
0.0
 10
3.453794889
 20
3.2388009799
 30
0.0
 10
3.4537097482
 20
3.2388308323
 30
0.0
 10
3.4536574936
 20
3.2388308313
 30
0.0
  0
SPLINE
  5
375
100
AcDbEntity
  8
ALL_ASSEMBLY_MEMBERS
100
AcDbSpline
 62
9
  6
CONTINUOUS
 70
0
 71
3
 72
25
 73
21
 74
0
 42
0.0000001
 43
0.0000001
 44
0.0000000001
 40
0.0
 40
0.0
 40
0.0
 40
0.0
 40
0.1249998492
 40
0.2499996984
 40
0.3749995475
 40
0.4999993967
 40
0.5624993213
 40
0.6249992459
 40
0.6874991704
 40
0.7187491329
 40
0.7499990952
 40
0.7812490567
 40
0.8124990205
 40
0.8437489841
 40
0.8593739622
 40
0.8749989176
 40
0.9062494426
 40
0.9374996718
 40
0.9687502516
 40
1.0
 40
1.0
 40
1.0
 40
1.0
 10
3.7599819501
 20
3.3009688512
 30
0.0
 10
3.7514339239
 20
3.3009688512
 30
0.0
 10
3.7343378714
 20
3.3009688515
 30
0.0
 10
3.7086937928
 20
3.3009688505
 30
0.0
 10
3.6830497141
 20
3.3009688542
 30
0.0
 10
3.6616796486
 20
3.3009688426
 30
0.0
 10
3.6445835961
 20
3.3009688645
 30
0.0
 10
3.6317615568
 20
3.3009688141
 30
0.0
 10
3.621076524
 20
3.3009689216
 30
0.0
 10
3.6125284978
 20
3.3009687993
 30
0.0
 10
3.6061174781
 20
3.300968694
 30
0.0
 10
3.5997064585
 20
3.3009692759
 30
0.0
 10
3.5932954386
 20
3.3009689194
 30
0.0
 10
3.5879529226
 20
3.3009669887
 30
0.0
 10
3.5836789106
 20
3.3009699829
 30
0.0
 10
3.5794048674
 20
3.3009708747
 30
0.0
 10
3.5740622481
 20
3.3009399245
 30
0.0
 10
3.5676526056
 20
3.3007607541
 30
0.0
 10
3.5612538503
 20
3.3003328192
 30
0.0
 10
3.5570073744
 20
3.2998202564
 30
0.0
 10
3.5548958932
 20
3.2994910427
 30
0.0
  0
SPLINE
  5
376
100
AcDbEntity
  8
ALL_ASSEMBLY_MEMBERS
100
AcDbSpline
 62
9
  6
CONTINUOUS
 70
0
 71
3
 72
24
 73
20
 74
0
 42
0.0000001
 43
0.0000001
 44
0.0000000001
 40
0.0
 40
0.0
 40
0.0
 40
0.0
 40
0.1225022253
 40
0.2452200711
 40
0.3679420928
 40
0.4293583084
 40
0.4908636289
 40
0.5525598308
 40
0.6145608566
 40
0.6770290081
 40
0.7084878423
 40
0.7401273491
 40
0.7719670366
 40
0.8040256299
 40
0.8362904076
 40
0.8687420634
 40
0.9013825427
 40
0.9341855386
 40
1.0
 40
1.0
 40
1.0
 40
1.0
 10
3.8199674729
 20
3.236366818
 30
0.0
 10
3.8188038103
 20
3.2400511491
 30
0.0
 10
3.8163331708
 20
3.2473835324
 30
0.0
 10
3.8120263115
 20
3.2581674077
 30
0.0
 10
3.8077392493
 20
3.2668620379
 30
0.0
 10
3.8037616439
 20
3.2735154423
 30
0.0
 10
3.8004638251
 20
3.278319724
 30
0.0
 10
3.7968166284
 20
3.2828900399
 30
0.0
 10
3.792779116
 20
3.2871635026
 30
0.0
 10
3.789066895
 20
3.2904043587
 30
0.0
 10
3.7858740227
 20
3.2927508331
 30
0.0
 10
3.7833577016
 20
3.2943773588
 30
0.0
 10
3.7807311217
 20
3.2958578566
 30
0.0
 10
3.7780014077
 20
3.2971842935
 30
0.0
 10
3.775174111
 20
3.2983405623
 30
0.0
 10
3.7722544151
 20
3.2993002594
 30
0.0
 10
3.7692545319
 20
3.3000436242
 30
0.0
 10
3.7651737417
 20
3.3007533254
 30
0.0
 10
3.762057743
 20
3.3009698758
 30
0.0
 10
3.7599819501
 20
3.3009688512
 30
0.0
  0
SPLINE
  5
377
100
AcDbEntity
  8
ALL_ASSEMBLY_MEMBERS
100
AcDbSpline
 62
9
  6
CONTINUOUS
 70
0
 71
3
 72
38
 73
34
 74
0
 42
0.0000001
 43
0.0000001
 44
0.0000000001
 40
0.0
 40
0.0
 40
0.0
 40
0.0
 40
0.0962369449
 40
0.1915335591
 40
0.2849595854
 40
0.3756170695
 40
0.4626607841
 40
0.5453190809
 40
0.6229100951
 40
0.6948516144
 40
0.7606523705
 40
0.8198425891
 40
0.8467997645
 40
0.8719024342
 40
0.8950723052
 40
0.916223384
 40
0.9352600164
 40
0.9520758901
 40
0.9596148424
 40
0.9665535008
 40
0.9728755552
 40
0.9785640838
 40
0.9836017394
 40
0.9879712162
 40
0.9916557031
 40
0.9946396359
 40
0.996911548
 40
0.9977799369
 40
0.998472547
 40
0.9989973136
 40
0.9993764109
 40
0.9996715091
 40
1.0
 40
1.0
 40
1.0
 40
1.0
 10
3.5548958932
 20
3.2994910427
 30
0.0
 10
3.5524463964
 20
3.2991690884
 30
0.0
 10
3.5475831064
 20
3.2984368481
 30
0.0
 10
3.5403842651
 20
3.2971314006
 30
0.0
 10
3.5333639662
 20
3.2956587997
 30
0.0
 10
3.5265943756
 20
3.2940362476
 30
0.0
 10
3.5201461938
 20
3.2922721337
 30
0.0
 10
3.5140856225
 20
3.2903769568
 30
0.0
 10
3.5084715321
 20
3.2883685016
 30
0.0
 10
3.5033548401
 20
3.2862702951
 30
0.0
 10
3.498780087
 20
3.2841129618
 30
0.0
 10
3.4953430545
 20
3.2822642528
 30
0.0
 10
3.4928821133
 20
3.2808145008
 30
0.0
 10
3.4912427116
 20
3.279793248
 30
0.0
 10
3.4897529242
 20
3.2788147644
 30
0.0
 10
3.4884143461
 20
3.2778905614
 30
0.0
 10
3.4872284597
 20
3.2770329719
 30
0.0
 10
3.4863389241
 20
3.2763623588
 30
0.0
 10
3.4857038045
 20
3.2758704089
 30
0.0
 10
3.4852839999
 20
3.2755404328
 30
0.0
 10
3.4849032515
 20
3.2752376543
 30
0.0
 10
3.4845616635
 20
3.2749640471
 30
0.0
 10
3.4842593192
 20
3.2747216219
 30
0.0
 10
3.4839963125
 20
3.2745123931
 30
0.0
 10
3.4837726894
 20
3.2743383153
 30
0.0
 10
3.4835884396
 20
3.274201493
 30
0.0
 10
3.4834582807
 20
3.2741129725
 30
0.0
 10
3.4833728087
 20
3.2740641752
 30
0.0
 10
3.4833242105
 20
3.274041317
 30
0.0
 10
3.483285068
 20
3.274029086
 30
0.0
 10
3.4832535083
 20
3.2740267884
 30
0.0
 10
3.4832292489
 20
3.2740400856
 30
0.0
 10
3.4832237149
 20
3.2740564004
 30
0.0
 10
3.4832222468
 20
3.2740647046
 30
0.0
  0
LINE
  5
378
100
AcDbEntity
  8
ALL_ASSEMBLY_MEMBERS
100
AcDbLine
 62
7
  6
CONTINUOUS
 10
3.8986569501
 20
2.6002058313
 11
3.8983519151
 21
2.6002610591
  0
SPLINE
  5
379
100
AcDbEntity
  8
ALL_ASSEMBLY_MEMBERS
100
AcDbSpline
 62
9
  6
CONTINUOUS
 70
0
 71
3
 72
21
 73
17
 74
0
 42
0.0000001
 43
0.0000001
 44
0.0000000001
 40
0.0
 40
0.0
 40
0.0
 40
0.0
 40
0.1250164314
 40
0.2500326091
 40
0.3750494946
 40
0.5000651999
 40
0.6250815844
 40
0.6875963463
 40
0.7501015784
 40
0.7813451082
 40
0.8125867851
 40
0.8438364162
 40
0.8751039613
 40
0.9063962471
 40
0.9376807702
 40
1.0
 40
1.0
 40
1.0
 40
1.0
 10
3.7599829849
 20
3.2159590566
 30
0.0
 10
3.7514363811
 20
3.2159590566
 30
0.0
 10
3.734343191
 20
3.2159591356
 30
0.0
 10
3.708703366
 20
3.2159588919
 30
0.0
 10
3.6830635906
 20
3.2159592131
 30
0.0
 10
3.6574238012
 20
3.2159594418
 30
0.0
 10
3.6360568967
 20
3.2159569644
 30
0.0
 10
3.6189634498
 20
3.2159623065
 30
0.0
 10
3.6082806737
 20
3.2159626132
 30
0.0
 10
3.5997358488
 20
3.2159560659
 30
0.0
 10
3.5933277787
 20
3.2159500728
 30
0.0
 10
3.5869180598
 20
3.2159477251
 30
0.0
 10
3.5805048951
 20
3.2159540487
 30
0.0
 10
3.5740893151
 20
3.2159707567
 30
0.0
 10
3.5655512864
 20
3.2160354506
 30
0.0
 10
3.5591525528
 20
3.2161784713
 30
0.0
 10
3.5548958932
 20
3.2163565293
 30
0.0
  0
SPLINE
  5
37A
100
AcDbEntity
  8
ALL_ASSEMBLY_MEMBERS
100
AcDbSpline
 62
9
  6
CONTINUOUS
 70
0
 71
3
 72
28
 73
24
 74
0
 42
0.0000001
 43
0.0000001
 44
0.0000000001
 40
0.0
 40
0.0
 40
0.0
 40
0.0
 40
0.0312483849
 40
0.0624931638
 40
0.0937364671
 40
0.10936436
 40
0.1249939319
 40
0.14062201
 40
0.1562479818
 40
0.1874969133
 40
0.2031210881
 40
0.2187456572
 40
0.2499958408
 40
0.2812465341
 40
0.3124968623
 40
0.3749969308
 40
0.4062470655
 40
0.4374972553
 40
0.4999975912
 40
0.624998179
 40
0.7499987877
 40
0.8749993937
 40
1.0
 40
1.0
 40
1.0
 40
1.0
 10
3.5548100426
 20
2.9610089187
 30
0.0
 10
3.5569408279
 20
2.9611763604
 30
0.0
 10
3.5612032608
 20
2.9614973791
 30
0.0
 10
3.5676080321
 20
2.9618234851
 30
0.0
 10
3.572952206
 20
2.961858845
 30
0.0
 10
3.5772269549
 20
2.9618232981
 30
0.0
 10
3.5804336787
 20
2.9617861654
 30
0.0
 10
3.5836403858
 20
2.9617621647
 30
0.0
 10
3.587915528
 20
2.9617536576
 30
0.0
 10
3.5921903859
 20
2.9617658035
 30
0.0
 10
3.5964651369
 20
2.9617783359
 30
0.0
 10
3.6007399911
 20
2.9617840394
 30
0.0
 10
3.6060836848
 20
2.9617818705
 30
0.0
 10
3.6124961569
 20
2.9617746941
 30
0.0
 10
3.6210460904
 20
2.9617722813
 30
0.0
 10
3.6295959849
 20
2.9617743693
 30
0.0
 10
3.6381458702
 20
2.9617731411
 30
0.0
 10
3.6466957736
 20
2.9617713242
 30
0.0
 10
3.6616581018
 20
2.9617689189
 30
0.0
 10
3.6830328525
 20
2.9617660835
 30
0.0
 10
3.7086825507
 20
2.9617624972
 30
0.0
 10
3.7343322504
 20
2.9617600601
 30
0.0
 10
3.7514320502
 20
2.9617593808
 30
0.0
 10
3.7599819501
 20
2.9617593808
 30
0.0
  0
SPLINE
  5
37B
100
AcDbEntity
  8
ALL_ASSEMBLY_MEMBERS
100
AcDbSpline
 62
9
  6
CONTINUOUS
 70
0
 71
3
 72
20
 73
16
 74
0
 42
0.0000001
 43
0.0000001
 44
0.0000000001
 40
0.0
 40
0.0
 40
0.0
 40
0.0
 40
0.0623414752
 40
0.1245983025
 40
0.1867934371
 40
0.2489475482
 40
0.311095037
 40
0.3732732979
 40
0.4355050233
 40
0.4978178628
 40
0.6226863999
 40
0.7480194499
 40
0.8109165062
 40
0.8739238382
 40
1.0
 40
1.0
 40
1.0
 40
1.0
 10
3.4623794473
 20
2.8960218374
 30
0.0
 10
3.4633014834
 20
2.8983125645
 30
0.0
 10
3.4653098422
 20
2.902826575
 30
0.0
 10
3.4688221492
 20
2.9093462535
 30
0.0
 10
3.4728101235
 20
2.915577913
 30
0.0
 10
3.4772559618
 20
2.921486261
 30
0.0
 10
3.4821356695
 20
2.9270405482
 30
0.0
 10
3.4874148688
 20
2.9322205312
 30
0.0
 10
3.4930638727
 20
2.9370048477
 30
0.0
 10
3.5010453392
 20
2.9428385933
 30
0.0
 10
3.5117752788
 20
2.9490912333
 30
0.0
 10
3.5232421736
 20
2.9539043296
 30
0.0
 10
3.5327376376
 20
2.9568999902
 30
0.0
 10
3.5424227782
 20
2.9593293717
 30
0.0
 10
3.5498412572
 20
2.9605092999
 30
0.0
 10
3.5548100426
 20
2.9610089187
 30
0.0
  0
SPLINE
  5
37C
100
AcDbEntity
  8
ALL_ASSEMBLY_MEMBERS
100
AcDbSpline
 62
9
  6
CONTINUOUS
 70
0
 71
3
 72
20
 73
16
 74
0
 42
0.0000001
 43
0.0000001
 44
0.0000000001
 40
0.0
 40
0.0
 40
0.0
 40
0.0
 40
0.1260512759
 40
0.1890379486
 40
0.251917276
 40
0.3772324647
 40
0.5021007822
 40
0.5644212142
 40
0.626664647
 40
0.6888579168
 40
0.7510219365
 40
0.813189423
 40
0.8753951302
 40
0.9376598614
 40
1.0
 40
1.0
 40
1.0
 40
1.0
 10
3.5548958932
 20
2.6920318928
 30
0.0
 10
3.5500771115
 20
2.6926164141
 30
0.0
 10
3.5428901408
 20
2.6938940072
 30
0.0
 10
3.5335135821
 20
2.6963974439
 30
0.0
 10
3.5243235361
 20
2.6994303787
 30
0.0
 10
3.5132267888
 20
2.7042218421
 30
0.0
 10
3.5028348044
 20
2.710362691
 30
0.0
 10
3.4950892309
 20
2.7160539367
 30
0.0
 10
3.4895957182
 20
2.7207048323
 30
0.0
 10
3.484447565
 20
2.7257265409
 30
0.0
 10
3.479670775
 20
2.7310991567
 30
0.0
 10
3.4752955978
 20
2.7368043808
 30
0.0
 10
3.4713435664
 20
2.7428150299
 30
0.0
 10
3.4678277141
 20
2.7490979679
 30
0.0
 10
3.4657875721
 20
2.7534462068
 30
0.0
 10
3.464842796
 20
2.7556531362
 30
0.0
  0
SPLINE
  5
37D
100
AcDbEntity
  8
ALL_ASSEMBLY_MEMBERS
100
AcDbSpline
 62
9
  6
CONTINUOUS
 70
0
 71
3
 72
26
 73
22
 74
0
 42
0.0000001
 43
0.0000001
 44
0.0000000001
 40
0.0
 40
0.0
 40
0.0
 40
0.0
 40
0.1249974235
 40
0.2499948887
 40
0.3124935711
 40
0.3749922009
 40
0.4374909669
 40
0.4999899843
 40
0.5624886063
 40
0.6249862661
 40
0.687485476
 40
0.7187367483
 40
0.7499879813
 40
0.7812370717
 40
0.8124820149
 40
0.8437239032
 40
0.8749704218
 40
0.9062319706
 40
0.9375115084
 40
0.9687726337
 40
1.0
 40
1.0
 40
1.0
 40
1.0
 10
3.7599829849
 20
2.6908830701
 30
0.0
 10
3.7514361847
 20
2.6908830701
 30
0.0
 10
3.7343425814
 20
2.6908829872
 30
0.0
 10
3.71297558
 20
2.6908832022
 30
0.0
 10
3.6958819843
 20
2.6908831086
 30
0.0
 10
3.6830617879
 20
2.6908827417
 30
0.0
 10
3.6702415685
 20
2.6908827505
 30
0.0
 10
3.6574213498
 20
2.6908840005
 30
0.0
 10
3.6446012063
 20
2.6908844205
 30
0.0
 10
3.6317810512
 20
2.6908798147
 30
0.0
 10
3.6210974559
 20
2.6908789706
 30
0.0
 10
3.612550366
 20
2.6908875298
 30
0.0
 10
3.6061400281
 20
2.6908941506
 30
0.0
 10
3.599730117
 20
2.6908946826
 30
0.0
 10
3.5933208538
 20
2.6908811986
 30
0.0
 10
3.5869118201
 20
2.6908544102
 30
0.0
 10
3.5805015409
 20
2.6908519562
 30
0.0
 10
3.5740888814
 20
2.6909073744
 30
0.0
 10
3.5676762885
 20
2.6910536277
 30
0.0
 10
3.5612719491
 20
2.6913784529
 30
0.0
 10
3.5570155065
 20
2.6917743974
 30
0.0
 10
3.5548958932
 20
2.6920318928
 30
0.0
  0
SPLINE
  5
37E
100
AcDbEntity
  8
ALL_ASSEMBLY_MEMBERS
100
AcDbSpline
 62
9
  6
CONTINUOUS
 70
0
 71
3
 72
28
 73
24
 74
0
 42
0.0000001
 43
0.0000001
 44
0.0000000001
 40
0.0
 40
0.0
 40
0.0
 40
0.0
 40
0.0155543193
 40
0.023330372
 40
0.0311193614
 40
0.0467289631
 40
0.0623559124
 40
0.0701704896
 40
0.0779842897
 40
0.0936111806
 40
0.1092386247
 40
0.1248661035
 40
0.1561208372
 40
0.1873756341
 40
0.2186304138
 40
0.2498851985
 40
0.3123947651
 40
0.3749043318
 40
0.4999234651
 40
0.6249425982
 40
0.7499617317
 40
0.8749808656
 40
1.0
 40
1.0
 40
1.0
 40
1.0
 10
3.5548100426
 20
2.4364358932
 30
0.0
 10
3.5558734407
 20
2.4364647577
 30
0.0
 10
3.5574679986
 20
2.4365236232
 30
0.0
 10
3.5595949704
 20
2.4365991448
 30
0.0
 10
3.5617261862
 20
2.4366607893
 30
0.0
 10
3.5643949843
 20
2.4367066933
 30
0.0
 10
3.5670658244
 20
2.436704676
 30
0.0
 10
3.5692034265
 20
2.4367015654
 30
0.0
 10
3.5713410366
 20
2.4367016764
 30
0.0
 10
3.5740129799
 20
2.436703187
 30
0.0
 10
3.5772193175
 20
2.4367025657
 30
0.0
 10
3.5814944726
 20
2.4367023186
 30
0.0
 10
3.5868384125
 20
2.4367024875
 30
0.0
 10
3.5932511335
 20
2.4367022084
 30
0.0
 10
3.5996638579
 20
2.4367020814
 30
0.0
 10
3.608214156
 20
2.4367017863
 30
0.0
 10
3.6189020289
 20
2.4367013922
 30
0.0
 10
3.6360026254
 20
2.4367006338
 30
0.0
 10
3.6573783709
 20
2.4366995538
 30
0.0
 10
3.6830292656
 20
2.4366982155
 30
0.0
 10
3.7086801603
 20
2.4366970234
 30
0.0
 10
3.7343310552
 20
2.4366961605
 30
0.0
 10
3.7514316518
 20
2.4366959278
 30
0.0
 10
3.7599819501
 20
2.4366959278
 30
0.0
  0
SPLINE
  5
37F
100
AcDbEntity
  8
ALL_FEATURES
100
AcDbSpline
 62
7
  6
CONTINUOUS
 70
0
 71
3
 72
25
 73
21
 74
0
 42
0.0000001
 43
0.0000001
 44
0.0000000001
 40
0.0
 40
0.0
 40
0.0
 40
0.0
 40
0.0389120089
 40
0.1481991367
 40
0.2238432499
 40
0.2657404955
 40
0.3098480104
 40
0.3557669529
 40
0.4030644469
 40
0.4512969485
 40
0.4999994102
 40
0.5487020364
 40
0.596934802
 40
0.6442324729
 40
0.6901514933
 40
0.7342590259
 40
0.7761562088
 40
0.8518001232
 40
0.9610879005
 40
1.0
 40
1.0
 40
1.0
 40
1.0
 10
4.9742319501
 20
3.4465808313
 30
0.0
 10
4.9703575137
 20
3.4456297033
 30
0.0
 10
4.9555701033
 20
3.4421299858
 30
0.0
 10
4.9330661253
 20
3.4375696921
 30
0.0
 10
4.9100897413
 20
3.4339366213
 30
0.0
 10
4.8936511019
 20
3.4318145081
 30
0.0
 10
4.8802017213
 20
3.430364174
 30
0.0
 10
4.86617119
 20
3.429170995
 30
0.0
 10
4.8516944265
 20
3.4282780613
 30
0.0
 10
4.8369148285
 20
3.4277296407
 30
0.0
 10
4.8219821147
 20
3.4275415945
 30
0.0
 10
4.807049374
 20
3.4277296448
 30
0.0
 10
4.7922697132
 20
3.4282780451
 30
0.0
 10
4.7777928966
 20
3.4291709838
 30
0.0
 10
4.7637623367
 20
3.4303641562
 30
0.0
 10
4.7503129528
 20
3.4318144916
 30
0.0
 10
4.7338743372
 20
3.4339365933
 30
0.0
 10
4.710897913
 20
3.4375696652
 30
0.0
 10
4.6883938798
 20
3.4421299661
 30
0.0
 10
4.6736063955
 20
3.445629701
 30
0.0
 10
4.6697319501
 20
3.4465808313
 30
0.0
  0
ENDSEC
  0
SECTION
  2
OBJECTS
  0
DICTIONARY
  5
C
100
AcDbDictionary
280
0
281
1
  3
ACAD_GROUP
350
D
  3
ACAD_MLINESTYLE
350
17
  3
ACAD_LAYOUT
350
1A
  3
ACAD_PLOTSETTINGS
350
19
  3
ACAD_PLOTSTYLENAME
350
E
  0
DICTIONARY
  5
D
102
{ACAD_REACTORS
330
C
102
}
100
AcDbDictionary
280
0
281
1
  0
ACDBDICTIONARYWDFLT
  5
E
102
{ACAD_REACTORS
330
C
102
}
100
AcDbDictionary
281
1
  3
Normal
350
F
100
AcDbDictionaryWithDefault
340
F
  0
DICTIONARY
  5
17
102
{ACAD_REACTORS
330
C
102
}
100
AcDbDictionary
280
0
281
1
  3
Standard
350
18
  0
DICTIONARY
  5
19
102
{ACAD_REACTORS
330
C
102
}
100
AcDbDictionary
281
1
  0
DICTIONARY
  5
1A
102
{ACAD_REACTORS
330
C
102
}
100
AcDbDictionary
281
1
  3
Model
350
380
  3
Layout1
350
381
  0
ACDBPLACEHOLDER
  5
F
102
{ACAD_REACTORS
330
E
102
}
  0
MLINESTYLE
  5
18
102
{ACAD_REACTORS
330
17
102
}
100
AcDbMlineStyle
  2
STANDARD
 70
0
  3

 62
256
 51
90.0
 52
90.0
 71
2
 49
0.5
 62
256
  6
BYLAYER
 49
-0.5
 62
256
  6
BYLAYER
  0
LAYOUT
  5
380
102
{ACAD_REACTORS
330
1A
102
}
100
AcDbPlotSettings
  1

  2
none_device
  4
ANSI_A_(11.00_x_8.50_Inches)
  6

 40
0.0
 41
0.0
 42
0.0
 43
0.0
 44
279.4
 45
215.9
 46
0.0
 47
0.0
 48
0.0
 49
0.0
140
0.0
141
0.0
142
1.0
143
1.0
 70
1024
 72
0
 73
0
 74
0
  7

 75
0
147
1.0
148
0.0
149
0.0
100
AcDbLayout
  1
Model
 70
0
 71
0
 10
0.0
 20
0.0
 11
11.0
 21
8.5
 12
0.0
 22
0.0
 32
0.0
 14
0.0
 24
0.0
 34
0.0
 15
0.0
 25
0.0
 35
0.0
146
0.0
 13
0.0
 23
0.0
 33
0.0
 16
1.0
 26
0.0
 36
0.0
 17
0.0
 27
1.0
 37
0.0
 76
0
330
220
345
0
346
0
  0
LAYOUT
  5
381
102
{ACAD_REACTORS
330
1A
102
}
100
AcDbPlotSettings
  1

  2
none_device
  4
ANSI_A_(11.00_x_8.50_Inches)
  6

 40
0.0
 41
0.0
 42
0.0
 43
0.0
 44
279.4
 45
215.9
 46
0.0
 47
0.0
 48
0.0
 49
0.0
140
0.0
141
0.0
142
1.0
143
1.0
 70
0
 72
0
 73
0
 74
0
  7

 75
0
147
1.0
148
0.0
149
0.0
100
AcDbLayout
  1
Layout1
 70
0
 71
1
 10
0.0
 20
0.0
 11
11.0
 21
8.5
 12
0.0
 22
0.0
 32
0.0
 14
0.0
 24
0.0
 34
0.0
 15
0.0
 25
0.0
 35
0.0
146
0.0
 13
0.0
 23
0.0
 33
0.0
 16
1.0
 26
0.0
 36
0.0
 17
0.0
 27
1.0
 37
0.0
 76
0
330
221
345
0
346
0
  0
ENDSEC
  0
EOF
