999
DXF file: 3-1003ts_TOP.dxf
999
Pro/ENGINEER 2013150 by Parametric Technology Corporation
  0
SECTION
  2
HEADER
  9
$ACADVER
  1
AC1021
  9
$DWGCODEPAGE
  3
ANSI_1252
  9
$EXTMAX
 10
11.0
 20
8.5
 30
0.0
  9
$EXTMIN
 10
0.0
 20
0.0
 30
0.0
  9
$LIMMIN
 10
0.0
 20
0.0
  9
$LIMMAX
 10
11.0
 20
8.5
  9
$VIEWCTR
 10
5.5
 20
4.25
  9
$VIEWSIZE
 40
8.5
  9
$CLAYER
  8
0
  9
$LTSCALE
 40
0.605
  9
$CELTYPE
  6
BYLAYER
  9
$DIMSCALE
 40
1.0
  9
$DIMASZ
 40
0.1
  9
$DIMEXO
 40
0.0625
  9
$DIMDLI
 40
0.418
  9
$DIMEXE
 40
0.125
  9
$DIMCEN
 40
0.099
  9
$DIMLFAC
 40
1.0
  9
$DIMBLK
  1
_FILLED
  9
$DIMTXT
 40
0.08
  9
$DIMTOL
 70
1
  9
$DIMLIM
 70
0
  9
$DIMTFAC
 40
1.0
  9
$DIMTP
 40
0.001
  9
$DIMTM
 40
0.001
  9
$DIMGAP
 40
0.09
  9
$DIMDSEP
 70
46
  9
$PDMODE
 70
3
  9
$PDSIZE
 40
0.06
  9
$HANDSEED
  5
3E8
  9
$TILEMODE
 70
1
  9
$MEASUREMENT
 70
0
  9
$INSUNITS
 70
1
  0
ENDSEC
  0
SECTION
  2
CLASSES
  0
CLASS
  1
ACDBDICTIONARYWDFLT
  2
AcDbDictionaryWithDefault
  3
AutoCAD 2000
 90
0
 91
1
280
0
281
0
  0
CLASS
  1
ACDBPLACEHOLDER
  2
AcDbPlaceHolder
  3
AutoCAD 2000
 90
0
 91
1
280
0
281
0
  0
CLASS
  1
LAYOUT
  2
AcDbLayout
  3
AutoCAD 2000
 90
0
 91
0
280
0
281
0
  0
ENDSEC
  0
SECTION
  2
TABLES
  0
TABLE
  2
VPORT
  5
8
100
AcDbSymbolTable
 70
2
  0
VPORT
  5
1F4
100
AcDbSymbolTableRecord
100
AcDbViewportTableRecord
  2
*ACTIVE
 70
0
 10
0.0
 20
0.0
 11
1.0
 21
1.0
 12
5.5
 22
4.25
 13
0.0
 23
0.0
 14
1.0
 24
1.0
 15
0.0
 25
0.0
 16
0.0
 26
0.0
 36
1.0
 17
0.0
 27
0.0
 37
0.0
 40
8.5
 41
1.2941176471
 42
50.0
 43
0.0
 44
0.0
 50
0.0
 51
0.0
 71
0
 72
100
 73
1
 74
1
 75
0
 76
0
 77
0
 78
0
  0
ENDTAB
  0
TABLE
  2
LTYPE
  5
5
100
AcDbSymbolTable
 70
6
  0
LTYPE
  5
14
100
AcDbSymbolTableRecord
100
AcDbLinetypeTableRecord
  2
BYBLOCK
 70
0
  3

 72
65
 73
0
 40
0.0
  0
LTYPE
  5
15
100
AcDbSymbolTableRecord
100
AcDbLinetypeTableRecord
  2
BYLAYER
 70
0
  3

 72
65
 73
0
 40
0.0
  0
LTYPE
  5
16
100
AcDbSymbolTableRecord
100
AcDbLinetypeTableRecord
  2
CONTINUOUS
 70
64
  3
Solid line
 72
65
 73
0
 40
0.0
  0
LTYPE
  5
1F5
100
AcDbSymbolTableRecord
100
AcDbLinetypeTableRecord
  2
CENTER
 70
64
  3
____ _ ____ _ ____ _ ____ _ ____ _ ____ _ ____
 72
65
 73
4
 40
0.6
 49
0.375
 74
0
 49
-0.075
 74
0
 49
0.075
 74
0
 49
-0.075
 74
0
  0
LTYPE
  5
1F6
100
AcDbSymbolTableRecord
100
AcDbLinetypeTableRecord
  2
HIDDEN
 70
64
  3
- - - - - - - - - - - - - - - - - - - -
 72
65
 73
2
 40
0.2
 49
0.1
 74
0
 49
-0.1
 74
0
  0
LTYPE
  5
1F7
100
AcDbSymbolTableRecord
100
AcDbLinetypeTableRecord
  2
PHANTOM
 70
64
  3
_____ _ _ _____ _ _ _____ _ _ _____
 72
65
 73
6
 40
0.8
 49
0.45
 74
0
 49
-0.05
 74
0
 49
0.1
 74
0
 49
-0.05
 74
0
 49
0.1
 74
0
 49
-0.05
 74
0
  0
LTYPE
  5
1F8
100
AcDbSymbolTableRecord
100
AcDbLinetypeTableRecord
  2
DOT
 70
64
  3
. . . . . . . . . . . . . . . . . . . .
 72
65
 73
2
 40
0.2
 49
0.1
 74
0
 49
-0.1
 74
0
  0
LTYPE
  5
1F9
100
AcDbSymbolTableRecord
100
AcDbLinetypeTableRecord
  2
DASHED
 70
64
  3
- - - - - - - - - - - - - - - - - - - -
 72
65
 73
2
 40
0.2
 49
0.1
 74
0
 49
-0.1
 74
0
  0
ENDTAB
  0
TABLE
  2
LAYER
  5
2
100
AcDbSymbolTable
 70
36
  0
LAYER
  5
10
100
AcDbSymbolTableRecord
100
AcDbLayerTableRecord
  2
0
 70
0
 62
7
  6
CONTINUOUS
370
-3
390
F
  0
LAYER
  5
1FA
100
AcDbSymbolTableRecord
100
AcDbLayerTableRecord
  2
DEFAULT_1
 70
0
 62
7
  6
CENTER
370
-3
390
F
  0
LAYER
  5
1FB
100
AcDbSymbolTableRecord
100
AcDbLayerTableRecord
  2
DEFAULT_2
 70
0
 62
8
  6
HIDDEN
370
-3
390
F
  0
LAYER
  5
1FC
100
AcDbSymbolTableRecord
100
AcDbLayerTableRecord
  2
DEFAULT_3
 70
0
 62
7
  6
PHANTOM
370
-3
390
F
  0
LAYER
  5
1FD
100
AcDbSymbolTableRecord
100
AcDbLayerTableRecord
  2
ALL_ASSEMBLY_MEMBERS
 70
0
 62
7
  6
CONTINUOUS
370
-3
390
F
  0
LAYER
  5
1FE
100
AcDbSymbolTableRecord
100
AcDbLayerTableRecord
  2
ALL_FEATURES
 70
0
 62
7
  6
CONTINUOUS
370
-3
390
F
  0
LAYER
  5
1FF
100
AcDbSymbolTableRecord
100
AcDbLayerTableRecord
  2
AXES_FEATURES
 70
0
 62
7
  6
CONTINUOUS
370
-3
390
F
  0
LAYER
  5
200
100
AcDbSymbolTableRecord
100
AcDbLayerTableRecord
  2
CHAMFER_FEATURES
 70
0
 62
7
  6
CONTINUOUS
370
-3
390
F
  0
LAYER
  5
201
100
AcDbSymbolTableRecord
100
AcDbLayerTableRecord
  2
COSMETIC_SKETCHES
 70
0
 62
7
  6
CONTINUOUS
370
-3
390
F
  0
LAYER
  5
202
100
AcDbSymbolTableRecord
100
AcDbLayerTableRecord
  2
CUT_FEATURES
 70
0
 62
7
  6
CONTINUOUS
370
-3
390
F
  0
LAYER
  5
203
100
AcDbSymbolTableRecord
100
AcDbLayerTableRecord
  2
DATUM_CURVES
 70
0
 62
7
  6
CONTINUOUS
370
-3
390
F
  0
LAYER
  5
204
100
AcDbSymbolTableRecord
100
AcDbLayerTableRecord
  2
DATUM_PLANES
 70
0
 62
7
  6
CONTINUOUS
370
-3
390
F
  0
LAYER
  5
205
100
AcDbSymbolTableRecord
100
AcDbLayerTableRecord
  2
DATUM_POINTS
 70
0
 62
7
  6
CONTINUOUS
370
-3
390
F
  0
LAYER
  5
206
100
AcDbSymbolTableRecord
100
AcDbLayerTableRecord
  2
DEFAULT_COORDINATE_SYSTEM
 70
0
 62
7
  6
CONTINUOUS
370
-3
390
F
  0
LAYER
  5
207
100
AcDbSymbolTableRecord
100
AcDbLayerTableRecord
  2
DEFAULT_DATUM_AXES
 70
0
 62
7
  6
CONTINUOUS
370
-3
390
F
  0
LAYER
  5
208
100
AcDbSymbolTableRecord
100
AcDbLayerTableRecord
  2
DEFAULT_DATUM_CURVES
 70
0
 62
7
  6
CONTINUOUS
370
-3
390
F
  0
LAYER
  5
209
100
AcDbSymbolTableRecord
100
AcDbLayerTableRecord
  2
DEFAULT_DATUM_PLANES
 70
0
 62
7
  6
CONTINUOUS
370
-3
390
F
  0
LAYER
  5
20A
100
AcDbSymbolTableRecord
100
AcDbLayerTableRecord
  2
DEFAULT_SURFACES
 70
0
 62
7
  6
CONTINUOUS
370
-3
390
F
  0
LAYER
  5
20B
100
AcDbSymbolTableRecord
100
AcDbLayerTableRecord
  2
DIMENSIONS
 70
0
 62
7
  6
CONTINUOUS
370
-3
390
F
  0
LAYER
  5
20C
100
AcDbSymbolTableRecord
100
AcDbLayerTableRecord
  2
FEATURE_4_DRAWING
 70
0
 62
7
  6
CONTINUOUS
370
-3
390
F
  0
LAYER
  5
20D
100
AcDbSymbolTableRecord
100
AcDbLayerTableRecord
  2
HOLE_FEATURES
 70
0
 62
7
  6
CONTINUOUS
370
-3
390
F
  0
LAYER
  5
20E
100
AcDbSymbolTableRecord
100
AcDbLayerTableRecord
  2
HOLE_PATTERN
 70
0
 62
7
  6
CONTINUOUS
370
-3
390
F
  0
LAYER
  5
20F
100
AcDbSymbolTableRecord
100
AcDbLayerTableRecord
  2
INTFCLR_1
 70
0
 62
7
  6
CONTINUOUS
370
-3
390
F
  0
LAYER
  5
210
100
AcDbSymbolTableRecord
100
AcDbLayerTableRecord
  2
NOTES
 70
0
 62
7
  6
CONTINUOUS
370
-3
390
F
  0
LAYER
  5
211
100
AcDbSymbolTableRecord
100
AcDbLayerTableRecord
  2
PART_REFERENCE_DIMENSIONS
 70
0
 62
7
  6
CONTINUOUS
370
-3
390
F
  0
LAYER
  5
212
100
AcDbSymbolTableRecord
100
AcDbLayerTableRecord
  2
PLATED_SURFACE_AREA
 70
0
 62
7
  6
CONTINUOUS
370
-3
390
F
  0
LAYER
  5
213
100
AcDbSymbolTableRecord
100
AcDbLayerTableRecord
  2
POINTS
 70
0
 62
7
  6
CONTINUOUS
370
-3
390
F
  0
LAYER
  5
214
100
AcDbSymbolTableRecord
100
AcDbLayerTableRecord
  2
PROTRUSION
 70
0
 62
7
  6
CONTINUOUS
370
-3
390
F
  0
LAYER
  5
215
100
AcDbSymbolTableRecord
100
AcDbLayerTableRecord
  2
PROTRUSION_FEATURES
 70
0
 62
7
  6
CONTINUOUS
370
-3
390
F
  0
LAYER
  5
216
100
AcDbSymbolTableRecord
100
AcDbLayerTableRecord
  2
QUILTS
 70
0
 62
7
  6
CONTINUOUS
370
-3
390
F
  0
LAYER
  5
217
100
AcDbSymbolTableRecord
100
AcDbLayerTableRecord
  2
REFERENCE_DIMENSIONS
 70
0
 62
7
  6
CONTINUOUS
370
-3
390
F
  0
LAYER
  5
218
100
AcDbSymbolTableRecord
100
AcDbLayerTableRecord
  2
ROUND_FEATURES
 70
0
 62
7
  6
CONTINUOUS
370
-3
390
F
  0
LAYER
  5
219
100
AcDbSymbolTableRecord
100
AcDbLayerTableRecord
  2
SATIN_DIRECTION
 70
0
 62
7
  6
CONTINUOUS
370
-3
390
F
  0
LAYER
  5
21A
100
AcDbSymbolTableRecord
100
AcDbLayerTableRecord
  2
SHELL_FEATURES
 70
0
 62
7
  6
CONTINUOUS
370
-3
390
F
  0
LAYER
  5
21B
100
AcDbSymbolTableRecord
100
AcDbLayerTableRecord
  2
SIZE_REF
 70
0
 62
7
  6
CONTINUOUS
370
-3
390
F
  0
LAYER
  5
21C
100
AcDbSymbolTableRecord
100
AcDbLayerTableRecord
  2
SURFACE_FEATURES
 70
0
 62
7
  6
CONTINUOUS
370
-3
390
F
  0
LAYER
  5
21D
100
AcDbSymbolTableRecord
100
AcDbLayerTableRecord
  2
WETTED_SURFACES
 70
0
 62
7
  6
CONTINUOUS
370
-3
390
F
  0
LAYER
  5
21E
100
AcDbSymbolTableRecord
100
AcDbLayerTableRecord
  2
XSEC_DATUMS
 70
0
 62
7
  6
CONTINUOUS
370
-3
390
F
  0
ENDTAB
  0
TABLE
  2
STYLE
  5
3
100
AcDbSymbolTable
 70
1
  0
STYLE
  5
11
100
AcDbSymbolTableRecord
100
AcDbTextStyleTableRecord
  2
STANDARD
 70
0
 40
0.0
 41
0.8
 50
0.0
 71
0
 42
0.2
  3
txt
  4

  0
STYLE
  5
21F
100
AcDbSymbolTableRecord
100
AcDbTextStyleTableRecord
  2
TEXTSTYLE_1
 70
0
 40
0.0
 41
0.8
 50
0.0
 71
0
 42
0.2
  3
gdt
  4

  0
ENDTAB
  0
TABLE
  2
VIEW
  5
6
100
AcDbSymbolTable
 70
0
  0
ENDTAB
  0
TABLE
  2
UCS
  5
7
100
AcDbSymbolTable
 70
0
  0
ENDTAB
  0
TABLE
  2
APPID
  5
9
100
AcDbSymbolTable
 70
1
  0
APPID
  5
220
100
AcDbSymbolTableRecord
100
AcDbRegAppTableRecord
  2
ACAD
 70
0
  0
ENDTAB
  0
TABLE
  2
BLOCK_RECORD
  5
1
100
AcDbSymbolTable
 70
0
  0
BLOCK_RECORD
  5
221
100
AcDbSymbolTableRecord
100
AcDbBlockTableRecord
  2
*Model_Space
  0
BLOCK_RECORD
  5
222
100
AcDbSymbolTableRecord
100
AcDbBlockTableRecord
  2
*Paper_Space
  0
ENDTAB
  0
TABLE
  2
DIMSTYLE
  5
A
100
AcDbSymbolTable
 70
1
100
AcDbDimStyleTable
 71
0
  0
DIMSTYLE
105
223
100
AcDbSymbolTableRecord
100
AcDbDimStyleTableRecord
  2
STANDARD
 70
0
  3

  4

 40
1.0
 41
0.1
 42
0.0625
 43
0.38
 44
0.125
 45
0.0
 46
0.0
 47
0.001
 48
0.001
140
0.08
141
0.09
142
0.0
143
25.4
144
1.0
145
0.0
146
1.0
147
0.09
 71
1.0
 72
0.0
 73
1
 74
1
 75
0
 76
0
 77
0
 78
4
170
0
171
2
172
0
173
0
174
0
175
0
176
0
177
0
178
0
270
2
271
3
272
3
273
2
274
2
275
0
280
0
281
0
282
0
283
1
284
4
285
0
286
0
287
3
288
0
340
11
278
46
  0
ENDTAB
  0
ENDSEC
  0
SECTION
  2
BLOCKS
  0
BLOCK
  5
20
100
AcDbEntity
  8
0
100
AcDbBlockBegin
  2
*Model_Space
 70
0
 10
0.0
 20
0.0
 30
0.0
  3
*Model_Space
  1

  0
ENDBLK
  5
21
100
AcDbEntity
  8
0
100
AcDbBlockEnd
  0
BLOCK
  5
1C
100
AcDbEntity
  8
0
100
AcDbBlockBegin
  2
*Paper_Space
 70
0
 10
0.0
 20
0.0
 30
0.0
  3
*Paper_Space
  1

  0
ENDBLK
  5
1D
100
AcDbEntity
  8
0
100
AcDbBlockEnd
  0
ENDSEC
  0
SECTION
  2
ENTITIES
  0
LINE
  5
224
100
AcDbEntity
  8
0
100
AcDbLine
 62
7
  6
CONTINUOUS
 10
0.0
 20
0.0
 11
0.0
 21
8.5
  0
LINE
  5
225
100
AcDbEntity
  8
0
100
AcDbLine
 62
7
  6
CONTINUOUS
 10
0.0
 20
0.0
 11
11.0
 21
0.0
  0
LINE
  5
226
100
AcDbEntity
  8
0
100
AcDbLine
 62
7
  6
CONTINUOUS
 10
0.0
 20
8.5
 11
11.0
 21
8.5
  0
LINE
  5
227
100
AcDbEntity
  8
0
100
AcDbLine
 62
7
  6
CONTINUOUS
 10
11.0
 20
0.0
 11
11.0
 21
8.5
  0
LINE
  5
228
100
AcDbEntity
  8
0
100
AcDbLine
 62
7
  6
CONTINUOUS
 10
2.107494572
 20
5.1434276489
 11
2.107494572
 21
5.3309276489
  0
LINE
  5
229
100
AcDbEntity
  8
ALL_FEATURES
100
AcDbLine
 62
7
  6
CONTINUOUS
 10
2.107494572
 20
5.1434276489
 11
2.107494572
 21
5.3309276489
  0
LINE
  5
22A
100
AcDbEntity
  8
ALL_FEATURES
100
AcDbLine
 62
7
  6
CONTINUOUS
 10
2.201244572
 20
5.1434276489
 11
2.201244572
 21
5.0961776489
  0
LINE
  5
22B
100
AcDbEntity
  8
ALL_FEATURES
100
AcDbLine
 62
9
  6
CONTINUOUS
 10
2.422494572
 20
5.1434276489
 11
2.422494572
 21
5.0961776489
  0
LINE
  5
22C
100
AcDbEntity
  8
0
100
AcDbLine
 62
9
  6
CONTINUOUS
 10
2.422494572
 20
5.1434276489
 11
2.422494572
 21
5.3309276489
  0
LINE
  5
22D
100
AcDbEntity
  8
ALL_FEATURES
100
AcDbLine
 62
9
  6
CONTINUOUS
 10
2.452494572
 20
5.1434276489
 11
2.452494572
 21
5.0961776489
  0
LINE
  5
22E
100
AcDbEntity
  8
0
100
AcDbLine
 62
9
  6
CONTINUOUS
 10
2.452494572
 20
5.1434276489
 11
2.452494572
 21
5.3309276489
  0
LINE
  5
22F
100
AcDbEntity
  8
0
100
AcDbLine
 62
7
  6
CONTINUOUS
 10
2.482494572
 20
5.1434276489
 11
2.482494572
 21
5.3309276489
  0
LINE
  5
230
100
AcDbEntity
  8
ALL_FEATURES
100
AcDbLine
 62
7
  6
CONTINUOUS
 10
2.482494572
 20
5.1434276489
 11
2.482494572
 21
5.3309276489
  0
LINE
  5
231
100
AcDbEntity
  8
ALL_FEATURES
100
AcDbLine
 62
7
  6
CONTINUOUS
 10
2.576244572
 20
5.1434276489
 11
2.576244572
 21
5.0961776489
  0
LINE
  5
232
100
AcDbEntity
  8
ALL_ASSEMBLY_MEMBERS
100
AcDbLine
 62
7
  6
CONTINUOUS
 10
4.475619572
 20
2.4366126883
 11
4.4887220869
 21
2.4401234966
  0
LINE
  5
233
100
AcDbEntity
  8
ALL_ASSEMBLY_MEMBERS
100
AcDbLine
 62
9
  6
CONTINUOUS
 10
4.464682957
 20
2.4320484362
 11
3.8753061869
 21
2.4320484362
  0
LINE
  5
234
100
AcDbEntity
  8
ALL_ASSEMBLY_MEMBERS
100
AcDbLine
 62
7
  6
CONTINUOUS
 10
3.864369572
 20
2.4366126883
 11
4.475619572
 21
2.4366126883
  0
LINE
  5
235
100
AcDbEntity
  8
ALL_ASSEMBLY_MEMBERS
100
AcDbLine
 62
9
  6
CONTINUOUS
 10
3.851267057
 20
2.4401234966
 11
4.4887220869
 21
2.4401234966
  0
LINE
  5
236
100
AcDbEntity
  8
ALL_ASSEMBLY_MEMBERS
100
AcDbLine
 62
7
  6
CONTINUOUS
 10
3.864369572
 20
2.4366126883
 11
3.851267057
 21
2.4401234966
  0
LINE
  5
237
100
AcDbEntity
  8
ALL_ASSEMBLY_MEMBERS
100
AcDbLine
 62
7
  6
CONTINUOUS
 10
3.781869572
 20
2.5266126883
 11
4.558119572
 21
2.5266126883
  0
LINE
  5
238
100
AcDbEntity
  8
ALL_ASSEMBLY_MEMBERS
100
AcDbLine
 62
9
  6
CONTINUOUS
 10
3.751869572
 20
2.5633550344
 11
4.588119572
 21
2.5633550344
  0
LINE
  5
239
100
AcDbEntity
  8
ALL_ASSEMBLY_MEMBERS
100
AcDbLine
 62
9
  6
CONTINUOUS
 10
4.588119572
 20
2.6278626883
 11
4.3286281463
 21
2.6278626883
  0
LINE
  5
23A
100
AcDbEntity
  8
ALL_ASSEMBLY_MEMBERS
100
AcDbLine
 62
9
  6
CONTINUOUS
 10
4.0113609976
 20
2.6278626883
 11
3.751869572
 21
2.6278626883
  0
LINE
  5
23B
100
AcDbEntity
  8
ALL_ASSEMBLY_MEMBERS
100
AcDbLine
 62
7
  6
CONTINUOUS
 10
4.5768671582
 20
2.6391126883
 11
4.3561021898
 21
2.6391126883
  0
LINE
  5
23C
100
AcDbEntity
  8
ALL_ASSEMBLY_MEMBERS
100
AcDbLine
 62
7
  6
CONTINUOUS
 10
3.9838869541
 20
2.6391126883
 11
3.763119572
 21
2.6391126883
  0
LINE
  5
23D
100
AcDbEntity
  8
ALL_FEATURES
100
AcDbLine
 62
9
  6
CONTINUOUS
 10
2.797494572
 20
5.1434276489
 11
2.797494572
 21
5.0961776489
  0
LINE
  5
23E
100
AcDbEntity
  8
0
100
AcDbLine
 62
9
  6
CONTINUOUS
 10
2.797494572
 20
5.1434276489
 11
2.797494572
 21
5.3309276489
  0
LINE
  5
23F
100
AcDbEntity
  8
ALL_ASSEMBLY_MEMBERS
100
AcDbLine
 62
9
  6
CONTINUOUS
 10
5.1137529188
 20
2.9716967381
 11
5.1287392632
 21
2.9757326671
  0
LINE
  5
240
100
AcDbEntity
  8
ALL_ASSEMBLY_MEMBERS
100
AcDbLine
 62
7
  6
CONTINUOUS
 10
4.475619572
 20
2.7118626883
 11
4.4887220869
 21
2.7153734966
  0
LINE
  5
241
100
AcDbEntity
  8
ALL_ASSEMBLY_MEMBERS
100
AcDbLine
 62
7
  6
CONTINUOUS
 10
3.7222607801
 20
2.7111029994
 11
3.3453960275
 21
2.6446515754
  0
LWPOLYLINE
  5
242
100
AcDbEntity
  8
ALL_ASSEMBLY_MEMBERS
100
AcDbPolyline
 62
7
  6
CONTINUOUS
 90
20
 70
0
 10
3.7222606518
 20
2.7111029767
 10
3.7253633518
 20
2.711484511
 10
3.7282423379
 20
2.7115482107
 10
3.7311114151
 20
2.7113357133
 10
3.7339458002
 20
2.7108494812
 10
3.7367239489
 20
2.7100929418
 10
3.7394267368
 20
2.7090692576
 10
3.7420217873
 20
2.7077885666
 10
3.7444705205
 20
2.706271591
 10
3.7467578957
 20
2.7045311263
 10
3.748859218
 20
2.7025896727
 10
3.7507338076
 20
2.7004975843
 10
3.7523644407
 20
2.6983003066
 10
3.7537633389
 20
2.6960102311
 10
3.7549404462
 20
2.6936323759
 10
3.7558914912
 20
2.6911951491
 10
3.7566190792
 20
2.6887162637
 10
3.7571315156
 20
2.686178693
 10
3.7574239218
 20
2.6835894712
 10
3.7574945737
 20
2.6815373252
  0
LINE
  5
243
100
AcDbEntity
  8
ALL_ASSEMBLY_MEMBERS
100
AcDbLine
 62
9
  6
CONTINUOUS
 10
4.582494572
 20
2.6466126883
 11
4.3720481464
 21
2.6466126883
  0
LINE
  5
244
100
AcDbEntity
  8
ALL_ASSEMBLY_MEMBERS
100
AcDbLine
 62
9
  6
CONTINUOUS
 10
3.9679409975
 20
2.6466126883
 11
3.757494572
 21
2.6466126883
  0
LINE
  5
245
100
AcDbEntity
  8
ALL_ASSEMBLY_MEMBERS
100
AcDbLine
 62
9
  6
CONTINUOUS
 10
4.464682957
 20
2.7072984362
 11
3.8753061869
 21
2.7072984362
  0
LINE
  5
246
100
AcDbEntity
  8
ALL_ASSEMBLY_MEMBERS
100
AcDbLine
 62
7
  6
CONTINUOUS
 10
3.864369572
 20
2.7118626883
 11
4.475619572
 21
2.7118626883
  0
LINE
  5
247
100
AcDbEntity
  8
ALL_ASSEMBLY_MEMBERS
100
AcDbLine
 62
9
  6
CONTINUOUS
 10
3.851267057
 20
2.7153734966
 11
4.4887220869
 21
2.7153734966
  0
LINE
  5
248
100
AcDbEntity
  8
ALL_ASSEMBLY_MEMBERS
100
AcDbLine
 62
7
  6
CONTINUOUS
 10
3.781869572
 20
2.8018626883
 11
4.558119572
 21
2.8018626883
  0
LINE
  5
249
100
AcDbEntity
  8
ALL_ASSEMBLY_MEMBERS
100
AcDbLine
 62
7
  6
CONTINUOUS
 10
4.6177283638
 20
2.7111029994
 11
4.9945931164
 21
2.6446515754
  0
LINE
  5
24A
100
AcDbEntity
  8
ALL_ASSEMBLY_MEMBERS
100
AcDbLine
 62
7
  6
CONTINUOUS
 10
3.864369572
 20
2.7118626883
 11
3.851267057
 21
2.7153734966
  0
LINE
  5
24B
100
AcDbEntity
  8
ALL_ASSEMBLY_MEMBERS
100
AcDbLine
 62
9
  6
CONTINUOUS
 10
3.2262362263
 20
2.9716967364
 11
3.2112498807
 21
2.9757326672
  0
LINE
  5
24C
100
AcDbEntity
  8
ALL_ASSEMBLY_MEMBERS
100
AcDbLine
 62
9
  6
CONTINUOUS
 10
3.3323724142
 20
2.7185121569
 11
3.6968343606
 21
2.7827766315
  0
LINE
  5
24D
100
AcDbEntity
  8
ALL_ASSEMBLY_MEMBERS
100
AcDbLine
 62
9
  6
CONTINUOUS
 10
3.751869572
 20
2.8386050344
 11
4.588119572
 21
2.8386050344
  0
LINE
  5
24E
100
AcDbEntity
  8
ALL_ASSEMBLY_MEMBERS
100
AcDbLine
 62
9
  6
CONTINUOUS
 10
4.588119572
 20
2.9031126883
 11
3.751869572
 21
2.9031126883
  0
LINE
  5
24F
100
AcDbEntity
  8
ALL_ASSEMBLY_MEMBERS
100
AcDbLine
 62
7
  6
CONTINUOUS
 10
4.5768671582
 20
2.9143626883
 11
3.763119572
 21
2.9143626883
  0
LINE
  5
250
100
AcDbEntity
  8
ALL_ASSEMBLY_MEMBERS
100
AcDbLine
 62
9
  6
CONTINUOUS
 10
4.582494572
 20
2.9218626883
 11
4.19319427
 21
2.9218626883
  0
LINE
  5
251
100
AcDbEntity
  8
ALL_ASSEMBLY_MEMBERS
100
AcDbLine
 62
9
  6
CONTINUOUS
 10
4.1467948739
 20
2.9218626883
 11
3.757494572
 21
2.9218626883
  0
LINE
  5
252
100
AcDbEntity
  8
ALL_ASSEMBLY_MEMBERS
100
AcDbLine
 62
9
  6
CONTINUOUS
 10
4.6436416663
 20
2.7826907809
 11
5.0076167298
 21
2.7185121569
  0
LINE
  5
253
100
AcDbEntity
  8
ALL_ASSEMBLY_MEMBERS
100
AcDbLine
 62
9
  6
CONTINUOUS
 10
3.3323724142
 20
2.7185121569
 11
3.3453960275
 21
2.6446515754
  0
LINE
  5
254
100
AcDbEntity
  8
0
100
AcDbLine
 62
7
  6
CONTINUOUS
 10
3.157119572
 20
5.0361776489
 11
3.157119572
 21
5.0961776489
  0
LINE
  5
255
100
AcDbEntity
  8
0
100
AcDbLine
 62
7
  6
CONTINUOUS
 10
3.217119572
 20
5.0076776489
 11
3.217119572
 21
5.0361776489
  0
LINE
  5
256
100
AcDbEntity
  8
ALL_ASSEMBLY_MEMBERS
100
AcDbLine
 62
9
  6
CONTINUOUS
 10
3.283669673
 20
2.7494958807
 11
3.2112498807
 21
2.7299927095
  0
LINE
  5
257
100
AcDbEntity
  8
ALL_ASSEMBLY_MEMBERS
100
AcDbLine
 62
9
  6
CONTINUOUS
 10
5.0563194709
 20
3.2314794959
 11
5.1287392632
 21
3.2509826671
  0
LINE
  5
258
100
AcDbEntity
  8
ALL_ASSEMBLY_MEMBERS
100
AcDbLine
 62
7
  6
CONTINUOUS
 10
3.7222607801
 20
2.9863529994
 11
3.3453960275
 21
2.9199015754
  0
LINE
  5
259
100
AcDbEntity
  8
ALL_ASSEMBLY_MEMBERS
100
AcDbLine
 62
9
  6
CONTINUOUS
 10
3.3323724142
 20
2.9937621569
 11
3.6968343606
 21
3.0580266315
  0
LWPOLYLINE
  5
25A
100
AcDbEntity
  8
ALL_ASSEMBLY_MEMBERS
100
AcDbPolyline
 62
7
  6
CONTINUOUS
 90
20
 70
0
 10
3.7222606518
 20
2.9863529767
 10
3.7253633518
 20
2.986734511
 10
3.7282423379
 20
2.9867982107
 10
3.7311114151
 20
2.9865857133
 10
3.7339458002
 20
2.9860994812
 10
3.7367239489
 20
2.9853429418
 10
3.7394267368
 20
2.9843192576
 10
3.7420217873
 20
2.9830385666
 10
3.7444705205
 20
2.981521591
 10
3.7467578957
 20
2.9797811263
 10
3.748859218
 20
2.9778396727
 10
3.7507338076
 20
2.9757475843
 10
3.7523644407
 20
2.9735503066
 10
3.7537633389
 20
2.9712602311
 10
3.7549404462
 20
2.9688823759
 10
3.7558914912
 20
2.9664451491
 10
3.7566190792
 20
2.9639662637
 10
3.7571315156
 20
2.961428693
 10
3.7574239218
 20
2.9588394712
 10
3.7574945737
 20
2.9567873252
  0
LINE
  5
25B
100
AcDbEntity
  8
ALL_ASSEMBLY_MEMBERS
100
AcDbLine
 62
7
  6
CONTINUOUS
 10
4.6177283638
 20
2.9863529994
 11
4.9945931164
 21
2.9199015754
  0
LINE
  5
25C
100
AcDbEntity
  8
ALL_ASSEMBLY_MEMBERS
100
AcDbLine
 62
9
  6
CONTINUOUS
 10
4.6436416663
 20
3.0579407809
 11
5.0076167298
 21
2.9937621569
  0
LINE
  5
25D
100
AcDbEntity
  8
ALL_ASSEMBLY_MEMBERS
100
AcDbLine
 62
9
  6
CONTINUOUS
 10
5.0563194709
 20
2.7494958807
 11
5.1287392632
 21
2.7299927094
  0
LINE
  5
25E
100
AcDbEntity
  8
ALL_ASSEMBLY_MEMBERS
100
AcDbLine
 62
9
  6
CONTINUOUS
 10
3.283669673
 20
3.2314794959
 11
3.2112498807
 21
3.2509826672
  0
LINE
  5
25F
100
AcDbEntity
  8
ALL_ASSEMBLY_MEMBERS
100
AcDbLine
 62
9
  6
CONTINUOUS
 10
3.3323724142
 20
2.9937621569
 11
3.3453960275
 21
2.9199015754
  0
LINE
  5
260
100
AcDbEntity
  8
ALL_ASSEMBLY_MEMBERS
100
AcDbLine
 62
9
  6
CONTINUOUS
 10
3.3249489546
 20
3.2631126883
 11
3.3249489546
 21
3.3381126883
  0
LINE
  5
261
100
AcDbEntity
  8
ALL_ASSEMBLY_MEMBERS
100
AcDbLine
 62
9
  6
CONTINUOUS
 10
3.283669673
 20
3.0247458807
 11
3.2112498807
 21
3.0052427095
  0
LINE
  5
262
100
AcDbEntity
  8
ALL_ASSEMBLY_MEMBERS
100
AcDbLine
 62
9
  6
CONTINUOUS
 10
5.0150401894
 20
3.2631126883
 11
4.5596294754
 21
3.2631126883
  0
LINE
  5
263
100
AcDbEntity
  8
ALL_ASSEMBLY_MEMBERS
100
AcDbLine
 62
9
  6
CONTINUOUS
 10
4.094994572
 20
3.2631126883
 11
4.0345660225
 21
3.2631126883
  0
LINE
  5
264
100
AcDbEntity
  8
ALL_ASSEMBLY_MEMBERS
100
AcDbLine
 62
9
  6
CONTINUOUS
 10
3.3249489546
 20
3.2631126883
 11
3.7803663466
 21
3.2631126883
  0
LINE
  5
265
100
AcDbEntity
  8
ALL_ASSEMBLY_MEMBERS
100
AcDbLine
 62
9
  6
CONTINUOUS
 10
4.244994572
 20
3.2631126883
 11
4.3054423332
 21
3.2631126883
  0
LINE
  5
266
100
AcDbEntity
  8
ALL_ASSEMBLY_MEMBERS
100
AcDbLine
 62
9
  6
CONTINUOUS
 10
4.5811970768
 20
3.3306126883
 11
4.202686314
 21
3.3306126883
  0
LINE
  5
267
100
AcDbEntity
  8
ALL_ASSEMBLY_MEMBERS
100
AcDbLine
 62
9
  6
CONTINUOUS
 10
3.7587920671
 20
3.3306126883
 11
4.1373028299
 21
3.3306126883
  0
LINE
  5
268
100
AcDbEntity
  8
ALL_ASSEMBLY_MEMBERS
100
AcDbLine
 62
7
  6
CONTINUOUS
 10
3.3249489546
 20
3.3381126883
 11
5.0150401894
 21
3.3381126883
  0
LINE
  5
269
100
AcDbEntity
  8
ALL_ASSEMBLY_MEMBERS
100
AcDbLine
 62
9
  6
CONTINUOUS
 10
5.0563194709
 20
3.0247458807
 11
5.1287392632
 21
3.0052427094
  0
LINE
  5
26A
100
AcDbEntity
  8
ALL_FEATURES
100
AcDbLine
 62
7
  6
CONTINUOUS
 10
3.549744572
 20
3.7850333441
 11
3.549744572
 21
4.2246776489
  0
LINE
  5
26B
100
AcDbEntity
  8
0
100
AcDbLine
 62
7
  6
CONTINUOUS
 10
3.549917072
 20
5.0961776489
 11
3.549917072
 21
4.2246776489
  0
LINE
  5
26C
100
AcDbEntity
  8
ALL_FEATURES
100
AcDbLine
 62
7
  6
CONTINUOUS
 10
3.9390119913
 20
3.3628626883
 11
3.9074991601
 21
3.3628626883
  0
LINE
  5
26D
100
AcDbEntity
  8
ALL_FEATURES
100
AcDbLine
 62
7
  6
CONTINUOUS
 10
4.4009771526
 20
3.3628626883
 11
4.4324899838
 21
3.3628626883
  0
LINE
  5
26E
100
AcDbEntity
  8
0
100
AcDbLine
 62
9
  6
CONTINUOUS
 10
3.9425447979
 20
3.3724066035
 11
3.8761519995
 21
3.3724066079
  0
LINE
  5
26F
100
AcDbEntity
  8
0
100
AcDbLine
 62
9
  6
CONTINUOUS
 10
4.4638371445
 20
3.3724066079
 11
4.3974443451
 21
3.3724066079
  0
LINE
  5
270
100
AcDbEntity
  8
ALL_ASSEMBLY_MEMBERS
100
AcDbLine
 62
9
  6
CONTINUOUS
 10
3.943869572
 20
3.3831126883
 11
4.396119572
 21
3.3831126883
  0
LINE
  5
271
100
AcDbEntity
  8
0
100
AcDbLine
 62
9
  6
CONTINUOUS
 10
4.4771636976
 20
3.3882192775
 11
4.396119572
 21
3.388219277
  0
LINE
  5
272
100
AcDbEntity
  8
0
100
AcDbLine
 62
9
  6
CONTINUOUS
 10
3.943869572
 20
3.388219277
 11
3.8628254464
 21
3.3882192775
  0
LINE
  5
273
100
AcDbEntity
  8
0
100
AcDbLine
 62
7
  6
CONTINUOUS
 10
3.5859935895
 20
3.7200069769
 11
3.5779799566
 21
3.7263982799
  0
LINE
  5
274
100
AcDbEntity
  8
0
100
AcDbLine
 62
7
  6
CONTINUOUS
 10
3.601935929
 20
3.6942547474
 11
3.6041747016
 21
3.6838071417
  0
LINE
  5
275
100
AcDbEntity
  8
0
100
AcDbLine
 62
7
  6
CONTINUOUS
 10
3.684369572
 20
4.1121776489
 11
3.684369572
 21
3.9492063034
  0
LINE
  5
276
100
AcDbEntity
  8
ALL_FEATURES
100
AcDbLine
 62
7
  6
CONTINUOUS
 10
3.684369572
 20
3.9492063034
 11
3.684369572
 21
4.1121776489
  0
LINE
  5
277
100
AcDbEntity
  8
ALL_ASSEMBLY_MEMBERS
100
AcDbLine
 62
7
  6
CONTINUOUS
 10
3.751869572
 20
2.5633550344
 11
3.751869572
 21
2.6278626883
  0
LINE
  5
278
100
AcDbEntity
  8
ALL_ASSEMBLY_MEMBERS
100
AcDbLine
 62
7
  6
CONTINUOUS
 10
3.751869572
 20
2.8386050344
 11
3.751869572
 21
2.9031126883
  0
LINE
  5
279
100
AcDbEntity
  8
ALL_ASSEMBLY_MEMBERS
100
AcDbLine
 62
7
  6
CONTINUOUS
 10
3.757494572
 20
2.6466126883
 11
3.757494572
 21
2.6815382298
  0
LINE
  5
27A
100
AcDbEntity
  8
ALL_ASSEMBLY_MEMBERS
100
AcDbLine
 62
7
  6
CONTINUOUS
 10
3.757494572
 20
2.9218626883
 11
3.757494572
 21
2.9567882298
  0
LINE
  5
27B
100
AcDbEntity
  8
ALL_ASSEMBLY_MEMBERS
100
AcDbLine
 62
7
  6
CONTINUOUS
 10
3.943869572
 20
3.6006126883
 11
4.396119572
 21
3.6006126883
  0
LINE
  5
27C
100
AcDbEntity
  8
0
100
AcDbLine
 62
7
  6
CONTINUOUS
 10
4.4123527252
 20
3.6381126883
 11
3.9276364188
 21
3.6381126883
  0
LINE
  5
27D
100
AcDbEntity
  8
0
100
AcDbLine
 62
9
  6
CONTINUOUS
 10
4.430902483
 20
3.6445555565
 11
4.7073843985
 21
3.6445555597
  0
LINE
  5
27E
100
AcDbEntity
  8
0
100
AcDbLine
 62
9
  6
CONTINUOUS
 10
3.6326047454
 20
3.6445555597
 11
3.9090866577
 21
3.6445555589
  0
LINE
  5
27F
100
AcDbEntity
  8
0
100
AcDbLine
 62
9
  6
CONTINUOUS
 10
4.4399204093
 20
3.6562795657
 11
3.9000687346
 21
3.6562795657
  0
LINE
  5
280
100
AcDbEntity
  8
0
100
AcDbLine
 62
9
  6
CONTINUOUS
 10
3.6041747016
 20
3.6838071417
 11
3.8872609743
 21
3.6838071409
  0
LINE
  5
281
100
AcDbEntity
  8
0
100
AcDbLine
 62
9
  6
CONTINUOUS
 10
4.4527281685
 20
3.6838071388
 11
4.7358144423
 21
3.6838071417
  0
LINE
  5
282
100
AcDbEntity
  8
0
100
AcDbLine
 62
9
  6
CONTINUOUS
 10
4.7380532149
 20
3.6942547474
 11
4.4580636693
 21
3.6942547442
  0
LINE
  5
283
100
AcDbEntity
  8
0
100
AcDbLine
 62
9
  6
CONTINUOUS
 10
3.8819254738
 20
3.6942547461
 11
3.601935929
 21
3.6942547474
  0
LINE
  5
284
100
AcDbEntity
  8
ALL_ASSEMBLY_MEMBERS
100
AcDbLine
 62
7
  6
CONTINUOUS
 10
3.943869572
 20
3.3831126883
 11
3.943869572
 21
3.4017876883
  0
LINE
  5
285
100
AcDbEntity
  8
ALL_ASSEMBLY_MEMBERS
100
AcDbLine
 62
7
  6
CONTINUOUS
 10
3.943869572
 20
3.5118039711
 11
3.943869572
 21
3.6006126883
  0
LINE
  5
286
100
AcDbEntity
  8
ALL_ASSEMBLY_MEMBERS
100
AcDbLine
 62
7
  6
CONTINUOUS
 10
3.944994572
 20
3.4041129779
 11
3.944994572
 21
3.5004566333
  0
LINE
  5
287
100
AcDbEntity
  8
0
100
AcDbLine
 62
9
  6
CONTINUOUS
 10
4.7539955544
 20
3.7200069769
 11
4.4722847082
 21
3.7200069692
  0
LINE
  5
288
100
AcDbEntity
  8
0
100
AcDbLine
 62
9
  6
CONTINUOUS
 10
3.8677044336
 20
3.7200069734
 11
3.5859935895
 21
3.7200069769
  0
LINE
  5
289
100
AcDbEntity
  8
0
100
AcDbLine
 62
9
  6
CONTINUOUS
 10
4.7620091873
 20
3.7263982799
 11
4.4761115099
 21
3.7263982799
  0
LINE
  5
28A
100
AcDbEntity
  8
0
100
AcDbLine
 62
9
  6
CONTINUOUS
 10
3.8638776338
 20
3.7263982799
 11
3.5779799566
 21
3.7263982799
  0
LINE
  5
28B
100
AcDbEntity
  8
0
100
AcDbLine
 62
9
  6
CONTINUOUS
 10
3.549744572
 20
3.7850333441
 11
3.823054084
 21
3.7850333441
  0
LINE
  5
28C
100
AcDbEntity
  8
0
100
AcDbLine
 62
9
  6
CONTINUOUS
 10
4.5169350589
 20
3.7850333438
 11
4.790244572
 21
3.7850333441
  0
LINE
  5
28D
100
AcDbEntity
  8
0
100
AcDbLine
 62
9
  6
CONTINUOUS
 10
3.7150823678
 20
3.888678264
 11
4.6249067761
 21
3.888678264
  0
LINE
  5
28E
100
AcDbEntity
  8
ALL_ASSEMBLY_MEMBERS
100
AcDbLine
 62
9
  6
CONTINUOUS
 10
4.0949945714
 20
3.0579420902
 11
4.0949911201
 21
3.0580403089
  0
LINE
  5
28F
100
AcDbEntity
  8
0
100
AcDbLine
 62
7
  6
CONTINUOUS
 10
4.031244572
 20
3.6381126883
 11
4.031244572
 21
3.6006126883
  0
LINE
  5
290
100
AcDbEntity
  8
ALL_ASSEMBLY_MEMBERS
100
AcDbLine
 62
7
  6
CONTINUOUS
 10
4.094994572
 20
2.993112593
 11
4.094994572
 21
3.2631126883
  0
LINE
  5
291
100
AcDbEntity
  8
ALL_ASSEMBLY_MEMBERS
100
AcDbLine
 62
9
  6
CONTINUOUS
 10
4.169994572
 20
2.9181126883
 11
4.169994572
 21
3.3381126883
  0
LINE
  5
292
100
AcDbEntity
  8
0
100
AcDbLine
 62
9
  6
CONTINUOUS
 10
3.684369572
 20
3.9492063034
 11
4.655619572
 21
3.9492063034
  0
LINE
  5
293
100
AcDbEntity
  8
ALL_ASSEMBLY_MEMBERS
100
AcDbLine
 62
7
  6
CONTINUOUS
 10
4.244994572
 20
3.2631126883
 11
4.244994572
 21
2.9931149831
  0
LINE
  5
294
100
AcDbEntity
  8
0
100
AcDbLine
 62
7
  6
CONTINUOUS
 10
4.308744572
 20
3.6381126883
 11
4.308744572
 21
3.6006126883
  0
LINE
  5
295
100
AcDbEntity
  8
ALL_ASSEMBLY_MEMBERS
100
AcDbLine
 62
7
  6
CONTINUOUS
 10
3.946258705
 20
3.5026290439
 11
3.944994572
 21
3.5004566154
  0
LINE
  5
296
100
AcDbEntity
  8
0
100
AcDbLine
 62
7
  6
CONTINUOUS
 10
4.677572072
 20
4.1121776489
 11
3.662417072
 21
4.1121776489
  0
LINE
  5
297
100
AcDbEntity
  8
0
100
AcDbLine
 62
9
  6
CONTINUOUS
 10
4.790072072
 20
4.2246776489
 11
3.549917072
 21
4.2246776489
  0
LINE
  5
298
100
AcDbEntity
  8
ALL_ASSEMBLY_MEMBERS
100
AcDbLine
 62
7
  6
CONTINUOUS
 10
4.396119572
 20
3.3831126883
 11
4.396119572
 21
3.6006126883
  0
LINE
  5
299
100
AcDbEntity
  8
ALL_ASSEMBLY_MEMBERS
100
AcDbLine
 62
7
  6
CONTINUOUS
 10
4.582494572
 20
2.6466126883
 11
4.582494572
 21
2.6815382297
  0
LINE
  5
29A
100
AcDbEntity
  8
ALL_ASSEMBLY_MEMBERS
100
AcDbLine
 62
7
  6
CONTINUOUS
 10
4.582494572
 20
2.9218626883
 11
4.582494572
 21
2.9567882297
  0
LINE
  5
29B
100
AcDbEntity
  8
ALL_ASSEMBLY_MEMBERS
100
AcDbLine
 62
7
  6
CONTINUOUS
 10
4.588119572
 20
2.5633550344
 11
4.588119572
 21
2.6278626883
  0
LINE
  5
29C
100
AcDbEntity
  8
ALL_ASSEMBLY_MEMBERS
100
AcDbLine
 62
7
  6
CONTINUOUS
 10
4.588119572
 20
2.8386050344
 11
4.588119572
 21
2.9031126883
  0
LINE
  5
29D
100
AcDbEntity
  8
ALL_FEATURES
100
AcDbLine
 62
7
  6
CONTINUOUS
 10
4.655619572
 20
3.9492063034
 11
4.655619572
 21
4.1121776489
  0
LWPOLYLINE
  5
29E
100
AcDbEntity
  8
ALL_ASSEMBLY_MEMBERS
100
AcDbPolyline
 62
7
  6
CONTINUOUS
 90
20
 70
0
 10
4.5824945702
 20
2.9567873248
 10
4.5825651288
 20
2.9588381172
 10
4.58285743
 20
2.9614274319
 10
4.5833697727
 20
2.9639650829
 10
4.5840972748
 20
2.9664440404
 10
4.5850482432
 20
2.9688813459
 10
4.586225285
 20
2.9712592876
 10
4.5876241285
 20
2.9735494536
 10
4.5892547222
 20
2.9757468308
 10
4.591129292
 20
2.9778390285
 10
4.5932306141
 20
2.9797805941
 10
4.5955180064
 20
2.9815211665
 10
4.5979667729
 20
2.9830382426
 10
4.6005618721
 20
2.9843190249
 10
4.6032647202
 20
2.9853427876
 10
4.6060429375
 20
2.9860993913
 10
4.6088773983
 20
2.9865856728
 10
4.6117465563
 20
2.9867982042
 10
4.6146256258
 20
2.9867345227
 10
4.6177284921
 20
2.9863529767
  0
LWPOLYLINE
  5
29F
100
AcDbEntity
  8
ALL_ASSEMBLY_MEMBERS
100
AcDbPolyline
 62
7
  6
CONTINUOUS
 90
20
 70
0
 10
4.5824945702
 20
2.6815373248
 10
4.5825651288
 20
2.6835881172
 10
4.58285743
 20
2.6861774319
 10
4.5833697727
 20
2.6887150829
 10
4.5840972748
 20
2.6911940404
 10
4.5850482432
 20
2.6936313459
 10
4.586225285
 20
2.6960092876
 10
4.5876241285
 20
2.6982994536
 10
4.5892547222
 20
2.7004968308
 10
4.591129292
 20
2.7025890285
 10
4.5932306141
 20
2.7045305941
 10
4.5955180064
 20
2.7062711665
 10
4.5979667729
 20
2.7077882426
 10
4.6005618721
 20
2.7090690249
 10
4.6032647202
 20
2.7100927876
 10
4.6060429375
 20
2.7108493913
 10
4.6088773983
 20
2.7113356728
 10
4.6117465563
 20
2.7115482042
 10
4.6146256258
 20
2.7114845227
 10
4.6177284921
 20
2.7111029767
  0
LINE
  5
2A0
100
AcDbEntity
  8
0
100
AcDbLine
 62
7
  6
CONTINUOUS
 10
4.790072072
 20
5.0961776489
 11
4.790072072
 21
4.2246776489
  0
LINE
  5
2A1
100
AcDbEntity
  8
ALL_FEATURES
100
AcDbLine
 62
7
  6
CONTINUOUS
 10
4.790244572
 20
3.7850333441
 11
4.790244572
 21
4.2246776489
  0
LINE
  5
2A2
100
AcDbEntity
  8
0
100
AcDbLine
 62
7
  6
CONTINUOUS
 10
4.7380532149
 20
3.6942547474
 11
4.7358144423
 21
3.6838071417
  0
LINE
  5
2A3
100
AcDbEntity
  8
0
100
AcDbLine
 62
7
  6
CONTINUOUS
 10
4.7620091873
 20
3.7263982799
 11
4.7539955544
 21
3.7200069769
  0
LINE
  5
2A4
100
AcDbEntity
  8
ALL_ASSEMBLY_MEMBERS
100
AcDbLine
 62
9
  6
CONTINUOUS
 10
5.0150401894
 20
3.2631126883
 11
5.0150401894
 21
3.3381126883
  0
LINE
  5
2A5
100
AcDbEntity
  8
0
100
AcDbLine
 62
7
  6
CONTINUOUS
 10
3.2877388904
 20
5.0063329887
 11
3.287776785
 21
5.0063285073
  0
LINE
  5
2A6
100
AcDbEntity
  8
0
100
AcDbLine
 62
7
  6
CONTINUOUS
 10
3.3213844015
 20
5.0060707132
 11
3.3214222933
 21
5.0060631477
  0
LINE
  5
2A7
100
AcDbEntity
  8
0
100
AcDbLine
 62
7
  6
CONTINUOUS
 10
5.122869572
 20
5.0076776489
 11
5.122869572
 21
5.0361776489
  0
LINE
  5
2A8
100
AcDbEntity
  8
0
100
AcDbLine
 62
7
  6
CONTINUOUS
 10
5.182869572
 20
5.0361776489
 11
5.182869572
 21
5.0961776489
  0
LINE
  5
2A9
100
AcDbEntity
  8
ALL_ASSEMBLY_MEMBERS
100
AcDbLine
 62
9
  6
CONTINUOUS
 10
5.0076167298
 20
2.9937621569
 11
4.9945931164
 21
2.9199015754
  0
LINE
  5
2AA
100
AcDbEntity
  8
ALL_ASSEMBLY_MEMBERS
100
AcDbLine
 62
9
  6
CONTINUOUS
 10
5.0076167298
 20
2.7185121569
 11
4.9945931164
 21
2.6446515754
  0
LINE
  5
2AB
100
AcDbEntity
  8
0
100
AcDbLine
 62
7
  6
CONTINUOUS
 10
4.882494572
 20
5.0024276489
 11
4.8921828813
 21
5.0026392501
  0
LINE
  5
2AC
100
AcDbEntity
  8
0
100
AcDbLine
 62
7
  6
CONTINUOUS
 10
5.0573752825
 20
5.0062471964
 11
5.122869572
 21
5.0076776489
  0
LINE
  5
2AD
100
AcDbEntity
  8
0
100
AcDbLine
 62
7
  6
CONTINUOUS
 10
3.549917072
 20
5.0024276489
 11
3.457494572
 21
5.0024276489
  0
LINE
  5
2AE
100
AcDbEntity
  8
0
100
AcDbLine
 62
7
  6
CONTINUOUS
 10
4.790072072
 20
5.0024276489
 11
4.882494572
 21
5.0024276489
  0
LINE
  5
2AF
100
AcDbEntity
  8
0
100
AcDbLine
 62
7
  6
CONTINUOUS
 10
3.549917072
 20
5.0076776489
 11
3.217119572
 21
5.0076776489
  0
LINE
  5
2B0
100
AcDbEntity
  8
0
100
AcDbLine
 62
7
  6
CONTINUOUS
 10
4.790072072
 20
5.0076776489
 11
5.122869572
 21
5.0076776489
  0
LINE
  5
2B1
100
AcDbEntity
  8
0
100
AcDbLine
 62
7
  6
CONTINUOUS
 10
3.549917072
 20
5.0361776489
 11
3.15714718
 21
5.0361776489
  0
LINE
  5
2B2
100
AcDbEntity
  8
0
100
AcDbLine
 62
7
  6
CONTINUOUS
 10
4.790072072
 20
5.0361776489
 11
5.182841964
 21
5.0361776489
  0
LINE
  5
2B3
100
AcDbEntity
  8
ALL_FEATURES
100
AcDbLine
 62
7
  6
CONTINUOUS
 10
6.138744572
 20
5.0961776489
 11
2.201244572
 21
5.0961776489
  0
LINE
  5
2B4
100
AcDbEntity
  8
ALL_FEATURES
100
AcDbLine
 62
7
  6
CONTINUOUS
 10
6.232494572
 20
5.1434276489
 11
2.107494572
 21
5.1434276489
  0
LINE
  5
2B5
100
AcDbEntity
  8
0
100
AcDbLine
 62
7
  6
CONTINUOUS
 10
2.107494572
 20
5.3309276489
 11
6.232494572
 21
5.3309276489
  0
LINE
  5
2B6
100
AcDbEntity
  8
ALL_FEATURES
100
AcDbLine
 62
9
  6
CONTINUOUS
 10
5.542494572
 20
5.1434276489
 11
5.542494572
 21
5.0961776489
  0
LINE
  5
2B7
100
AcDbEntity
  8
0
100
AcDbLine
 62
9
  6
CONTINUOUS
 10
5.542494572
 20
5.1434276489
 11
5.542494572
 21
5.3309276489
  0
LINE
  5
2B8
100
AcDbEntity
  8
ALL_FEATURES
100
AcDbLine
 62
7
  6
CONTINUOUS
 10
5.763744572
 20
5.1434276489
 11
5.763744572
 21
5.0961776489
  0
LINE
  5
2B9
100
AcDbEntity
  8
0
100
AcDbLine
 62
7
  6
CONTINUOUS
 10
5.857494572
 20
5.1434276489
 11
5.857494572
 21
5.3309276489
  0
LINE
  5
2BA
100
AcDbEntity
  8
ALL_FEATURES
100
AcDbLine
 62
9
  6
CONTINUOUS
 10
5.887494572
 20
5.1434276489
 11
5.887494572
 21
5.0961776489
  0
LINE
  5
2BB
100
AcDbEntity
  8
0
100
AcDbLine
 62
9
  6
CONTINUOUS
 10
5.887494572
 20
5.1434276489
 11
5.887494572
 21
5.3309276489
  0
LINE
  5
2BC
100
AcDbEntity
  8
ALL_FEATURES
100
AcDbLine
 62
9
  6
CONTINUOUS
 10
5.917494572
 20
5.1434276489
 11
5.917494572
 21
5.0961776489
  0
LINE
  5
2BD
100
AcDbEntity
  8
0
100
AcDbLine
 62
9
  6
CONTINUOUS
 10
5.917494572
 20
5.1434276489
 11
5.917494572
 21
5.3309276489
  0
LINE
  5
2BE
100
AcDbEntity
  8
ALL_FEATURES
100
AcDbLine
 62
7
  6
CONTINUOUS
 10
6.138744572
 20
5.1434276489
 11
6.138744572
 21
5.0961776489
  0
LINE
  5
2BF
100
AcDbEntity
  8
0
100
AcDbLine
 62
7
  6
CONTINUOUS
 10
6.232494572
 20
5.1434276489
 11
6.232494572
 21
5.3309276489
  0
ARC
  5
2C0
100
AcDbEntity
  8
0
100
AcDbCircle
 62
7
  6
CONTINUOUS
 10
3.3191642508
 20
-0.5061947481
 40
5.5122506667
100
AcDbArc
 50
88.8381976856
 51
89.1108694697
  0
ARC
  5
2C1
100
AcDbEntity
  8
0
100
AcDbCircle
 62
7
  6
CONTINUOUS
 10
3.3504164031
 20
0.6769966309
 40
4.3284761592
100
AcDbArc
 50
88.6973367609
 51
88.8466124559
  0
ARC
  5
2C2
100
AcDbEntity
  8
0
100
AcDbCircle
 62
7
  6
CONTINUOUS
 10
3.3537634334
 20
0.8441428666
 40
4.1612965517
100
AcDbArc
 50
88.9985440706
 51
89.1474615936
  0
ARC
  5
2C3
100
AcDbEntity
  8
0
100
AcDbCircle
 62
7
  6
CONTINUOUS
 10
3.3544578897
 20
0.8837458933
 40
4.1216874368
100
AcDbArc
 50
88.8449304483
 51
88.9985743187
  0
ARC
  5
2C4
100
AcDbEntity
  8
0
100
AcDbCircle
 62
7
  6
CONTINUOUS
 10
3.3697810595
 20
1.5350342085
 40
3.4702603078
100
AcDbArc
 50
89.5549315376
 51
89.6931911843
  0
ARC
  5
2C5
100
AcDbEntity
  8
0
100
AcDbCircle
 62
7
  6
CONTINUOUS
 10
3.3580083316
 20
2.0372608377
 40
2.9684979975
100
AcDbArc
 50
89.1996615502
 51
89.3761360011
  0
ARC
  5
2C6
100
AcDbEntity
  8
0
100
AcDbCircle
 62
7
  6
CONTINUOUS
 10
3.3833684741
 20
2.1583086412
 40
2.8469725367
100
AcDbArc
 50
88.3502067698
 51
88.5911820287
  0
ARC
  5
2C7
100
AcDbEntity
  8
0
100
AcDbCircle
 62
7
  6
CONTINUOUS
 10
3.3769209219
 20
2.3764970284
 40
2.6287674828
100
AcDbArc
 50
89.1551978847
 51
89.5680809875
  0
ARC
  5
2C8
100
AcDbEntity
  8
0
100
AcDbCircle
 62
7
  6
CONTINUOUS
 10
3.3911535809
 20
2.3810225924
 40
2.6239632331
100
AcDbArc
 50
88.4788509668
 51
88.6468372081
  0
ARC
  5
2C9
100
AcDbEntity
  8
0
100
AcDbCircle
 62
7
  6
CONTINUOUS
 10
3.3619022143
 20
2.4162776786
 40
2.5894612372
100
AcDbArc
 50
89.370976444
 51
89.6489963035
  0
ARC
  5
2CA
100
AcDbEntity
  8
0
100
AcDbCircle
 62
7
  6
CONTINUOUS
 10
3.3638229765
 20
2.7355482707
 40
2.2701848696
100
AcDbArc
 50
89.6481087306
 51
89.8373075771
  0
ARC
  5
2CB
100
AcDbEntity
  8
ALL_ASSEMBLY_MEMBERS
100
AcDbCircle
 62
7
  6
CONTINUOUS
 10
3.3249489546
 20
2.9451126883
 40
0.11775
100
AcDbArc
 50
157.3274806489
 51
164.9274289141
  0
ARC
  5
2CC
100
AcDbEntity
  8
ALL_ASSEMBLY_MEMBERS
100
AcDbCircle
 62
7
  6
CONTINUOUS
 10
3.3249489546
 20
2.7606126883
 40
0.11775
100
AcDbArc
 50
195.0725710993
 51
280.0000000134
  0
ARC
  5
2CD
100
AcDbEntity
  8
ALL_ASSEMBLY_MEMBERS
100
AcDbCircle
 62
7
  6
CONTINUOUS
 10
3.3249489546
 20
3.0358626883
 40
0.11775
100
AcDbArc
 50
195.0725710993
 51
280.0000000134
  0
ARC
  5
2CE
100
AcDbEntity
  8
ALL_ASSEMBLY_MEMBERS
100
AcDbCircle
 62
9
  6
CONTINUOUS
 10
3.3249489546
 20
2.7606126883
 40
0.0427499999
100
AcDbArc
 50
195.0725711001
 51
280.0
  0
ARC
  5
2CF
100
AcDbEntity
  8
ALL_ASSEMBLY_MEMBERS
100
AcDbCircle
 62
9
  6
CONTINUOUS
 10
3.3249489546
 20
3.0358626883
 40
0.0427499999
100
AcDbArc
 50
195.0725711001
 51
280.0
  0
ARC
  5
2D0
100
AcDbEntity
  8
0
100
AcDbCircle
 62
7
  6
CONTINUOUS
 10
3.422826401
 20
3.5612915038
 40
1.4432695081
100
AcDbArc
 50
88.2359843001
 51
88.4919638287
  0
ARC
  5
2D1
100
AcDbEntity
  8
0
100
AcDbCircle
 62
7
  6
CONTINUOUS
 10
3.4264408484
 20
3.6597995322
 40
1.3448639983
100
AcDbArc
 50
87.9595493771
 51
88.3427971334
  0
ARC
  5
2D2
100
AcDbEntity
  8
0
100
AcDbCircle
 62
7
  6
CONTINUOUS
 10
3.4426930776
 20
4.2045893865
 40
0.7996649359
100
AcDbArc
 50
88.0455032619
 51
88.2398971662
  0
ARC
  5
2D3
100
AcDbEntity
  8
0
100
AcDbCircle
 62
7
  6
CONTINUOUS
 10
3.3824854649
 20
3.4341126883
 40
0.56325
100
AcDbArc
 50
23.2308920706
 51
53.8077823306
  0
ARC
  5
2D4
100
AcDbEntity
  8
0
100
AcDbCircle
 62
7
  6
CONTINUOUS
 10
3.348744572
 20
3.1580640753
 40
0.56325
100
AcDbArc
 50
24.1181733655
 51
59.7371069019
  0
ARC
  5
2D5
100
AcDbEntity
  8
ALL_ASSEMBLY_MEMBERS
100
AcDbCircle
 62
7
  6
CONTINUOUS
 10
3.3279288465
 20
3.2598793803
 40
0.4366306399
100
AcDbArc
 50
8.3249967893
 51
9.3228886889
  0
ARC
  5
2D6
100
AcDbEntity
  8
ALL_ASSEMBLY_MEMBERS
100
AcDbCircle
 62
7
  6
CONTINUOUS
 10
3.3249489546
 20
3.2203626883
 40
0.11775
100
AcDbArc
 50
89.999999993
 51
164.9274289141
  0
ARC
  5
2D7
100
AcDbEntity
  8
ALL_ASSEMBLY_MEMBERS
100
AcDbCircle
 62
9
  6
CONTINUOUS
 10
3.3249489546
 20
3.2203626883
 40
0.0427500022
100
AcDbArc
 50
90.0
 51
164.9274288999
  0
ARC
  5
2D8
100
AcDbEntity
  8
ALL_ASSEMBLY_MEMBERS
100
AcDbCircle
 62
7
  6
CONTINUOUS
 10
3.667494572
 20
2.8528626883
 40
0.4725
100
AcDbArc
 50
164.9274289041
 51
195.0725711005
  0
ARC
  5
2D9
100
AcDbEntity
  8
ALL_ASSEMBLY_MEMBERS
100
AcDbCircle
 62
9
  6
CONTINUOUS
 10
3.667494572
 20
2.8528626883
 40
0.3975000161
100
AcDbArc
 50
169.0664079021
 51
195.0725711001
  0
ARC
  5
2DA
100
AcDbEntity
  8
ALL_ASSEMBLY_MEMBERS
100
AcDbCircle
 62
9
  6
CONTINUOUS
 10
3.7274710252
 20
2.6815347442
 40
0.0300235007
100
AcDbArc
 50
0.006653396
 51
94.2204462122
  0
ARC
  5
2DB
100
AcDbEntity
  8
ALL_ASSEMBLY_MEMBERS
100
AcDbCircle
 62
9
  6
CONTINUOUS
 10
3.7274710252
 20
2.9567847442
 40
0.0300235007
100
AcDbArc
 50
0.0066533935
 51
94.2204462146
  0
ARC
  5
2DC
100
AcDbEntity
  8
ALL_ASSEMBLY_MEMBERS
100
AcDbCircle
 62
9
  6
CONTINUOUS
 10
3.7274446032
 20
2.6816874685
 40
0.0298688044
100
AcDbArc
 50
94.1914600052
 51
99.9946727191
  0
ARC
  5
2DD
100
AcDbEntity
  8
ALL_ASSEMBLY_MEMBERS
100
AcDbCircle
 62
9
  6
CONTINUOUS
 10
3.7274446032
 20
2.9569374685
 40
0.0298688044
100
AcDbArc
 50
94.1914600052
 51
99.9946727191
  0
ARC
  5
2DE
100
AcDbEntity
  8
ALL_ASSEMBLY_MEMBERS
100
AcDbCircle
 62
7
  6
CONTINUOUS
 10
3.667494572
 20
3.1281126883
 40
0.4725
100
AcDbArc
 50
164.9274289041
 51
195.0725711005
  0
ARC
  5
2DF
100
AcDbEntity
  8
ALL_ASSEMBLY_MEMBERS
100
AcDbCircle
 62
9
  6
CONTINUOUS
 10
3.667494572
 20
3.1281126883
 40
0.3975000161
100
AcDbArc
 50
164.9274288999
 51
195.0725711001
  0
ARC
  5
2E0
100
AcDbEntity
  8
ALL_ASSEMBLY_MEMBERS
100
AcDbCircle
 62
7
  6
CONTINUOUS
 10
3.6885487328
 20
3.4426558988
 40
0.2646002121
100
AcDbArc
 50
13.969680541
 51
14.3843868795
  0
ARC
  5
2E1
100
AcDbEntity
  8
ALL_ASSEMBLY_MEMBERS
100
AcDbCircle
 62
7
  6
CONTINUOUS
 10
3.7008766762
 20
3.4542792777
 40
0.2485980888
100
AcDbArc
 50
347.9528951022
 51
349.1257653446
  0
ARC
  5
2E2
100
AcDbEntity
  8
ALL_ASSEMBLY_MEMBERS
100
AcDbCircle
 62
7
  6
CONTINUOUS
 10
3.7303367051
 20
3.450797972
 40
0.2220592932
100
AcDbArc
 50
351.984543737
 51
359.1703758795
  0
ARC
  5
2E3
100
AcDbEntity
  8
0
100
AcDbCircle
 62
7
  6
CONTINUOUS
 10
3.624744572
 20
3.7850333441
 40
0.075
100
AcDbArc
 50
180.0
 51
231.4257570771
  0
ARC
  5
2E4
100
AcDbEntity
  8
0
100
AcDbCircle
 62
7
  6
CONTINUOUS
 10
3.6628428465
 20
3.696378887
 40
0.06
100
AcDbArc
 50
192.094757077
 51
239.7371069019
  0
ARC
  5
2E5
100
AcDbEntity
  8
0
100
AcDbCircle
 62
7
  6
CONTINUOUS
 10
3.5579348203
 20
3.6848259384
 40
0.045
100
AcDbArc
 50
12.094757077
 51
51.425757077
  0
ARC
  5
2E6
100
AcDbEntity
  8
ALL_ASSEMBLY_MEMBERS
100
AcDbCircle
 62
7
  6
CONTINUOUS
 10
3.8755313425
 20
2.5306790428
 40
0.09375
100
AcDbArc
 50
182.4859527198
 51
255.0
  0
ARC
  5
2E7
100
AcDbEntity
  8
ALL_ASSEMBLY_MEMBERS
100
AcDbCircle
 62
7
  6
CONTINUOUS
 10
3.8755313425
 20
2.8059290428
 40
0.09375
100
AcDbArc
 50
182.4859527198
 51
255.0
  0
ARC
  5
2E8
100
AcDbEntity
  8
ALL_ASSEMBLY_MEMBERS
100
AcDbCircle
 62
7
  6
CONTINUOUS
 10
3.789369572
 20
2.5633550344
 40
0.0375
100
AcDbArc
 50
180.0
 51
258.4630409672
  0
ARC
  5
2E9
100
AcDbEntity
  8
ALL_ASSEMBLY_MEMBERS
100
AcDbCircle
 62
7
  6
CONTINUOUS
 10
3.789369572
 20
2.8386050344
 40
0.0375
100
AcDbArc
 50
180.0
 51
258.4630409672
  0
ARC
  5
2EA
100
AcDbEntity
  8
ALL_ASSEMBLY_MEMBERS
100
AcDbCircle
 62
7
  6
CONTINUOUS
 10
3.884994572
 20
2.4434998638
 40
0.015
100
AcDbArc
 50
207.3388390133
 51
229.7673869948
  0
ARC
  5
2EB
100
AcDbEntity
  8
ALL_ASSEMBLY_MEMBERS
100
AcDbCircle
 62
7
  6
CONTINUOUS
 10
3.884994572
 20
2.7187498638
 40
0.015
100
AcDbArc
 50
207.3388390133
 51
229.7673869948
  0
ARC
  5
2EC
100
AcDbEntity
  8
ALL_ASSEMBLY_MEMBERS
100
AcDbCircle
 62
7
  6
CONTINUOUS
 10
3.763119572
 20
2.6278626883
 40
0.01125
100
AcDbArc
 50
89.9999995184
 51
180.0
  0
ARC
  5
2ED
100
AcDbEntity
  8
ALL_ASSEMBLY_MEMBERS
100
AcDbCircle
 62
7
  6
CONTINUOUS
 10
3.763119572
 20
2.9031126883
 40
0.01125
100
AcDbArc
 50
89.9999995184
 51
180.0
  0
ARC
  5
2EE
100
AcDbEntity
  8
ALL_ASSEMBLY_MEMBERS
100
AcDbCircle
 62
7
  6
CONTINUOUS
 10
3.764994572
 20
2.6466126883
 40
0.0075
100
AcDbArc
 50
180.0
 51
270.0000059772
  0
ARC
  5
2EF
100
AcDbEntity
  8
ALL_ASSEMBLY_MEMBERS
100
AcDbCircle
 62
7
  6
CONTINUOUS
 10
3.764994572
 20
2.9218626883
 40
0.0075
100
AcDbArc
 50
180.0
 51
270.0000059772
  0
ARC
  5
2F0
100
AcDbEntity
  8
0
100
AcDbCircle
 62
7
  6
CONTINUOUS
 10
3.759369572
 20
3.9492063034
 40
0.075
100
AcDbArc
 50
180.0
 51
233.8077823306
  0
ARC
  5
2F1
100
AcDbEntity
  8
ALL_FEATURES
100
AcDbCircle
 62
7
  6
CONTINUOUS
 10
3.907494572
 20
3.4190997114
 40
0.0562370231
100
AcDbArc
 50
236.128659452
 51
270.0
  0
ARC
  5
2F2
100
AcDbEntity
  8
ALL_ASSEMBLY_MEMBERS
100
AcDbCircle
 62
7
  6
CONTINUOUS
 10
3.898869572
 20
3.3831126883
 40
0.045
100
AcDbArc
 50
270.0000029726
 51
360.0
  0
ARC
  5
2F3
100
AcDbEntity
  8
0
100
AcDbCircle
 62
7
  6
CONTINUOUS
 10
3.8970518694
 20
3.4035425266
 40
0.0375
100
AcDbArc
 50
204.1181733656
 51
236.1286594521
  0
ARC
  5
2F4
100
AcDbEntity
  8
0
100
AcDbCircle
 62
7
  6
CONTINUOUS
 10
3.9276364188
 20
3.6681126883
 40
0.03
100
AcDbArc
 50
203.2308920706
 51
270.0
  0
ARC
  5
2F5
100
AcDbEntity
  8
ALL_ASSEMBLY_MEMBERS
100
AcDbCircle
 62
7
  6
CONTINUOUS
 10
4.169994572
 20
2.7803626883
 40
0.45625
100
AcDbArc
 50
229.7673861138
 51
310.2326138862
  0
ARC
  5
2F6
100
AcDbEntity
  8
ALL_ASSEMBLY_MEMBERS
100
AcDbCircle
 62
7
  6
CONTINUOUS
 10
4.169994572
 20
3.0556126883
 40
0.45625
100
AcDbArc
 50
229.7673861138
 51
310.2326138862
  0
ARC
  5
2F7
100
AcDbEntity
  8
ALL_ASSEMBLY_MEMBERS
100
AcDbCircle
 62
7
  6
CONTINUOUS
 10
4.169994572
 20
2.9931126883
 40
0.075
100
AcDbArc
 50
180.0000241635
 51
359.9999758361
  0
ARC
  5
2F8
100
AcDbEntity
  8
ALL_ASSEMBLY_MEMBERS
100
AcDbCircle
 62
7
  6
CONTINUOUS
 10
4.0398019034
 20
3.4339859611
 40
0.1398240059
100
AcDbArc
 50
304.1653019903
 51
306.255469201
  0
ARC
  5
2F9
100
AcDbEntity
  8
ALL_ASSEMBLY_MEMBERS
100
AcDbCircle
 62
7
  6
CONTINUOUS
 10
4.0497069413
 20
3.4204395785
 40
0.1230426587
100
AcDbArc
 50
306.2665724299
 51
307.2069163301
  0
ARC
  5
2FA
100
AcDbEntity
  8
ALL_ASSEMBLY_MEMBERS
100
AcDbCircle
 62
7
  6
CONTINUOUS
 10
4.0532803272
 20
3.4157116661
 40
0.1171162713
100
AcDbArc
 50
307.2132264527
 51
307.4101874446
  0
ARC
  5
2FB
100
AcDbEntity
  8
ALL_ASSEMBLY_MEMBERS
100
AcDbCircle
 62
7
  6
CONTINUOUS
 10
4.169994572
 20
3.2631126883
 40
0.075
100
AcDbArc
 50
0.0
 51
180.0
  0
ARC
  5
2FC
100
AcDbEntity
  8
0
100
AcDbCircle
 62
7
  6
CONTINUOUS
 10
3.3157792209
 20
9.0094501457
 40
4.0029769181
100
AcDbArc
 50
270.3132041652
 51
270.5724981095
  0
ARC
  5
2FD
100
AcDbEntity
  8
0
100
AcDbCircle
 62
7
  6
CONTINUOUS
 10
3.5123763606
 20
8.5265075529
 40
3.5237015339
100
AcDbArc
 50
268.7036636598
 51
268.8451901511
  0
ARC
  5
2FE
100
AcDbEntity
  8
0
100
AcDbCircle
 62
7
  6
CONTINUOUS
 10
3.4498577256
 20
4.3294060202
 40
0.6748484294
100
AcDbArc
 50
87.7232976723
 51
87.8830364258
  0
ARC
  5
2FF
100
AcDbEntity
  8
0
100
AcDbCircle
 62
7
  6
CONTINUOUS
 10
3.4524550198
 20
4.4895145091
 40
0.5145726374
100
AcDbArc
 50
87.8966493562
 51
88.049808719
  0
ARC
  5
300
100
AcDbEntity
  8
0
100
AcDbCircle
 62
7
  6
CONTINUOUS
 10
3.453827207
 20
5.4960116219
 40
0.4926395561
100
AcDbArc
 50
269.0520255252
 51
269.7963779377
  0
ARC
  5
301
100
AcDbEntity
  8
ALL_ASSEMBLY_MEMBERS
100
AcDbCircle
 62
7
  6
CONTINUOUS
 10
4.4466553932
 20
3.4691239317
 40
0.5018928718
100
AcDbArc
 50
185.241168236
 51
185.8996571367
  0
ARC
  5
302
100
AcDbEntity
  8
ALL_ASSEMBLY_MEMBERS
100
AcDbCircle
 62
7
  6
CONTINUOUS
 10
4.4075567335
 20
3.4391854489
 40
0.463582616
100
AcDbArc
 50
183.802336708
 51
183.9236092173
  0
ARC
  5
303
100
AcDbEntity
  8
ALL_ASSEMBLY_MEMBERS
100
AcDbCircle
 62
7
  6
CONTINUOUS
 10
4.3235530372
 20
3.4334062038
 40
0.3793803578
100
AcDbArc
 50
183.9209466641
 51
184.2695447583
  0
ARC
  5
304
100
AcDbEntity
  8
ALL_ASSEMBLY_MEMBERS
100
AcDbCircle
 62
7
  6
CONTINUOUS
 10
4.2499784094
 20
3.44882792
 40
0.3041714445
100
AcDbArc
 50
185.9047887993
 51
186.6388904385
  0
ARC
  5
305
100
AcDbEntity
  8
ALL_ASSEMBLY_MEMBERS
100
AcDbCircle
 62
9
  6
CONTINUOUS
 10
4.5137106271
 20
3.1270199054
 40
0.2065801786
100
AcDbArc
 50
70.8729506842
 51
71.2919567896
  0
ARC
  5
306
100
AcDbEntity
  8
ALL_ASSEMBLY_MEMBERS
100
AcDbCircle
 62
7
  6
CONTINUOUS
 10
4.4630681318
 20
3.3396633879
 40
0.1181286845
100
AcDbArc
 50
351.024331122
 51
351.7365925594
  0
ARC
  5
307
100
AcDbEntity
  8
ALL_ASSEMBLY_MEMBERS
100
AcDbCircle
 62
7
  6
CONTINUOUS
 10
4.4644578014
 20
2.5306790428
 40
0.09375
100
AcDbArc
 50
285.0
 51
357.5140472802
  0
ARC
  5
308
100
AcDbEntity
  8
ALL_ASSEMBLY_MEMBERS
100
AcDbCircle
 62
7
  6
CONTINUOUS
 10
4.4644578014
 20
2.8059290428
 40
0.09375
100
AcDbArc
 50
285.0
 51
357.5140472802
  0
ARC
  5
309
100
AcDbEntity
  8
0
100
AcDbCircle
 62
7
  6
CONTINUOUS
 10
4.580619572
 20
3.9492063034
 40
0.075
100
AcDbArc
 50
306.1922176694
 51
360.0
  0
ARC
  5
30A
100
AcDbEntity
  8
ALL_FEATURES
100
AcDbCircle
 62
7
  6
CONTINUOUS
 10
4.432494572
 20
3.4190997114
 40
0.0562370231
100
AcDbArc
 50
270.0
 51
303.871340548
  0
ARC
  5
30B
100
AcDbEntity
  8
ALL_ASSEMBLY_MEMBERS
100
AcDbCircle
 62
7
  6
CONTINUOUS
 10
4.441119572
 20
3.3831126883
 40
0.045
100
AcDbArc
 50
180.0
 51
269.9999970274
  0
ARC
  5
30C
100
AcDbEntity
  8
ALL_ASSEMBLY_MEMBERS
100
AcDbCircle
 62
7
  6
CONTINUOUS
 10
4.550619572
 20
2.5633550344
 40
0.0375
100
AcDbArc
 50
281.5369590328
 51
360.0
  0
ARC
  5
30D
100
AcDbEntity
  8
ALL_ASSEMBLY_MEMBERS
100
AcDbCircle
 62
7
  6
CONTINUOUS
 10
4.550619572
 20
2.8386050344
 40
0.0375
100
AcDbArc
 50
281.5369590328
 51
360.0
  0
ARC
  5
30E
100
AcDbEntity
  8
0
100
AcDbCircle
 62
7
  6
CONTINUOUS
 10
4.4429372745
 20
3.4035425266
 40
0.0375
100
AcDbArc
 50
303.871340548
 51
335.8818266344
  0
ARC
  5
30F
100
AcDbEntity
  8
0
100
AcDbCircle
 62
7
  6
CONTINUOUS
 10
4.4123527252
 20
3.6681126883
 40
0.03
100
AcDbArc
 50
270.0
 51
336.7691079294
  0
ARC
  5
310
100
AcDbEntity
  8
ALL_ASSEMBLY_MEMBERS
100
AcDbCircle
 62
7
  6
CONTINUOUS
 10
4.454994572
 20
2.4434998638
 40
0.015
100
AcDbArc
 50
310.2326130052
 51
332.6611609867
  0
ARC
  5
311
100
AcDbEntity
  8
ALL_ASSEMBLY_MEMBERS
100
AcDbCircle
 62
7
  6
CONTINUOUS
 10
4.454994572
 20
2.7187498638
 40
0.015
100
AcDbArc
 50
310.2326130052
 51
332.6611609867
  0
ARC
  5
312
100
AcDbEntity
  8
ALL_ASSEMBLY_MEMBERS
100
AcDbCircle
 62
7
  6
CONTINUOUS
 10
4.576869572
 20
2.6278626883
 40
0.01125
100
AcDbArc
 50
0.0
 51
90.0000004816
  0
ARC
  5
313
100
AcDbEntity
  8
ALL_ASSEMBLY_MEMBERS
100
AcDbCircle
 62
7
  6
CONTINUOUS
 10
4.576869572
 20
2.9031126883
 40
0.01125
100
AcDbArc
 50
0.0
 51
90.0000004816
  0
ARC
  5
314
100
AcDbEntity
  8
ALL_ASSEMBLY_MEMBERS
100
AcDbCircle
 62
7
  6
CONTINUOUS
 10
4.574994572
 20
2.6466126883
 40
0.0075
100
AcDbArc
 50
269.9999940228
 51
360.0
  0
ARC
  5
315
100
AcDbEntity
  8
ALL_ASSEMBLY_MEMBERS
100
AcDbCircle
 62
7
  6
CONTINUOUS
 10
4.574994572
 20
2.9218626883
 40
0.0075
100
AcDbArc
 50
269.9999940228
 51
360.0
  0
ARC
  5
316
100
AcDbEntity
  8
0
100
AcDbCircle
 62
7
  6
CONTINUOUS
 10
5.0103830604
 20
-0.5878256685
 40
5.5931966113
100
AcDbArc
 50
90.7207102464
 51
90.8884286319
  0
ARC
  5
317
100
AcDbEntity
  8
0
100
AcDbCircle
 62
7
  6
CONTINUOUS
 10
5.071692453
 20
0.6834288432
 40
4.3235556932
100
AcDbArc
 50
91.119733813
 51
91.2846436402
  0
ARC
  5
318
100
AcDbEntity
  8
0
100
AcDbCircle
 62
7
  6
CONTINUOUS
 10
4.9936255315
 20
0.701013083
 40
4.3042596149
100
AcDbArc
 50
91.1294499749
 51
91.2816820616
  0
ARC
  5
319
100
AcDbEntity
  8
0
100
AcDbCircle
 62
7
  6
CONTINUOUS
 10
4.9949319023
 20
0.8641472377
 40
4.141043297
100
AcDbArc
 50
90.9455660063
 51
91.1219513709
  0
ARC
  5
31A
100
AcDbEntity
  8
0
100
AcDbCircle
 62
7
  6
CONTINUOUS
 10
4.9879634554
 20
1.2268253302
 40
3.7782982926
100
AcDbArc
 50
91.1239880368
 51
91.2438977598
  0
ARC
  5
31B
100
AcDbEntity
  8
0
100
AcDbCircle
 62
7
  6
CONTINUOUS
 10
4.9827840693
 20
1.2375806693
 40
3.7675825864
100
AcDbArc
 50
91.0100768817
 51
91.1254520951
  0
ARC
  5
31C
100
AcDbEntity
  8
0
100
AcDbCircle
 62
7
  6
CONTINUOUS
 10
4.9597080899
 20
2.4670829841
 40
2.537718933
100
AcDbArc
 50
91.2731025471
 51
91.5780278888
  0
ARC
  5
31D
100
AcDbEntity
  8
0
100
AcDbCircle
 62
7
  6
CONTINUOUS
 10
5.0252116897
 20
2.6521693624
 40
2.3542669502
100
AcDbArc
 50
91.2995696911
 51
91.6087728001
  0
ARC
  5
31E
100
AcDbEntity
  8
0
100
AcDbCircle
 62
7
  6
CONTINUOUS
 10
5.0377017219
 20
2.7435335062
 40
2.2631677566
100
AcDbArc
 50
90.7219976219
 51
90.8975565724
  0
ARC
  5
31F
100
AcDbEntity
  8
0
100
AcDbCircle
 62
7
  6
CONTINUOUS
 10
5.0371510868
 20
2.7676645446
 40
2.2389218383
100
AcDbArc
 50
90.8873210506
 51
91.3013202554
  0
ARC
  5
320
100
AcDbEntity
  8
0
100
AcDbCircle
 62
7
  6
CONTINUOUS
 10
5.0273673714
 20
3.1743427839
 40
1.8321263762
100
AcDbArc
 50
91.2842647229
 51
91.615313649
  0
ARC
  5
321
100
AcDbEntity
  8
0
100
AcDbCircle
 62
7
  6
CONTINUOUS
 10
4.9984370464
 20
3.6628002689
 40
1.3432836798
100
AcDbArc
 50
91.6774050154
 51
92.1459877138
  0
ARC
  5
322
100
AcDbEntity
  8
0
100
AcDbCircle
 62
7
  6
CONTINUOUS
 10
5.0254993991
 20
3.6953406662
 40
1.3112824211
100
AcDbArc
 50
90.514302948
 51
90.7129211843
  0
ARC
  5
323
100
AcDbEntity
  8
0
100
AcDbCircle
 62
7
  6
CONTINUOUS
 10
5.0097471937
 20
3.8046301261
 40
1.2015925843
100
AcDbArc
 50
91.7317314345
 51
92.0163923708
  0
ARC
  5
324
100
AcDbEntity
  8
0
100
AcDbCircle
 62
7
  6
CONTINUOUS
 10
4.9210271621
 20
3.9082277212
 40
1.0960560193
100
AcDbArc
 50
91.6313697766
 51
91.7685612841
  0
ARC
  5
325
100
AcDbEntity
  8
0
100
AcDbCircle
 62
7
  6
CONTINUOUS
 10
4.9996691234
 20
4.0949250937
 40
0.9111227768
100
AcDbArc
 50
92.0253421939
 51
92.3266155735
  0
ARC
  5
326
100
AcDbEntity
  8
0
100
AcDbCircle
 62
7
  6
CONTINUOUS
 10
4.957503679
 20
3.4341126883
 40
0.56325
100
AcDbArc
 50
126.1922176694
 51
156.7691079294
  0
ARC
  5
327
100
AcDbEntity
  8
0
100
AcDbCircle
 62
7
  6
CONTINUOUS
 10
4.991244572
 20
3.1580640753
 40
0.56325
100
AcDbArc
 50
120.2628930981
 51
155.8818266345
  0
ARC
  5
328
100
AcDbEntity
  8
ALL_ASSEMBLY_MEMBERS
100
AcDbCircle
 62
7
  6
CONTINUOUS
 10
4.672494572
 20
2.8528626883
 40
0.4725
100
AcDbArc
 50
344.9274288995
 51
15.0725710959
  0
ARC
  5
329
100
AcDbEntity
  8
ALL_ASSEMBLY_MEMBERS
100
AcDbCircle
 62
7
  6
CONTINUOUS
 10
4.672494572
 20
3.1281126883
 40
0.4725
100
AcDbArc
 50
344.9274288995
 51
15.0725710959
  0
ARC
  5
32A
100
AcDbEntity
  8
ALL_ASSEMBLY_MEMBERS
100
AcDbCircle
 62
7
  6
CONTINUOUS
 10
5.0107222564
 20
3.2600875215
 40
0.4352765547
100
AcDbArc
 50
170.6756149128
 51
171.7315144361
  0
ARC
  5
32B
100
AcDbEntity
  8
ALL_ASSEMBLY_MEMBERS
100
AcDbCircle
 62
9
  6
CONTINUOUS
 10
4.672494572
 20
2.8528626883
 40
0.3975000161
100
AcDbArc
 50
344.9274288999
 51
10.9335920979
  0
ARC
  5
32C
100
AcDbEntity
  8
ALL_ASSEMBLY_MEMBERS
100
AcDbCircle
 62
9
  6
CONTINUOUS
 10
4.672494572
 20
3.1281126883
 40
0.3975000161
100
AcDbArc
 50
344.9274288999
 51
15.0725711001
  0
ARC
  5
32D
100
AcDbEntity
  8
ALL_ASSEMBLY_MEMBERS
100
AcDbCircle
 62
7
  6
CONTINUOUS
 10
5.0150401894
 20
2.9451126883
 40
0.11775
100
AcDbArc
 50
15.0725710859
 51
22.6725193511
  0
ARC
  5
32E
100
AcDbEntity
  8
ALL_ASSEMBLY_MEMBERS
100
AcDbCircle
 62
7
  6
CONTINUOUS
 10
5.0150401894
 20
2.7606126883
 40
0.11775
100
AcDbArc
 50
259.9999999866
 51
344.9274289007
  0
ARC
  5
32F
100
AcDbEntity
  8
ALL_ASSEMBLY_MEMBERS
100
AcDbCircle
 62
7
  6
CONTINUOUS
 10
5.0150401894
 20
3.2203626883
 40
0.11775
100
AcDbArc
 50
15.0725710859
 51
90.000000007
  0
ARC
  5
330
100
AcDbEntity
  8
ALL_ASSEMBLY_MEMBERS
100
AcDbCircle
 62
7
  6
CONTINUOUS
 10
5.0150401894
 20
3.0358626883
 40
0.11775
100
AcDbArc
 50
259.9999999866
 51
344.9274289007
  0
ARC
  5
331
100
AcDbEntity
  8
0
100
AcDbCircle
 62
7
  6
CONTINUOUS
 10
4.715244572
 20
3.7850333441
 40
0.075
100
AcDbArc
 50
308.5742429229
 51
360.0
  0
ARC
  5
332
100
AcDbEntity
  8
0
100
AcDbCircle
 62
7
  6
CONTINUOUS
 10
4.6775764329
 20
4.1815451274
 40
0.0693674786
100
AcDbArc
 50
269.9963980156
 51
274.1689072229
  0
ARC
  5
333
100
AcDbEntity
  8
0
100
AcDbCircle
 62
7
  6
CONTINUOUS
 10
4.6775787731
 20
4.1814807746
 40
0.069303126
100
AcDbArc
 50
269.9944599293
 51
274.1708453092
  0
ARC
  5
334
100
AcDbEntity
  8
0
100
AcDbCircle
 62
7
  6
CONTINUOUS
 10
4.6771462974
 20
3.696378887
 40
0.06
100
AcDbArc
 50
300.2628930981
 51
347.905242923
  0
ARC
  5
335
100
AcDbEntity
  8
0
100
AcDbCircle
 62
7
  6
CONTINUOUS
 10
4.7820543236
 20
3.6848259384
 40
0.045
100
AcDbArc
 50
128.574242923
 51
167.905242923
  0
ARC
  5
336
100
AcDbEntity
  8
ALL_ASSEMBLY_MEMBERS
100
AcDbCircle
 62
9
  6
CONTINUOUS
 10
5.0150401894
 20
3.2203626883
 40
0.0427500022
100
AcDbArc
 50
15.0725711001
 51
90.0
  0
ARC
  5
337
100
AcDbEntity
  8
ALL_ASSEMBLY_MEMBERS
100
AcDbCircle
 62
9
  6
CONTINUOUS
 10
5.0150401894
 20
2.7606126883
 40
0.0427499999
100
AcDbArc
 50
260.0
 51
344.9274288999
  0
ARC
  5
338
100
AcDbEntity
  8
ALL_ASSEMBLY_MEMBERS
100
AcDbCircle
 62
9
  6
CONTINUOUS
 10
5.0150401894
 20
3.0358626883
 40
0.0427499999
100
AcDbArc
 50
260.0
 51
344.9274288999
  0
ARC
  5
339
100
AcDbEntity
  8
0
100
AcDbCircle
 62
7
  6
CONTINUOUS
 10
5.0371626158
 20
7.7691242484
 40
2.7626500093
100
AcDbArc
 50
270.104477605
 51
270.3142560795
  0
ARC
  5
33A
100
AcDbEntity
  8
0
100
AcDbCircle
 62
7
  6
CONTINUOUS
 10
4.9100854744
 20
6.1753260495
 40
1.1712097921
100
AcDbArc
 50
271.6201778201
 51
272.0543221143
  0
ARC
  5
33B
100
AcDbEntity
  8
0
100
AcDbCircle
 62
7
  6
CONTINUOUS
 10
4.9230799546
 20
5.8196369614
 40
0.8152831861
100
AcDbArc
 50
272.1264979583
 51
272.4450590245
  0
ARC
  5
33C
100
AcDbEntity
  8
0
100
AcDbCircle
 62
7
  6
CONTINUOUS
 10
4.9095263608
 20
4.2818802055
 40
0.7222265858
100
AcDbArc
 50
91.771453596
 51
91.9543800605
  0
ARC
  5
33D
100
AcDbEntity
  8
0
100
AcDbCircle
 62
7
  6
CONTINUOUS
 10
4.9966518753
 20
5.6574590787
 40
0.6515073441
100
AcDbArc
 50
271.4980655407
 51
272.0198471724
  0
ARC
  5
33E
100
AcDbEntity
  8
0
100
AcDbCircle
 62
7
  6
CONTINUOUS
 10
4.8855204681
 20
4.7360768851
 40
0.2677081717
100
AcDbArc
 50
92.2181604396
 51
92.5138529004
  0
ARC
  5
33F
100
AcDbEntity
  8
0
100
AcDbCircle
 62
7
  6
CONTINUOUS
 10
5.011154711
 20
5.2437111061
 40
0.2375052965
100
AcDbArc
 50
272.0413186864
 51
272.2579083559
  0
ARC
  5
340
100
AcDbEntity
  8
0
100
AcDbCircle
 62
7
  6
CONTINUOUS
 10
5.0190366796
 20
4.7964503502
 40
0.2101451708
100
AcDbArc
 50
89.6132850332
 51
89.785569881
  0
ARC
  5
341
100
AcDbEntity
  8
0
100
AcDbCircle
 62
7
  6
CONTINUOUS
 10
5.0194570582
 20
4.8570373681
 40
0.1495566961
100
AcDbArc
 50
89.2753084993
 51
89.6176689345
  0
ARC
  5
342
100
AcDbEntity
  8
0
100
AcDbCircle
 62
7
  6
CONTINUOUS
 10
4.8826919675
 20
5.1199914798
 40
0.11655258
100
AcDbArc
 50
269.5841571946
 51
270.22948103
  0
ARC
  5
343
100
AcDbEntity
  8
0
100
AcDbCircle
 62
7
  6
CONTINUOUS
 10
4.7207045935
 20
4.224673288
 40
0.0693674786
100
AcDbArc
 50
355.8310920191
 51
0.003601985
  0
ARC
  5
344
100
AcDbEntity
  8
0
100
AcDbCircle
 62
7
  6
CONTINUOUS
 10
4.7207689462
 20
4.2246709478
 40
0.069303126
100
AcDbArc
 50
355.8291539348
 51
0.0055400693
  0
ARC
  5
345
100
AcDbEntity
  8
0
100
AcDbCircle
 62
7
  6
CONTINUOUS
 10
5.0123915239
 20
4.9565465887
 40
0.0498740476
100
AcDbArc
 50
89.0968792828
 51
89.65995208
  0
LINE
  5
346
100
AcDbEntity
  8
ALL_ASSEMBLY_MEMBERS
100
AcDbLine
 62
7
  6
CONTINUOUS
 10
3.944994572
 20
3.4460306711
 11
3.9468609254
 21
3.4232769609
  0
SPLINE
  5
347
100
AcDbEntity
  8
ALL_ASSEMBLY_MEMBERS
100
AcDbSpline
 62
7
  6
CONTINUOUS
 70
0
 71
3
 72
35
 73
31
 74
0
 42
0.0000001
 43
0.0000001
 44
0.0000000001
 40
0.0
 40
0.0
 40
0.0
 40
0.0
 40
0.0028111396
 40
0.0061297634
 40
0.0099790552
 40
0.0143725193
 40
0.0193180664
 40
0.0248200781
 40
0.0308795837
 40
0.0374955102
 40
0.0446657594
 40
0.0523875154
 40
0.0694701872
 40
0.0887000378
 40
0.1100230508
 40
0.1333789449
 40
0.1586947334
 40
0.1858940909
 40
0.2148926274
 40
0.2455977286
 40
0.2779146227
 40
0.3469647724
 40
0.4211662096
 40
0.4995719303
 40
0.5811793736
 40
0.6649444985
 40
0.7497947992
 40
0.8346429759
 40
0.9184021445
 40
1.0
 40
1.0
 40
1.0
 40
1.0
 10
3.944994572
 20
3.4992123688
 30
0.0
 10
3.9450331362
 20
3.4991647455
 30
0.0
 10
3.945109138
 20
3.4990543476
 30
0.0
 10
3.9452140893
 20
3.498863573
 30
0.0
 10
3.9453191933
 20
3.4986343115
 30
0.0
 10
3.9454244206
 20
3.4983666584
 30
0.0
 10
3.9455297632
 20
3.4980606885
 30
0.0
 10
3.9456351716
 20
3.4977165809
 30
0.0
 10
3.9457406417
 20
3.4973345853
 30
0.0
 10
3.9458461673
 20
3.4969150084
 30
0.0
 10
3.9459517451
 20
3.4964581778
 30
0.0
 10
3.9460975264
 20
3.4957765578
 30
0.0
 10
3.9462779683
 20
3.4948336635
 30
0.0
 10
3.9464882589
 20
3.493594938
 30
0.0
 10
3.9466988192
 20
3.4922177551
 30
0.0
 10
3.946909553
 20
3.4907065423
 30
0.0
 10
3.9471204645
 20
3.4890661215
 30
0.0
 10
3.947331486
 20
3.4873017763
 30
0.0
 10
3.9475425936
 20
3.4854191802
 30
0.0
 10
3.9477538002
 20
3.4834243817
 30
0.0
 10
3.948041857
 20
3.480559803
 30
0.0
 10
3.9483989805
 20
3.4767492757
 30
0.0
 10
3.948819139
 20
3.4719356931
 30
0.0
 10
3.9492396358
 20
3.4668474272
 30
0.0
 10
3.949660376
 20
3.4615500288
 30
0.0
 10
3.9500812589
 20
3.4561117298
 30
0.0
 10
3.9505022094
 20
3.4506025853
 30
0.0
 10
3.9509231601
 20
3.4450935708
 30
0.0
 10
3.9513440459
 20
3.439655659
 30
0.0
 10
3.9516294635
 20
3.4360623862
 30
0.0
 10
3.9517732093
 20
3.4342894683
 30
0.0
  0
LINE
  5
348
100
AcDbEntity
  8
ALL_ASSEMBLY_MEMBERS
100
AcDbLine
 62
9
  6
CONTINUOUS
 10
3.7803506291
 20
2.8022395316
 11
3.7799688739
 21
2.7827766315
  0
SPLINE
  5
349
100
AcDbEntity
  8
ALL_ASSEMBLY_MEMBERS
100
AcDbSpline
 62
9
  6
CONTINUOUS
 70
0
 71
3
 72
30
 73
26
 74
0
 42
0.0000001
 43
0.0000001
 44
0.0000000001
 40
0.0
 40
0.0
 40
0.0
 40
0.0
 40
0.1112886581
 40
0.2205845549
 40
0.3267388469
 40
0.428613956
 40
0.5250708747
 40
0.6148933132
 40
0.6967689629
 40
0.7694732592
 40
0.8319397499
 40
0.8834951424
 40
0.9051831771
 40
0.9241564274
 40
0.9404893506
 40
0.9543596567
 40
0.9659503912
 40
0.9754394038
 40
0.9830000675
 40
0.9888438025
 40
0.9932166975
 40
0.9963542216
 40
0.9975343713
 40
0.9985018285
 40
1.0
 40
1.0
 40
1.0
 40
1.0
 10
3.7799688739
 20
2.7827766315
 30
0.0
 10
3.7798067473
 20
2.7788959853
 30
0.0
 10
3.7793666152
 20
2.7712086397
 30
0.0
 10
3.7783702294
 20
2.7598472086
 30
0.0
 10
3.7770626844
 20
2.7488480481
 30
0.0
 10
3.7754828954
 20
2.7383376778
 30
0.0
 10
3.7736758766
 20
2.7284428739
 30
0.0
 10
3.7716980641
 20
2.7192938079
 30
0.0
 10
3.7696207029
 20
2.7110191617
 30
0.0
 10
3.7675167194
 20
2.7037403958
 30
0.0
 10
3.7654688748
 20
2.6975518744
 30
0.0
 10
3.7637833202
 20
2.6931234149
 30
0.0
 10
3.7625189112
 20
2.6901633954
 30
0.0
 10
3.7616859559
 20
2.6883567347
 30
0.0
 10
3.7609181305
 20
2.6868214325
 30
0.0
 10
3.7602209016
 20
2.6855398722
 30
0.0
 10
3.759597907
 20
2.6844908281
 30
0.0
 10
3.7590527382
 20
2.6836526657
 30
0.0
 10
3.7585877063
 20
2.6830025873
 30
0.0
 10
3.7582038614
 20
2.6825149182
 30
0.0
 10
3.7579028149
 20
2.6821590229
 30
0.0
 10
3.7577043111
 20
2.6819298052
 30
0.0
 10
3.757592481
 20
2.6817826373
 30
0.0
 10
3.7575244255
 20
2.6816757105
 30
0.0
 10
3.7574945713
 20
2.6815905159
 30
0.0
 10
3.757494572
 20
2.681538229
 30
0.0
  0
SPLINE
  5
34A
100
AcDbEntity
  8
ALL_ASSEMBLY_MEMBERS
100
AcDbSpline
 62
9
  6
CONTINUOUS
 70
0
 71
3
 72
25
 73
21
 74
0
 42
0.0000001
 43
0.0000001
 44
0.0000000001
 40
0.0
 40
0.0
 40
0.0
 40
0.0
 40
0.1249997743
 40
0.2499995487
 40
0.374999323
 40
0.4374992102
 40
0.4999990974
 40
0.5624989846
 40
0.6249988717
 40
0.6874987589
 40
0.7187487027
 40
0.749998646
 40
0.7812485889
 40
0.8124985349
 40
0.8437484782
 40
0.874998377
 40
0.9062490547
 40
0.9374992728
 40
0.9687500381
 40
1.0
 40
1.0
 40
1.0
 40
1.0
 10
3.695356552
 20
2.9816090581
 30
0.0
 10
3.695356552
 20
2.9733215998
 30
0.0
 10
3.695356552
 20
2.9567466832
 30
0.0
 10
3.695356552
 20
2.9318843083
 30
0.0
 10
3.695356552
 20
2.9111656626
 30
0.0
 10
3.6953565516
 20
2.894590746
 30
0.0
 10
3.6953565548
 20
2.8821595585
 30
0.0
 10
3.6953565412
 20
2.8697283711
 30
0.0
 10
3.6953565864
 20
2.8572971837
 30
0.0
 10
3.6953564731
 20
2.8469378608
 30
0.0
 10
3.6953566564
 20
2.8386504025
 30
0.0
 10
3.6953566271
 20
2.8324348088
 30
0.0
 10
3.6953560298
 20
2.8262192149
 30
0.0
 10
3.6953568678
 20
2.8200036216
 30
0.0
 10
3.6953588581
 20
2.813788029
 30
0.0
 10
3.6953494907
 20
2.807572396
 30
0.0
 10
3.6953957254
 20
2.801356716
 30
0.0
 10
3.6955852282
 20
2.7951428708
 30
0.0
 10
3.6960139443
 20
2.7889401331
 30
0.0
 10
3.6965151798
 20
2.784823764
 30
0.0
 10
3.6968343606
 20
2.7827766315
 30
0.0
  0
SPLINE
  5
34B
100
AcDbEntity
  8
ALL_ASSEMBLY_MEMBERS
100
AcDbSpline
 62
9
  6
CONTINUOUS
 70
0
 71
3
 72
38
 73
34
 74
0
 42
0.0000001
 43
0.0000001
 44
0.0000000001
 40
0.0
 40
0.0
 40
0.0
 40
0.0
 40
0.0962369449
 40
0.1915335591
 40
0.2849595854
 40
0.3756170695
 40
0.4626607841
 40
0.5453190809
 40
0.6229100951
 40
0.6948516144
 40
0.7606523705
 40
0.8198425891
 40
0.8467997645
 40
0.8719024342
 40
0.8950723052
 40
0.916223384
 40
0.9352600164
 40
0.9520758901
 40
0.9596148424
 40
0.9665535008
 40
0.9728755552
 40
0.9785640838
 40
0.9836017394
 40
0.9879712162
 40
0.9916557031
 40
0.9946396359
 40
0.996911548
 40
0.9977799369
 40
0.998472547
 40
0.9989973136
 40
0.9993764109
 40
0.9996715091
 40
1.0
 40
1.0
 40
1.0
 40
1.0
 10
3.6968343606
 20
2.7827766315
 30
0.0
 10
3.6971563148
 20
2.7803271346
 30
0.0
 10
3.6978885551
 20
2.7754638446
 30
0.0
 10
3.6991940026
 20
2.7682650033
 30
0.0
 10
3.7006666035
 20
2.7612447044
 30
0.0
 10
3.7022891557
 20
2.7544751138
 30
0.0
 10
3.7040532695
 20
2.748026932
 30
0.0
 10
3.7059484464
 20
2.7419663607
 30
0.0
 10
3.7079569016
 20
2.7363522703
 30
0.0
 10
3.7100551081
 20
2.7312355783
 30
0.0
 10
3.7122124415
 20
2.7266608252
 30
0.0
 10
3.7140611504
 20
2.7232237927
 30
0.0
 10
3.7155109024
 20
2.7207628515
 30
0.0
 10
3.7165321553
 20
2.7191234498
 30
0.0
 10
3.7175106388
 20
2.7176336624
 30
0.0
 10
3.7184348419
 20
2.7162950844
 30
0.0
 10
3.7192924313
 20
2.7151091979
 30
0.0
 10
3.7199630445
 20
2.7142196624
 30
0.0
 10
3.7204549944
 20
2.7135845427
 30
0.0
 10
3.7207849705
 20
2.7131647381
 30
0.0
 10
3.721087749
 20
2.7127839897
 30
0.0
 10
3.7213613561
 20
2.7124424017
 30
0.0
 10
3.7216037813
 20
2.7121400574
 30
0.0
 10
3.7218130101
 20
2.7118770507
 30
0.0
 10
3.721987088
 20
2.7116534277
 30
0.0
 10
3.7221239102
 20
2.7114691778
 30
0.0
 10
3.7222124307
 20
2.711339019
 30
0.0
 10
3.722261228
 20
2.711253547
 30
0.0
 10
3.7222840862
 20
2.7112049487
 30
0.0
 10
3.7222963173
 20
2.7111658062
 30
0.0
 10
3.7222986148
 20
2.7111342465
 30
0.0
 10
3.7222853176
 20
2.7111099871
 30
0.0
 10
3.7222690028
 20
2.7111044532
 30
0.0
 10
3.7222606986
 20
2.711102985
 30
0.0
  0
SPLINE
  5
34C
100
AcDbEntity
  8
ALL_ASSEMBLY_MEMBERS
100
AcDbSpline
 62
9
  6
CONTINUOUS
 70
0
 71
3
 72
20
 73
16
 74
0
 42
0.0000001
 43
0.0000001
 44
0.0000000001
 40
0.0
 40
0.0
 40
0.0
 40
0.0
 40
0.1622817559
 40
0.3207371549
 40
0.4714126567
 40
0.5427472521
 40
0.6108470201
 40
0.6753078398
 40
0.7357772779
 40
0.7919241171
 40
0.8434629277
 40
0.8901773424
 40
0.9318894946
 40
0.9684981476
 40
1.0
 40
1.0
 40
1.0
 40
1.0
 10
3.6968343606
 20
2.7827766315
 30
0.0
 10
3.7013168271
 20
2.7834740147
 30
0.0
 10
3.7101997359
 20
2.784705293
 30
0.0
 10
3.7233089673
 20
2.7860711889
 30
0.0
 10
3.7339233606
 20
2.7867870725
 30
0.0
 10
3.7420284472
 20
2.7870760874
 30
0.0
 10
3.7477281686
 20
2.7871499125
 30
0.0
 10
3.7531243173
 20
2.7870837399
 30
0.0
 10
3.7581827296
 20
2.7868789988
 30
0.0
 10
3.7628718069
 20
2.7865371491
 30
0.0
 10
3.7671626673
 20
2.7860600633
 30
0.0
 10
3.7710292635
 20
2.7854518914
 30
0.0
 10
3.7744485422
 20
2.7847155312
 30
0.0
 10
3.7773988925
 20
2.7838572003
 30
0.0
 10
3.7791743355
 20
2.7831563141
 30
0.0
 10
3.7799688739
 20
2.7827766315
 30
0.0
  0
SPLINE
  5
34D
100
AcDbEntity
  8
ALL_ASSEMBLY_MEMBERS
100
AcDbSpline
 62
9
  6
CONTINUOUS
 70
0
 71
3
 72
33
 73
29
 74
0
 42
0.0000001
 43
0.0000001
 44
0.0000000001
 40
0.0
 40
0.0
 40
0.0
 40
0.0
 40
0.000659592
 40
0.0012941096
 40
0.0019562287
 40
0.0027142381
 40
0.0036375728
 40
0.004787776
 40
0.0062180747
 40
0.0079759364
 40
0.0126439187
 40
0.0191108599
 40
0.0276188155
 40
0.0383907095
 40
0.0516463762
 40
0.0675895382
 40
0.0863190985
 40
0.1078900611
 40
0.1597375821
 40
0.2228944901
 40
0.2964990524
 40
0.3794067011
 40
0.470329435
 40
0.5679031309
 40
0.6707989909
 40
0.7778687153
 40
0.8879922776
 40
1.0
 40
1.0
 40
1.0
 40
1.0
 10
4.5824945702
 20
2.681537314
 30
0.0
 10
4.5824944829
 20
2.6815141245
 30
0.0
 10
4.5824877185
 20
2.6814681837
 30
0.0
 10
4.5824537661
 20
2.6814065147
 30
0.0
 10
4.5823958083
 20
2.6813603848
 30
0.0
 10
4.5823157035
 20
2.6813353619
 30
0.0
 10
4.5822150799
 20
2.6813345928
 30
0.0
 10
4.5820940071
 20
2.6813611088
 30
0.0
 10
4.5819521138
 20
2.6814185509
 30
0.0
 10
4.5817114154
 20
2.6815552786
 30
0.0
 10
4.5813575872
 20
2.6818427409
 30
0.0
 10
4.580882624
 20
2.6823454366
 30
0.0
 10
4.5803247694
 20
2.6830597294
 30
0.0
 10
4.5796868821
 20
2.6840100827
 30
0.0
 10
4.5789718465
 20
2.6852205988
 30
0.0
 10
4.5781847371
 20
2.6867110857
 30
0.0
 10
4.5773302158
 20
2.688494773
 30
0.0
 10
4.5760293574
 20
2.6914623889
 30
0.0
 10
4.5743090636
 20
2.6959480705
 30
0.0
 10
4.5722221411
 20
2.7022440039
 30
0.0
 10
4.5700868022
 20
2.7096679327
 30
0.0
 10
4.5679846802
 20
2.7181111416
 30
0.0
 10
4.5659996971
 20
2.7274461109
 30
0.0
 10
4.5641963624
 20
2.7375325765
 30
0.0
 10
4.5626373769
 20
2.7482337407
 30
0.0
 10
4.5613653642
 20
2.7594170423
 30
0.0
 10
4.5604209924
 20
2.770954136
 30
0.0
 10
4.5600262311
 20
2.7787552467
 30
0.0
 10
4.5598895101
 20
2.7826907809
 30
0.0
  0
SPLINE
  5
34E
100
AcDbEntity
  8
ALL_ASSEMBLY_MEMBERS
100
AcDbSpline
 62
9
  6
CONTINUOUS
 70
0
 71
3
 72
32
 73
28
 74
0
 42
0.0000001
 43
0.0000001
 44
0.0000000001
 40
0.0
 40
0.0
 40
0.0
 40
0.0
 40
0.0004439177
 40
0.0010400891
 40
0.0027305186
 40
0.0051039059
 40
0.0081556409
 40
0.0118725936
 40
0.0162389187
 40
0.0268507914
 40
0.0398573789
 40
0.0551308192
 40
0.0725552357
 40
0.0920274391
 40
0.1134563755
 40
0.136762392
 40
0.188724877
 40
0.2474440094
 40
0.3125323215
 40
0.3836381789
 40
0.460331284
 40
0.5420646791
 40
0.628175179
 40
0.7178963233
 40
0.8103803811
 40
0.9047251685
 40
1.0
 40
1.0
 40
1.0
 40
1.0
 10
4.6177284489
 20
2.7111029844
 30
0.0
 10
4.6177398103
 20
2.7111009901
 30
0.0
 10
4.6177672744
 20
2.7111019535
 30
0.0
 10
4.6178364834
 20
2.7111180312
 30
0.0
 10
4.6179483718
 20
2.7111662464
 30
0.0
 10
4.6181102795
 20
2.7112554563
 30
0.0
 10
4.6183104855
 20
2.7113836995
 30
0.0
 10
4.6185467195
 20
2.7115508462
 30
0.0
 10
4.6189327108
 20
2.7118459723
 30
0.0
 10
4.6194888066
 20
2.7123151479
 30
0.0
 10
4.6202296905
 20
2.7130028955
 30
0.0
 10
4.6210654636
 20
2.7138471171
 30
0.0
 10
4.6219812675
 20
2.7148470595
 30
0.0
 10
4.6229631277
 20
2.7160020115
 30
0.0
 10
4.623997986
 20
2.7173111434
 30
0.0
 10
4.6254868508
 20
2.7193357201
 30
0.0
 10
4.627399839
 20
2.7222482271
 30
0.0
 10
4.6296475919
 20
2.7262280144
 30
0.0
 10
4.6318417113
 20
2.7307966958
 30
0.0
 10
4.6339362023
 20
2.7359197798
 30
0.0
 10
4.6358979647
 20
2.741554909
 30
0.0
 10
4.6377004384
 20
2.7476503542
 30
0.0
 10
4.6393235186
 20
2.7541451847
 30
0.0
 10
4.6407547077
 20
2.7609703813
 30
0.0
 10
4.6419805827
 20
2.7680526182
 30
0.0
 10
4.6429770588
 20
2.7753164251
 30
0.0
 10
4.6434577424
 20
2.7802219337
 30
0.0
 10
4.6436416663
 20
2.7826907809
 30
0.0
  0
LINE
  5
34F
100
AcDbEntity
  8
ALL_ASSEMBLY_MEMBERS
100
AcDbLine
 62
9
  6
CONTINUOUS
 10
4.5598895101
 20
2.7826907809
 11
4.5596002902
 21
2.8022254477
  0
SPLINE
  5
350
100
AcDbEntity
  8
ALL_ASSEMBLY_MEMBERS
100
AcDbSpline
 62
9
  6
CONTINUOUS
 70
0
 71
3
 72
20
 73
16
 74
0
 42
0.0000001
 43
0.0000001
 44
0.0000000001
 40
0.0
 40
0.0
 40
0.0
 40
0.0
 40
0.1624690627
 40
0.3211194546
 40
0.4720026766
 40
0.5434413363
 40
0.6116420645
 40
0.6761956195
 40
0.7367416184
 40
0.792937818
 40
0.8444830387
 40
0.8911385142
 40
0.9326946141
 40
0.9690048857
 40
1.0
 40
1.0
 40
1.0
 40
1.0
 10
4.6436416663
 20
2.7826907809
 30
0.0
 10
4.639116016
 20
2.7832750596
 30
0.0
 10
4.6301545849
 20
2.7843063061
 30
0.0
 10
4.6169453245
 20
2.7854497506
 30
0.0
 10
4.6062597476
 20
2.7860488091
 30
0.0
 10
4.5981031341
 20
2.7862906503
 30
0.0
 10
4.5923679865
 20
2.786352419
 30
0.0
 10
4.5869386731
 20
2.7862970595
 30
0.0
 10
4.5818490356
 20
2.7861257615
 30
0.0
 10
4.5771304069
 20
2.7858397534
 30
0.0
 10
4.5728114563
 20
2.7854406289
 30
0.0
 10
4.5689181631
 20
2.7849318874
 30
0.0
 10
4.5654736137
 20
2.7843161487
 30
0.0
 10
4.5624994753
 20
2.7835987569
 30
0.0
 10
4.5606990646
 20
2.7830109004
 30
0.0
 10
4.5598895101
 20
2.7826907809
 30
0.0
  0
SPLINE
  5
351
100
AcDbEntity
  8
ALL_ASSEMBLY_MEMBERS
100
AcDbSpline
 62
9
  6
CONTINUOUS
 70
0
 71
3
 72
34
 73
30
 74
0
 42
0.0000001
 43
0.0000001
 44
0.0000000001
 40
0.0
 40
0.0
 40
0.0
 40
0.0
 40
0.0156239503
 40
0.0234378488
 40
0.0312540824
 40
0.0468785874
 40
0.0546887884
 40
0.0625024808
 40
0.0703175202
 40
0.0781307217
 40
0.0859427017
 40
0.0937544911
 40
0.109379307
 40
0.1250045311
 40
0.1406293909
 40
0.1562542523
 40
0.1875041319
 40
0.2187539619
 40
0.2500038066
 40
0.2812536473
 40
0.3125034887
 40
0.3750031716
 40
0.4375028545
 40
0.5000025373
 40
0.5625022201
 40
0.625001903
 40
0.7500012687
 40
0.8750006343
 40
1.0
 40
1.0
 40
1.0
 40
1.0
 10
4.6436416663
 20
2.7826907809
 30
0.0
 10
4.6437908368
 20
2.7837162504
 30
0.0
 10
4.6439950447
 20
2.7852575023
 30
0.0
 10
4.6442300137
 20
2.7873171356
 30
0.0
 10
4.6444424802
 20
2.7893791096
 30
0.0
 10
4.6445998885
 20
2.7914471991
 30
0.0
 10
4.6446439465
 20
2.7935196666
 30
0.0
 10
4.6446416026
 20
2.7950742859
 30
0.0
 10
4.644629611
 20
2.7966290328
 30
0.0
 10
4.6446278184
 20
2.7981837195
 30
0.0
 10
4.6446302191
 20
2.7997381792
 30
0.0
 10
4.644634319
 20
2.8018107461
 30
0.0
 10
4.6446332479
 20
2.8044015331
 30
0.0
 10
4.6446315015
 20
2.8075105214
 30
0.0
 10
4.6446320287
 20
2.8106195138
 30
0.0
 10
4.6446319969
 20
2.814764815
 30
0.0
 10
4.6446312262
 20
2.8199464463
 30
0.0
 10
4.6446308006
 20
2.8261644083
 30
0.0
 10
4.6446300133
 20
2.8323823678
 30
0.0
 10
4.6446292308
 20
2.838600328
 30
0.0
 10
4.6446280387
 20
2.8468909413
 30
0.0
 10
4.6446263826
 20
2.857254208
 30
0.0
 10
4.64462418
 20
2.869690128
 30
0.0
 10
4.6446218476
 20
2.882126048
 30
0.0
 10
4.6446194609
 20
2.8945619679
 30
0.0
 10
4.6446163111
 20
2.9111431945
 30
0.0
 10
4.6446126292
 20
2.9318697278
 30
0.0
 10
4.6446092427
 20
2.956741568
 30
0.0
 10
4.6446080884
 20
2.9733227949
 30
0.0
 10
4.6446078911
 20
2.9816134083
 30
0.0
  0
SPLINE
  5
352
100
AcDbEntity
  8
0
100
AcDbSpline
 62
7
  6
CONTINUOUS
 70
0
 71
3
 72
35
 73
31
 74
0
 42
0.0000001
 43
0.0000001
 44
0.0000000001
 40
0.0
 40
0.0
 40
0.0
 40
0.0
 40
0.0198798482
 40
0.0389061
 40
0.0572349263
 40
0.0750085906
 40
0.1093037191
 40
0.1423092093
 40
0.1743589853
 40
0.2056530689
 40
0.2363464043
 40
0.2665723801
 40
0.3259971954
 40
0.3844687642
 40
0.4423690724
 40
0.5
 40
0.5576309276
 40
0.6155312358
 40
0.6740028046
 40
0.7334276199
 40
0.7636535957
 40
0.7943469311
 40
0.8256410147
 40
0.8576907907
 40
0.8906962809
 40
0.9249914094
 40
0.9427650737
 40
0.9610939
 40
0.9801201518
 40
1.0
 40
1.0
 40
1.0
 40
1.0
 10
3.662417072
 20
4.1121776489
 30
0.0
 10
3.661273064
 20
4.1121776489
 30
0.0
 10
3.6590337496
 20
4.1122326547
 30
0.0
 10
3.6557477842
 20
4.1124737766
 30
0.0
 10
3.652596664
 20
4.1128499736
 30
0.0
 10
3.6485964
 20
4.1134948548
 30
0.0
 10
3.6438062582
 20
4.1145255568
 30
0.0
 10
3.6383026071
 20
4.1160855308
 30
0.0
 10
3.6330571508
 20
4.1178900117
 30
0.0
 10
3.6280371499
 20
4.1199170337
 30
0.0
 10
3.6232181238
 20
4.1221436186
 30
0.0
 10
3.6170662933
 20
4.1253277778
 30
0.0
 10
3.6097351193
 20
4.1296948816
 30
0.0
 10
3.6014543975
 20
4.1355212806
 30
0.0
 10
3.5936836478
 20
4.1418490421
 30
0.0
 10
3.5864015122
 20
4.1486620891
 30
0.0
 10
3.5795884651
 20
4.1559442248
 30
0.0
 10
3.5732607037
 20
4.1637149745
 30
0.0
 10
3.5674343047
 20
4.1719956963
 30
0.0
 10
3.5630672009
 20
4.1793268703
 30
0.0
 10
3.5598830417
 20
4.1854787008
 30
0.0
 10
3.5576564567
 20
4.1902977269
 30
0.0
 10
3.5556294347
 20
4.1953177278
 30
0.0
 10
3.5538249538
 20
4.200563184
 30
0.0
 10
3.5522649798
 20
4.2060668352
 30
0.0
 10
3.5512342778
 20
4.210856977
 30
0.0
 10
3.5505893966
 20
4.2148572409
 30
0.0
 10
3.5502131996
 20
4.2180083612
 30
0.0
 10
3.5499720778
 20
4.2212943265
 30
0.0
 10
3.549917072
 20
4.223533641
 30
0.0
 10
3.549917072
 20
4.2246776489
 30
0.0
  0
SPLINE
  5
353
100
AcDbEntity
  8
0
100
AcDbSpline
 62
7
  6
CONTINUOUS
 70
0
 71
3
 72
39
 73
35
 74
0
 42
0.0000001
 43
0.0000001
 44
0.0000000001
 40
0.0
 40
0.0
 40
0.0
 40
0.0
 40
0.0189207966
 40
0.0372305348
 40
0.0550542325
 40
0.0724822351
 40
0.1063471836
 40
0.1228752505
 40
0.1391807571
 40
0.171207758
 40
0.2025842549
 40
0.2334432417
 40
0.2638984405
 40
0.2940325334
 40
0.3239014194
 40
0.3830310758
 40
0.4416392352
 40
0.5000000007
 40
0.5583607662
 40
0.6169689255
 40
0.6760985819
 40
0.7059674678
 40
0.7361015607
 40
0.7665567595
 40
0.7974157462
 40
0.828792243
 40
0.8608192437
 40
0.8771247503
 40
0.8936528172
 40
0.9275177655
 40
0.944945768
 40
0.9627694655
 40
0.9810792036
 40
1.0
 40
1.0
 40
1.0
 40
1.0
 10
4.6826192385
 20
4.11236119
 30
0.0
 10
4.6836416827
 20
4.1124357196
 30
0.0
 10
4.6856505795
 20
4.1126268785
 30
0.0
 10
4.6886064038
 20
4.1130332989
 30
0.0
 10
4.69146553
 20
4.1135339995
 30
0.0
 10
4.6951317623
 20
4.1142997829
 30
0.0
 10
4.6986918165
 20
4.1152208644
 30
0.0
 10
4.7021491694
 20
4.1162737638
 30
0.0
 10
4.7054836193
 20
4.1173845522
 30
0.0
 10
4.709527755
 20
4.1189055564
 30
0.0
 10
4.7142171551
 20
4.1209334686
 30
0.0
 10
4.7187336978
 20
4.1231330364
 30
0.0
 10
4.7230976978
 20
4.1254819872
 30
0.0
 10
4.7273245252
 20
4.1279652638
 30
0.0
 10
4.7327665147
 20
4.1314386978
 30
0.0
 10
4.7392742292
 20
4.1360993018
 30
0.0
 10
4.7466489117
 20
4.1421638041
 30
0.0
 10
4.7535805002
 20
4.1486692202
 30
0.0
 10
4.7600859164
 20
4.1556008087
 30
0.0
 10
4.7661504187
 20
4.1629754911
 30
0.0
 10
4.7708110226
 20
4.1694832056
 30
0.0
 10
4.7742844568
 20
4.1749251951
 30
0.0
 10
4.7767677333
 20
4.1791520225
 30
0.0
 10
4.7791166841
 20
4.1835160224
 30
0.0
 10
4.781316252
 20
4.1880325651
 30
0.0
 10
4.7833441642
 20
4.1927219652
 30
0.0
 10
4.7848651685
 20
4.1967661009
 30
0.0
 10
4.7859759568
 20
4.2001005507
 30
0.0
 10
4.7870288563
 20
4.2035579036
 30
0.0
 10
4.7879499378
 20
4.2071179578
 30
0.0
 10
4.7887157212
 20
4.21078419
 30
0.0
 10
4.7892164218
 20
4.2136433163
 30
0.0
 10
4.7896228423
 20
4.2165991406
 30
0.0
 10
4.7898140012
 20
4.2186080372
 30
0.0
 10
4.7898885309
 20
4.2196304814
 30
0.0
  0
LINE
  5
354
100
AcDbEntity
  8
ALL_ASSEMBLY_MEMBERS
100
AcDbLine
 62
7
  6
CONTINUOUS
 10
3.9439997248
 20
3.4023929311
 11
3.9439038088
 21
3.4019454786
  0
LINE
  5
355
100
AcDbEntity
  8
ALL_ASSEMBLY_MEMBERS
100
AcDbLine
 62
7
  6
CONTINUOUS
 10
3.9439038088
 20
3.4019454786
 11
3.943869572
 21
3.4017876883
  0
SPLINE
  5
356
100
AcDbEntity
  8
ALL_ASSEMBLY_MEMBERS
100
AcDbSpline
 62
7
  6
CONTINUOUS
 70
0
 71
3
 72
12
 73
8
 74
0
 42
0.0000001
 43
0.0000001
 44
0.0000000001
 40
0.0
 40
0.0
 40
0.0
 40
0.0
 40
0.3190803871
 40
0.5945284953
 40
0.8228620876
 40
0.9181060598
 40
1.0
 40
1.0
 40
1.0
 40
1.0
 10
3.9502274175
 20
3.4198338555
 30
0.0
 10
3.9497687174
 20
3.4185739983
 30
0.0
 10
3.9488903818
 20
3.4162350435
 30
0.0
 10
3.9476036844
 20
3.4130255047
 30
0.0
 10
3.9466151806
 20
3.4107102662
 30
0.0
 10
3.9459079713
 20
3.4091601201
 30
0.0
 10
3.9455848758
 20
3.4084894674
 30
0.0
 10
3.9454306553
 20
3.4081818454
 30
0.0
  0
LINE
  5
357
100
AcDbEntity
  8
ALL_ASSEMBLY_MEMBERS
100
AcDbLine
 62
7
  6
CONTINUOUS
 10
3.9445688531
 20
3.5094897385
 11
3.9438698927
 21
3.5121121707
  0
LINE
  5
358
100
AcDbEntity
  8
ALL_ASSEMBLY_MEMBERS
100
AcDbLine
 62
7
  6
CONTINUOUS
 10
3.9462394501
 20
3.5026043959
 11
3.9462013554
 21
3.502892112
  0
LINE
  5
359
100
AcDbEntity
  8
ALL_ASSEMBLY_MEMBERS
100
AcDbLine
 62
7
  6
CONTINUOUS
 10
3.9438699008
 20
3.5121121526
 11
3.9448539646
 21
3.5083894548
  0
SPLINE
  5
35A
100
AcDbEntity
  8
ALL_ASSEMBLY_MEMBERS
100
AcDbSpline
 62
7
  6
CONTINUOUS
 70
0
 71
3
 72
11
 73
7
 74
0
 42
0.0000001
 43
0.0000001
 44
0.0000000001
 40
0.0
 40
0.0
 40
0.0
 40
0.0
 40
0.1713106329
 40
0.4092724222
 40
0.6934655968
 40
1.0
 40
1.0
 40
1.0
 40
1.0
 10
3.9453230256
 20
3.5065326142
 30
0.0
 10
3.9461438164
 20
3.5032341344
 30
0.0
 10
3.9479523258
 20
3.4953151111
 30
0.0
 10
3.9503515494
 20
3.4817582004
 30
0.0
 10
3.9521265218
 20
3.4653970171
 30
0.0
 10
3.9524568619
 20
3.4536642745
 30
0.0
 10
3.9523723162
 20
3.4475827444
 30
0.0
  0
SPLINE
  5
35B
100
AcDbEntity
  8
ALL_ASSEMBLY_MEMBERS
100
AcDbSpline
 62
9
  6
CONTINUOUS
 70
0
 71
3
 72
19
 73
15
 74
0
 42
0.0000001
 43
0.0000001
 44
0.0000000001
 40
0.0
 40
0.0
 40
0.0
 40
0.0
 40
0.0657402211
 40
0.1310985256
 40
0.1958279824
 40
0.2598505494
 40
0.3232086732
 40
0.386003459
 40
0.5102700891
 40
0.5720151374
 40
0.6335576378
 40
0.7561554026
 40
0.8782817015
 40
1.0
 40
1.0
 40
1.0
 40
1.0
 10
4.6446078158
 20
3.2631126883
 30
0.0
 10
4.6446078325
 20
3.2651292313
 30
0.0
 10
4.6442793621
 20
3.269158281
 30
0.0
 10
4.6428356143
 20
3.2750129084
 30
0.0
 10
4.6405624364
 20
3.2805377268
 30
0.0
 10
4.6376150036
 20
3.2856575374
 30
0.0
 10
4.6341388947
 20
3.2903561683
 30
0.0
 10
4.6289776937
 20
3.2960584211
 30
0.0
 10
4.6231524955
 20
3.3010412398
 30
0.0
 10
4.6169378155
 20
3.3054080851
 30
0.0
 10
4.6105370694
 20
3.3094045126
 30
0.0
 10
4.6022279077
 20
3.3138133396
 30
0.0
 10
4.5919383916
 20
3.3183552853
 30
0.0
 10
4.5849274814
 20
3.3209736128
 30
0.0
 10
4.581399509
 20
3.3221956863
 30
0.0
  0
SPLINE
  5
35C
100
AcDbEntity
  8
ALL_ASSEMBLY_MEMBERS
100
AcDbSpline
 62
9
  6
CONTINUOUS
 70
0
 71
3
 72
20
 73
16
 74
0
 42
0.0000001
 43
0.0000001
 44
0.0000000001
 40
0.0
 40
0.0
 40
0.0
 40
0.0
 40
0.1250163069
 40
0.2500323576
 40
0.3750491396
 40
0.5000646386
 40
0.6250811162
 40
0.6875958866
 40
0.7501005062
 40
0.8125852137
 40
0.843835266
 40
0.8751037314
 40
0.9063970302
 40
0.9376815606
 40
1.0
 40
1.0
 40
1.0
 40
1.0
 10
3.7803663466
 20
3.2631137231
 30
0.0
 10
3.7803663466
 20
3.2545671279
 30
0.0
 10
3.7803662682
 20
3.2374739549
 30
0.0
 10
3.7803665144
 20
3.2118341542
 30
0.0
 10
3.7803661662
 20
3.1861944086
 30
0.0
 10
3.7803660453
 20
3.1605546342
 30
0.0
 10
3.7803682916
 20
3.1391877366
 30
0.0
 10
3.7803631372
 20
3.1220943249
 30
0.0
 10
3.7803627756
 20
3.1092758219
 30
0.0
 10
3.7803744762
 20
3.0985947045
 30
0.0
 10
3.7803774052
 20
3.0900489996
 30
0.0
 10
3.7803710286
 20
3.0836356741
 30
0.0
 10
3.7803546856
 20
3.0772199605
 30
0.0
 10
3.7802900387
 20
3.0686819148
 30
0.0
 10
3.7801469297
 20
3.0622832371
 30
0.0
 10
3.7799688739
 20
3.0580266315
 30
0.0
  0
SPLINE
  5
35D
100
AcDbEntity
  8
ALL_ASSEMBLY_MEMBERS
100
AcDbSpline
 62
9
  6
CONTINUOUS
 70
0
 71
3
 72
30
 73
26
 74
0
 42
0.0000001
 43
0.0000001
 44
0.0000000001
 40
0.0
 40
0.0
 40
0.0
 40
0.0
 40
0.1112886581
 40
0.2205845549
 40
0.3267388469
 40
0.428613956
 40
0.5250708747
 40
0.6148933132
 40
0.6967689629
 40
0.7694732592
 40
0.8319397499
 40
0.8834951424
 40
0.9051831771
 40
0.9241564274
 40
0.9404893506
 40
0.9543596567
 40
0.9659503912
 40
0.9754394038
 40
0.9830000675
 40
0.9888438025
 40
0.9932166975
 40
0.9963542216
 40
0.9975343713
 40
0.9985018285
 40
1.0
 40
1.0
 40
1.0
 40
1.0
 10
3.7799688739
 20
3.0580266315
 30
0.0
 10
3.7798067473
 20
3.0541459853
 30
0.0
 10
3.7793666152
 20
3.0464586397
 30
0.0
 10
3.7783702294
 20
3.0350972086
 30
0.0
 10
3.7770626844
 20
3.0240980481
 30
0.0
 10
3.7754828954
 20
3.0135876778
 30
0.0
 10
3.7736758766
 20
3.0036928739
 30
0.0
 10
3.7716980641
 20
2.9945438079
 30
0.0
 10
3.7696207029
 20
2.9862691617
 30
0.0
 10
3.7675167194
 20
2.9789903958
 30
0.0
 10
3.7654688748
 20
2.9728018744
 30
0.0
 10
3.7637833202
 20
2.9683734149
 30
0.0
 10
3.7625189112
 20
2.9654133954
 30
0.0
 10
3.7616859559
 20
2.9636067347
 30
0.0
 10
3.7609181305
 20
2.9620714325
 30
0.0
 10
3.7602209016
 20
2.9607898722
 30
0.0
 10
3.759597907
 20
2.9597408281
 30
0.0
 10
3.7590527382
 20
2.9589026657
 30
0.0
 10
3.7585877063
 20
2.9582525873
 30
0.0
 10
3.7582038614
 20
2.9577649182
 30
0.0
 10
3.7579028149
 20
2.9574090229
 30
0.0
 10
3.7577043111
 20
2.9571798052
 30
0.0
 10
3.757592481
 20
2.9570326373
 30
0.0
 10
3.7575244255
 20
2.9569257105
 30
0.0
 10
3.7574945713
 20
2.9568405159
 30
0.0
 10
3.757494572
 20
2.956788229
 30
0.0
  0
SPLINE
  5
35E
100
AcDbEntity
  8
ALL_ASSEMBLY_MEMBERS
100
AcDbSpline
 62
7
  6
CONTINUOUS
 70
0
 71
3
 72
19
 73
15
 74
0
 42
0.0000001
 43
0.0000001
 44
0.0000000001
 40
0.0
 40
0.0
 40
0.0
 40
0.0
 40
0.1239159641
 40
0.1858999558
 40
0.2478859866
 40
0.3099261111
 40
0.3720529862
 40
0.4966072618
 40
0.6216828269
 40
0.7472846288
 40
0.810278599
 40
0.8733974103
 40
0.9366500903
 40
1.0
 40
1.0
 40
1.0
 40
1.0
 10
4.0345660225
 20
3.2631126883
 30
0.0
 10
4.037410706
 20
3.2661464357
 30
0.0
 10
4.0419239819
 20
3.2704741434
 30
0.0
 10
4.0483225157
 20
3.2757938786
 30
0.0
 10
4.0532969028
 20
3.2795693473
 30
0.0
 10
4.0584170366
 20
3.2831516102
 30
0.0
 10
4.0654122545
 20
3.2877089198
 30
0.0
 10
4.074410148
 20
3.2930562836
 30
0.0
 10
4.0854323963
 20
3.2991482191
 30
0.0
 10
4.0946848654
 20
3.3041699875
 30
0.0
 10
4.1020604275
 20
3.3082897455
 30
0.0
 10
4.1075617244
 20
3.3114727841
 30
0.0
 10
4.113003451
 20
3.3147801346
 30
0.0
 10
4.1165663699
 20
3.3170972441
 30
0.0
 10
4.1183246041
 20
3.3182926679
 30
0.0
  0
SPLINE
  5
35F
100
AcDbEntity
  8
ALL_ASSEMBLY_MEMBERS
100
AcDbSpline
 62
7
  6
CONTINUOUS
 70
0
 71
3
 72
20
 73
16
 74
0
 42
0.0000001
 43
0.0000001
 44
0.0000000001
 40
0.0
 40
0.0
 40
0.0
 40
0.0
 40
0.1266234449
 40
0.1898064733
 40
0.2528351304
 40
0.3157279823
 40
0.378483302
 40
0.5035782874
 40
0.5659299241
 40
0.628150273
 40
0.6902631182
 40
0.7522962649
 40
0.8142622752
 40
0.8761956488
 40
1.0
 40
1.0
 40
1.0
 40
1.0
 10
4.2150112309
 20
3.3231000007
 30
0.0
 10
4.2186899566
 20
3.320339107
 30
0.0
 10
4.2244567122
 20
3.316535064
 30
0.0
 10
4.2323748336
 20
3.3118831884
 30
0.0
 10
4.2383784573
 20
3.3085438334
 30
0.0
 10
4.2444148516
 20
3.3052982814
 30
0.0
 10
4.2524563255
 20
3.3010216738
 30
0.0
 10
4.2604594598
 20
3.2967125274
 30
0.0
 10
4.2683183057
 20
3.2921848806
 30
0.0
 10
4.2741081987
 20
3.2886530383
 30
0.0
 10
4.2797741292
 20
3.2849457584
 30
0.0
 10
4.2852915098
 20
3.2810363447
 30
0.0
 10
4.2906421322
 20
3.2769112758
 30
0.0
 10
4.2975186512
 20
3.2711054258
 30
0.0
 10
4.3023686449
 20
3.2663964789
 30
0.0
 10
4.3054423332
 20
3.2631137231
 30
0.0
  0
SPLINE
  5
360
100
AcDbEntity
  8
ALL_ASSEMBLY_MEMBERS
100
AcDbSpline
 62
9
  6
CONTINUOUS
 70
0
 71
3
 72
25
 73
21
 74
0
 42
0.0000001
 43
0.0000001
 44
0.0000000001
 40
0.0
 40
0.0
 40
0.0
 40
0.0
 40
0.1249998492
 40
0.2499996984
 40
0.3749995475
 40
0.4999993967
 40
0.5624993213
 40
0.6249992459
 40
0.6874991704
 40
0.7187491329
 40
0.7499990952
 40
0.7812490567
 40
0.8124990205
 40
0.8437489841
 40
0.8593739622
 40
0.8749989176
 40
0.9062494426
 40
0.9374996718
 40
0.9687502516
 40
1.0
 40
1.0
 40
1.0
 40
1.0
 10
3.695356552
 20
3.2631126883
 30
0.0
 10
3.695356552
 20
3.2545646621
 30
0.0
 10
3.6953565518
 20
3.2374686096
 30
0.0
 10
3.6953565528
 20
3.211824531
 30
0.0
 10
3.695356549
 20
3.1861804523
 30
0.0
 10
3.6953565606
 20
3.1648103868
 30
0.0
 10
3.6953565388
 20
3.1477143343
 30
0.0
 10
3.6953565891
 20
3.134892295
 30
0.0
 10
3.6953564816
 20
3.1242072622
 30
0.0
 10
3.6953566039
 20
3.115659236
 30
0.0
 10
3.6953567092
 20
3.1092482163
 30
0.0
 10
3.6953561274
 20
3.1028371967
 30
0.0
 10
3.6953564838
 20
3.0964261768
 30
0.0
 10
3.6953584145
 20
3.0910836608
 30
0.0
 10
3.6953554204
 20
3.0868096488
 30
0.0
 10
3.6953545286
 20
3.0825356057
 30
0.0
 10
3.6953854787
 20
3.0771929863
 30
0.0
 10
3.6955646492
 20
3.0707833438
 30
0.0
 10
3.695992584
 20
3.0643845885
 30
0.0
 10
3.6965051468
 20
3.0601381126
 30
0.0
 10
3.6968343606
 20
3.0580266315
 30
0.0
  0
SPLINE
  5
361
100
AcDbEntity
  8
ALL_ASSEMBLY_MEMBERS
100
AcDbSpline
 62
7
  6
CONTINUOUS
 70
0
 71
3
 72
15
 73
11
 74
0
 42
0.0000001
 43
0.0000001
 44
0.0000000001
 40
0.0
 40
0.0
 40
0.0
 40
0.0
 40
0.1150246626
 40
0.2279156408
 40
0.3403683277
 40
0.4545579609
 40
0.573514766
 40
0.7008516855
 40
0.8412938865
 40
1.0
 40
1.0
 40
1.0
 40
1.0
 10
3.764994572
 20
3.3381126883
 30
0.0
 10
3.7645664982
 20
3.3381126883
 30
0.0
 10
3.7637160253
 20
3.3380398781
 30
0.0
 10
3.7624888052
 20
3.33769661
 30
0.0
 10
3.7613560555
 20
3.3371160393
 30
0.0
 10
3.7603557767
 20
3.3362910742
 30
0.0
 10
3.7595301642
 20
3.3352186295
 30
0.0
 10
3.7589360102
 20
3.3338931348
 30
0.0
 10
3.7586375295
 20
3.3323198999
 30
0.0
 10
3.7586963928
 20
3.3311955258
 30
0.0
 10
3.7587920671
 20
3.3306126883
 30
0.0
  0
SPLINE
  5
362
100
AcDbEntity
  8
ALL_ASSEMBLY_MEMBERS
100
AcDbSpline
 62
9
  6
CONTINUOUS
 70
0
 71
3
 72
24
 73
20
 74
0
 42
0.0000001
 43
0.0000001
 44
0.0000000001
 40
0.0
 40
0.0
 40
0.0
 40
0.0
 40
0.1225022253
 40
0.2452200711
 40
0.3679420928
 40
0.4293583084
 40
0.4908636289
 40
0.5525598308
 40
0.6145608566
 40
0.6770290081
 40
0.7084878423
 40
0.7401273491
 40
0.7719670366
 40
0.8040256299
 40
0.8362904076
 40
0.8687420634
 40
0.9013825427
 40
0.9341855386
 40
1.0
 40
1.0
 40
1.0
 40
1.0
 10
3.7599585853
 20
3.3230982111
 30
0.0
 10
3.7562742541
 20
3.3219345485
 30
0.0
 10
3.7489418708
 20
3.319463909
 30
0.0
 10
3.7381579955
 20
3.3151570497
 30
0.0
 10
3.7294633653
 20
3.3108699875
 30
0.0
 10
3.7228099609
 20
3.3068923822
 30
0.0
 10
3.7180056792
 20
3.3035945633
 30
0.0
 10
3.7134353633
 20
3.2999473667
 30
0.0
 10
3.7091619006
 20
3.2959098542
 30
0.0
 10
3.7059210446
 20
3.2921976332
 30
0.0
 10
3.7035745701
 20
3.2890047609
 30
0.0
 10
3.7019480445
 20
3.2864884398
 30
0.0
 10
3.7004675466
 20
3.2838618599
 30
0.0
 10
3.6991411097
 20
3.2811321459
 30
0.0
 10
3.697984841
 20
3.2783048492
 30
0.0
 10
3.6970251438
 20
3.2753851533
 30
0.0
 10
3.696281779
 20
3.2723852701
 30
0.0
 10
3.6955720778
 20
3.2683044799
 30
0.0
 10
3.6953555274
 20
3.2651884812
 30
0.0
 10
3.695356552
 20
3.2631126883
 30
0.0
  0
SPLINE
  5
363
100
AcDbEntity
  8
ALL_ASSEMBLY_MEMBERS
100
AcDbSpline
 62
9
  6
CONTINUOUS
 70
0
 71
3
 72
38
 73
34
 74
0
 42
0.0000001
 43
0.0000001
 44
0.0000000001
 40
0.0
 40
0.0
 40
0.0
 40
0.0
 40
0.0962369449
 40
0.1915335591
 40
0.2849595854
 40
0.3756170695
 40
0.4626607841
 40
0.5453190809
 40
0.6229100951
 40
0.6948516144
 40
0.7606523705
 40
0.8198425891
 40
0.8467997645
 40
0.8719024342
 40
0.8950723052
 40
0.916223384
 40
0.9352600164
 40
0.9520758901
 40
0.9596148424
 40
0.9665535008
 40
0.9728755552
 40
0.9785640838
 40
0.9836017394
 40
0.9879712162
 40
0.9916557031
 40
0.9946396359
 40
0.996911548
 40
0.9977799369
 40
0.998472547
 40
0.9989973136
 40
0.9993764109
 40
0.9996715091
 40
1.0
 40
1.0
 40
1.0
 40
1.0
 10
3.6968343606
 20
3.0580266315
 30
0.0
 10
3.6971563148
 20
3.0555771346
 30
0.0
 10
3.6978885551
 20
3.0507138446
 30
0.0
 10
3.6991940026
 20
3.0435150033
 30
0.0
 10
3.7006666035
 20
3.0364947044
 30
0.0
 10
3.7022891557
 20
3.0297251138
 30
0.0
 10
3.7040532695
 20
3.023276932
 30
0.0
 10
3.7059484464
 20
3.0172163607
 30
0.0
 10
3.7079569016
 20
3.0116022703
 30
0.0
 10
3.7100551081
 20
3.0064855783
 30
0.0
 10
3.7122124415
 20
3.0019108252
 30
0.0
 10
3.7140611504
 20
2.9984737927
 30
0.0
 10
3.7155109024
 20
2.9960128515
 30
0.0
 10
3.7165321553
 20
2.9943734498
 30
0.0
 10
3.7175106388
 20
2.9928836624
 30
0.0
 10
3.7184348419
 20
2.9915450844
 30
0.0
 10
3.7192924313
 20
2.9903591979
 30
0.0
 10
3.7199630445
 20
2.9894696624
 30
0.0
 10
3.7204549944
 20
2.9888345427
 30
0.0
 10
3.7207849705
 20
2.9884147381
 30
0.0
 10
3.721087749
 20
2.9880339897
 30
0.0
 10
3.7213613561
 20
2.9876924017
 30
0.0
 10
3.7216037813
 20
2.9873900574
 30
0.0
 10
3.7218130101
 20
2.9871270507
 30
0.0
 10
3.721987088
 20
2.9869034277
 30
0.0
 10
3.7221239102
 20
2.9867191778
 30
0.0
 10
3.7222124307
 20
2.986589019
 30
0.0
 10
3.722261228
 20
2.986503547
 30
0.0
 10
3.7222840862
 20
2.9864549487
 30
0.0
 10
3.7222963173
 20
2.9864158062
 30
0.0
 10
3.7222986148
 20
2.9863842465
 30
0.0
 10
3.7222853176
 20
2.9863599871
 30
0.0
 10
3.7222690028
 20
2.9863544532
 30
0.0
 10
3.7222606986
 20
2.986352985
 30
0.0
  0
SPLINE
  5
364
100
AcDbEntity
  8
ALL_ASSEMBLY_MEMBERS
100
AcDbSpline
 62
9
  6
CONTINUOUS
 70
0
 71
3
 72
20
 73
16
 74
0
 42
0.0000001
 43
0.0000001
 44
0.0000000001
 40
0.0
 40
0.0
 40
0.0
 40
0.0
 40
0.1622817559
 40
0.3207371549
 40
0.4714126567
 40
0.5427472521
 40
0.6108470201
 40
0.6753078398
 40
0.7357772779
 40
0.7919241171
 40
0.8434629277
 40
0.8901773424
 40
0.9318894946
 40
0.9684981476
 40
1.0
 40
1.0
 40
1.0
 40
1.0
 10
3.6968343606
 20
3.0580266315
 30
0.0
 10
3.7013168271
 20
3.0587240147
 30
0.0
 10
3.7101997359
 20
3.059955293
 30
0.0
 10
3.7233089673
 20
3.0613211889
 30
0.0
 10
3.7339233606
 20
3.0620370725
 30
0.0
 10
3.7420284472
 20
3.0623260874
 30
0.0
 10
3.7477281686
 20
3.0623999125
 30
0.0
 10
3.7531243173
 20
3.0623337399
 30
0.0
 10
3.7581827296
 20
3.0621289988
 30
0.0
 10
3.7628718069
 20
3.0617871491
 30
0.0
 10
3.7671626673
 20
3.0613100633
 30
0.0
 10
3.7710292635
 20
3.0607018914
 30
0.0
 10
3.7744485422
 20
3.0599655312
 30
0.0
 10
3.7773988925
 20
3.0591072003
 30
0.0
 10
3.7791743355
 20
3.0584063141
 30
0.0
 10
3.7799688739
 20
3.0580266315
 30
0.0
  0
SPLINE
  5
365
100
AcDbEntity
  8
ALL_ASSEMBLY_MEMBERS
100
AcDbSpline
 62
7
  6
CONTINUOUS
 70
0
 71
3
 72
19
 73
15
 74
0
 42
0.0000001
 43
0.0000001
 44
0.0000000001
 40
0.0
 40
0.0
 40
0.0
 40
0.0
 40
0.1232577561
 40
0.180002406
 40
0.2348592682
 40
0.2887699448
 40
0.3426165445
 40
0.4530293799
 40
0.5711716706
 40
0.6343167069
 40
0.7006446392
 40
0.7703091278
 40
0.8434501915
 40
1.0
 40
1.0
 40
1.0
 40
1.0
 10
3.7599582926
 20
3.3231000007
 30
0.0
 10
3.7603359524
 20
3.3205183223
 30
0.0
 10
3.7610177973
 20
3.3167642765
 30
0.0
 10
3.7622090361
 20
3.3119364957
 30
0.0
 10
3.7631792942
 20
3.3085690183
 30
0.0
 10
3.7642481693
 20
3.3052962961
 30
0.0
 10
3.7658112774
 20
3.3009499828
 30
0.0
 10
3.7680275245
 20
3.2953967919
 30
0.0
 10
3.770406768
 20
3.2896989868
 30
0.0
 10
3.7723956671
 20
3.2848493224
 30
0.0
 10
3.7739619316
 20
3.2809356411
 30
0.0
 10
3.7755593323
 20
3.2768067328
 30
0.0
 10
3.7777609021
 20
3.2708644632
 30
0.0
 10
3.7793406905
 20
3.2662648977
 30
0.0
 10
3.7803663466
 20
3.2631137231
 30
0.0
  0
SPLINE
  5
366
100
AcDbEntity
  8
ALL_ASSEMBLY_MEMBERS
100
AcDbSpline
 62
9
  6
CONTINUOUS
 70
0
 71
3
 72
28
 73
24
 74
0
 42
0.0000001
 43
0.0000001
 44
0.0000000001
 40
0.0
 40
0.0
 40
0.0
 40
0.0
 40
0.0312461295
 40
0.0468721201
 40
0.0624976063
 40
0.0781217043
 40
0.0937454939
 40
0.1249970026
 40
0.1406240132
 40
0.1562503643
 40
0.1718758505
 40
0.1875007986
 40
0.2187500327
 40
0.2499995322
 40
0.2812495907
 40
0.3124998453
 40
0.3749999429
 40
0.4374998551
 40
0.4999998915
 40
0.6249999217
 40
0.7499999487
 40
0.874999974
 40
1.0
 40
1.0
 40
1.0
 40
1.0
 10
4.0353164845
 20
3.0579407809
 30
0.0
 10
4.0351490572
 20
3.060071384
 30
0.0
 10
4.0349301019
 20
3.0632702103
 30
0.0
 10
4.0347159494
 20
3.0675396389
 30
0.0
 10
4.0345972098
 20
3.0707437417
 30
0.0
 10
4.0345250948
 20
3.0739490865
 30
0.0
 10
4.0344870747
 20
3.0782238494
 30
0.0
 10
4.034508396
 20
3.0824989397
 30
0.0
 10
4.034541171
 20
3.0867740034
 30
0.0
 10
4.0345576005
 20
3.089980388
 30
0.0
 10
4.034563374
 20
3.0931866625
 30
0.0
 10
4.0345622623
 20
3.0974615142
 30
0.0
 10
4.0345499581
 20
3.1028050022
 30
0.0
 10
4.0345432648
 20
3.1092172268
 30
0.0
 10
4.03454576
 20
3.1156295231
 30
0.0
 10
4.0345523109
 20
3.1241792934
 30
0.0
 10
4.0345531682
 20
3.1348664933
 30
0.0
 10
4.034552818
 20
3.1476911134
 30
0.0
 10
4.0345566384
 20
3.1647906012
 30
0.0
 10
4.0345592833
 20
3.1861649694
 30
0.0
 10
4.0345629232
 20
3.2118142091
 30
0.0
 10
4.034565336
 20
3.2374634487
 30
0.0
 10
4.0345660225
 20
3.2545629417
 30
0.0
 10
4.0345660225
 20
3.2631126883
 30
0.0
  0
SPLINE
  5
367
100
AcDbEntity
  8
ALL_ASSEMBLY_MEMBERS
100
AcDbSpline
 62
9
  6
CONTINUOUS
 70
0
 71
3
 72
23
 73
19
 74
0
 42
0.0000001
 43
0.0000001
 44
0.0000000001
 40
0.0
 40
0.0
 40
0.0
 40
0.0
 40
0.1249947323
 40
0.2499892109
 40
0.3749843972
 40
0.4999784036
 40
0.624973089
 40
0.6874770104
 40
0.7499713957
 40
0.781209557
 40
0.8124458831
 40
0.8436900963
 40
0.8749523307
 40
0.8905935214
 40
0.9062403592
 40
0.9375274131
 40
0.9687797971
 40
1.0
 40
1.0
 40
1.0
 40
1.0
 10
4.3054423332
 20
3.2631137231
 30
0.0
 10
4.3054423331
 20
3.2545671194
 30
0.0
 10
4.30544211
 20
3.2374739292
 30
0.0
 10
4.3054427984
 20
3.2118341042
 30
0.0
 10
4.3054418913
 20
3.1861943285
 30
0.0
 10
4.3054412446
 20
3.1605545403
 30
0.0
 10
4.3054482447
 20
3.1391876315
 30
0.0
 10
4.3054331496
 20
3.122094191
 30
0.0
 10
4.3054322957
 20
3.1114114026
 30
0.0
 10
4.30545077
 20
3.1028665846
 30
0.0
 10
4.3054677696
 20
3.0964585247
 30
0.0
 10
4.3054741103
 20
3.0900487919
 30
0.0
 10
4.3054600385
 20
3.0847053926
 30
0.0
 10
4.3054316856
 20
3.0804285554
 30
0.0
 10
4.3053867696
 20
3.0761501844
 30
0.0
 10
4.3052701368
 20
3.0708049711
 30
0.0
 10
4.3049470414
 20
3.0644010938
 30
0.0
 10
4.3045509464
 20
3.0601457554
 30
0.0
 10
4.3042935104
 20
3.0580266315
 30
0.0
  0
SPLINE
  5
368
100
AcDbEntity
  8
ALL_ASSEMBLY_MEMBERS
100
AcDbSpline
 62
9
  6
CONTINUOUS
 70
0
 71
3
 72
33
 73
29
 74
0
 42
0.0000001
 43
0.0000001
 44
0.0000000001
 40
0.0
 40
0.0
 40
0.0
 40
0.0
 40
0.000659592
 40
0.0012941096
 40
0.0019562287
 40
0.0027142381
 40
0.0036375728
 40
0.004787776
 40
0.0062180747
 40
0.0079759364
 40
0.0126439187
 40
0.0191108599
 40
0.0276188155
 40
0.0383907095
 40
0.0516463762
 40
0.0675895382
 40
0.0863190985
 40
0.1078900611
 40
0.1597375821
 40
0.2228944901
 40
0.2964990524
 40
0.3794067011
 40
0.470329435
 40
0.5679031309
 40
0.6707989909
 40
0.7778687153
 40
0.8879922776
 40
1.0
 40
1.0
 40
1.0
 40
1.0
 10
4.5824945702
 20
2.956787314
 30
0.0
 10
4.5824944829
 20
2.9567641245
 30
0.0
 10
4.5824877185
 20
2.9567181837
 30
0.0
 10
4.5824537661
 20
2.9566565147
 30
0.0
 10
4.5823958083
 20
2.9566103848
 30
0.0
 10
4.5823157035
 20
2.9565853619
 30
0.0
 10
4.5822150799
 20
2.9565845928
 30
0.0
 10
4.5820940071
 20
2.9566111088
 30
0.0
 10
4.5819521138
 20
2.9566685509
 30
0.0
 10
4.5817114154
 20
2.9568052786
 30
0.0
 10
4.5813575872
 20
2.9570927409
 30
0.0
 10
4.580882624
 20
2.9575954366
 30
0.0
 10
4.5803247694
 20
2.9583097294
 30
0.0
 10
4.5796868821
 20
2.9592600827
 30
0.0
 10
4.5789718465
 20
2.9604705988
 30
0.0
 10
4.5781847371
 20
2.9619610857
 30
0.0
 10
4.5773302158
 20
2.963744773
 30
0.0
 10
4.5760293574
 20
2.9667123889
 30
0.0
 10
4.5743090636
 20
2.9711980705
 30
0.0
 10
4.5722221411
 20
2.9774940039
 30
0.0
 10
4.5700868022
 20
2.9849179327
 30
0.0
 10
4.5679846802
 20
2.9933611416
 30
0.0
 10
4.5659996971
 20
3.0026961109
 30
0.0
 10
4.5641963624
 20
3.0127825765
 30
0.0
 10
4.5626373769
 20
3.0234837407
 30
0.0
 10
4.5613653642
 20
3.0346670423
 30
0.0
 10
4.5604209924
 20
3.046204136
 30
0.0
 10
4.5600262311
 20
3.0540052467
 30
0.0
 10
4.5598895101
 20
3.0579407809
 30
0.0
  0
SPLINE
  5
369
100
AcDbEntity
  8
ALL_ASSEMBLY_MEMBERS
100
AcDbSpline
 62
9
  6
CONTINUOUS
 70
0
 71
3
 72
32
 73
28
 74
0
 42
0.0000001
 43
0.0000001
 44
0.0000000001
 40
0.0
 40
0.0
 40
0.0
 40
0.0
 40
0.0004439177
 40
0.0010400891
 40
0.0027305186
 40
0.0051039059
 40
0.0081556409
 40
0.0118725936
 40
0.0162389187
 40
0.0268507914
 40
0.0398573789
 40
0.0551308192
 40
0.0725552357
 40
0.0920274391
 40
0.1134563755
 40
0.136762392
 40
0.188724877
 40
0.2474440094
 40
0.3125323215
 40
0.3836381789
 40
0.460331284
 40
0.5420646791
 40
0.628175179
 40
0.7178963233
 40
0.8103803811
 40
0.9047251685
 40
1.0
 40
1.0
 40
1.0
 40
1.0
 10
4.6177284489
 20
2.9863529844
 30
0.0
 10
4.6177398103
 20
2.9863509901
 30
0.0
 10
4.6177672744
 20
2.9863519535
 30
0.0
 10
4.6178364834
 20
2.9863680312
 30
0.0
 10
4.6179483718
 20
2.9864162464
 30
0.0
 10
4.6181102795
 20
2.9865054563
 30
0.0
 10
4.6183104855
 20
2.9866336995
 30
0.0
 10
4.6185467195
 20
2.9868008462
 30
0.0
 10
4.6189327108
 20
2.9870959723
 30
0.0
 10
4.6194888066
 20
2.9875651479
 30
0.0
 10
4.6202296905
 20
2.9882528955
 30
0.0
 10
4.6210654636
 20
2.9890971171
 30
0.0
 10
4.6219812675
 20
2.9900970595
 30
0.0
 10
4.6229631277
 20
2.9912520115
 30
0.0
 10
4.623997986
 20
2.9925611434
 30
0.0
 10
4.6254868508
 20
2.9945857201
 30
0.0
 10
4.627399839
 20
2.9974982271
 30
0.0
 10
4.6296475919
 20
3.0014780144
 30
0.0
 10
4.6318417113
 20
3.0060466958
 30
0.0
 10
4.6339362023
 20
3.0111697798
 30
0.0
 10
4.6358979647
 20
3.016804909
 30
0.0
 10
4.6377004384
 20
3.0229003542
 30
0.0
 10
4.6393235186
 20
3.0293951847
 30
0.0
 10
4.6407547077
 20
3.0362203813
 30
0.0
 10
4.6419805827
 20
3.0433026182
 30
0.0
 10
4.6429770588
 20
3.0505664251
 30
0.0
 10
4.6434577424
 20
3.0554719337
 30
0.0
 10
4.6436416663
 20
3.0579407809
 30
0.0
  0
SPLINE
  5
36A
100
AcDbEntity
  8
ALL_ASSEMBLY_MEMBERS
100
AcDbSpline
 62
9
  6
CONTINUOUS
 70
0
 71
3
 72
27
 73
23
 74
0
 42
0.0000001
 43
0.0000001
 44
0.0000000001
 40
0.0
 40
0.0
 40
0.0
 40
0.0
 40
0.0118862923
 40
0.0241719745
 40
0.037196971
 40
0.0512421454
 40
0.066527312
 40
0.0832138778
 40
0.1014112269
 40
0.1211923666
 40
0.1656562998
 40
0.216731896
 40
0.2742578154
 40
0.337933041
 40
0.407307678
 40
0.4818642584
 40
0.5609769935
 40
0.6439694057
 40
0.7301399918
 40
0.8187666698
 40
0.909039626
 40
1.0
 40
1.0
 40
1.0
 40
1.0
 10
4.244994572
 20
3.2314794959
 30
0.0
 10
4.244994572
 20
3.2317994751
 30
0.0
 10
4.244931587
 20
3.2324517316
 30
0.0
 10
4.244652469
 20
3.2334185211
 30
0.0
 10
4.2441916751
 20
3.2343773743
 30
0.0
 10
4.243552354
 20
3.2353255679
 30
0.0
 10
4.242736642
 20
3.2362613855
 30
0.0
 10
4.2417469736
 20
3.2371833196
 30
0.0
 10
4.2405863003
 20
3.2380904865
 30
0.0
 10
4.2387411596
 20
3.2393266482
 30
0.0
 10
4.2360027588
 20
3.240803495
 30
0.0
 10
4.2322108762
 20
3.2424255918
 30
0.0
 10
4.2278262633
 20
3.2439464749
 30
0.0
 10
4.222889281
 20
3.2453496477
 30
0.0
 10
4.2174457423
 20
3.2466232312
 30
0.0
 10
4.2115471454
 20
3.2477527826
 30
0.0
 10
4.20525019
 20
3.2487286851
 30
0.0
 10
4.1986150316
 20
3.2495404629
 30
0.0
 10
4.1917039591
 20
3.2501803407
 30
0.0
 10
4.1845823331
 20
3.250641948
 30
0.0
 10
4.1773222556
 20
3.2509202036
 30
0.0
 10
4.1724432266
 20
3.2509826672
 30
0.0
 10
4.169994572
 20
3.2509826672
 30
0.0
  0
SPLINE
  5
36B
100
AcDbEntity
  8
ALL_ASSEMBLY_MEMBERS
100
AcDbSpline
 62
9
  6
CONTINUOUS
 70
0
 71
3
 72
27
 73
23
 74
0
 42
0.0000001
 43
0.0000001
 44
0.0000000001
 40
0.0
 40
0.0
 40
0.0
 40
0.0
 40
0.0118862937
 40
0.0241719774
 40
0.0371969753
 40
0.0512421507
 40
0.0665273182
 40
0.0832138846
 40
0.1014112341
 40
0.121192374
 40
0.1656563074
 40
0.2167319033
 40
0.2742578222
 40
0.3379330471
 40
0.4073076832
 40
0.4818642628
 40
0.560976997
 40
0.6439694083
 40
0.7301399937
 40
0.8187666711
 40
0.9090396268
 40
1.0
 40
1.0
 40
1.0
 40
1.0
 10
4.244994572
 20
3.0247458807
 30
0.0
 10
4.244994572
 20
3.0244259015
 30
0.0
 10
4.244931587
 20
3.0237736449
 30
0.0
 10
4.244652469
 20
3.0228068553
 30
0.0
 10
4.2441916751
 20
3.0218480019
 30
0.0
 10
4.243552354
 20
3.0208998082
 30
0.0
 10
4.242736642
 20
3.0199639905
 30
0.0
 10
4.2417469736
 20
3.0190420563
 30
0.0
 10
4.2405863003
 20
3.0181348893
 30
0.0
 10
4.2387411597
 20
3.0168987275
 30
0.0
 10
4.2360027588
 20
3.0154218806
 30
0.0
 10
4.2322108763
 20
3.0137997837
 30
0.0
 10
4.2278262634
 20
3.0122789005
 30
0.0
 10
4.2228892811
 20
3.0108757277
 30
0.0
 10
4.2174457424
 20
3.0096021442
 30
0.0
 10
4.2115471455
 20
3.0084725929
 30
0.0
 10
4.2052501901
 20
3.0074966906
 30
0.0
 10
4.1986150317
 20
3.0066849129
 30
0.0
 10
4.1917039592
 20
3.0060450352
 30
0.0
 10
4.1845823331
 20
3.0055834282
 30
0.0
 10
4.1773222556
 20
3.0053051727
 30
0.0
 10
4.1724432266
 20
3.0052427094
 30
0.0
 10
4.169994572
 20
3.0052427095
 30
0.0
  0
SPLINE
  5
36C
100
AcDbEntity
  8
ALL_ASSEMBLY_MEMBERS
100
AcDbSpline
 62
9
  6
CONTINUOUS
 70
0
 71
3
 72
22
 73
18
 74
0
 42
0.0000001
 43
0.0000001
 44
0.0000000001
 40
0.0
 40
0.0
 40
0.0
 40
0.0
 40
0.0311800331
 40
0.062397065
 40
0.0936421122
 40
0.1249017903
 40
0.1561587393
 40
0.1874109366
 40
0.2186629274
 40
0.2499164206
 40
0.3124240498
 40
0.3749307379
 40
0.4999446362
 40
0.6249584623
 40
0.7499723094
 40
0.8749861544
 40
1.0
 40
1.0
 40
1.0
 40
1.0
 10
4.5598895101
 20
3.0579407809
 30
0.0
 10
4.5598316488
 20
3.0600724488
 30
0.0
 10
4.5597203688
 20
3.0643384386
 30
0.0
 10
4.5596072291
 20
3.0707419685
 30
0.0
 10
4.5595922708
 20
3.0771519089
 30
0.0
 10
4.5596227835
 20
3.0835643357
 30
0.0
 10
4.5596330331
 20
3.0899773469
 30
0.0
 10
4.5596258282
 20
3.0963898196
 30
0.0
 10
4.5596205015
 20
3.1028020581
 30
0.0
 10
4.5596223136
 20
3.1113519084
 30
0.0
 10
4.5596255236
 20
3.122039317
 30
0.0
 10
4.5596236773
 20
3.1391391529
 30
0.0
 10
4.5596263099
 20
3.1605138886
 30
0.0
 10
4.5596270526
 20
3.1861635907
 30
0.0
 10
4.5596284172
 20
3.211813289
 30
0.0
 10
4.5596292321
 20
3.2374629887
 30
0.0
 10
4.5596294754
 20
3.2545627884
 30
0.0
 10
4.5596294754
 20
3.2631126883
 30
0.0
  0
SPLINE
  5
36D
100
AcDbEntity
  8
ALL_ASSEMBLY_MEMBERS
100
AcDbSpline
 62
9
  6
CONTINUOUS
 70
0
 71
3
 72
12
 73
8
 74
0
 42
0.0000001
 43
0.0000001
 44
0.0000000001
 40
0.0
 40
0.0
 40
0.0
 40
0.0
 40
0.0985412752
 40
0.1988793531
 40
0.4181628092
 40
0.6808827491
 40
1.0
 40
1.0
 40
1.0
 40
1.0
 10
4.0949910967
 20
3.0580403047
 30
0.0
 10
4.094984647
 20
3.0581321058
 30
0.0
 10
4.0949530145
 20
3.0583166291
 30
0.0
 10
4.094810645
 20
3.0586828069
 30
0.0
 10
4.0944708886
 20
3.0591212379
 30
0.0
 10
4.0938671316
 20
3.0595717412
 30
0.0
 10
4.0933790627
 20
3.0598157967
 30
0.0
 10
4.0931054649
 20
3.059933957
 30
0.0
  0
SPLINE
  5
36E
100
AcDbEntity
  8
ALL_ASSEMBLY_MEMBERS
100
AcDbSpline
 62
9
  6
CONTINUOUS
 70
0
 71
3
 72
19
 73
15
 74
0
 42
0.0000001
 43
0.0000001
 44
0.0000000001
 40
0.0
 40
0.0
 40
0.0
 40
0.0
 40
0.0247008496
 40
0.0549301288
 40
0.0907966655
 40
0.1323046068
 40
0.1793587884
 40
0.2318128673
 40
0.2895001916
 40
0.3522012684
 40
0.4915954526
 40
0.6477863504
 40
0.818295336
 40
1.0
 40
1.0
 40
1.0
 40
1.0
 10
4.0931054649
 20
3.059933957
 30
0.0
 10
4.0926660324
 20
3.0601237373
 30
0.0
 10
4.0916517727
 20
3.0604590916
 30
0.0
 10
4.0899325157
 20
3.0608398467
 30
0.0
 10
4.0878683679
 20
3.0611453604
 30
0.0
 10
4.085467173
 20
3.0613731708
 30
0.0
 10
4.0827379848
 20
3.0615221749
 30
0.0
 10
4.0796921667
 20
3.0615913153
 30
0.0
 10
4.0763424584
 20
3.0615795828
 30
0.0
 10
4.0713096104
 20
3.0614512017
 30
0.0
 10
4.0643754018
 20
3.061074503
 30
0.0
 10
4.0553733124
 20
3.0603272878
 30
0.0
 10
4.045576272
 20
3.059280256
 30
0.0
 10
4.0388052307
 20
3.0584173049
 30
0.0
 10
4.0353164845
 20
3.0579407809
 30
0.0
  0
SPLINE
  5
36F
100
AcDbEntity
  8
ALL_ASSEMBLY_MEMBERS
100
AcDbSpline
 62
9
  6
CONTINUOUS
 70
0
 71
3
 72
26
 73
22
 74
0
 42
0.0000001
 43
0.0000001
 44
0.0000000001
 40
0.0
 40
0.0
 40
0.0
 40
0.0
 40
0.0084200406
 40
0.0169513789
 40
0.0261291961
 40
0.0363841991
 40
0.0480248997
 40
0.0612598317
 40
0.0762200692
 40
0.0929839175
 40
0.1115983318
 40
0.1320898933
 40
0.178733914
 40
0.2328528548
 40
0.2942423798
 40
0.3626309377
 40
0.4376339184
 40
0.5188272876
 40
0.6057543315
 40
0.7947911451
 40
1.0
 40
1.0
 40
1.0
 40
1.0
 10
4.2449945731
 20
3.058028808
 30
0.0
 10
4.2449947542
 20
3.0582003062
 30
0.0
 10
4.2450394697
 20
3.0585475295
 30
0.0
 10
4.2452488388
 20
3.059043144
 30
0.0
 10
4.24559381
 20
3.0595023072
 30
0.0
 10
4.24606895
 20
3.0599252363
 30
0.0
 10
4.2466722533
 20
3.0603140108
 30
0.0
 10
4.2474032731
 20
3.0606694502
 30
0.0
 10
4.248261363
 20
3.060992079
 30
0.0
 10
4.2492455714
 20
3.061281959
 30
0.0
 10
4.2503546962
 20
3.061538843
 30
0.0
 10
4.2520738116
 20
3.0618502219
 30
0.0
 10
4.2545288263
 20
3.0621388891
 30
0.0
 10
4.257826671
 20
3.0623378487
 30
0.0
 10
4.261572751
 20
3.0623996036
 30
0.0
 10
4.2657436568
 20
3.0623225159
 30
0.0
 10
4.2703134335
 20
3.062107377
 30
0.0
 10
4.2752532024
 20
3.0617549647
 30
0.0
 10
4.2824972645
 20
3.0610850697
 30
0.0
 10
4.292228728
 20
3.0599074572
 30
0.0
 10
4.3001693023
 20
3.05870525
 30
0.0
 10
4.3042935104
 20
3.0580266315
 30
0.0
  0
SPLINE
  5
370
100
AcDbEntity
  8
ALL_ASSEMBLY_MEMBERS
100
AcDbSpline
 62
9
  6
CONTINUOUS
 70
0
 71
3
 72
20
 73
16
 74
0
 42
0.0000001
 43
0.0000001
 44
0.0000000001
 40
0.0
 40
0.0
 40
0.0
 40
0.0
 40
0.0623411004
 40
0.1245981216
 40
0.186793285
 40
0.2489472575
 40
0.3110948452
 40
0.3732731808
 40
0.4355048275
 40
0.4978177915
 40
0.6226862172
 40
0.7480195067
 40
0.8109168214
 40
0.8739242586
 40
1.0
 40
1.0
 40
1.0
 40
1.0
 10
4.1002973812
 20
2.9655125411
 30
0.0
 10
4.0980068427
 20
2.9664346385
 30
0.0
 10
4.0934932803
 20
2.968443321
 30
0.0
 10
4.0869742247
 20
2.9719558832
 30
0.0
 10
4.0807430759
 20
2.9759439006
 30
0.0
 10
4.0748353367
 20
2.9803898652
 30
0.0
 10
4.0692815774
 20
2.985269546
 30
0.0
 10
4.0641020645
 20
2.9905486378
 30
0.0
 10
4.0593182821
 20
2.9961975607
 30
0.0
 10
4.0534851209
 20
3.0041787656
 30
0.0
 10
4.047233071
 20
3.0149082575
 30
0.0
 10
4.0424204603
 20
3.0263746192
 30
0.0
 10
4.0394250735
 20
3.035869613
 30
0.0
 10
4.0369959109
 20
3.0455542332
 30
0.0
 10
4.0358160739
 20
3.0529722883
 30
0.0
 10
4.0353164845
 20
3.0579407809
 30
0.0
  0
SPLINE
  5
371
100
AcDbEntity
  8
ALL_ASSEMBLY_MEMBERS
100
AcDbSpline
 62
9
  6
CONTINUOUS
 70
0
 71
3
 72
27
 73
23
 74
0
 42
0.0000001
 43
0.0000001
 44
0.0000000001
 40
0.0
 40
0.0
 40
0.0
 40
0.0
 40
0.011886294
 40
0.0241719778
 40
0.0371969759
 40
0.0512421514
 40
0.0665273189
 40
0.0832138853
 40
0.1014112347
 40
0.1211923745
 40
0.1656563078
 40
0.2167319034
 40
0.2742578221
 40
0.3379330466
 40
0.4073076826
 40
0.4818642621
 40
0.5609769961
 40
0.6439694073
 40
0.7301399929
 40
0.8187666708
 40
0.9090396268
 40
1.0
 40
1.0
 40
1.0
 40
1.0
 10
4.094994572
 20
3.2314794959
 30
0.0
 10
4.094994572
 20
3.2317994751
 30
0.0
 10
4.0950575569
 20
3.2324517318
 30
0.0
 10
4.0953366749
 20
3.2334185214
 30
0.0
 10
4.0957974688
 20
3.2343773747
 30
0.0
 10
4.0964367899
 20
3.2353255685
 30
0.0
 10
4.0972525019
 20
3.2362613862
 30
0.0
 10
4.0982421703
 20
3.2371833204
 30
0.0
 10
4.0994028435
 20
3.2380904874
 30
0.0
 10
4.1012479842
 20
3.2393266492
 30
0.0
 10
4.103986385
 20
3.2408034962
 30
0.0
 10
4.1077782676
 20
3.242425593
 30
0.0
 10
4.1121628804
 20
3.2439464762
 30
0.0
 10
4.1170998626
 20
3.2453496491
 30
0.0
 10
4.1225434013
 20
3.2466232325
 30
0.0
 10
4.1284419983
 20
3.2477527838
 30
0.0
 10
4.1347389536
 20
3.2487286862
 30
0.0
 10
4.1413741121
 20
3.2495404638
 30
0.0
 10
4.1482851846
 20
3.2501803415
 30
0.0
 10
4.1554068107
 20
3.2506419485
 30
0.0
 10
4.1626668883
 20
3.2509202039
 30
0.0
 10
4.1675459173
 20
3.2509826672
 30
0.0
 10
4.169994572
 20
3.2509826671
 30
0.0
  0
SPLINE
  5
372
100
AcDbEntity
  8
ALL_ASSEMBLY_MEMBERS
100
AcDbSpline
 62
9
  6
CONTINUOUS
 70
0
 71
3
 72
27
 73
23
 74
0
 42
0.0000001
 43
0.0000001
 44
0.0000000001
 40
0.0
 40
0.0
 40
0.0
 40
0.0
 40
0.0118862923
 40
0.0241719744
 40
0.037196971
 40
0.0512421453
 40
0.0665273119
 40
0.0832138776
 40
0.1014112267
 40
0.1211923663
 40
0.1656562995
 40
0.2167318957
 40
0.2742578151
 40
0.3379330406
 40
0.4073076776
 40
0.4818642581
 40
0.5609769932
 40
0.6439694054
 40
0.7301399916
 40
0.8187666697
 40
0.909039626
 40
1.0
 40
1.0
 40
1.0
 40
1.0
 10
4.094994572
 20
3.0247458807
 30
0.0
 10
4.094994572
 20
3.0244259015
 30
0.0
 10
4.0950575569
 20
3.023773645
 30
0.0
 10
4.0953366749
 20
3.0228068555
 30
0.0
 10
4.0957974688
 20
3.0218480023
 30
0.0
 10
4.0964367899
 20
3.0208998087
 30
0.0
 10
4.097252502
 20
3.0199639911
 30
0.0
 10
4.0982421703
 20
3.019042057
 30
0.0
 10
4.0994028436
 20
3.0181348901
 30
0.0
 10
4.1012479843
 20
3.0168987284
 30
0.0
 10
4.1039863851
 20
3.0154218816
 30
0.0
 10
4.1077782677
 20
3.0137997848
 30
0.0
 10
4.1121628806
 20
3.0122789017
 30
0.0
 10
4.1170998629
 20
3.0108757289
 30
0.0
 10
4.1225434016
 20
3.0096021454
 30
0.0
 10
4.1284419985
 20
3.008472594
 30
0.0
 10
4.1347389539
 20
3.0074966916
 30
0.0
 10
4.1413741123
 20
3.0066849137
 30
0.0
 10
4.1482851848
 20
3.0060450359
 30
0.0
 10
4.1554068108
 20
3.0055834286
 30
0.0
 10
4.1626668883
 20
3.005305173
 30
0.0
 10
4.1675459173
 20
3.0052427094
 30
0.0
 10
4.169994572
 20
3.0052427094
 30
0.0
  0
SPLINE
  5
373
100
AcDbEntity
  8
ALL_ASSEMBLY_MEMBERS
100
AcDbSpline
 62
9
  6
CONTINUOUS
 70
0
 71
3
 72
20
 73
16
 74
0
 42
0.0000001
 43
0.0000001
 44
0.0000000001
 40
0.0
 40
0.0
 40
0.0
 40
0.0
 40
0.1624690627
 40
0.3211194546
 40
0.4720026766
 40
0.5434413363
 40
0.6116420645
 40
0.6761956195
 40
0.7367416184
 40
0.792937818
 40
0.8444830387
 40
0.8911385142
 40
0.9326946141
 40
0.9690048857
 40
1.0
 40
1.0
 40
1.0
 40
1.0
 10
4.6436416663
 20
3.0579407809
 30
0.0
 10
4.639116016
 20
3.0585250596
 30
0.0
 10
4.6301545849
 20
3.0595563061
 30
0.0
 10
4.6169453245
 20
3.0606997506
 30
0.0
 10
4.6062597476
 20
3.0612988091
 30
0.0
 10
4.5981031341
 20
3.0615406503
 30
0.0
 10
4.5923679865
 20
3.061602419
 30
0.0
 10
4.5869386731
 20
3.0615470595
 30
0.0
 10
4.5818490356
 20
3.0613757615
 30
0.0
 10
4.5771304069
 20
3.0610897534
 30
0.0
 10
4.5728114563
 20
3.0606906289
 30
0.0
 10
4.5689181631
 20
3.0601818874
 30
0.0
 10
4.5654736137
 20
3.0595661487
 30
0.0
 10
4.5624994753
 20
3.0588487569
 30
0.0
 10
4.5606990646
 20
3.0582609004
 30
0.0
 10
4.5598895101
 20
3.0579407809
 30
0.0
  0
SPLINE
  5
374
100
AcDbEntity
  8
ALL_ASSEMBLY_MEMBERS
100
AcDbSpline
 62
7
  6
CONTINUOUS
 70
0
 71
3
 72
15
 73
11
 74
0
 42
0.0000001
 43
0.0000001
 44
0.0000000001
 40
0.0
 40
0.0
 40
0.0
 40
0.0
 40
0.1587061134
 40
0.2991483144
 40
0.426485234
 40
0.5454420391
 40
0.6596316723
 40
0.7720843592
 40
0.8849753374
 40
1.0
 40
1.0
 40
1.0
 40
1.0
 10
4.5811970768
 20
3.3306126883
 30
0.0
 10
4.5812927512
 20
3.3311955258
 30
0.0
 10
4.5813516144
 20
3.3323198999
 30
0.0
 10
4.5810531337
 20
3.3338931348
 30
0.0
 10
4.5804589797
 20
3.3352186295
 30
0.0
 10
4.5796333673
 20
3.3362910742
 30
0.0
 10
4.5786330884
 20
3.3371160393
 30
0.0
 10
4.5775003387
 20
3.33769661
 30
0.0
 10
4.5762731187
 20
3.3380398781
 30
0.0
 10
4.5754226457
 20
3.3381126883
 30
0.0
 10
4.574994572
 20
3.3381126883
 30
0.0
  0
SPLINE
  5
375
100
AcDbEntity
  8
ALL_ASSEMBLY_MEMBERS
100
AcDbSpline
 62
9
  6
CONTINUOUS
 70
0
 71
3
 72
19
 73
15
 74
0
 42
0.0000001
 43
0.0000001
 44
0.0000000001
 40
0.0
 40
0.0
 40
0.0
 40
0.0
 40
0.1260608927
 40
0.1890525936
 40
0.251937049
 40
0.3772622716
 40
0.5021402677
 40
0.5644656818
 40
0.6267139791
 40
0.7510023816
 40
0.8131746457
 40
0.8753851975
 40
0.9376550074
 40
1.0
 40
1.0
 40
1.0
 40
1.0
 10
4.3042935104
 20
3.0580266315
 30
0.0
 10
4.3037090029
 20
3.0532079631
 30
0.0
 10
4.3024314467
 20
3.0460211534
 30
0.0
 10
4.2999280925
 20
3.0366447848
 30
0.0
 10
4.2968952656
 20
3.0274549116
 30
0.0
 10
4.2921039346
 20
3.0163582988
 30
0.0
 10
4.2859634737
 20
3.005966677
 30
0.0
 10
4.2802720629
 20
2.9982208246
 30
0.0
 10
4.2740768141
 20
2.9909026514
 30
0.0
 10
4.2671260828
 20
2.9842585256
 30
0.0
 10
4.2595228896
 20
2.9784276621
 30
0.0
 10
4.2535120858
 20
2.9744754274
 30
0.0
 10
4.2472294326
 20
2.9709596032
 30
0.0
 10
4.2428813821
 20
2.9689192311
 30
0.0
 10
4.2406745254
 20
2.9679744188
 30
0.0
  0
SPLINE
  5
376
100
AcDbEntity
  8
ALL_ASSEMBLY_MEMBERS
100
AcDbSpline
 62
9
  6
CONTINUOUS
 70
0
 71
3
 72
35
 73
31
 74
0
 42
0.0000001
 43
0.0000001
 44
0.0000000001
 40
0.0
 40
0.0
 40
0.0
 40
0.0
 40
0.0156239546
 40
0.0234380326
 40
0.0312543384
 40
0.0390687235
 40
0.0468791682
 40
0.0546899309
 40
0.062504295
 40
0.0703189498
 40
0.0781316652
 40
0.0859434669
 40
0.0937553888
 40
0.109380412
 40
0.1250055249
 40
0.1406303335
 40
0.1562552118
 40
0.1875050499
 40
0.2187548467
 40
0.2500046558
 40
0.2812544608
 40
0.3125042671
 40
0.3750038792
 40
0.4375034913
 40
0.5000031034
 40
0.5625027154
 40
0.6250023275
 40
0.7500015517
 40
0.8750007758
 40
1.0
 40
1.0
 40
1.0
 40
1.0
 10
4.6436416663
 20
3.0579407809
 30
0.0
 10
4.6437955221
 20
3.0589984592
 30
0.0
 10
4.6440054799
 20
3.0605882478
 30
0.0
 10
4.6442459418
 20
3.0627127657
 30
0.0
 10
4.6444081061
 20
3.0643084259
 30
0.0
 10
4.6445388943
 20
3.0659068047
 30
0.0
 10
4.6446219879
 20
3.067508192
 30
0.0
 10
4.6446458339
 20
3.0691114575
 30
0.0
 10
4.6446383293
 20
3.0707149209
 30
0.0
 10
4.6446280944
 20
3.0723185047
 30
0.0
 10
4.6446282674
 20
3.0739219493
 30
0.0
 10
4.6446314784
 20
3.0755251944
 30
0.0
 10
4.6446345269
 20
3.0776628709
 30
0.0
 10
4.64463257
 20
3.0803350453
 30
0.0
 10
4.6446315468
 20
3.0835416861
 30
0.0
 10
4.6446321371
 20
3.0867483174
 30
0.0
 10
4.6446318019
 20
3.0910238115
 30
0.0
 10
4.6446311709
 20
3.0963681864
 30
0.0
 10
4.6446306373
 20
3.1027814382
 30
0.0
 10
4.6446298232
 20
3.1091946878
 30
0.0
 10
4.6446289885
 20
3.115607938
 30
0.0
 10
4.6446277275
 20
3.124158938
 30
0.0
 10
4.6446259838
 20
3.134847688
 30
0.0
 10
4.6446236769
 20
3.1476741879
 30
0.0
 10
4.6446212503
 20
3.1605006879
 30
0.0
 10
4.6446187868
 20
3.1733271878
 30
0.0
 10
4.644615568
 20
3.1904291878
 30
0.0
 10
4.644611881
 20
3.2118066878
 30
0.0
 10
4.6446086793
 20
3.2374596879
 30
0.0
 10
4.6446078158
 20
3.2545616882
 30
0.0
 10
4.6446078158
 20
3.2631126883
 30
0.0
  0
SPLINE
  5
377
100
AcDbEntity
  8
ALL_ASSEMBLY_MEMBERS
100
AcDbSpline
 62
7
  6
CONTINUOUS
 70
0
 71
3
 72
16
 73
12
 74
0
 42
0.0000001
 43
0.0000001
 44
0.0000000001
 40
0.0
 40
0.0
 40
0.0
 40
0.0
 40
0.1556896358
 40
0.227963922
 40
0.2966087478
 40
0.4243996548
 40
0.5421927562
 40
0.6538395254
 40
0.7637347767
 40
0.8770246396
 40
1.0
 40
1.0
 40
1.0
 40
1.0
 10
4.5596294754
 20
3.2631126883
 30
0.0
 10
4.5606207344
 20
3.2661541398
 30
0.0
 10
4.5621659753
 20
3.2705776187
 30
0.0
 10
4.5643385695
 20
3.2762717106
 30
0.0
 10
4.5663893994
 20
3.2813980468
 30
0.0
 10
4.5688938734
 20
3.287349113
 30
0.0
 10
4.5717612001
 20
3.2941057565
 30
0.0
 10
4.5743399493
 20
3.3005849989
 30
0.0
 10
4.5765774714
 20
3.3070947871
 30
0.0
 10
4.5784384119
 20
3.3139655614
 30
0.0
 10
4.5793559936
 20
3.3187377549
 30
0.0
 10
4.579750293
 20
3.3212335387
 30
0.0
  0
LINE
  5
378
100
AcDbEntity
  8
0
100
AcDbLine
 62
7
  6
CONTINUOUS
 10
4.8807144147
 20
5.0034822847
 11
4.8808528795
 21
5.0034630802
  0
LINE
  5
379
100
AcDbEntity
  8
0
100
AcDbLine
 62
7
  6
CONTINUOUS
 10
4.8808528795
 20
5.0034630802
 11
4.8812307758
 21
5.0034501149
  0
LINE
  5
37A
100
AcDbEntity
  8
0
100
AcDbLine
 62
7
  6
CONTINUOUS
 10
4.8812307758
 20
5.0034501149
 11
4.8818460566
 21
5.0034419696
  0
LINE
  5
37B
100
AcDbEntity
  8
0
100
AcDbLine
 62
7
  6
CONTINUOUS
 10
4.8712194342
 20
5.0033508973
 11
4.8737785375
 21
5.0035274269
  0
LINE
  5
37C
100
AcDbEntity
  8
0
100
AcDbLine
 62
7
  6
CONTINUOUS
 10
4.920130092
 20
5.0046419924
 11
4.9236584023
 21
5.0046985529
  0
LINE
  5
37D
100
AcDbEntity
  8
0
100
AcDbLine
 62
7
  6
CONTINUOUS
 10
4.9400294001
 20
5.0049284559
 11
4.9422679862
 21
5.0049568106
  0
LINE
  5
37E
100
AcDbEntity
  8
0
100
AcDbLine
 62
7
  6
CONTINUOUS
 10
4.9422679862
 20
5.0049568106
 11
4.9438126249
 21
5.004976055
  0
LINE
  5
37F
100
AcDbEntity
  8
0
100
AcDbLine
 62
7
  6
CONTINUOUS
 10
4.9163681659
 20
5.004577812
 11
4.920130092
 21
5.0046419924
  0
LINE
  5
380
100
AcDbEntity
  8
0
100
AcDbLine
 62
7
  6
CONTINUOUS
 10
4.8751589483
 20
5.0035844628
 11
4.8878436658
 21
5.0039698462
  0
LINE
  5
381
100
AcDbEntity
  8
0
100
AcDbLine
 62
7
  6
CONTINUOUS
 10
4.8878436658
 20
5.0039698462
 11
4.8907846377
 21
5.0040430591
  0
LINE
  5
382
100
AcDbEntity
  8
0
100
AcDbLine
 62
7
  6
CONTINUOUS
 10
4.8907846377
 20
5.0040430591
 11
4.8939526491
 21
5.0041183688
  0
LINE
  5
383
100
AcDbEntity
  8
0
100
AcDbLine
 62
7
  6
CONTINUOUS
 10
4.8939526491
 20
5.0041183688
 11
4.8973491162
 21
5.0041958219
  0
LINE
  5
384
100
AcDbEntity
  8
0
100
AcDbLine
 62
7
  6
CONTINUOUS
 10
5.0213486386
 20
5.0065821015
 11
5.0226731858
 21
5.0065328792
  0
SPLINE
  5
385
100
AcDbEntity
  8
0
100
AcDbSpline
 62
7
  6
CONTINUOUS
 70
0
 71
3
 72
9
 73
5
 74
0
 42
0.0000001
 43
0.0000001
 44
0.0000000001
 40
0.0
 40
0.0
 40
0.0
 40
0.0
 40
0.3879710723
 40
1.0
 40
1.0
 40
1.0
 40
1.0
 10
5.0226731858
 20
5.0065328792
 30
0.0
 10
5.02267511
 20
5.006532348
 30
0.0
 10
5.0226795341
 20
5.0065308467
 30
0.0
 10
5.0226862967
 20
5.0065286018
 30
0.0
 10
5.022686494
 20
5.006525459
 30
0.0
  0
LINE
  5
386
100
AcDbEntity
  8
0
100
AcDbLine
 62
7
  6
CONTINUOUS
 10
5.0137291192
 20
5.0065702603
 11
5.0198231485
 21
5.0065940494
  0
LINE
  5
387
100
AcDbEntity
  8
0
100
AcDbLine
 62
7
  6
CONTINUOUS
 10
4.9872024019
 20
5.0061589138
 11
4.9933324118
 21
5.0062738131
  0
LINE
  5
388
100
AcDbEntity
  8
0
100
AcDbLine
 62
7
  6
CONTINUOUS
 10
4.9933324118
 20
5.0062738131
 11
4.9993119831
 21
5.0063765579
  0
LINE
  5
389
100
AcDbEntity
  8
0
100
AcDbLine
 62
7
  6
CONTINUOUS
 10
4.9993119831
 20
5.0063765579
 11
5.0022499307
 21
5.0064235754
  0
LINE
  5
38A
100
AcDbEntity
  8
0
100
AcDbLine
 62
7
  6
CONTINUOUS
 10
4.9718173268
 20
5.0058307473
 11
4.9747610032
 21
5.0058978282
  0
LINE
  5
38B
100
AcDbEntity
  8
0
100
AcDbLine
 62
7
  6
CONTINUOUS
 10
4.9438126249
 20
5.004976055
 11
4.9474272059
 21
5.005115272
  0
LINE
  5
38C
100
AcDbEntity
  8
0
100
AcDbLine
 62
7
  6
CONTINUOUS
 10
4.9474272059
 20
5.005115272
 11
4.9481367214
 21
5.0051418505
  0
LINE
  5
38D
100
AcDbEntity
  8
0
100
AcDbLine
 62
7
  6
CONTINUOUS
 10
5.0523151316
 20
5.0065157935
 11
5.0573687105
 21
5.0065481036
  0
LINE
  5
38E
100
AcDbEntity
  8
0
100
AcDbLine
 62
7
  6
CONTINUOUS
 10
5.021446839
 20
5.0060598829
 11
5.0226943808
 21
5.0060850123
  0
LINE
  5
38F
100
AcDbEntity
  8
0
100
AcDbLine
 62
7
  6
CONTINUOUS
 10
5.0226943808
 20
5.0060850123
 11
5.0317802393
 21
5.0062682432
  0
LINE
  5
390
100
AcDbEntity
  8
0
100
AcDbLine
 62
7
  6
CONTINUOUS
 10
5.0317802393
 20
5.0062682432
 11
5.0422002451
 21
5.0064788321
  0
SPLINE
  5
391
100
AcDbEntity
  8
0
100
AcDbSpline
 62
7
  6
CONTINUOUS
 70
0
 71
3
 72
9
 73
5
 74
0
 42
0.0000001
 43
0.0000001
 44
0.0000000001
 40
0.0
 40
0.0
 40
0.0
 40
0.0
 40
0.7081424666
 40
1.0
 40
1.0
 40
1.0
 40
1.0
 10
5.0137057377
 20
5.0063802149
 30
0.0
 10
5.0137100905
 20
5.0063811275
 30
0.0
 10
5.0137151722
 20
5.0063824292
 30
0.0
 10
5.013722889
 20
5.0063852409
 30
0.0
 10
5.0137229747
 20
5.0063870719
 30
0.0
  0
LINE
  5
392
100
AcDbEntity
  8
0
100
AcDbLine
 62
7
  6
CONTINUOUS
 10
3.287776785
 20
5.0063285073
 11
3.2880406439
 21
5.0062933491
  0
LINE
  5
393
100
AcDbEntity
  8
0
100
AcDbLine
 62
7
  6
CONTINUOUS
 10
3.3172555096
 20
5.0057717734
 11
3.2968263749
 21
5.0062363512
  0
LINE
  5
394
100
AcDbEntity
  8
0
100
AcDbLine
 62
7
  6
CONTINUOUS
 10
3.2968263749
 20
5.0062363512
 11
3.287741394
 21
5.0064430224
  0
LINE
  5
395
100
AcDbEntity
  8
0
100
AcDbLine
 62
7
  6
CONTINUOUS
 10
3.287741394
 20
5.0064430224
 11
3.2840849064
 21
5.0065262143
  0
LINE
  5
396
100
AcDbEntity
  8
0
100
AcDbLine
 62
7
  6
CONTINUOUS
 10
3.2840849064
 20
5.0065262143
 11
3.2762113152
 21
5.0067053755
  0
LINE
  5
397
100
AcDbEntity
  8
0
100
AcDbLine
 62
7
  6
CONTINUOUS
 10
3.3214223996
 20
5.0060682754
 11
3.3216854201
 21
5.0059956135
  0
LINE
  5
398
100
AcDbEntity
  8
0
100
AcDbLine
 62
7
  6
CONTINUOUS
 10
3.4307594692
 20
5.0037511125
 11
3.4326582264
 21
5.0037078824
  0
LINE
  5
399
100
AcDbEntity
  8
0
100
AcDbLine
 62
7
  6
CONTINUOUS
 10
3.4413601397
 20
5.0035217175
 11
3.4443295379
 21
5.0034649582
  0
LINE
  5
39A
100
AcDbEntity
  8
0
100
AcDbLine
 62
7
  6
CONTINUOUS
 10
3.4443295379
 20
5.0034649582
 11
3.4456767585
 21
5.0034412702
  0
LINE
  5
39B
100
AcDbEntity
  8
0
100
AcDbLine
 62
7
  6
CONTINUOUS
 10
3.3098585841
 20
5.0065276452
 11
3.3177324136
 21
5.0063468434
  0
LINE
  5
39C
100
AcDbEntity
  8
0
100
AcDbLine
 62
7
  6
CONTINUOUS
 10
3.3177324136
 20
5.0063468434
 11
3.3213888142
 21
5.0062628839
  0
LINE
  5
39D
100
AcDbEntity
  8
0
100
AcDbLine
 62
7
  6
CONTINUOUS
 10
3.3213888142
 20
5.0062628839
 11
3.3301500471
 21
5.0060617057
  0
LINE
  5
39E
100
AcDbEntity
  8
0
100
AcDbLine
 62
7
  6
CONTINUOUS
 10
3.4107506381
 20
5.0042109546
 11
3.4307594705
 21
5.0037515195
  0
LINE
  5
39F
100
AcDbEntity
  8
0
100
AcDbLine
 62
7
  6
CONTINUOUS
 10
3.4736067299
 20
5.0035165353
 11
3.4746556539
 21
5.0035402176
  0
LINE
  5
3A0
100
AcDbEntity
  8
0
100
AcDbLine
 62
7
  6
CONTINUOUS
 10
3.4746556539
 20
5.0035402176
 11
3.4747664692
 21
5.0035578508
  0
LINE
  5
3A1
100
AcDbEntity
  8
0
100
AcDbLine
 62
7
  6
CONTINUOUS
 10
3.4766664139
 20
5.0037217451
 11
3.4814962285
 21
5.0034848781
  0
LINE
  5
3A2
100
AcDbEntity
  8
0
100
AcDbLine
 62
7
  6
CONTINUOUS
 10
3.4814962285
 20
5.0034848781
 11
3.4821684422
 21
5.0034238088
  0
LINE
  5
3A3
100
AcDbEntity
  8
0
100
AcDbLine
 62
7
  6
CONTINUOUS
 10
3.4821684422
 20
5.0034238088
 11
3.482374154
 21
5.0033747408
  0
LINE
  5
3A4
100
AcDbEntity
  8
0
100
AcDbLine
 62
7
  6
CONTINUOUS
 10
3.4440789633
 20
5.0046400744
 11
3.4533642393
 21
5.0044205887
  0
LINE
  5
3A5
100
AcDbEntity
  8
0
100
AcDbLine
 62
7
  6
CONTINUOUS
 10
3.4743248043
 20
5.0038108047
 11
3.4747863421
 21
5.0037938661
  0
LINE
  5
3A6
100
AcDbEntity
  8
0
100
AcDbLine
 62
7
  6
CONTINUOUS
 10
3.4309300175
 20
5.0049227272
 11
3.4353359384
 21
5.0048315162
  0
LINE
  5
3A7
100
AcDbEntity
  8
0
100
AcDbLine
 62
7
  6
CONTINUOUS
 10
3.4353359384
 20
5.0048315162
 11
3.4440789633
 21
5.0046400744
  0
LINE
  5
3A8
100
AcDbEntity
  8
0
100
AcDbLine
 62
7
  6
CONTINUOUS
 10
3.3994725694
 20
5.005469233
 11
3.4047013303
 21
5.0053922122
  0
LINE
  5
3A9
100
AcDbEntity
  8
0
100
AcDbLine
 62
7
  6
CONTINUOUS
 10
3.3711801647
 20
5.0062262548
 11
3.3557762085
 21
5.0066730537
  0
LINE
  5
3AA
100
AcDbEntity
  8
0
100
AcDbLine
 62
7
  6
CONTINUOUS
 10
5.022686494
 20
5.006525459
 11
5.0205118819
 21
5.0063902068
  0
LINE
  5
3AB
100
AcDbEntity
  8
0
100
AcDbLine
 62
7
  6
CONTINUOUS
 10
4.884895724
 20
5.0036866705
 11
4.8808233764
 21
5.0035038523
  0
LINE
  5
3AC
100
AcDbEntity
  8
0
100
AcDbLine
 62
7
  6
CONTINUOUS
 10
4.8808233764
 20
5.0035038523
 11
4.8807144147
 21
5.0034822847
  0
LINE
  5
3AD
100
AcDbEntity
  8
0
100
AcDbLine
 62
7
  6
CONTINUOUS
 10
4.9400289147
 20
5.0048291856
 11
4.9378823243
 21
5.0047992837
  0
LINE
  5
3AE
100
AcDbEntity
  8
0
100
AcDbLine
 62
7
  6
CONTINUOUS
 10
4.9378823243
 20
5.0047992837
 11
4.935704275
 21
5.004768031
  0
LINE
  5
3AF
100
AcDbEntity
  8
0
100
AcDbLine
 62
7
  6
CONTINUOUS
 10
4.935704275
 20
5.004768031
 11
4.9265943726
 21
5.0046266266
  0
LINE
  5
3B0
100
AcDbEntity
  8
0
100
AcDbLine
 62
7
  6
CONTINUOUS
 10
4.9059426218
 20
5.0042332471
 11
4.9033250436
 21
5.0041754805
  0
LINE
  5
3B1
100
AcDbEntity
  8
0
100
AcDbLine
 62
7
  6
CONTINUOUS
 10
5.0226954281
 20
5.0060324414
 11
5.023953758
 21
5.0060577872
  0
LINE
  5
3B2
100
AcDbEntity
  8
0
100
AcDbLine
 62
7
  6
CONTINUOUS
 10
5.023953758
 20
5.0060577872
 11
5.02599936
 21
5.0060626857
  0
LINE
  5
3B3
100
AcDbEntity
  8
0
100
AcDbLine
 62
7
  6
CONTINUOUS
 10
5.02599936
 20
5.0060626857
 11
5.0280445521
 21
5.0060691328
  0
LINE
  5
3B4
100
AcDbEntity
  8
0
100
AcDbLine
 62
7
  6
CONTINUOUS
 10
5.0280445521
 20
5.0060691328
 11
5.0300893342
 21
5.006077126
  0
LINE
  5
3B5
100
AcDbEntity
  8
0
100
AcDbLine
 62
7
  6
CONTINUOUS
 10
5.0300893342
 20
5.006077126
 11
5.0362212219
 21
5.0061103534
  0
LINE
  5
3B6
100
AcDbEntity
  8
0
100
AcDbLine
 62
7
  6
CONTINUOUS
 10
5.0362212219
 20
5.0061103534
 11
5.0502821217
 21
5.0064012385
  0
LINE
  5
3B7
100
AcDbEntity
  8
0
100
AcDbLine
 62
7
  6
CONTINUOUS
 10
5.0502821217
 20
5.0064012385
 11
5.0573687105
 21
5.0065481036
  0
LINE
  5
3B8
100
AcDbEntity
  8
0
100
AcDbLine
 62
7
  6
CONTINUOUS
 10
3.4377543035
 20
5.0034204365
 11
3.437383713
 21
5.0034431672
  0
LINE
  5
3B9
100
AcDbEntity
  8
0
100
AcDbLine
 62
7
  6
CONTINUOUS
 10
3.482374154
 20
5.0033747408
 11
3.4789001664
 21
5.0032606476
  0
LINE
  5
3BA
100
AcDbEntity
  8
0
100
AcDbLine
 62
7
  6
CONTINUOUS
 10
3.2880406439
 20
5.0062933491
 11
3.284081642
 21
5.0063827417
  0
LINE
  5
3BB
100
AcDbEntity
  8
0
100
AcDbLine
 62
7
  6
CONTINUOUS
 10
3.2884913496
 20
5.0063328864
 11
3.2877420902
 21
5.0063329196
  0
LINE
  5
3BC
100
AcDbEntity
  8
0
100
AcDbLine
 62
7
  6
CONTINUOUS
 10
3.299471657
 20
5.0061058374
 11
3.2884913496
 21
5.0063328864
  0
LINE
  5
3BD
100
AcDbEntity
  8
0
100
AcDbLine
 62
7
  6
CONTINUOUS
 10
3.3150831212
 20
5.0057520143
 11
3.2994717177
 21
5.0061058361
  0
LINE
  5
3BE
100
AcDbEntity
  8
0
100
AcDbLine
 62
7
  6
CONTINUOUS
 10
3.284081642
 20
5.0063827417
 11
3.2801449058
 21
5.0065383989
  0
LINE
  5
3BF
100
AcDbEntity
  8
0
100
AcDbLine
 62
7
  6
CONTINUOUS
 10
3.2801449058
 20
5.0065383989
 11
3.2762113152
 21
5.0067053755
  0
LINE
  5
3C0
100
AcDbEntity
  8
0
100
AcDbLine
 62
7
  6
CONTINUOUS
 10
3.3216855538
 20
5.0060020516
 11
3.3177265801
 21
5.0060927986
  0
LINE
  5
3C1
100
AcDbEntity
  8
0
100
AcDbLine
 62
7
  6
CONTINUOUS
 10
3.3221368584
 20
5.0060843509
 11
3.321387635
 21
5.0060706451
  0
LINE
  5
3C2
100
AcDbEntity
  8
0
100
AcDbLine
 62
7
  6
CONTINUOUS
 10
3.3331178168
 20
5.0058715417
 11
3.3298151568
 21
5.0059457458
  0
LINE
  5
3C3
100
AcDbEntity
  8
0
100
AcDbLine
 62
7
  6
CONTINUOUS
 10
3.3298151568
 20
5.0059457458
 11
3.3221368584
 21
5.0060843509
  0
LINE
  5
3C4
100
AcDbEntity
  8
0
100
AcDbLine
 62
7
  6
CONTINUOUS
 10
3.4249862701
 20
5.0037633854
 11
3.4098034343
 21
5.0041117675
  0
LINE
  5
3C5
100
AcDbEntity
  8
0
100
AcDbLine
 62
7
  6
CONTINUOUS
 10
3.4098034343
 20
5.0041117675
 11
3.3945691692
 21
5.0044613413
  0
LINE
  5
3C6
100
AcDbEntity
  8
0
100
AcDbLine
 62
7
  6
CONTINUOUS
 10
3.437383713
 20
5.0034431672
 11
3.4362756137
 21
5.0034830166
  0
LINE
  5
3C7
100
AcDbEntity
  8
0
100
AcDbLine
 62
7
  6
CONTINUOUS
 10
3.4362756137
 20
5.0034830166
 11
3.4270540806
 21
5.0037151108
  0
LINE
  5
3C8
100
AcDbEntity
  8
0
100
AcDbLine
 62
7
  6
CONTINUOUS
 10
3.4270540806
 20
5.0037151108
 11
3.4260340695
 21
5.0037389997
  0
LINE
  5
3C9
100
AcDbEntity
  8
0
100
AcDbLine
 62
7
  6
CONTINUOUS
 10
3.4260340695
 20
5.0037389997
 11
3.4249862699
 21
5.0037633854
  0
LINE
  5
3CA
100
AcDbEntity
  8
0
100
AcDbLine
 62
7
  6
CONTINUOUS
 10
3.4402111459
 20
5.0032908233
 11
3.4376235571
 21
5.0033501003
  0
LINE
  5
3CB
100
AcDbEntity
  8
0
100
AcDbLine
 62
7
  6
CONTINUOUS
 10
3.4402111459
 20
5.0032908233
 11
3.4433383739
 21
5.00327677
  0
LINE
  5
3CC
100
AcDbEntity
  8
0
100
AcDbLine
 62
7
  6
CONTINUOUS
 10
3.4433383739
 20
5.00327677
 11
3.4495943818
 21
5.0032575647
  0
LINE
  5
3CD
100
AcDbEntity
  8
0
100
AcDbLine
 62
7
  6
CONTINUOUS
 10
3.4747664692
 20
5.0035578508
 11
3.4713409415
 21
5.0037404527
  0
LINE
  5
3CE
100
AcDbEntity
  8
0
100
AcDbLine
 62
7
  6
CONTINUOUS
 10
3.3177265801
 20
5.0060927986
 11
3.3137968363
 21
5.0063047393
  0
LINE
  5
3CF
100
AcDbEntity
  8
0
100
AcDbLine
 62
7
  6
CONTINUOUS
 10
3.3137968363
 20
5.0063047393
 11
3.3098585841
 21
5.0065276452
  0
LINE
  5
3D0
100
AcDbEntity
  8
0
100
AcDbLine
 62
7
  6
CONTINUOUS
 10
3.3883636039
 20
5.005244763
 11
3.3827090187
 21
5.0052715318
  0
LINE
  5
3D1
100
AcDbEntity
  8
0
100
AcDbLine
 62
7
  6
CONTINUOUS
 10
3.453118343
 20
5.0042540761
 11
3.4488191312
 21
5.0043541114
  0
LINE
  5
3D2
100
AcDbEntity
  8
0
100
AcDbLine
 62
7
  6
CONTINUOUS
 10
3.4789001664
 20
5.0032606476
 11
3.4701325089
 21
5.0032955792
  0
LINE
  5
3D3
100
AcDbEntity
  8
0
100
AcDbLine
 62
7
  6
CONTINUOUS
 10
3.3565297949
 20
5.0061151677
 11
3.3638587787
 21
5.0061638827
  0
LINE
  5
3D4
100
AcDbEntity
  8
0
100
AcDbLine
 62
7
  6
CONTINUOUS
 10
3.3638587787
 20
5.0061638827
 11
3.37026468
 21
5.0062177105
  0
LINE
  5
3D5
100
AcDbEntity
  8
0
100
AcDbLine
 62
7
  6
CONTINUOUS
 10
3.37026468
 20
5.0062177105
 11
3.3711801647
 21
5.0062262548
  0
LINE
  5
3D6
100
AcDbEntity
  8
0
100
AcDbLine
 62
7
  6
CONTINUOUS
 10
3.3827090187
 20
5.0052715318
 11
3.3679306298
 21
5.0056838563
  0
LINE
  5
3D7
100
AcDbEntity
  8
0
100
AcDbLine
 62
7
  6
CONTINUOUS
 10
3.360452349
 20
5.0058930904
 11
3.3529146773
 21
5.0061043672
  0
LINE
  5
3D8
100
AcDbEntity
  8
0
100
AcDbLine
 62
7
  6
CONTINUOUS
 10
3.3529146773
 20
5.0061043672
 11
3.3376611607
 21
5.0065330359
  0
LINE
  5
3D9
100
AcDbEntity
  8
0
100
AcDbLine
 62
7
  6
CONTINUOUS
 10
5.0137229747
 20
5.0063870719
 11
5.0131776275
 21
5.0064144407
  0
LINE
  5
3DA
100
AcDbEntity
  8
0
100
AcDbLine
 62
7
  6
CONTINUOUS
 10
4.8731940765
 20
5.0032784593
 11
4.8713218997
 21
5.003327407
  0
LINE
  5
3DB
100
AcDbEntity
  8
0
100
AcDbLine
 62
7
  6
CONTINUOUS
 10
4.8713218997
 20
5.003327407
 11
4.8712194342
 21
5.0033508973
  0
LINE
  5
3DC
100
AcDbEntity
  8
0
100
AcDbLine
 62
7
  6
CONTINUOUS
 10
4.8801446075
 20
5.0032972143
 11
4.8740430287
 21
5.0032732799
  0
LINE
  5
3DD
100
AcDbEntity
  8
0
100
AcDbLine
 62
7
  6
CONTINUOUS
 10
4.9533317471
 20
5.0049152282
 11
4.9520698354
 21
5.0048690061
  0
LINE
  5
3DE
100
AcDbEntity
  8
0
100
AcDbLine
 62
7
  6
CONTINUOUS
 10
4.9431998724
 20
5.0045844838
 11
4.941436458
 21
5.0045349962
  0
LINE
  5
3DF
100
AcDbEntity
  8
0
100
AcDbLine
 62
7
  6
CONTINUOUS
 10
4.9610834859
 20
5.0051373337
 11
4.9591093257
 21
5.0051116809
  0
LINE
  5
3E0
100
AcDbEntity
  8
0
100
AcDbLine
 62
7
  6
CONTINUOUS
 10
4.9591093257
 20
5.0051116809
 11
4.9578610597
 21
5.0050960181
  0
LINE
  5
3E1
100
AcDbEntity
  8
0
100
AcDbLine
 62
7
  6
CONTINUOUS
 10
4.9757219144
 20
5.0057411036
 11
4.9734352896
 21
5.0056739155
  0
LINE
  5
3E2
100
AcDbEntity
  8
0
100
AcDbLine
 62
7
  6
CONTINUOUS
 10
4.9626812347
 20
5.0052967819
 11
4.9612930178
 21
5.0052388325
  0
LINE
  5
3E3
100
AcDbEntity
  8
0
100
AcDbLine
 62
7
  6
CONTINUOUS
 10
5.0126875224
 20
5.0064197579
 11
5.0071656159
 21
5.0063834314
  0
LINE
  5
3E4
100
AcDbEntity
  8
0
100
AcDbLine
 62
7
  6
CONTINUOUS
 10
5.0071656159
 20
5.0063834314
 11
5.0049876864
 21
5.0063548159
  0
LINE
  5
3E5
100
AcDbEntity
  8
0
100
AcDbLine
 62
7
  6
CONTINUOUS
 10
5.0049876864
 20
5.0063548159
 11
5.0024790205
 21
5.0063179
  0
ENDSEC
  0
SECTION
  2
OBJECTS
  0
DICTIONARY
  5
C
100
AcDbDictionary
280
0
281
1
  3
ACAD_GROUP
350
D
  3
ACAD_MLINESTYLE
350
17
  3
ACAD_LAYOUT
350
1A
  3
ACAD_PLOTSETTINGS
350
19
  3
ACAD_PLOTSTYLENAME
350
E
  0
DICTIONARY
  5
D
102
{ACAD_REACTORS
330
C
102
}
100
AcDbDictionary
280
0
281
1
  0
ACDBDICTIONARYWDFLT
  5
E
102
{ACAD_REACTORS
330
C
102
}
100
AcDbDictionary
281
1
  3
Normal
350
F
100
AcDbDictionaryWithDefault
340
F
  0
DICTIONARY
  5
17
102
{ACAD_REACTORS
330
C
102
}
100
AcDbDictionary
280
0
281
1
  3
Standard
350
18
  0
DICTIONARY
  5
19
102
{ACAD_REACTORS
330
C
102
}
100
AcDbDictionary
281
1
  0
DICTIONARY
  5
1A
102
{ACAD_REACTORS
330
C
102
}
100
AcDbDictionary
281
1
  3
Model
350
3E6
  3
Layout1
350
3E7
  0
ACDBPLACEHOLDER
  5
F
102
{ACAD_REACTORS
330
E
102
}
  0
MLINESTYLE
  5
18
102
{ACAD_REACTORS
330
17
102
}
100
AcDbMlineStyle
  2
STANDARD
 70
0
  3

 62
256
 51
90.0
 52
90.0
 71
2
 49
0.5
 62
256
  6
BYLAYER
 49
-0.5
 62
256
  6
BYLAYER
  0
LAYOUT
  5
3E6
102
{ACAD_REACTORS
330
1A
102
}
100
AcDbPlotSettings
  1

  2
none_device
  4
ANSI_A_(11.00_x_8.50_Inches)
  6

 40
0.0
 41
0.0
 42
0.0
 43
0.0
 44
279.4
 45
215.9
 46
0.0
 47
0.0
 48
0.0
 49
0.0
140
0.0
141
0.0
142
1.0
143
1.0
 70
1024
 72
0
 73
0
 74
0
  7

 75
0
147
1.0
148
0.0
149
0.0
100
AcDbLayout
  1
Model
 70
0
 71
0
 10
0.0
 20
0.0
 11
11.0
 21
8.5
 12
0.0
 22
0.0
 32
0.0
 14
0.0
 24
0.0
 34
0.0
 15
0.0
 25
0.0
 35
0.0
146
0.0
 13
0.0
 23
0.0
 33
0.0
 16
1.0
 26
0.0
 36
0.0
 17
0.0
 27
1.0
 37
0.0
 76
0
330
221
345
0
346
0
  0
LAYOUT
  5
3E7
102
{ACAD_REACTORS
330
1A
102
}
100
AcDbPlotSettings
  1

  2
none_device
  4
ANSI_A_(11.00_x_8.50_Inches)
  6

 40
0.0
 41
0.0
 42
0.0
 43
0.0
 44
279.4
 45
215.9
 46
0.0
 47
0.0
 48
0.0
 49
0.0
140
0.0
141
0.0
142
1.0
143
1.0
 70
0
 72
0
 73
0
 74
0
  7

 75
0
147
1.0
148
0.0
149
0.0
100
AcDbLayout
  1
Layout1
 70
0
 71
1
 10
0.0
 20
0.0
 11
11.0
 21
8.5
 12
0.0
 22
0.0
 32
0.0
 14
0.0
 24
0.0
 34
0.0
 15
0.0
 25
0.0
 35
0.0
146
0.0
 13
0.0
 23
0.0
 33
0.0
 16
1.0
 26
0.0
 36
0.0
 17
0.0
 27
1.0
 37
0.0
 76
0
330
222
345
0
346
0
  0
ENDSEC
  0
EOF
