999
DXF file: E:\BT Custom\CADOUTPUT\_FRONT.dxf
999
Pro/ENGINEER 2018400 by Parametric Technology Corporation
  0
SECTION
  2
HEADER
  9
$ACADVER
  1
AC1018
  9
$DWGCODEPAGE
  3
ANSI_1252
  9
$EXTMAX
 10
22.0
 20
17.0
 30
0.0
  9
$EXTMIN
 10
0.0
 20
0.0
 30
0.0
  9
$LIMMIN
 10
0.0
 20
0.0
  9
$LIMMAX
 10
22.0
 20
17.0
  9
$VIEWCTR
 10
11.0
 20
8.5
  9
$VIEWSIZE
 40
17.0
  9
$CLAYER
  8
0
  9
$LTSCALE
 40
1.21
  9
$CELTYPE
  6
BYLAYER
  9
$DIMSCALE
 40
1.0
  9
$DIMASZ
 40
0.1
  9
$DIMEXO
 40
0.0625
  9
$DIMDLI
 40
0.836
  9
$DIMEXE
 40
0.125
  9
$DIMCEN
 40
0.198
  9
$DIMLFAC
 40
1.0
  9
$DIMBLK
  1
_FILLED
  9
$DIMALT
 70
1
  9
$DIMALTD
 70
2
  9
$DIMALTTD
 70
2
  9
$DIMALTF
 40
25.4
  9
$DIMTXT
 40
0.08
  9
$DIMTOL
 70
1
  9
$DIMLIM
 70
0
  9
$DIMTFAC
 40
1.0
  9
$DIMTP
 40
0.001
  9
$DIMTM
 40
0.001
  9
$DIMGAP
 40
0.09
  9
$DIMDSEP
 70
46
  9
$AUNITS
 70
0
  9
$PDMODE
 70
3
  9
$PDSIZE
 40
0.06
  9
$HANDSEED
  5
45E
  9
$TILEMODE
 70
1
  9
$MEASUREMENT
 70
0
  9
$INSUNITS
 70
1
  0
ENDSEC
  0
SECTION
  2
CLASSES
  0
CLASS
  1
ACDBDICTIONARYWDFLT
  2
AcDbDictionaryWithDefault
  3
AutoCAD 2000
 90
0
 91
1
280
0
281
0
  0
CLASS
  1
ACDBPLACEHOLDER
  2
AcDbPlaceHolder
  3
AutoCAD 2000
 90
0
 91
1
280
0
281
0
  0
CLASS
  1
LAYOUT
  2
AcDbLayout
  3
AutoCAD 2000
 90
0
 91
0
280
0
281
0
  0
ENDSEC
  0
SECTION
  2
TABLES
  0
TABLE
  2
VPORT
  5
8
100
AcDbSymbolTable
 70
2
  0
VPORT
  5
1F4
100
AcDbSymbolTableRecord
100
AcDbViewportTableRecord
  2
*ACTIVE
 70
0
 10
0.0
 20
0.0
 11
1.0
 21
1.0
 12
11.0
 22
8.5
 13
0.0
 23
0.0
 14
1.0
 24
1.0
 15
0.0
 25
0.0
 16
0.0
 26
0.0
 36
1.0
 17
0.0
 27
0.0
 37
0.0
 40
17.0
 41
1.2941176471
 42
50.0
 43
0.0
 44
0.0
 50
0.0
 51
0.0
 71
0
 72
100
 73
1
 74
1
 75
0
 76
0
 77
0
 78
0
  0
ENDTAB
  0
TABLE
  2
LTYPE
  5
5
100
AcDbSymbolTable
 70
6
  0
LTYPE
  5
14
100
AcDbSymbolTableRecord
100
AcDbLinetypeTableRecord
  2
BYBLOCK
 70
0
  3

 72
65
 73
0
 40
0.0
  0
LTYPE
  5
15
100
AcDbSymbolTableRecord
100
AcDbLinetypeTableRecord
  2
BYLAYER
 70
0
  3

 72
65
 73
0
 40
0.0
  0
LTYPE
  5
16
100
AcDbSymbolTableRecord
100
AcDbLinetypeTableRecord
  2
CONTINUOUS
 70
64
  3
Solid line
 72
65
 73
0
 40
0.0
  0
LTYPE
  5
1F5
100
AcDbSymbolTableRecord
100
AcDbLinetypeTableRecord
  2
CENTER
 70
64
  3
____ _ ____ _ ____ _ ____ _ ____ _ ____ _ ____
 72
65
 73
4
 40
0.6
 49
0.375
 74
0
 49
-0.075
 74
0
 49
0.075
 74
0
 49
-0.075
 74
0
  0
LTYPE
  5
1F6
100
AcDbSymbolTableRecord
100
AcDbLinetypeTableRecord
  2
HIDDEN
 70
64
  3
- - - - - - - - - - - - - - - - - - - -
 72
65
 73
2
 40
0.2
 49
0.1
 74
0
 49
-0.1
 74
0
  0
LTYPE
  5
1F7
100
AcDbSymbolTableRecord
100
AcDbLinetypeTableRecord
  2
PHANTOM
 70
64
  3
_____ _ _ _____ _ _ _____ _ _ _____
 72
65
 73
6
 40
0.8
 49
0.45
 74
0
 49
-0.05
 74
0
 49
0.1
 74
0
 49
-0.05
 74
0
 49
0.1
 74
0
 49
-0.05
 74
0
  0
LTYPE
  5
1F8
100
AcDbSymbolTableRecord
100
AcDbLinetypeTableRecord
  2
DOT
 70
64
  3
. . . . . . . . . . . . . . . . . . . .
 72
65
 73
2
 40
0.2
 49
0.1
 74
0
 49
-0.1
 74
0
  0
LTYPE
  5
1F9
100
AcDbSymbolTableRecord
100
AcDbLinetypeTableRecord
  2
DASHED
 70
64
  3
- - - - - - - - - - - - - - - - - - - -
 72
65
 73
2
 40
0.2
 49
0.1
 74
0
 49
-0.1
 74
0
  0
ENDTAB
  0
TABLE
  2
LAYER
  5
2
100
AcDbSymbolTable
 70
36
  0
LAYER
  5
10
100
AcDbSymbolTableRecord
100
AcDbLayerTableRecord
  2
0
 70
0
 62
7
  6
CONTINUOUS
370
-3
390
F
  0
LAYER
  5
1FA
100
AcDbSymbolTableRecord
100
AcDbLayerTableRecord
  2
DEFAULT_1
 70
0
 62
7
  6
CENTER
370
-3
390
F
  0
LAYER
  5
1FB
100
AcDbSymbolTableRecord
100
AcDbLayerTableRecord
  2
DEFAULT_2
 70
0
 62
8
  6
HIDDEN
370
-3
390
F
  0
LAYER
  5
1FC
100
AcDbSymbolTableRecord
100
AcDbLayerTableRecord
  2
DEFAULT_3
 70
0
 62
7
  6
PHANTOM
370
-3
390
F
  0
LAYER
  5
1FD
100
AcDbSymbolTableRecord
100
AcDbLayerTableRecord
  2
ALL_FEATURES
 70
0
 62
7
  6
CONTINUOUS
370
-3
390
F
  0
LAYER
  5
1FE
100
AcDbSymbolTableRecord
100
AcDbLayerTableRecord
  2
AXES_FEATURES
 70
0
 62
7
  6
CONTINUOUS
370
-3
390
F
  0
LAYER
  5
1FF
100
AcDbSymbolTableRecord
100
AcDbLayerTableRecord
  2
DIMENSIONS
 70
0
 62
7
  6
CONTINUOUS
370
-3
390
F
  0
ENDTAB
  0
TABLE
  2
STYLE
  5
3
100
AcDbSymbolTable
 70
1
  0
STYLE
  5
11
100
AcDbSymbolTableRecord
100
AcDbTextStyleTableRecord
  2
STANDARD
 70
0
 40
0.0
 41
0.8
 50
0.0
 71
0
 42
0.2
  3
txt
  4

  0
STYLE
  5
200
100
AcDbSymbolTableRecord
100
AcDbTextStyleTableRecord
  2
TEXTSTYLE_1
 70
0
 40
0.0
 41
0.8
 50
0.0
 71
0
 42
0.2
  3
gdt
  4

  0
ENDTAB
  0
TABLE
  2
VIEW
  5
6
100
AcDbSymbolTable
 70
0
  0
ENDTAB
  0
TABLE
  2
UCS
  5
7
100
AcDbSymbolTable
 70
0
  0
ENDTAB
  0
TABLE
  2
APPID
  5
9
100
AcDbSymbolTable
 70
1
  0
APPID
  5
201
100
AcDbSymbolTableRecord
100
AcDbRegAppTableRecord
  2
ACAD
 70
0
  0
ENDTAB
  0
TABLE
  2
BLOCK_RECORD
  5
1
100
AcDbSymbolTable
 70
0
  0
BLOCK_RECORD
  5
202
100
AcDbSymbolTableRecord
100
AcDbBlockTableRecord
  2
*Model_Space
  0
BLOCK_RECORD
  5
203
100
AcDbSymbolTableRecord
100
AcDbBlockTableRecord
  2
*Paper_Space
  0
BLOCK_RECORD
  5
204
100
AcDbSymbolTableRecord
100
AcDbBlockTableRecord
  2
_FILLED
  0
ENDTAB
  0
TABLE
  2
DIMSTYLE
  5
A
100
AcDbSymbolTable
 70
1
100
AcDbDimStyleTable
 71
0
  0
DIMSTYLE
105
205
100
AcDbSymbolTableRecord
100
AcDbDimStyleTableRecord
  2
STANDARD
 70
0
  3

  4

 40
1.0
 41
0.1
 42
0.0625
 43
0.38
 44
0.125
 45
0.0
 46
0.0
 47
0.001
 48
0.001
140
0.08
141
0.09
142
0.0
143
25.4
144
1.0
145
0.0
146
1.0
147
0.09
 71
1.0
 72
0.0
 73
1
 74
1
 75
0
 76
0
 77
0
 78
4
 79
1
170
1
171
2
172
0
173
0
174
0
175
0
176
0
177
0
178
0
270
2
179
3
271
3
272
3
273
2
274
2
275
0
280
0
281
0
282
0
283
1
284
4
285
0
286
0
287
3
288
0
340
11
278
46
341
204
342
204
343
204
344
204
  0
ENDTAB
  0
ENDSEC
  0
SECTION
  2
BLOCKS
  0
BLOCK
  5
20
100
AcDbEntity
  8
0
100
AcDbBlockBegin
  2
*Model_Space
 70
0
 10
0.0
 20
0.0
 30
0.0
  3
*Model_Space
  1

  0
ENDBLK
  5
21
100
AcDbEntity
  8
0
100
AcDbBlockEnd
  0
BLOCK
  5
1C
100
AcDbEntity
  8
0
100
AcDbBlockBegin
  2
*Paper_Space
 70
0
 10
0.0
 20
0.0
 30
0.0
  3
*Paper_Space
  1

  0
ENDBLK
  5
1D
100
AcDbEntity
  8
0
100
AcDbBlockEnd
  0
BLOCK
  5
206
100
AcDbEntity
  8
0
100
AcDbBlockBegin
  2
_FILLED
 70
64
 10
0.0
 20
0.0
  3
_FILLED
  1

  0
SOLID
  5
207
100
AcDbEntity
  8
0
  6
BYBLOCK
 62
0
100
AcDbTrace
 10
0.0
 20
0.0
 11
-1.0
 21
0.2
 12
-1.0
 22
-0.2
 13
-1.0
 23
-0.2
  0
ENDBLK
  5
208
100
AcDbEntity
  8
0
  6
BYBLOCK
 62
0
100
AcDbBlockEnd
  0
ENDSEC
  0
SECTION
  2
ENTITIES
  0
LINE
  5
209
100
AcDbEntity
  8
0
100
AcDbLine
 62
7
  6
CONTINUOUS
 10
10.9120600042
 20
0.8162270731
 11
10.9446219412
 21
0.8162270731
  0
LINE
  5
20A
100
AcDbEntity
  8
0
100
AcDbLine
 62
7
  6
CONTINUOUS
 10
11.083816841
 20
0.8162270731
 11
11.116378778
 21
0.8162270731
  0
LINE
  5
20B
100
AcDbEntity
  8
0
100
AcDbLine
 62
7
  6
CONTINUOUS
 10
11.2169980941
 20
0.9111260286
 11
11.116378778
 21
0.9111260286
  0
LINE
  5
20C
100
AcDbEntity
  8
0
100
AcDbLine
 62
7
  6
CONTINUOUS
 10
11.0452412305
 20
0.9111260286
 11
10.9446219412
 21
0.9111260286
  0
LINE
  5
20D
100
AcDbEntity
  8
0
100
AcDbLine
 62
7
  6
CONTINUOUS
 10
10.9446219412
 20
0.9439813053
 11
11.0452412305
 21
0.9439813053
  0
LINE
  5
20E
100
AcDbEntity
  8
0
100
AcDbLine
 62
7
  6
CONTINUOUS
 10
11.116378778
 20
0.9439813053
 11
11.2169980941
 21
0.9439813053
  0
LINE
  5
20F
100
AcDbEntity
  8
0
100
AcDbLine
 62
7
  6
CONTINUOUS
 10
11.2184648332
 20
1.0083717963
 11
11.116378778
 21
1.0083717963
  0
LINE
  5
210
100
AcDbEntity
  8
0
100
AcDbLine
 62
7
  6
CONTINUOUS
 10
11.0467079965
 20
1.0083717963
 11
10.9446219412
 21
1.0083717963
  0
LINE
  5
211
100
AcDbEntity
  8
0
100
AcDbLine
 62
7
  6
CONTINUOUS
 10
10.9120600042
 20
1.0412270731
 11
11.0467079965
 21
1.0412270731
  0
LINE
  5
212
100
AcDbEntity
  8
0
100
AcDbLine
 62
7
  6
CONTINUOUS
 10
11.083816841
 20
1.0412270731
 11
11.2184648332
 21
1.0412270731
  0
LINE
  5
213
100
AcDbEntity
  8
0
100
AcDbLine
 62
7
  6
CONTINUOUS
 10
12.6144113877
 20
1.4962270731
 11
12.4970711001
 21
1.4962270731
  0
LINE
  5
214
100
AcDbEntity
  8
0
100
AcDbLine
 62
7
  6
CONTINUOUS
 10
12.6452131786
 20
1.4962270731
 11
12.7157640734
 21
1.4962270731
  0
LINE
  5
215
100
AcDbEntity
  8
0
100
AcDbLine
 62
7
  6
CONTINUOUS
 10
12.6777751424
 20
1.5254154683
 11
12.7157640734
 21
1.5254154683
  0
LINE
  5
216
100
AcDbEntity
  8
0
100
AcDbLine
 62
7
  6
CONTINUOUS
 10
12.5296330371
 20
1.5290823532
 11
12.6144113877
 21
1.5290823532
  0
LINE
  5
217
100
AcDbEntity
  8
0
100
AcDbLine
 62
7
  6
CONTINUOUS
 10
12.7276447573
 20
1.6883717963
 11
12.6777751424
 21
1.6883717963
  0
LINE
  5
218
100
AcDbEntity
  8
0
100
AcDbLine
 62
7
  6
CONTINUOUS
 10
12.7266180076
 20
1.7212270731
 11
12.6452131786
 21
1.7212270731
  0
LINE
  5
219
100
AcDbEntity
  8
0
100
AcDbLine
 62
7
  6
CONTINUOUS
 10
12.5296330371
 20
1.7212270731
 11
12.4970711001
 21
1.7212270731
  0
LINE
  5
21A
100
AcDbEntity
  8
0
100
AcDbLine
 62
7
  6
CONTINUOUS
 10
11.1851291744
 20
2.6171174219
 11
11.2091390167
 21
2.6239095226
  0
LWPOLYLINE
  5
21B
100
AcDbEntity
  8
0
100
AcDbPolyline
 62
7
  6
CONTINUOUS
 90
6
 70
0
 10
10.6199079546
 20
2.622852414
 10
10.624754632
 20
2.6238175756
 10
10.6300353648
 20
2.6246357152
 10
10.6363426186
 20
2.6253004884
 10
10.6438200499
 20
2.6256550728
 10
10.65261182
 20
2.62547517
  0
LINE
  5
21C
100
AcDbEntity
  8
0
100
AcDbLine
 62
7
  6
CONTINUOUS
 10
10.6231622782
 20
2.6235209681
 11
10.6257519658
 21
2.6239882339
  0
LWPOLYLINE
  5
21D
100
AcDbEntity
  8
0
100
AcDbPolyline
 62
7
  6
CONTINUOUS
 90
5
 70
0
 10
10.6283353038
 20
2.6243962578
 10
10.6309107848
 20
2.624745874
 10
10.6334768329
 20
2.625037942
 10
10.6360319106
 20
2.6252733655
 10
10.6385745194
 20
2.6254530908
  0
LINE
  5
21E
100
AcDbEntity
  8
0
100
AcDbLine
 62
7
  6
CONTINUOUS
 10
11.2091390167
 20
2.6239095226
 11
11.2358822549
 21
2.6255071424
  0
LWPOLYLINE
  5
21F
100
AcDbEntity
  8
0
100
AcDbPolyline
 62
7
  6
CONTINUOUS
 90
9
 70
0
 10
10.6411032007
 20
2.625578105
 10
10.6436165357
 20
2.6256494343
 10
10.6461131465
 20
2.6256681432
 10
10.6485916961
 20
2.6256353321
 10
10.6510508891
 20
2.6255521362
 10
10.6534894724
 20
2.6254197244
 10
10.6559062353
 20
2.6252392971
 10
10.6583000105
 20
2.6250120852
 10
10.6606696744
 20
2.6247393481
  0
LINE
  5
220
100
AcDbEntity
  8
0
100
AcDbLine
 62
7
  6
CONTINUOUS
 10
10.6235473106
 20
2.6235961101
 11
10.6615216883
 21
2.624631155
  0
LINE
  5
221
100
AcDbEntity
  8
0
100
AcDbLine
 62
7
  6
CONTINUOUS
 10
11.3167216946
 20
2.4522270731
 11
10.5586632507
 21
2.4522270731
  0
LINE
  5
222
100
AcDbEntity
  8
0
100
AcDbLine
 62
7
  6
CONTINUOUS
 10
11.2129729044
 20
2.6245099209
 11
11.2488864513
 21
2.6241140146
  0
LWPOLYLINE
  5
223
100
AcDbEntity
  8
0
100
AcDbPolyline
 62
7
  6
CONTINUOUS
 90
3
 70
0
 10
10.65261182
 20
2.62547517
 10
10.6632912804
 20
2.6243836544
 10
10.6768292903
 20
2.6215796035
  0
LWPOLYLINE
  5
224
100
AcDbEntity
  8
0
100
AcDbPolyline
 62
7
  6
CONTINUOUS
 90
4
 70
0
 10
10.6606696744
 20
2.6247393481
 10
10.6630141478
 20
2.624422373
 10
10.6653323963
 20
2.6240624721
 10
10.6676234309
 20
2.6236609823
  0
LINE
  5
225
100
AcDbEntity
  8
0
100
AcDbLine
 62
7
  6
CONTINUOUS
 10
11.2358822549
 20
2.6255071424
 11
11.2635413125
 21
2.6207769028
  0
LWPOLYLINE
  5
226
100
AcDbEntity
  8
0
100
AcDbPolyline
 62
7
  6
CONTINUOUS
 90
14
 70
0
 10
10.6676234309
 20
2.6236609823
 10
10.6698863086
 20
2.6232192623
 10
10.6721200945
 20
2.6227387005
 10
10.6743232344
 20
2.6222208704
 10
10.6764936747
 20
2.6216675634
 10
10.6786294136
 20
2.6210806845
 10
10.680728522
 20
2.6204622435
 10
10.6827891466
 20
2.6198143497
 10
10.684809513
 20
2.6191392061
 10
10.6867879287
 20
2.6184391028
 10
10.6887227852
 20
2.617716411
 10
10.6906125595
 20
2.6169735759
 10
10.6924558142
 20
2.6162131108
 10
10.6942445612
 20
2.6154405205
  0
LINE
  5
227
100
AcDbEntity
  8
0
100
AcDbLine
 62
7
  6
CONTINUOUS
 10
10.6615216883
 20
2.624631155
 11
10.6979564972
 21
2.6137252709
  0
LINE
  5
228
100
AcDbEntity
  8
0
100
AcDbLine
 62
7
  6
CONTINUOUS
 10
11.2522232081
 20
3.5939333316
 11
11.2496335168
 21
3.593466047
  0
LWPOLYLINE
  5
229
100
AcDbEntity
  8
0
100
AcDbPolyline
 62
7
  6
CONTINUOUS
 90
5
 70
0
 10
11.2470501759
 20
3.5930580049
 10
11.2444746913
 20
3.5927083708
 10
11.2419086391
 20
3.5924162851
 10
11.2393535567
 20
3.5921808442
 10
11.2368109425
 20
3.5920011019
  0
LWPOLYLINE
  5
22A
100
AcDbEntity
  8
0
100
AcDbPolyline
 62
7
  6
CONTINUOUS
 90
9
 70
0
 10
11.2342822554
 20
3.5918760711
 10
11.2317689139
 20
3.5918047254
 10
11.2292722962
 20
3.5917860007
 10
11.2267937392
 20
3.5918187964
 10
11.2243345383
 20
3.5919019772
 10
11.2218959468
 20
3.5920343743
 10
11.2194791753
 20
3.5922147875
 10
11.2170853912
 20
3.5924419857
 10
11.2147157182
 20
3.5927147095
  0
LINE
  5
22B
100
AcDbEntity
  8
0
100
AcDbLine
 62
7
  6
CONTINUOUS
 10
11.2518357945
 20
3.5938577383
 11
11.213861794
 21
3.5928231505
  0
LINE
  5
22C
100
AcDbEntity
  8
0
100
AcDbLine
 62
7
  6
CONTINUOUS
 10
11.2488864513
 20
2.6241140146
 11
11.283518749
 21
2.6128857977
  0
LINE
  5
22D
100
AcDbEntity
  8
0
100
AcDbLine
 62
7
  6
CONTINUOUS
 10
10.6768292903
 20
2.6215796035
 11
10.6954330545
 21
2.6149082506
  0
LINE
  5
22E
100
AcDbEntity
  8
0
100
AcDbLine
 62
7
  6
CONTINUOUS
 10
11.2635413125
 20
2.6207769028
 11
11.2906084148
 21
2.6090177441
  0
LWPOLYLINE
  5
22F
100
AcDbEntity
  8
0
100
AcDbPolyline
 62
7
  6
CONTINUOUS
 90
4
 70
0
 10
10.6942445612
 20
2.6154405205
 10
10.6959494233
 20
2.6146717586
 10
10.6975364112
 20
2.6139271281
 10
10.6977656635
 20
2.6138172129
  0
LWPOLYLINE
  5
230
100
AcDbEntity
  8
0
100
AcDbPolyline
 62
7
  6
CONTINUOUS
 90
6
 70
0
 10
11.2554759109
 20
3.5946015512
 10
11.250629218
 20
3.5936364219
 10
11.2453485606
 20
3.5928183304
 10
11.2390414744
 20
3.5921536111
 10
11.2315641333
 20
3.5917990652
 10
11.2227724781
 20
3.5919789983
  0
LWPOLYLINE
  5
231
100
AcDbEntity
  8
0
100
AcDbPolyline
 62
7
  6
CONTINUOUS
 90
3
 70
0
 10
10.6739502953
 20
3.595141116
 10
10.6484886015
 20
3.5918145519
 10
10.6229016181
 20
3.5939813604
  0
LINE
  5
232
100
AcDbEntity
  8
0
100
AcDbLine
 62
7
  6
CONTINUOUS
 10
10.5586629908
 20
3.7652270731
 11
11.3167216944
 21
3.7652270731
  0
LWPOLYLINE
  5
233
100
AcDbEntity
  8
0
100
AcDbPolyline
 62
7
  6
CONTINUOUS
 90
3
 70
0
 10
11.2227724781
 20
3.5919789983
 10
11.2120931501
 20
3.5930705293
 10
11.1985552701
 20
3.5958745762
  0
LWPOLYLINE
  5
234
100
AcDbEntity
  8
0
100
AcDbPolyline
 62
7
  6
CONTINUOUS
 90
4
 70
0
 10
11.2147157182
 20
3.5927147095
 10
11.2123712355
 20
3.5930316718
 10
11.2100529775
 20
3.5933915602
 10
11.2077619332
 20
3.5937930381
  0
LWPOLYLINE
  5
235
100
AcDbEntity
  8
0
100
AcDbPolyline
 62
7
  6
CONTINUOUS
 90
14
 70
0
 10
11.2077619332
 20
3.5937930381
 10
11.2054990459
 20
3.5942347465
 10
11.2032652502
 20
3.5947152972
 10
11.2010620997
 20
3.5952331168
 10
11.198891648
 20
3.5957864139
 10
11.196755897
 20
3.5963732836
 10
11.1946567761
 20
3.5969917161
 10
11.1925961386
 20
3.5976396019
 10
11.1905757591
 20
3.5983147382
 10
11.18859733
 20
3.5990148348
 10
11.1866624603
 20
3.5997375204
 10
11.184772673
 20
3.6004803498
 10
11.1829294055
 20
3.6012408096
 10
11.1811406389
 20
3.6020133984
  0
LWPOLYLINE
  5
236
100
AcDbEntity
  8
0
100
AcDbPolyline
 62
7
  6
CONTINUOUS
 90
9
 70
0
 10
10.6229000025
 20
3.5939821221
 10
10.6200023973
 20
3.5945816479
 10
10.6171018432
 20
3.595257011
 10
10.6142051435
 20
3.5960079053
 10
10.6113190283
 20
3.5968335029
 10
10.608450125
 20
3.5977324541
 10
10.6056049288
 20
3.5987028915
 10
10.6027897738
 20
3.5997424368
 10
10.6000108046
 20
3.6008482114
  0
LINE
  5
237
100
AcDbEntity
  8
0
100
AcDbLine
 62
7
  6
CONTINUOUS
 10
11.213861794
 20
3.5928231505
 11
11.1774281843
 21
3.6037288772
  0
LINE
  5
238
100
AcDbEntity
  8
0
100
AcDbLine
 62
7
  6
CONTINUOUS
 10
10.6229016181
 20
3.5939813604
 11
10.5999863665
 21
3.6008586465
  0
LINE
  5
239
100
AcDbEntity
  8
0
100
AcDbLine
 62
7
  6
CONTINUOUS
 10
11.1985552701
 20
3.5958745762
 11
11.1799515219
 21
3.6025459451
  0
LWPOLYLINE
  5
23A
100
AcDbEntity
  8
0
100
AcDbPolyline
 62
7
  6
CONTINUOUS
 90
9
 70
0
 10
10.6000108046
 20
3.6008482114
 10
10.5972739492
 20
3.6020168497
 10
10.5945848932
 20
3.6032445152
 10
10.5919490558
 20
3.6045269207
 10
10.5893715673
 20
3.6058593498
 10
10.5868572501
 20
3.6072366824
 10
10.5844106012
 20
3.6086534216
 10
10.5820357788
 20
3.6101037235
 10
10.5797365912
 20
3.611581429
  0
LWPOLYLINE
  5
23B
100
AcDbEntity
  8
0
100
AcDbPolyline
 62
7
  6
CONTINUOUS
 90
4
 70
0
 10
11.1811406389
 20
3.6020133984
 10
11.1794357467
 20
3.6027821645
 10
11.1778487132
 20
3.6035268081
 10
11.1776193606
 20
3.6036367705
  0
LINE
  5
23C
100
AcDbEntity
  8
0
100
AcDbLine
 62
7
  6
CONTINUOUS
 10
10.5999863665
 20
3.6008586465
 11
10.5789506277
 21
3.6121119898
  0
LINE
  5
23D
100
AcDbEntity
  8
0
100
AcDbLine
 62
7
  6
CONTINUOUS
 10
11.283518749
 20
2.6128857977
 11
11.3135368445
 21
2.5914509552
  0
LINE
  5
23E
100
AcDbEntity
  8
0
100
AcDbLine
 62
7
  6
CONTINUOUS
 10
11.2906084148
 20
2.6090177441
 11
11.3129295476
 21
2.5917207228
  0
LINE
  5
23F
100
AcDbEntity
  8
0
100
AcDbLine
 62
7
  6
CONTINUOUS
 10
12.0255489284
 20
4.4962270731
 11
12.0705782624
 21
4.4962270731
  0
LINE
  5
240
100
AcDbEntity
  8
0
100
AcDbLine
 62
7
  6
CONTINUOUS
 10
12.1629837426
 20
4.4962270731
 11
12.2080130698
 21
4.4962270731
  0
LINE
  5
241
100
AcDbEntity
  8
0
100
AcDbLine
 62
7
  6
CONTINUOUS
 10
12.2702034118
 20
4.4962270731
 11
12.3023253324
 21
4.4962270731
  0
LINE
  5
242
100
AcDbEntity
  8
0
100
AcDbLine
 62
7
  6
CONTINUOUS
 10
12.4349198522
 20
4.4962270731
 11
12.4677751424
 21
4.4962270731
  0
LINE
  5
243
100
AcDbEntity
  8
0
100
AcDbLine
 62
7
  6
CONTINUOUS
 10
12.4975502374
 20
4.4962270731
 11
12.5301121475
 21
4.4962270731
  0
LINE
  5
244
100
AcDbEntity
  8
0
100
AcDbLine
 62
7
  6
CONTINUOUS
 10
12.6100502374
 20
4.4962270731
 11
12.6477457883
 21
4.4962270731
  0
LINE
  5
245
100
AcDbEntity
  8
0
100
AcDbLine
 62
7
  6
CONTINUOUS
 10
12.6869081321
 20
4.4962270731
 11
12.7194700422
 21
4.4962270731
  0
LINE
  5
246
100
AcDbEntity
  8
0
100
AcDbLine
 62
7
  6
CONTINUOUS
 10
12.7779935362
 20
4.4962270731
 11
12.8137823047
 21
4.4962270731
  0
LINE
  5
247
100
AcDbEntity
  8
0
100
AcDbLine
 62
7
  6
CONTINUOUS
 10
12.8721590819
 20
4.4962270731
 11
12.9047209921
 21
4.4962270731
  0
LINE
  5
248
100
AcDbEntity
  8
0
100
AcDbLine
 62
7
  6
CONTINUOUS
 10
12.4162920716
 20
4.5594441512
 11
12.320806423
 21
4.5594441512
  0
LINE
  5
249
100
AcDbEntity
  8
0
100
AcDbLine
 62
7
  6
CONTINUOUS
 10
12.3307803514
 20
4.5922994347
 11
12.4064648332
 21
4.5922994347
  0
LINE
  5
24A
100
AcDbEntity
  8
0
100
AcDbLine
 62
7
  6
CONTINUOUS
 10
12.5301121475
 20
4.6157674962
 11
12.5682477417
 21
4.6157674962
  0
LINE
  5
24B
100
AcDbEntity
  8
0
100
AcDbLine
 62
7
  6
CONTINUOUS
 10
12.579395056
 20
4.6883717963
 11
12.5301121475
 21
4.6883717963
  0
LINE
  5
24C
100
AcDbEntity
  8
0
100
AcDbLine
 62
7
  6
CONTINUOUS
 10
12.9047209921
 20
4.7212270731
 11
12.8448774757
 21
4.7212270731
  0
LINE
  5
24D
100
AcDbEntity
  8
0
100
AcDbLine
 62
7
  6
CONTINUOUS
 10
12.7467516484
 20
4.7212270731
 11
12.6869081321
 21
4.7212270731
  0
LINE
  5
24E
100
AcDbEntity
  8
0
100
AcDbLine
 62
7
  6
CONTINUOUS
 10
12.5827686312
 20
4.7212270731
 11
12.4975502374
 21
4.7212270731
  0
LINE
  5
24F
100
AcDbEntity
  8
0
100
AcDbLine
 62
7
  6
CONTINUOUS
 10
12.3963442417
 20
4.7212270731
 11
12.3416343125
 21
4.7212270731
  0
LINE
  5
250
100
AcDbEntity
  8
0
100
AcDbLine
 62
7
  6
CONTINUOUS
 10
12.2624296191
 20
4.7212270731
 11
12.2282542797
 21
4.7212270731
  0
LINE
  5
251
100
AcDbEntity
  8
0
100
AcDbLine
 62
7
  6
CONTINUOUS
 10
12.1392223345
 20
4.7212270731
 11
12.0941929939
 21
4.7212270731
  0
LINE
  5
252
100
AcDbEntity
  8
0
100
AcDbLine
 62
7
  6
CONTINUOUS
 10
12.0050143754
 20
4.7212270731
 11
11.9709856934
 21
4.7212270731
  0
LWPOLYLINE
  5
253
100
AcDbEntity
  8
0
100
AcDbPolyline
 62
7
  6
CONTINUOUS
 90
12
 70
0
 10
10.5797365912
 20
3.611581429
 10
10.5775164532
 20
3.6130801221
 10
10.5753783122
 20
3.6145932217
 10
10.5733248473
 20
3.6161138852
 10
10.5713584078
 20
3.6176350815
 10
10.5694810081
 20
3.6191496358
 10
10.5676949379
 20
3.6206497527
 10
10.566005181
 20
3.6221248155
 10
10.5644166512
 20
3.6235635017
 10
10.5629356838
 20
3.6249524037
 10
10.5616867191
 20
3.6261611389
 10
10.5610631697
 20
3.6267779056
  0
LINE
  5
254
100
AcDbEntity
  8
0
100
AcDbLine
 62
7
  6
CONTINUOUS
 10
10.5788876398
 20
3.6121456908
 11
10.5624246839
 21
3.6256850766
  0
LINE
  5
255
100
AcDbEntity
  8
0
100
AcDbLine
 62
7
  6
CONTINUOUS
 10
10.018462257
 20
3.8865358026
 11
10.4204229016
 21
3.484575158
  0
LINE
  5
256
100
AcDbEntity
  8
0
100
AcDbLine
 62
7
  6
CONTINUOUS
 10
11.31308139
 20
2.5919166695
 11
11.7155010722
 21
2.1894969873
  0
LINE
  5
257
100
AcDbEntity
  8
0
100
AcDbLine
 62
7
  6
CONTINUOUS
 10
11.8569224285
 20
2.3309183436
 11
11.4549617839
 21
2.7328789881
  0
LINE
  5
258
100
AcDbEntity
  8
0
100
AcDbLine
 62
7
  6
CONTINUOUS
 10
10.5623032954
 20
3.6255374766
 11
10.1598836132
 21
4.0279571588
  0
LINE
  5
259
100
AcDbEntity
  8
0
100
AcDbLine
 62
7
  6
CONTINUOUS
 10
11.4548570701
 20
2.7330256949
 11
11.4539205701
 21
2.7339813551
  0
LINE
  5
25A
100
AcDbEntity
  8
0
100
AcDbLine
 62
7
  6
CONTINUOUS
 10
10.4205273644
 20
3.484428705
 11
10.423304884
 21
3.4815291823
  0
LINE
  5
25B
100
AcDbEntity
  8
0
100
AcDbLine
 62
7
  6
CONTINUOUS
 10
8.3540527834
 20
11.8875640287
 11
8.3117879044
 21
11.8196584566
  0
LINE
  5
25C
100
AcDbEntity
  8
0
100
AcDbLine
 62
7
  6
CONTINUOUS
 10
10.4576923427
 20
14.2047270731
 11
10.4376923427
 21
14.1847270731
  0
LINE
  5
25D
100
AcDbEntity
  8
0
100
AcDbLine
 62
7
  6
CONTINUOUS
 10
10.6488872576
 20
5.1962270731
 11
10.6814491862
 21
5.1962270731
  0
LINE
  5
25E
100
AcDbEntity
  8
0
100
AcDbLine
 62
7
  6
CONTINUOUS
 10
10.7844152944
 20
5.1962270731
 11
10.816977218
 21
5.1962270731
  0
LINE
  5
25F
100
AcDbEntity
  8
0
100
AcDbLine
 62
7
  6
CONTINUOUS
 10
11.1295424239
 20
5.1962270731
 11
11.1621043341
 21
5.1962270731
  0
LINE
  5
260
100
AcDbEntity
  8
0
100
AcDbLine
 62
7
  6
CONTINUOUS
 10
10.7844152944
 20
5.2933261575
 11
10.6814491862
 21
5.2933261575
  0
LINE
  5
261
100
AcDbEntity
  8
0
100
AcDbLine
 62
7
  6
CONTINUOUS
 10
10.6814491862
 20
5.3261814409
 11
10.7844152944
 21
5.3261814409
  0
LINE
  5
262
100
AcDbEntity
  8
0
100
AcDbLine
 62
7
  6
CONTINUOUS
 10
11.225614752
 20
5.3883717963
 11
11.1621043341
 21
5.3883717963
  0
LINE
  5
263
100
AcDbEntity
  8
0
100
AcDbLine
 62
7
  6
CONTINUOUS
 10
11.1295424239
 20
5.3883717963
 11
11.0660319792
 21
5.3883717963
  0
LINE
  5
264
100
AcDbEntity
  8
0
100
AcDbLine
 62
7
  6
CONTINUOUS
 10
10.816977218
 20
5.4212270731
 11
10.7844152944
 21
5.4212270731
  0
LINE
  5
265
100
AcDbEntity
  8
0
100
AcDbLine
 62
7
  6
CONTINUOUS
 10
10.6814491862
 20
5.4212270731
 11
10.6488872576
 21
5.4212270731
  0
LINE
  5
266
100
AcDbEntity
  8
0
100
AcDbLine
 62
7
  6
CONTINUOUS
 10
11.0660319792
 20
5.4212270731
 11
11.225614752
 21
5.4212270731
  0
LINE
  5
267
100
AcDbEntity
  8
0
100
AcDbLine
 62
7
  6
CONTINUOUS
 10
11.4539205701
 20
2.7339813551
 11
11.4519191022
 21
2.7360991152
  0
LINE
  5
268
100
AcDbEntity
  8
0
100
AcDbLine
 62
7
  6
CONTINUOUS
 10
11.4526895742
 20
2.7352771825
 11
11.4501474841
 21
2.7380688844
  0
LINE
  5
269
100
AcDbEntity
  8
0
100
AcDbLine
 62
7
  6
CONTINUOUS
 10
11.4501474841
 20
2.7380688844
 11
11.4495438901
 21
2.7387620023
  0
LWPOLYLINE
  5
26A
100
AcDbEntity
  8
0
100
AcDbPolyline
 62
7
  6
CONTINUOUS
 90
3
 70
0
 10
11.4495472818
 20
2.7387580717
 10
11.4495883283
 20
2.7387105195
 10
11.4563117981
 20
2.7315318884
  0
LWPOLYLINE
  5
26B
100
AcDbEntity
  8
0
100
AcDbPolyline
 62
7
  6
CONTINUOUS
 90
3
 70
0
 10
11.4505222635
 20
2.7376826062
 10
11.4483338617
 20
2.7402502704
 10
11.4461423482
 20
2.742975936
  0
LINE
  5
26C
100
AcDbEntity
  8
0
100
AcDbLine
 62
7
  6
CONTINUOUS
 10
11.4561275356
 20
2.7317147608
 11
11.4426041297
 21
2.7477721052
  0
LINE
  5
26D
100
AcDbEntity
  8
0
100
AcDbLine
 62
7
  6
CONTINUOUS
 10
11.4461423482
 20
2.742975936
 11
11.4439693402
 21
2.7458486106
  0
LINE
  5
26E
100
AcDbEntity
  8
0
100
AcDbLine
 62
7
  6
CONTINUOUS
 10
11.4550015582
 20
2.733134332
 11
11.4356865225
 21
2.7588234454
  0
LINE
  5
26F
100
AcDbEntity
  8
0
100
AcDbLine
 62
7
  6
CONTINUOUS
 10
10.5586612113
 20
2.4522282503
 11
10.5088647966
 21
2.5384781707
  0
LINE
  5
270
100
AcDbEntity
  8
0
100
AcDbLine
 62
7
  6
CONTINUOUS
 10
10.4053371785
 20
2.7177932651
 11
10.1796322749
 21
3.1087256257
  0
LINE
  5
271
100
AcDbEntity
  8
0
100
AcDbLine
 62
7
  6
CONTINUOUS
 10
8.3769911837
 20
12.0864687282
 11
8.35982384
 21
11.9046665583
  0
LWPOLYLINE
  5
272
100
AcDbEntity
  8
0
100
AcDbPolyline
 62
7
  6
CONTINUOUS
 90
3
 70
0
 10
11.4439693402
 20
2.7458486106
 10
11.4418360273
 20
2.7488543126
 10
11.4397615007
 20
2.7519778806
  0
LINE
  5
273
100
AcDbEntity
  8
0
100
AcDbLine
 62
7
  6
CONTINUOUS
 10
11.4425212232
 20
2.7478705463
 11
11.4398048032
 21
2.7519140829
  0
LWPOLYLINE
  5
274
100
AcDbEntity
  8
0
100
AcDbPolyline
 62
7
  6
CONTINUOUS
 90
3
 70
0
 10
11.4398048032
 20
2.7519140829
 10
11.4377507335
 20
2.7552229913
 10
11.4358070043
 20
2.7585974551
  0
LINE
  5
275
100
AcDbEntity
  8
0
100
AcDbLine
 62
7
  6
CONTINUOUS
 10
11.438050827
 20
2.7547277289
 11
11.4364881036
 21
2.7573902323
  0
LINE
  5
276
100
AcDbEntity
  8
0
100
AcDbLine
 62
7
  6
CONTINUOUS
 10
10.4426459587
 20
2.8690834259
 11
10.4426525565
 21
2.8690697941
  0
LWPOLYLINE
  5
277
100
AcDbEntity
  8
0
100
AcDbPolyline
 62
7
  6
CONTINUOUS
 90
9
 70
0
 10
10.4426532617
 20
2.869068337
 10
10.4431814892
 20
2.8679623867
 10
10.4438269121
 20
2.8665701141
 10
10.4444919198
 20
2.8650846082
 10
10.4451629963
 20
2.8635281168
 10
10.4458286045
 20
2.8619214591
 10
10.4464850091
 20
2.860268935
 10
10.4471313929
 20
2.8585677359
 10
10.4477667403
 20
2.8568150104
  0
LINE
  5
278
100
AcDbEntity
  8
0
100
AcDbLine
 62
7
  6
CONTINUOUS
 10
8.2998970671
 20
11.7780509959
 11
8.2998970671
 21
11.2100026636
  0
LINE
  5
279
100
AcDbEntity
  8
0
100
AcDbLine
 62
7
  6
CONTINUOUS
 10
11.3167235458
 20
3.7652257716
 11
11.3665198889
 21
3.6789759754
  0
LINE
  5
27A
100
AcDbEntity
  8
0
100
AcDbLine
 62
7
  6
CONTINUOUS
 10
11.4700475069
 20
3.499660881
 11
11.6957525946
 21
3.1087282017
  0
LWPOLYLINE
  5
27B
100
AcDbEntity
  8
0
100
AcDbPolyline
 62
7
  6
CONTINUOUS
 90
3
 70
0
 10
11.4364881036
 20
2.7573902323
 10
11.4350335918
 20
2.7600189829
 10
11.4336671286
 20
2.7626402088
  0
LWPOLYLINE
  5
27C
100
AcDbEntity
  8
0
100
AcDbPolyline
 62
7
  6
CONTINUOUS
 90
9
 70
0
 10
11.4358070043
 20
2.7585974551
 10
11.4339362833
 20
2.7621064072
 10
11.4321454828
 20
2.7657548494
 10
11.4304425485
 20
2.7695474567
 10
11.4288362761
 20
2.7734890091
 10
11.4273353755
 20
2.77758735
 10
11.4259488446
 20
2.781854505
 10
11.4246880111
 20
2.7863026239
 10
11.4235668205
 20
2.7909435064
  0
LINE
  5
27D
100
AcDbEntity
  8
0
100
AcDbLine
 62
7
  6
CONTINUOUS
 10
11.4327387417
 20
3.3483706895
 11
11.4327323896
 21
3.3483838133
  0
LWPOLYLINE
  5
27E
100
AcDbEntity
  8
0
100
AcDbPolyline
 62
7
  6
CONTINUOUS
 90
9
 70
0
 10
11.4327323896
 20
3.3483838133
 10
11.432186489
 20
3.3495272189
 10
11.4315533866
 20
3.3508936567
 10
11.4309001529
 20
3.3523527349
 10
11.4302404679
 20
3.3538816387
 10
11.4295861142
 20
3.3554587505
 10
11.4289409708
 20
3.3570791121
 10
11.4283056919
 20
3.3587455586
 10
11.4276811193
 20
3.360460986
  0
LWPOLYLINE
  5
27F
100
AcDbEntity
  8
0
100
AcDbPolyline
 62
7
  6
CONTINUOUS
 90
3
 70
0
 10
11.4323807181
 20
2.7652625736
 10
11.4311699358
 20
2.7678898598
 10
11.4300322729
 20
2.7705229741
  0
LINE
  5
280
100
AcDbEntity
  8
0
100
AcDbLine
 62
7
  6
CONTINUOUS
 10
10.4426459431
 20
2.8690834581
 11
10.4512782909
 21
2.8449850623
  0
LWPOLYLINE
  5
281
100
AcDbEntity
  8
0
100
AcDbPolyline
 62
7
  6
CONTINUOUS
 90
7
 70
0
 10
10.4477667403
 20
2.8568150104
 10
10.4483898178
 20
2.8550078915
 10
10.4489991618
 20
2.8531435014
 10
10.4495929945
 20
2.8512192017
 10
10.4501684982
 20
2.8492352176
 10
10.4507223208
 20
2.8471937055
 10
10.4512511918
 20
2.8450969659
  0
LINE
  5
282
100
AcDbEntity
  8
0
100
AcDbLine
 62
7
  6
CONTINUOUS
 10
12.6477457883
 20
4.4962270731
 11
12.5782216968
 21
4.5924461113
  0
LINE
  5
283
100
AcDbEntity
  8
0
100
AcDbLine
 62
7
  6
CONTINUOUS
 10
12.5301121475
 20
4.6094604561
 11
12.6100502374
 21
4.4962270731
  0
LWPOLYLINE
  5
284
100
AcDbEntity
  8
0
100
AcDbPolyline
 62
7
  6
CONTINUOUS
 90
3
 70
0
 10
11.4289661672
 20
2.7731612564
 10
11.4279706637
 20
2.7758027514
 10
11.4270448336
 20
2.7784453803
  0
LINE
  5
285
100
AcDbEntity
  8
0
100
AcDbLine
 62
7
  6
CONTINUOUS
 10
11.4356710363
 20
2.7588440421
 11
11.4228654867
 21
2.7944654698
  0
LINE
  5
286
100
AcDbEntity
  8
0
100
AcDbLine
 62
7
  6
CONTINUOUS
 10
11.4327387424
 20
3.348370688
 11
11.4241063994
 21
3.3724690639
  0
LWPOLYLINE
  5
287
100
AcDbEntity
  8
0
100
AcDbPolyline
 62
7
  6
CONTINUOUS
 90
7
 70
0
 10
11.4276811193
 20
3.360460986
 10
11.4270683085
 20
3.3622283097
 10
11.4264685393
 20
3.36405046
 10
11.4258833628
 20
3.3659302607
 10
11.4253152665
 20
3.3678680884
 10
11.4247674443
 20
3.3698619229
 10
11.4242430331
 20
3.3719095457
  0
LWPOLYLINE
  5
288
100
AcDbEntity
  8
0
100
AcDbPolyline
 62
7
  6
CONTINUOUS
 90
5
 70
0
 10
11.4261877556
 20
2.7810869335
 10
11.4253984875
 20
2.7837250958
 10
11.4246760397
 20
2.7863574861
 10
11.4240193532
 20
2.7889817039
 10
11.4234272852
 20
2.7915953775
  0
LINE
  5
289
100
AcDbEntity
  8
0
100
AcDbLine
 62
7
  6
CONTINUOUS
 10
10.8458474114
 20
3.110201188
 11
10.9376923427
 21
2.7987270731
  0
LWPOLYLINE
  5
28A
100
AcDbEntity
  8
0
100
AcDbPolyline
 62
7
  6
CONTINUOUS
 90
3
 70
0
 10
10.4512511918
 20
2.8450969659
 10
10.4517519441
 20
2.8429474122
 10
10.4522215295
 20
2.8407475537
  0
LWPOLYLINE
  5
28B
100
AcDbEntity
  8
0
100
AcDbPolyline
 62
7
  6
CONTINUOUS
 90
9
 70
0
 10
10.4522215295
 20
2.8407475537
 10
10.4526571962
 20
2.8384990811
 10
10.4530564909
 20
2.8362023524
 10
10.4534169356
 20
2.8338576845
 10
10.4537360025
 20
2.8314654771
 10
10.4540111156
 20
2.8290262171
 10
10.4542396525
 20
2.826540482
 10
10.4544189458
 20
2.8240089446
 10
10.4545462856
 20
2.821432377
  0
LWPOLYLINE
  5
28C
100
AcDbEntity
  8
0
100
AcDbPolyline
 62
7
  6
CONTINUOUS
 90
10
 70
0
 10
10.4545462856
 20
2.821432377
 10
10.4546189219
 20
2.8188116552
 10
10.4546340665
 20
2.8161478149
 10
10.4545889213
 20
2.813442735
 10
10.4544807547
 20
2.810698951
 10
10.4543069314
 20
2.8079191294
 10
10.4540649209
 20
2.8051060529
 10
10.4537523048
 20
2.8022626172
 10
10.453366785
 20
2.799391828
 10
10.4529061911
 20
2.7964967978
  0
LINE
  5
28D
100
AcDbEntity
  8
0
100
AcDbLine
 62
7
  6
CONTINUOUS
 10
10.2501923427
 20
13.4147270731
 11
10.2501923427
 21
13.4351180807
  0
LWPOLYLINE
  5
28E
100
AcDbEntity
  8
0
100
AcDbPolyline
 62
7
  6
CONTINUOUS
 90
3
 70
0
 10
11.4242430331
 20
3.3719095457
 10
11.4237450713
 20
3.3740086323
 10
11.423276488
 20
3.3761567534
  0
LWPOLYLINE
  5
28F
100
AcDbEntity
  8
0
100
AcDbPolyline
 62
7
  6
CONTINUOUS
 90
6
 70
0
 10
11.4235668205
 20
2.7909435064
 10
11.4226016915
 20
2.7957901986
 10
11.4217835999
 20
2.8010708569
 10
11.4211188802
 20
2.8073779491
 10
11.4207643348
 20
2.8148552896
 10
11.4209442683
 20
2.8236469438
  0
LWPOLYLINE
  5
290
100
AcDbEntity
  8
0
100
AcDbPolyline
 62
7
  6
CONTINUOUS
 90
10
 70
0
 10
11.423276488
 20
3.3761567534
 10
11.4228399932
 20
3.3783518981
 10
11.4224379344
 20
3.3805935643
 10
11.4220726385
 20
3.3828814797
 10
11.4217464796
 20
3.3852152965
 10
11.4214618777
 20
3.3875945873
 10
11.4212212968
 20
3.3900188418
 10
11.4210272438
 20
3.3924874627
 10
11.4208822662
 20
3.394999762
 10
11.4207889505
 20
3.397554957
  0
LINE
  5
291
100
AcDbEntity
  8
0
100
AcDbLine
 62
7
  6
CONTINUOUS
 10
11.4228986016
 20
2.7941962059
 11
11.422431317
 21
2.7967858972
  0
LINE
  5
292
100
AcDbEntity
  8
0
100
AcDbLine
 62
7
  6
CONTINUOUS
 10
10.4512782909
 20
2.8449850623
 11
10.4545976703
 21
2.8195784126
  0
LINE
  5
293
100
AcDbEntity
  8
0
100
AcDbLine
 62
7
  6
CONTINUOUS
 10
10.4376923427
 20
13.6347270735
 11
10.4376923427
 21
14.1847270731
  0
LINE
  5
294
100
AcDbEntity
  8
0
100
AcDbLine
 62
7
  6
CONTINUOUS
 10
10.5314423427
 20
18.1087270731
 11
10.5314423427
 21
14.2047270731
  0
LINE
  5
295
100
AcDbEntity
  8
0
100
AcDbLine
 62
7
  6
CONTINUOUS
 10
10.6488872576
 20
5.1962270731
 11
10.6488872576
 21
5.4212270731
  0
LINE
  5
296
100
AcDbEntity
  8
0
100
AcDbLine
 62
7
  6
CONTINUOUS
 10
10.6814491862
 20
5.4212270731
 11
10.6814491862
 21
5.3261814409
  0
LINE
  5
297
100
AcDbEntity
  8
0
100
AcDbLine
 62
7
  6
CONTINUOUS
 10
10.6814491862
 20
5.2933261575
 11
10.6814491862
 21
5.1962270731
  0
LINE
  5
298
100
AcDbEntity
  8
0
100
AcDbLine
 62
7
  6
CONTINUOUS
 10
10.7844152944
 20
5.1962270731
 11
10.7844152944
 21
5.2933261575
  0
LINE
  5
299
100
AcDbEntity
  8
0
100
AcDbLine
 62
7
  6
CONTINUOUS
 10
10.7844152944
 20
5.3261814409
 11
10.7844152944
 21
5.4212270731
  0
LINE
  5
29A
100
AcDbEntity
  8
0
100
AcDbLine
 62
7
  6
CONTINUOUS
 10
10.816977218
 20
5.4212270731
 11
10.816977218
 21
5.1962270731
  0
LINE
  5
29B
100
AcDbEntity
  8
0
100
AcDbLine
 62
7
  6
CONTINUOUS
 10
10.9120600042
 20
0.8162270731
 11
10.9120600042
 21
1.0412270731
  0
LINE
  5
29C
100
AcDbEntity
  8
0
100
AcDbLine
 62
7
  6
CONTINUOUS
 10
10.9446219412
 20
1.0083717963
 11
10.9446219412
 21
0.9439813053
  0
LINE
  5
29D
100
AcDbEntity
  8
0
100
AcDbLine
 62
7
  6
CONTINUOUS
 10
10.9446219412
 20
0.9111260286
 11
10.9446219412
 21
0.8162270731
  0
LINE
  5
29E
100
AcDbEntity
  8
0
100
AcDbLine
 62
7
  6
CONTINUOUS
 10
10.4546048633
 20
2.8195233578
 11
10.4524380584
 21
2.7939363635
  0
LINE
  5
29F
100
AcDbEntity
  8
0
100
AcDbLine
 62
7
  6
CONTINUOUS
 10
12.3683292391
 20
4.6977590182
 11
12.4064648332
 21
4.5922994347
  0
LINE
  5
2A0
100
AcDbEntity
  8
0
100
AcDbLine
 62
7
  6
CONTINUOUS
 10
12.4677751424
 20
4.4962270731
 11
12.3963442417
 21
4.7212270731
  0
LINE
  5
2A1
100
AcDbEntity
  8
0
100
AcDbLine
 62
7
  6
CONTINUOUS
 10
12.4162920716
 20
4.5594441512
 11
12.4349198522
 21
4.4962270731
  0
LINE
  5
2A2
100
AcDbEntity
  8
0
100
AcDbLine
 62
7
  6
CONTINUOUS
 10
12.1166343259
 20
4.6767844388
 11
12.1629837426
 21
4.4962270731
  0
LINE
  5
2A3
100
AcDbEntity
  8
0
100
AcDbLine
 62
7
  6
CONTINUOUS
 10
11.9709856934
 20
4.7212270731
 11
12.0255489284
 21
4.4962270731
  0
LINE
  5
2A4
100
AcDbEntity
  8
0
100
AcDbLine
 62
7
  6
CONTINUOUS
 10
12.0485769602
 20
4.5238020408
 11
12.0050143754
 21
4.7212270731
  0
LWPOLYLINE
  5
2A5
100
AcDbEntity
  8
0
100
AcDbPolyline
 62
7
  6
CONTINUOUS
 90
5
 70
0
 10
11.4220232748
 20
2.7993692381
 10
11.4216736407
 20
2.8019447227
 10
11.421381555
 20
2.8045107749
 10
11.421146114
 20
2.8070658573
 10
11.4209663717
 20
2.8096084715
  0
LINE
  5
2A6
100
AcDbEntity
  8
0
100
AcDbLine
 62
7
  6
CONTINUOUS
 10
11.4241063994
 20
3.3724690639
 11
11.4207837551
 21
3.3979006732
  0
LWPOLYLINE
  5
2A7
100
AcDbEntity
  8
0
100
AcDbPolyline
 62
7
  6
CONTINUOUS
 90
9
 70
0
 10
11.4208413408
 20
2.8121371587
 10
11.4207699952
 20
2.8146505002
 10
11.4207512704
 20
2.8171471179
 10
11.420784066
 20
2.819625675
 10
11.4208672468
 20
2.8220848759
 10
11.4209996439
 20
2.8245234674
 10
11.421180057
 20
2.8269402389
 10
11.4214072552
 20
2.8293340231
 10
11.421679979
 20
2.8317036962
  0
LINE
  5
2A8
100
AcDbEntity
  8
0
100
AcDbLine
 62
7
  6
CONTINUOUS
 10
11.4228230031
 20
2.7945836471
 11
11.4217884228
 21
2.8325576414
  0
LWPOLYLINE
  5
2A9
100
AcDbEntity
  8
0
100
AcDbPolyline
 62
7
  6
CONTINUOUS
 90
10
 70
0
 10
11.4207889505
 20
3.397554957
 10
11.4207499201
 20
3.4001521645
 10
11.4207678266
 20
3.4027900499
 10
11.42084529
 20
3.4054663643
 10
11.4209848467
 20
3.4081786352
 10
11.4211889396
 20
3.4109242816
 10
11.4214599104
 20
3.4137006156
 10
11.4217999932
 20
3.4165048459
 10
11.4222113068
 20
3.4193340802
 10
11.4226958483
 20
3.422185329
  0
LINE
  5
2AA
100
AcDbEntity
  8
0
100
AcDbLine
 62
7
  6
CONTINUOUS
 10
11.0452412305
 20
0.9111260286
 11
11.0452412305
 21
0.9439813053
  0
LINE
  5
2AB
100
AcDbEntity
  8
0
100
AcDbLine
 62
7
  6
CONTINUOUS
 10
11.0467079965
 20
1.0083717963
 11
11.0467079965
 21
1.0412270731
  0
LINE
  5
2AC
100
AcDbEntity
  8
0
100
AcDbLine
 62
7
  6
CONTINUOUS
 10
11.0660319792
 20
5.4212270731
 11
11.0660319792
 21
5.3883717963
  0
LINE
  5
2AD
100
AcDbEntity
  8
0
100
AcDbLine
 62
7
  6
CONTINUOUS
 10
11.083816841
 20
0.8162270731
 11
11.083816841
 21
1.0412270731
  0
LINE
  5
2AE
100
AcDbEntity
  8
0
100
AcDbLine
 62
7
  6
CONTINUOUS
 10
11.116378778
 20
1.0083717963
 11
11.116378778
 21
0.9439813053
  0
LINE
  5
2AF
100
AcDbEntity
  8
0
100
AcDbLine
 62
7
  6
CONTINUOUS
 10
11.116378778
 20
0.9111260286
 11
11.116378778
 21
0.8162270731
  0
LINE
  5
2B0
100
AcDbEntity
  8
0
100
AcDbLine
 62
7
  6
CONTINUOUS
 10
11.1295424239
 20
5.1962270731
 11
11.1295424239
 21
5.3883717963
  0
LINE
  5
2B1
100
AcDbEntity
  8
0
100
AcDbLine
 62
7
  6
CONTINUOUS
 10
11.1621043341
 20
5.3883717963
 11
11.1621043341
 21
5.1962270731
  0
LINE
  5
2B2
100
AcDbEntity
  8
0
100
AcDbLine
 62
7
  6
CONTINUOUS
 10
11.2169980941
 20
0.9111260286
 11
11.2169980941
 21
0.9439813053
  0
LINE
  5
2B3
100
AcDbEntity
  8
0
100
AcDbLine
 62
7
  6
CONTINUOUS
 10
11.2184648332
 20
1.0083717963
 11
11.2184648332
 21
1.0412270731
  0
LINE
  5
2B4
100
AcDbEntity
  8
0
100
AcDbLine
 62
7
  6
CONTINUOUS
 10
11.225614752
 20
5.3883717963
 11
11.225614752
 21
5.4212270731
  0
LINE
  5
2B5
100
AcDbEntity
  8
0
100
AcDbLine
 62
7
  6
CONTINUOUS
 10
11.3439423427
 20
18.1087270731
 11
11.3439423427
 21
14.2047270731
  0
LINE
  5
2B6
100
AcDbEntity
  8
0
100
AcDbLine
 62
7
  6
CONTINUOUS
 10
11.4376923427
 20
13.6347270735
 11
11.4376923427
 21
14.1847270731
  0
LINE
  5
2B7
100
AcDbEntity
  8
0
100
AcDbLine
 62
7
  6
CONTINUOUS
 10
11.6251923427
 20
13.4147270731
 11
11.6251923427
 21
13.4351180807
  0
LINE
  5
2B8
100
AcDbEntity
  8
0
100
AcDbLine
 62
7
  6
CONTINUOUS
 10
10.4529061911
 20
2.7964967978
 11
10.4523684885
 21
2.793580746
  0
LINE
  5
2B9
100
AcDbEntity
  8
0
100
AcDbLine
 62
7
  6
CONTINUOUS
 10
12.7194700422
 20
4.6984923878
 11
12.7779935362
 21
4.4962270731
  0
LINE
  5
2BA
100
AcDbEntity
  8
0
100
AcDbLine
 62
7
  6
CONTINUOUS
 10
12.7976480129
 20
4.5405230307
 11
12.7467516484
 21
4.7212270731
  0
LINE
  5
2BB
100
AcDbEntity
  8
0
100
AcDbLine
 62
7
  6
CONTINUOUS
 10
12.1849850448
 20
4.5238020408
 11
12.1392223345
 21
4.7212270731
  0
LINE
  5
2BC
100
AcDbEntity
  8
0
100
AcDbLine
 62
7
  6
CONTINUOUS
 10
12.2387757801
 20
1.698785741
 11
12.2387757801
 21
1.6541964301
  0
LINE
  5
2BD
100
AcDbEntity
  8
0
100
AcDbLine
 62
7
  6
CONTINUOUS
 10
12.2387757801
 20
1.5591508047
 11
12.2387757801
 21
1.5220419367
  0
LINE
  5
2BE
100
AcDbEntity
  8
0
100
AcDbLine
 62
7
  6
CONTINUOUS
 10
11.4207798226
 20
3.397930773
 11
11.4229466256
 21
3.423517775
  0
LWPOLYLINE
  5
2BF
100
AcDbEntity
  8
0
100
AcDbPolyline
 62
7
  6
CONTINUOUS
 90
3
 70
0
 10
11.4209442683
 20
2.8236469438
 10
11.4220357997
 20
2.8343262705
 10
11.4248398467
 20
2.8478641487
  0
LWPOLYLINE
  5
2C0
100
AcDbEntity
  8
0
100
AcDbPolyline
 62
7
  6
CONTINUOUS
 90
4
 70
0
 10
11.421679979
 20
2.8317036962
 10
11.4219969413
 20
2.834048179
 10
11.4223568297
 20
2.836366437
 10
11.4227583076
 20
2.8386574813
  0
LINE
  5
2C1
100
AcDbEntity
  8
0
100
AcDbLine
 62
7
  6
CONTINUOUS
 10
10.4524372966
 20
2.7939347478
 11
10.4517518598
 21
2.7906473217
  0
LINE
  5
2C2
100
AcDbEntity
  8
0
100
AcDbLine
 62
7
  6
CONTINUOUS
 10
10.4518377708
 20
2.7910371411
 11
10.4510546255
 21
2.7877000769
  0
LWPOLYLINE
  5
2C3
100
AcDbEntity
  8
0
100
AcDbPolyline
 62
7
  6
CONTINUOUS
 90
8
 70
0
 10
10.4511624078
 20
2.7881365855
 10
10.4502752127
 20
2.7847424087
 10
10.4494122013
 20
2.7817777907
 10
10.44846433
 20
2.7788097682
 10
10.4474305025
 20
2.7758419536
 10
10.4463097933
 20
2.7728780212
 10
10.4451014537
 20
2.769921702
 10
10.4438049183
 20
2.7669767775
  0
LWPOLYLINE
  5
2C4
100
AcDbEntity
  8
0
100
AcDbPolyline
 62
7
  6
CONTINUOUS
 90
11
 70
0
 10
10.4504115134
 20
2.7852398844
 10
10.4495859156
 20
2.7823537677
 10
10.4486869642
 20
2.779484863
 10
10.4477165265
 20
2.7766396654
 10
10.4466769809
 20
2.773824509
 10
10.4455712059
 20
2.7710455385
 10
10.4444025672
 20
2.7683086819
 10
10.4431749012
 20
2.7656196248
 10
10.4418924952
 20
2.7629837862
 10
10.4405600655
 20
2.7604062967
 10
10.4391827323
 20
2.7578919785
  0
LINE
  5
2C5
100
AcDbEntity
  8
0
100
AcDbLine
 62
7
  6
CONTINUOUS
 10
12.8721590819
 20
4.4962270731
 11
12.8705456795
 21
4.6984923878
  0
LINE
  5
2C6
100
AcDbEntity
  8
0
100
AcDbLine
 62
7
  6
CONTINUOUS
 10
12.4970711001
 20
1.4962270731
 11
12.4970711001
 21
1.7212270731
  0
LINE
  5
2C7
100
AcDbEntity
  8
0
100
AcDbLine
 62
7
  6
CONTINUOUS
 10
12.4975502374
 20
4.4962270731
 11
12.4975502374
 21
4.7212270731
  0
LINE
  5
2C8
100
AcDbEntity
  8
0
100
AcDbLine
 62
7
  6
CONTINUOUS
 10
12.5296330371
 20
1.7212270731
 11
12.5296330371
 21
1.5290823532
  0
LINE
  5
2C9
100
AcDbEntity
  8
0
100
AcDbLine
 62
7
  6
CONTINUOUS
 10
12.5301121475
 20
4.6883717963
 11
12.5301121475
 21
4.6157674962
  0
LINE
  5
2CA
100
AcDbEntity
  8
0
100
AcDbLine
 62
7
  6
CONTINUOUS
 10
12.5301121475
 20
4.6094604561
 11
12.5301121475
 21
4.4962270731
  0
LINE
  5
2CB
100
AcDbEntity
  8
0
100
AcDbLine
 62
7
  6
CONTINUOUS
 10
12.6144113877
 20
1.4962270731
 11
12.6144113877
 21
1.5290823532
  0
LINE
  5
2CC
100
AcDbEntity
  8
0
100
AcDbLine
 62
7
  6
CONTINUOUS
 10
12.6452131786
 20
1.4962270731
 11
12.6452131786
 21
1.7212270731
  0
LINE
  5
2CD
100
AcDbEntity
  8
0
100
AcDbLine
 62
7
  6
CONTINUOUS
 10
12.6777751424
 20
1.6883717963
 11
12.6777751424
 21
1.5254154683
  0
LINE
  5
2CE
100
AcDbEntity
  8
0
100
AcDbLine
 62
7
  6
CONTINUOUS
 10
12.6869081321
 20
4.4962270731
 11
12.6869081321
 21
4.7212270731
  0
LINE
  5
2CF
100
AcDbEntity
  8
0
100
AcDbLine
 62
7
  6
CONTINUOUS
 10
12.7194700422
 20
4.6984923878
 11
12.7194700422
 21
4.4962270731
  0
LINE
  5
2D0
100
AcDbEntity
  8
0
100
AcDbLine
 62
7
  6
CONTINUOUS
 10
12.9047209921
 20
4.7212270731
 11
12.9047209921
 21
4.4962270731
  0
LWPOLYLINE
  5
2D1
100
AcDbEntity
  8
0
100
AcDbPolyline
 62
7
  6
CONTINUOUS
 90
11
 70
0
 10
11.4226958483
 20
3.422185329
 10
11.4232554695
 20
3.4250554304
 10
11.423891809
 20
3.4279408327
 10
11.4246064283
 20
3.4308383045
 10
11.4254007618
 20
3.4337446033
 10
11.4262760996
 20
3.4366564172
 10
11.4272335822
 20
3.4395703691
 10
11.4282741951
 20
3.4424830211
 10
11.4293987635
 20
3.4453908795
 10
11.4306079461
 20
3.4482903996
 10
11.4319022302
 20
3.4511779914
  0
LWPOLYLINE
  5
2D2
100
AcDbEntity
  8
0
100
AcDbPolyline
 62
7
  6
CONTINUOUS
 90
14
 70
0
 10
11.4227583076
 20
2.8386574813
 10
11.423200016
 20
2.8409203687
 10
11.4236805666
 20
2.8431541645
 10
11.4241983862
 20
2.8453573151
 10
11.4247516833
 20
2.8475277668
 10
11.4253385531
 20
2.8496635179
 10
11.4259569855
 20
2.8517626389
 10
11.4266048713
 20
2.8538232764
 10
11.4272800076
 20
2.8558436561
 10
11.4279801042
 20
2.8578220851
 10
11.4287027899
 20
2.8597569548
 10
11.4294456192
 20
2.8616467421
 10
11.430206079
 20
2.8634900095
 10
11.4309786677
 20
2.8652787761
  0
LWPOLYLINE
  5
2D3
100
AcDbEntity
  8
0
100
AcDbPolyline
 62
7
  6
CONTINUOUS
 90
12
 70
0
 10
11.4229473874
 20
3.4235193907
 10
11.4235469133
 20
3.426416999
 10
11.4242222766
 20
3.4293175561
 10
11.4249731713
 20
3.4322142588
 10
11.4257987694
 20
3.4351003769
 10
11.4266977213
 20
3.4379692831
 10
11.4276681594
 20
3.4408144821
 10
11.4287077057
 20
3.4436296398
 10
11.4298134813
 20
3.4464086116
 10
11.4309821206
 20
3.4491454694
 10
11.4322097873
 20
3.4518345277
 10
11.4334921941
 20
3.4544703674
  0
LINE
  5
2D4
100
AcDbEntity
  8
0
100
AcDbLine
 62
7
  6
CONTINUOUS
 10
12.2282542797
 20
4.7212270731
 11
12.1849850448
 21
4.5238020408
  0
LINE
  5
2D5
100
AcDbEntity
  8
0
100
AcDbLine
 62
7
  6
CONTINUOUS
 10
12.0941929939
 20
4.7212270731
 11
12.0485769602
 21
4.5238020408
  0
LINE
  5
2D6
100
AcDbEntity
  8
0
100
AcDbLine
 62
7
  6
CONTINUOUS
 10
10.9376923427
 20
2.7987270731
 11
11.0526923427
 21
3.1887270731
  0
LWPOLYLINE
  5
2D7
100
AcDbEntity
  8
0
100
AcDbPolyline
 62
7
  6
CONTINUOUS
 90
3
 70
0
 10
10.4433551479
 20
3.3498617766
 10
10.4429356003
 20
3.3489733154
 10
10.4426473413
 20
3.3483735763
  0
LINE
  5
2D8
100
AcDbEntity
  8
0
100
AcDbLine
 62
7
  6
CONTINUOUS
 10
8.2802120278
 20
11.1312625061
 11
13.5951726577
 21
11.1312625061
  0
LINE
  5
2D9
100
AcDbEntity
  8
0
100
AcDbLine
 62
7
  6
CONTINUOUS
 10
13.5951726577
 20
11.2100026636
 11
8.2802672905
 21
11.2100026636
  0
LINE
  5
2DA
100
AcDbEntity
  8
0
100
AcDbLine
 62
7
  6
CONTINUOUS
 10
13.4983935018
 20
12.0864687282
 11
13.5155608455
 21
11.9046665583
  0
LINE
  5
2DB
100
AcDbEntity
  8
0
100
AcDbLine
 62
7
  6
CONTINUOUS
 10
13.5754876183
 20
11.7780509959
 11
13.5754876183
 21
11.2100026636
  0
LINE
  5
2DC
100
AcDbEntity
  8
0
100
AcDbLine
 62
7
  6
CONTINUOUS
 10
12.2080130698
 20
4.4962270731
 11
12.2624296191
 21
4.7212270731
  0
LINE
  5
2DD
100
AcDbEntity
  8
0
100
AcDbLine
 62
7
  6
CONTINUOUS
 10
12.0705782624
 20
4.4962270731
 11
12.1166343259
 21
4.6767844388
  0
LINE
  5
2DE
100
AcDbEntity
  8
0
100
AcDbLine
 62
7
  6
CONTINUOUS
 10
12.3023253324
 20
4.4962270731
 11
12.320806423
 21
4.5594441512
  0
LINE
  5
2DF
100
AcDbEntity
  8
0
100
AcDbLine
 62
7
  6
CONTINUOUS
 10
11.4217884228
 20
2.8325576414
 11
11.4326941468
 21
2.8689912315
  0
LINE
  5
2E0
100
AcDbEntity
  8
0
100
AcDbLine
 62
7
  6
CONTINUOUS
 10
12.3416343125
 20
4.7212270731
 11
12.2702034118
 21
4.4962270731
  0
LINE
  5
2E1
100
AcDbEntity
  8
0
100
AcDbLine
 62
7
  6
CONTINUOUS
 10
12.3307803514
 20
4.5922994347
 11
12.3683292391
 21
4.6977590182
  0
LINE
  5
2E2
100
AcDbEntity
  8
0
100
AcDbLine
 62
7
  6
CONTINUOUS
 10
11.4248398467
 20
2.8478641487
 11
11.431511215
 21
2.8664678942
  0
LWPOLYLINE
  5
2E3
100
AcDbEntity
  8
0
100
AcDbPolyline
 62
7
  6
CONTINUOUS
 90
5
 70
0
 10
10.4438049183
 20
2.7669767775
 10
10.4424198106
 20
2.7640470731
 10
10.4409459496
 20
2.7611364518
 10
10.4393833552
 20
2.758248806
 10
10.4377322548
 20
2.7553880494
  0
LINE
  5
2E4
100
AcDbEntity
  8
0
100
AcDbLine
 62
7
  6
CONTINUOUS
 10
10.1796322749
 20
3.1087285204
 11
10.4053371785
 21
3.499660881
  0
LINE
  5
2E5
100
AcDbEntity
  8
0
100
AcDbLine
 62
7
  6
CONTINUOUS
 10
10.5088647966
 20
3.6789759754
 11
10.5586611395
 21
3.7652257714
  0
LINE
  5
2E6
100
AcDbEntity
  8
0
100
AcDbLine
 62
9
  6
CONTINUOUS
 10
13.5754876183
 20
11.7780509959
 11
8.2998970671
 21
11.7780509959
  0
LINE
  5
2E7
100
AcDbEntity
  8
0
100
AcDbLine
 62
9
  6
CONTINUOUS
 10
8.3117879044
 20
11.8196584566
 11
13.5635696215
 21
11.8196584566
  0
LINE
  5
2E8
100
AcDbEntity
  8
0
100
AcDbLine
 62
9
  6
CONTINUOUS
 10
13.5213319021
 20
11.8875640287
 11
8.3540788154
 21
11.8875640287
  0
LINE
  5
2E9
100
AcDbEntity
  8
0
100
AcDbLine
 62
9
  6
CONTINUOUS
 10
8.35982384
 20
11.9046665583
 11
13.5155608455
 21
11.9046665583
  0
LINE
  5
2EA
100
AcDbEntity
  8
0
100
AcDbLine
 62
9
  6
CONTINUOUS
 10
13.4983935018
 20
12.0864687282
 11
8.3769911837
 21
12.0864687282
  0
LINE
  5
2EB
100
AcDbEntity
  8
0
100
AcDbLine
 62
7
  6
CONTINUOUS
 10
12.8448774757
 20
4.7212270731
 11
12.7976480129
 21
4.5405230307
  0
LINE
  5
2EC
100
AcDbEntity
  8
0
100
AcDbLine
 62
7
  6
CONTINUOUS
 10
12.8137823047
 20
4.4962270731
 11
12.8705456795
 21
4.6984923878
  0
LWPOLYLINE
  5
2ED
100
AcDbEntity
  8
0
100
AcDbPolyline
 62
7
  6
CONTINUOUS
 90
4
 70
0
 10
11.4309786677
 20
2.8652787761
 10
11.4317474338
 20
2.8669836683
 10
11.4324920775
 20
2.8685707021
 10
11.43260204
 20
2.8688000549
  0
LWPOLYLINE
  5
2EE
100
AcDbEntity
  8
0
100
AcDbPolyline
 62
7
  6
CONTINUOUS
 90
3
 70
0
 10
11.4319022302
 20
3.4511779914
 10
11.4332819258
 20
3.4540500257
 10
11.4347471601
 20
3.4569028401
  0
LINE
  5
2EF
100
AcDbEntity
  8
0
100
AcDbLine
 62
7
  6
CONTINUOUS
 10
11.4348246245
 20
3.4570478579
 11
11.4362019585
 21
3.4595621771
  0
LWPOLYLINE
  5
2F0
100
AcDbEntity
  8
0
100
AcDbPolyline
 62
7
  6
CONTINUOUS
 90
5
 70
0
 10
11.4362019585
 20
3.4595621771
 10
11.4379338074
 20
3.4625360391
 10
11.4396545125
 20
3.4653090014
 10
11.4414593307
 20
3.4680479167
 10
11.4433473973
 20
3.4707490772
  0
LWPOLYLINE
  5
2F1
100
AcDbEntity
  8
0
100
AcDbPolyline
 62
7
  6
CONTINUOUS
 90
5
 70
0
 10
11.437618699
 20
3.4620088277
 10
11.4390690024
 20
3.4643836517
 10
11.4405467094
 20
3.4666828408
 10
11.4420454039
 20
3.4689029801
 10
11.4435585049
 20
3.4710411222
  0
LWPOLYLINE
  5
2F2
100
AcDbEntity
  8
0
100
AcDbPolyline
 62
7
  6
CONTINUOUS
 90
7
 70
0
 10
10.4377659926
 20
2.7554453287
 10
10.4359930883
 20
2.7525581083
 10
10.4341665138
 20
2.7497629113
 10
10.4322534126
 20
2.7470063793
 10
10.4302548933
 20
2.7442924135
 10
10.4281722958
 20
2.7416248834
 10
10.4260071942
 20
2.7390076135
  0
LWPOLYLINE
  5
2F3
100
AcDbEntity
  8
0
100
AcDbPolyline
 62
7
  6
CONTINUOUS
 90
4
 70
0
 10
10.43631569
 20
2.7530705054
 10
10.4348379839
 20
2.7507713171
 10
10.4333392901
 20
2.7485511784
 10
10.4318261899
 20
2.7464130368
  0
LWPOLYLINE
  5
2F4
100
AcDbEntity
  8
0
100
AcDbPolyline
 62
7
  6
CONTINUOUS
 90
4
 70
0
 10
10.4303055258
 20
2.7443595713
 10
10.4287843289
 20
2.7423931312
 10
10.4272697739
 20
2.7405157311
 10
10.4257696566
 20
2.7387296606
  0
LINE
  5
2F5
100
AcDbEntity
  8
0
100
AcDbLine
 62
9
  6
CONTINUOUS
 10
13.2774031137
 20
12.4040859317
 11
8.5979558598
 21
12.4040859317
  0
LINE
  5
2F6
100
AcDbEntity
  8
0
100
AcDbLine
 62
7
  6
CONTINUOUS
 10
13.5213319021
 20
11.8875640287
 11
13.5635967811
 21
11.8196584566
  0
LINE
  5
2F7
100
AcDbEntity
  8
0
100
AcDbLine
 62
7
  6
CONTINUOUS
 10
11.6957525946
 20
3.1087259444
 11
11.4700475069
 21
2.7177932651
  0
LINE
  5
2F8
100
AcDbEntity
  8
0
100
AcDbLine
 62
7
  6
CONTINUOUS
 10
11.3665198889
 20
2.5384781707
 11
11.316723546
 21
2.4522283747
  0
LWPOLYLINE
  5
2F9
100
AcDbEntity
  8
0
100
AcDbPolyline
 62
7
  6
CONTINUOUS
 90
4
 70
0
 10
11.4435585049
 20
3.4710411222
 10
11.4453176356
 20
3.4734087946
 10
11.4473687537
 20
3.4760234115
 10
11.4494992418
 20
3.4785893135
  0
LWPOLYLINE
  5
2FA
100
AcDbEntity
  8
0
100
AcDbPolyline
 62
7
  6
CONTINUOUS
 90
4
 70
0
 10
11.4450791697
 20
3.4730945881
 10
11.4466003673
 20
3.4750610284
 10
11.4481149229
 20
3.4769384288
 10
11.4496150408
 20
3.4787244994
  0
LWPOLYLINE
  5
2FB
100
AcDbEntity
  8
0
100
AcDbPolyline
 62
7
  6
CONTINUOUS
 90
4
 70
0
 10
10.4257696566
 20
2.7387296606
 10
10.4237613989
 20
2.7364443698
 10
10.4214369573
 20
2.7339388444
 10
10.4213843178
 20
2.7338849674
  0
LWPOLYLINE
  5
2FC
100
AcDbEntity
  8
0
100
AcDbPolyline
 62
7
  6
CONTINUOUS
 90
4
 70
0
 10
11.4496150408
 20
3.4787244994
 10
11.4517073704
 20
3.4811029419
 10
11.4539911897
 20
3.4835608073
 10
11.454518745
 20
3.4841004809
  0
LWPOLYLINE
  5
2FD
100
AcDbEntity
  8
0
100
AcDbPolyline
 62
7
  6
CONTINUOUS
 90
4
 70
0
 10
10.4242945934
 20
2.7370399035
 10
10.4228559068
 20
2.7354513736
 10
10.4214670049
 20
2.7339704066
 10
10.4213843178
 20
2.7338849674
  0
LWPOLYLINE
  5
2FE
100
AcDbEntity
  8
0
100
AcDbPolyline
 62
7
  6
CONTINUOUS
 90
4
 70
0
 10
11.4510901045
 20
3.4804142565
 10
11.4525287913
 20
3.4820027861
 10
11.453917693
 20
3.4834837526
 10
11.4540990253
 20
3.4836711199
  0
LINE
  5
2FF
100
AcDbEntity
  8
0
100
AcDbLine
 62
7
  6
CONTINUOUS
 10
11.7155010722
 20
4.0279571588
 11
11.3135404276
 21
3.6259965142
  0
LINE
  5
300
100
AcDbEntity
  8
0
100
AcDbLine
 62
7
  6
CONTINUOUS
 10
10.4208819392
 20
2.7333380258
 11
10.018462257
 21
2.3309183436
  0
LINE
  5
301
100
AcDbEntity
  8
0
100
AcDbLine
 62
7
  6
CONTINUOUS
 10
11.3133937209
 20
3.6258918004
 11
11.3124380599
 21
3.6249552997
  0
LINE
  5
302
100
AcDbEntity
  8
0
100
AcDbLine
 62
7
  6
CONTINUOUS
 10
11.3124380599
 20
3.6249552997
 11
11.3103202991
 21
3.6229538312
  0
LINE
  5
303
100
AcDbEntity
  8
0
100
AcDbLine
 62
9
  6
CONTINUOUS
 10
10.0378851972
 20
13.3834189402
 11
11.8374730321
 21
13.3834189402
  0
LINE
  5
304
100
AcDbEntity
  8
0
100
AcDbLine
 62
7
  6
CONTINUOUS
 10
11.7574031541
 20
13.4147270731
 11
10.1179815314
 21
13.4147270731
  0
LINE
  5
305
100
AcDbEntity
  8
0
100
AcDbLine
 62
9
  6
CONTINUOUS
 10
11.6251923427
 20
13.4351180807
 11
10.2501923427
 21
13.4351180807
  0
LINE
  5
306
100
AcDbEntity
  8
0
100
AcDbLine
 62
7
  6
CONTINUOUS
 10
11.2690257173
 20
13.4647270735
 11
10.6065869507
 21
13.4647270735
  0
LINE
  5
307
100
AcDbEntity
  8
0
100
AcDbLine
 62
7
  6
CONTINUOUS
 10
10.4376923427
 20
13.6347270735
 11
11.4376923427
 21
13.6347270735
  0
LINE
  5
308
100
AcDbEntity
  8
0
100
AcDbLine
 62
7
  6
CONTINUOUS
 10
11.4176923427
 20
14.2047270731
 11
11.4376923427
 21
14.1847270731
  0
LINE
  5
309
100
AcDbEntity
  8
0
100
AcDbLine
 62
7
  6
CONTINUOUS
 10
10.1598836132
 20
2.1894969873
 11
10.5618442578
 21
2.5914576319
  0
LINE
  5
30A
100
AcDbEntity
  8
0
100
AcDbLine
 62
7
  6
CONTINUOUS
 10
11.4545027463
 20
3.4841161204
 11
11.8569224285
 21
3.8865358026
  0
LINE
  5
30B
100
AcDbEntity
  8
0
100
AcDbLine
 62
7
  6
CONTINUOUS
 10
10.5619909645
 20
2.5915623457
 11
10.5629468151
 21
2.5924990257
  0
LINE
  5
30C
100
AcDbEntity
  8
0
100
AcDbLine
 62
7
  6
CONTINUOUS
 10
10.5629468151
 20
2.5924990257
 11
10.5650649575
 21
2.5945008409
  0
LINE
  5
30D
100
AcDbEntity
  8
0
100
AcDbLine
 62
7
  6
CONTINUOUS
 10
10.5676640231
 20
2.5968209259
 11
10.5602337384
 21
2.5898407815
  0
LINE
  5
30E
100
AcDbEntity
  8
0
100
AcDbLine
 62
7
  6
CONTINUOUS
 10
11.3111422392
 20
3.62372431
 11
11.3083505301
 21
3.6211822133
  0
LINE
  5
30F
100
AcDbEntity
  8
0
100
AcDbLine
 62
7
  6
CONTINUOUS
 10
10.5642421006
 20
2.5937295162
 11
10.5670346711
 21
2.5962723857
  0
LINE
  5
310
100
AcDbEntity
  8
0
100
AcDbLine
 62
7
  6
CONTINUOUS
 10
11.3083505301
 20
3.6211822133
 11
11.3076574134
 21
3.6205786204
  0
LINE
  5
311
100
AcDbEntity
  8
0
100
AcDbLine
 62
7
  6
CONTINUOUS
 10
10.5670346711
 20
2.5962723857
 11
10.5677272727
 21
2.5968755262
  0
LWPOLYLINE
  5
312
100
AcDbEntity
  8
0
100
AcDbPolyline
 62
7
  6
CONTINUOUS
 90
3
 70
0
 10
11.3076613467
 20
3.6205820143
 10
11.3077089229
 20
3.6206230816
 10
11.3148881459
 20
3.627347153
  0
LINE
  5
313
100
AcDbEntity
  8
0
100
AcDbLine
 62
7
  6
CONTINUOUS
 10
10.5677274644
 20
2.5968756917
 11
10.5677222567
 21
2.5968711981
  0
LWPOLYLINE
  5
314
100
AcDbEntity
  8
0
100
AcDbPolyline
 62
7
  6
CONTINUOUS
 90
3
 70
0
 10
11.3087368168
 20
3.6215570002
 10
11.3061691532
 20
3.6193685985
 10
11.3034434875
 20
3.6171770846
  0
LWPOLYLINE
  5
315
100
AcDbEntity
  8
0
100
AcDbPolyline
 62
7
  6
CONTINUOUS
 90
3
 70
0
 10
10.5666474835
 20
2.5958968082
 10
10.5692151126
 20
2.5980852
 10
10.5719407481
 20
2.6002767104
  0
LINE
  5
316
100
AcDbEntity
  8
0
100
AcDbLine
 62
7
  6
CONTINUOUS
 10
11.3147046743
 20
3.6271622854
 11
11.2986473036
 21
3.613638855
  0
LINE
  5
317
100
AcDbEntity
  8
0
100
AcDbLine
 62
7
  6
CONTINUOUS
 10
10.5606715112
 20
2.5902833246
 11
10.5767401194
 21
2.6038172375
  0
LINE
  5
318
100
AcDbEntity
  8
0
100
AcDbLine
 62
7
  6
CONTINUOUS
 10
11.3034434875
 20
3.6171770846
 11
11.3005708124
 21
3.6150040758
  0
LINE
  5
319
100
AcDbEntity
  8
0
100
AcDbLine
 62
7
  6
CONTINUOUS
 10
10.5719407481
 20
2.6002767104
 11
10.5748133952
 21
2.60244972
  0
LINE
  5
31A
100
AcDbEntity
  8
0
100
AcDbLine
 62
7
  6
CONTINUOUS
 10
11.3132850839
 20
3.6260362884
 11
11.2875959866
 21
3.6067212615
  0
LINE
  5
31B
100
AcDbEntity
  8
0
100
AcDbLine
 62
7
  6
CONTINUOUS
 10
10.5620995979
 20
2.5914178641
 11
10.5877877032
 21
2.6107323426
  0
LWPOLYLINE
  5
31C
100
AcDbEntity
  8
0
100
AcDbPolyline
 62
7
  6
CONTINUOUS
 90
3
 70
0
 10
11.3005708124
 20
3.6150040758
 10
11.2975651098
 20
3.6128707621
 10
11.2944415414
 20
3.6107962349
  0
LINE
  5
31D
100
AcDbEntity
  8
0
100
AcDbLine
 62
7
  6
CONTINUOUS
 10
11.2985488633
 20
3.6135559491
 11
11.2945053305
 21
3.610839532
  0
LWPOLYLINE
  5
31E
100
AcDbEntity
  8
0
100
AcDbPolyline
 62
7
  6
CONTINUOUS
 90
3
 70
0
 10
11.2945053305
 20
3.610839532
 10
11.2911964303
 20
3.6087854673
 10
11.2878219662
 20
3.6068417376
  0
LINE
  5
31F
100
AcDbEntity
  8
0
100
AcDbLine
 62
7
  6
CONTINUOUS
 10
11.2916916849
 20
3.6090855561
 11
11.2890291816
 21
3.6075228329
  0
LINE
  5
320
100
AcDbEntity
  8
0
100
AcDbLine
 62
7
  6
CONTINUOUS
 10
10.6980486956
 20
3.6037734571
 11
10.6980348656
 21
3.6037667633
  0
LINE
  5
321
100
AcDbEntity
  8
0
100
AcDbLine
 62
7
  6
CONTINUOUS
 10
11.4376923427
 20
14.1847270731
 11
10.4376923427
 21
14.1847270731
  0
LINE
  5
322
100
AcDbEntity
  8
0
100
AcDbLine
 62
7
  6
CONTINUOUS
 10
11.417689592
 20
14.2047270731
 11
10.4576950935
 21
14.2047270731
  0
LWPOLYLINE
  5
323
100
AcDbEntity
  8
0
100
AcDbPolyline
 62
7
  6
CONTINUOUS
 90
3
 70
0
 10
10.5748133952
 20
2.60244972
 10
10.5778190695
 20
2.6045830363
 10
10.5809426069
 20
2.6066575664
  0
LINE
  5
324
100
AcDbEntity
  8
0
100
AcDbLine
 62
7
  6
CONTINUOUS
 10
10.5768383332
 20
2.6038999588
 11
10.5808803608
 21
2.6066152606
  0
LWPOLYLINE
  5
325
100
AcDbEntity
  8
0
100
AcDbPolyline
 62
7
  6
CONTINUOUS
 90
3
 70
0
 10
10.5808803608
 20
2.6066152606
 10
10.5841876868
 20
2.6086683391
 10
10.5875621197
 20
2.6106120759
  0
LINE
  5
326
100
AcDbEntity
  8
0
100
AcDbLine
 62
7
  6
CONTINUOUS
 10
10.5836938615
 20
2.6083691104
 11
10.5863563369
 21
2.6099317879
  0
LWPOLYLINE
  5
327
100
AcDbEntity
  8
0
100
AcDbPolyline
 62
7
  6
CONTINUOUS
 90
3
 70
0
 10
11.2890291816
 20
3.6075228329
 10
11.286400431
 20
3.6060683211
 10
11.2837792051
 20
3.6047018579
  0
LWPOLYLINE
  5
328
100
AcDbEntity
  8
0
100
AcDbPolyline
 62
7
  6
CONTINUOUS
 90
3
 70
0
 10
10.5863563369
 20
2.6099317879
 10
10.5889850816
 20
2.6113862692
 10
10.5916063082
 20
2.6127527068
  0
LWPOLYLINE
  5
329
100
AcDbEntity
  8
0
100
AcDbPolyline
 62
7
  6
CONTINUOUS
 90
9
 70
0
 10
11.2878219662
 20
3.6068417376
 10
11.2843130138
 20
3.6049710163
 10
11.2806645711
 20
3.6031802154
 10
11.2768719634
 20
3.6014772807
 10
11.2729304105
 20
3.5998710079
 10
11.2688320692
 20
3.598370107
 10
11.2645649136
 20
3.5969835758
 10
11.2601167941
 20
3.595722742
 10
11.2554759109
 20
3.5946015512
  0
LWPOLYLINE
  5
32A
100
AcDbEntity
  8
0
100
AcDbPolyline
 62
7
  6
CONTINUOUS
 90
9
 70
0
 10
10.5875621197
 20
2.6106120759
 10
10.5910710409
 20
2.6124828068
 10
10.5947194527
 20
2.6142736198
 10
10.5985120302
 20
2.6159765691
 10
10.6024535537
 20
2.6175828591
 10
10.6065518675
 20
2.6190837802
 10
10.6108189974
 20
2.6204703346
 10
10.6152670932
 20
2.6217311944
 10
10.6199079546
 20
2.622852414
  0
LWPOLYLINE
  5
32B
100
AcDbEntity
  8
0
100
AcDbPolyline
 62
7
  6
CONTINUOUS
 90
3
 70
0
 10
11.2811568403
 20
3.6034154476
 10
11.2785295541
 20
3.6022046653
 10
11.2758964398
 20
3.6010670024
  0
LWPOLYLINE
  5
32C
100
AcDbEntity
  8
0
100
AcDbPolyline
 62
7
  6
CONTINUOUS
 90
3
 70
0
 10
11.2732581575
 20
3.6000008968
 10
11.2706166625
 20
3.5990053933
 10
11.2679740336
 20
3.5980795633
  0
LINE
  5
32D
100
AcDbEntity
  8
0
100
AcDbLine
 62
7
  6
CONTINUOUS
 10
11.2875753909
 20
3.6067057761
 11
11.2519539734
 21
3.5939002225
  0
LINE
  5
32E
100
AcDbEntity
  8
0
100
AcDbLine
 62
7
  6
CONTINUOUS
 10
10.6980487278
 20
3.6037734727
 11
10.6739502953
 21
3.595141116
  0
LWPOLYLINE
  5
32F
100
AcDbEntity
  8
0
100
AcDbPolyline
 62
7
  6
CONTINUOUS
 90
5
 70
0
 10
11.2653324804
 20
3.5972224853
 10
11.2626943181
 20
3.5964332173
 10
11.2600619278
 20
3.5957107695
 10
11.25743771
 20
3.5950540831
 10
11.2548240365
 20
3.5944620151
  0
LWPOLYLINE
  5
330
100
AcDbEntity
  8
0
100
AcDbPolyline
 62
7
  6
CONTINUOUS
 90
3
 70
0
 10
10.594228676
 20
2.6140390936
 10
10.596855966
 20
2.6152498533
 10
10.599489084
 20
2.6163874941
  0
LINE
  5
331
100
AcDbEntity
  8
0
100
AcDbLine
 62
7
  6
CONTINUOUS
 10
11.1773360594
 20
2.6136807226
 11
11.1851291744
 21
2.6171174219
  0
LWPOLYLINE
  5
332
100
AcDbEntity
  8
0
100
AcDbPolyline
 62
7
  6
CONTINUOUS
 90
3
 70
0
 10
10.6021273687
 20
2.6174535775
 10
10.6047688646
 20
2.6184490588
 10
10.6074114928
 20
2.6193748665
  0
LINE
  5
333
100
AcDbEntity
  8
0
100
AcDbLine
 62
7
  6
CONTINUOUS
 10
10.5878082625
 20
2.6107478008
 11
10.6234290861
 21
2.623553608
  0
LWPOLYLINE
  5
334
100
AcDbEntity
  8
0
100
AcDbPolyline
 62
7
  6
CONTINUOUS
 90
5
 70
0
 10
10.6100530436
 20
2.6202319221
 10
10.6126912018
 20
2.6210211681
 10
10.6153235862
 20
2.6217435939
 10
10.6179477964
 20
2.6224002587
 10
10.6205614607
 20
2.6229923054
  0
LINE
  5
335
100
AcDbEntity
  8
0
100
AcDbLine
 62
7
  6
CONTINUOUS
 10
11.1790192402
 20
2.614479448
 11
11.2129729044
 21
2.6245099209
  0
LINE
  5
336
100
AcDbEntity
  8
0
100
AcDbLine
 62
9
  6
CONTINUOUS
 10
11.3439423427
 20
15.6087270731
 11
10.5314423427
 21
15.6087270731
  0
ARC
  5
337
100
AcDbEntity
  8
0
100
AcDbCircle
 62
7
  6
CONTINUOUS
 10
10.3333831769
 20
2.8168049
 40
0.1212411487
100
AcDbArc
 50
352.3317096536
 51
5.7641797858
  0
ARC
  5
338
100
AcDbEntity
  8
0
100
AcDbCircle
 62
7
  6
CONTINUOUS
 10
10.3337211947
 20
2.8171118966
 40
0.1209567832
100
AcDbArc
 50
332.8259963425
 51
348.9792667372
  0
ARC
  5
339
100
AcDbEntity
  8
0
100
AcDbCircle
 62
7
  6
CONTINUOUS
 10
10.3341500598
 20
2.8166412721
 40
0.1205060658
100
AcDbArc
 50
10.0797391446
 51
25.0433981203
  0
ARC
  5
33A
100
AcDbEntity
  8
0
100
AcDbCircle
 62
7
  6
CONTINUOUS
 10
10.3345419093
 20
2.8168644595
 40
0.1201137526
100
AcDbArc
 50
315.9289381786
 51
332.7522073735
  0
ARC
  5
33B
100
AcDbEntity
  8
0
100
AcDbCircle
 62
7
  6
CONTINUOUS
 10
10.3358110228
 20
2.8170371343
 40
0.1188022552
100
AcDbArc
 50
5.7703427741
 51
8.0643893922
  0
ARC
  5
33C
100
AcDbEntity
  8
0
100
AcDbCircle
 62
7
  6
CONTINUOUS
 10
10.3367724906
 20
2.8171680852
 40
0.1178319248
100
AcDbArc
 50
8.0669297718
 51
10.0507062647
  0
ARC
  5
33D
100
AcDbEntity
  8
0
100
AcDbCircle
 62
7
  6
CONTINUOUS
 10
10.3370858673
 20
2.8163949566
 40
0.117517124
100
AcDbArc
 50
349.0087701757
 51
352.2920967344
  0
ARC
  5
33E
100
AcDbEntity
  8
0
100
AcDbCircle
 62
7
  6
CONTINUOUS
 10
10.0891642053
 20
2.2601989356
 40
0.1
100
AcDbArc
 50
135.0
 51
314.9999999999
  0
ARC
  5
33F
100
AcDbEntity
  8
0
100
AcDbCircle
 62
9
  6
CONTINUOUS
 10
10.0981898081
 20
2.2772178378
 40
0.0943566323
100
AcDbArc
 50
143.3043863524
 51
146.0732353577
  0
ARC
  5
340
100
AcDbEntity
  8
0
100
AcDbCircle
 62
9
  6
CONTINUOUS
 10
10.1063801413
 20
2.2689028542
 40
0.0939811424
100
AcDbArc
 50
296.4883340596
 51
314.9423044505
  0
ARC
  5
341
100
AcDbEntity
  8
0
100
AcDbCircle
 62
9
  6
CONTINUOUS
 10
10.0974027352
 20
2.2778186257
 40
0.093366532
100
AcDbArc
 50
135.0313303589
 51
143.3113811176
  0
ARC
  5
342
100
AcDbEntity
  8
0
100
AcDbCircle
 62
7
  6
CONTINUOUS
 10
10.3363840342
 20
3.3998460916
 40
0.118073323
100
AcDbArc
 50
334.166692959
 51
334.9387326964
  0
ARC
  5
343
100
AcDbEntity
  8
0
100
AcDbCircle
 62
9
  6
CONTINUOUS
 10
10.3385103154
 20
3.4026704883
 40
0.1158362927
100
AcDbArc
 50
42.9609887145
 51
44.9970648624
  0
ARC
  5
344
100
AcDbEntity
  8
0
100
AcDbCircle
 62
7
  6
CONTINUOUS
 10
10.0891642053
 20
3.9572552105
 40
0.1
100
AcDbArc
 50
45.0
 51
225.0
  0
ARC
  5
345
100
AcDbEntity
  8
0
100
AcDbCircle
 62
9
  6
CONTINUOUS
 10
10.1061831074
 20
3.9482296077
 40
0.0943566323
100
AcDbArc
 50
53.3043863524
 51
56.0732353577
  0
ARC
  5
346
100
AcDbEntity
  8
0
100
AcDbCircle
 62
9
  6
CONTINUOUS
 10
10.0978681239
 20
3.9400392745
 40
0.0939811424
100
AcDbArc
 50
206.4883340597
 51
224.9423044507
  0
ARC
  5
347
100
AcDbEntity
  8
0
100
AcDbCircle
 62
9
  6
CONTINUOUS
 10
10.1067838954
 20
3.9490166806
 40
0.093366532
100
AcDbArc
 50
45.0313303589
 51
53.3113811176
  0
ARC
  5
348
100
AcDbEntity
  8
0
100
AcDbCircle
 62
7
  6
CONTINUOUS
 10
10.6456172728
 20
2.5052673592
 40
0.1204275324
100
AcDbArc
 50
65.5403608142
 51
81.6594095911
  0
ARC
  5
349
100
AcDbEntity
  8
0
100
AcDbCircle
 62
7
  6
CONTINUOUS
 10
10.6457830513
 20
2.5057123433
 40
0.1199804053
100
AcDbArc
 50
117.9534584515
 51
130.6137079528
  0
ARC
  5
34A
100
AcDbEntity
  8
0
100
AcDbCircle
 62
9
  6
CONTINUOUS
 10
10.6455646842
 20
2.5063459226
 40
0.1196208484
100
AcDbArc
 50
82.8469993974
 51
98.40348225
  0
ARC
  5
34B
100
AcDbEntity
  8
0
100
AcDbCircle
 62
7
  6
CONTINUOUS
 10
10.6458793702
 20
2.5060446278
 40
0.1196205555
100
AcDbArc
 50
81.7296169388
 51
87.5747172949
  0
ARC
  5
34C
100
AcDbEntity
  8
0
100
AcDbCircle
 62
9
  6
CONTINUOUS
 10
10.6455682856
 20
2.5069359085
 40
0.1190422221
100
AcDbArc
 50
100.6218296922
 51
116.2221535759
  0
ARC
  5
34D
100
AcDbEntity
  8
0
100
AcDbCircle
 62
9
  6
CONTINUOUS
 10
10.6450273521
 20
2.5078848464
 40
0.1179519472
100
AcDbArc
 50
116.1901063973
 51
117.9729769681
  0
ARC
  5
34E
100
AcDbEntity
  8
0
100
AcDbCircle
 62
9
  6
CONTINUOUS
 10
10.6456733585
 20
2.5082446354
 40
0.1177232281
100
AcDbArc
 50
64.1130616632
 51
81.0362985172
  0
ARC
  5
34F
100
AcDbEntity
  8
0
100
AcDbCircle
 62
9
  6
CONTINUOUS
 10
10.6452095937
 20
2.5083701905
 40
0.1175664332
100
AcDbArc
 50
98.3764611651
 51
100.5788599429
  0
ARC
  5
350
100
AcDbEntity
  8
0
100
AcDbCircle
 62
9
  6
CONTINUOUS
 10
10.6446758206
 20
2.5085879892
 40
0.1171660673
100
AcDbArc
 50
117.9824398506
 51
131.1042712632
  0
ARC
  5
351
100
AcDbEntity
  8
0
100
AcDbCircle
 62
9
  6
CONTINUOUS
 10
10.6442854014
 20
2.5089739209
 40
0.1166198074
100
AcDbArc
 50
131.1040000537
 51
134.0070263545
  0
ARC
  5
352
100
AcDbEntity
  8
0
100
AcDbCircle
 62
9
  6
CONTINUOUS
 10
10.6459515454
 20
2.5102528741
 40
0.1156961778
100
AcDbArc
 50
81.0174246346
 51
82.7961689694
  0
ARC
  5
353
100
AcDbEntity
  8
0
100
AcDbCircle
 62
9
  6
CONTINUOUS
 10
10.6434342164
 20
2.5098667079
 40
0.1153863087
100
AcDbArc
 50
134.0110196781
 51
134.9994940937
  0
ARC
  5
354
100
AcDbEntity
  8
0
100
AcDbCircle
 62
7
  6
CONTINUOUS
 10
10.6457701698
 20
3.7130362369
 40
0.1212411468
100
AcDbArc
 50
262.3317125713
 51
275.7641789326
  0
ARC
  5
355
100
AcDbEntity
  8
0
100
AcDbCircle
 62
7
  6
CONTINUOUS
 10
10.6460752771
 20
3.7127056918
 40
0.1209637551
100
AcDbArc
 50
244.4259951844
 51
258.9808143631
  0
ARC
  5
356
100
AcDbEntity
  8
0
100
AcDbCircle
 62
7
  6
CONTINUOUS
 10
10.645606543
 20
3.7122693524
 40
0.1205060619
100
AcDbArc
 50
280.0797329398
 51
295.0433983256
  0
ARC
  5
357
100
AcDbEntity
  8
0
100
AcDbCircle
 62
7
  6
CONTINUOUS
 10
10.6460468776
 20
3.7121612748
 40
0.1204686784
100
AcDbArc
 50
225.9486086985
 51
240.7157107313
  0
ARC
  5
358
100
AcDbEntity
  8
0
100
AcDbCircle
 62
7
  6
CONTINUOUS
 10
10.6450158238
 20
3.7104749056
 40
0.1184941815
100
AcDbArc
 50
242.7932718691
 51
244.4224552351
  0
ARC
  5
359
100
AcDbEntity
  8
0
100
AcDbCircle
 62
7
  6
CONTINUOUS
 10
10.6460920589
 20
3.7098887101
 40
0.1180772062
100
AcDbArc
 50
275.7621690752
 51
280.0499558574
  0
ARC
  5
35A
100
AcDbEntity
  8
0
100
AcDbCircle
 62
7
  6
CONTINUOUS
 10
10.6447070204
 20
3.7098601414
 40
0.1178062477
100
AcDbArc
 50
240.7366454329
 51
242.7901429235
  0
ARC
  5
35B
100
AcDbEntity
  8
0
100
AcDbCircle
 62
7
  6
CONTINUOUS
 10
10.6453610449
 20
3.7093379558
 40
0.1175216065
100
AcDbArc
 50
259.0087807085
 51
262.2921152222
  0
ARC
  5
35C
100
AcDbEntity
  8
0
100
AcDbCircle
 62
7
  6
CONTINUOUS
 10
6.0330684876
 20
17.7235241086
 40
5.905511811
100
AcDbArc
 50
295.7420913672
 51
312.6991652581
  0
ARC
  5
35D
100
AcDbEntity
  8
0
100
AcDbCircle
 62
7
  6
CONTINUOUS
 10
8.7689483513
 20
12.0494567199
 40
0.3937007874
100
AcDbArc
 50
115.7420913672
 51
174.6056291887
  0
ARC
  5
35E
100
AcDbEntity
  8
0
100
AcDbCircle
 62
7
  6
CONTINUOUS
 10
10.4501923427
 20
13.4351180807
 40
0.2
100
AcDbArc
 50
93.5833216985
 51
180.0
  0
ARC
  5
35F
100
AcDbEntity
  8
0
100
AcDbCircle
 62
7
  6
CONTINUOUS
 10
10.1179815314
 20
13.2966168368
 40
0.1181102362
100
AcDbArc
 50
90.0
 51
132.6991652582
  0
ARC
  5
360
100
AcDbEntity
  8
0
100
AcDbCircle
 62
7
  6
CONTINUOUS
 10
8.3786372246
 20
11.7780509959
 40
0.0787401575
100
AcDbArc
 50
148.1015916108
 51
180.0
  0
ARC
  5
361
100
AcDbEntity
  8
0
100
AcDbCircle
 62
7
  6
CONTINUOUS
 10
8.2802120278
 20
11.1706325849
 40
0.0393700787
100
AcDbArc
 50
90.0
 51
270.0
  0
ARC
  5
362
100
AcDbEntity
  8
0
100
AcDbCircle
 62
7
  6
CONTINUOUS
 10
8.3206281232
 20
11.9083677591
 40
0.0393700787
100
AcDbArc
 50
328.1015916108
 51
354.6056291893
  0
ARC
  5
363
100
AcDbEntity
  8
0
100
AcDbCircle
 62
9
  6
CONTINUOUS
 10
10.9376923387
 20
3.1087259
 40
0.3929190201
100
AcDbArc
 50
89.6039965683
 51
89.9999994089
  0
ARC
  5
364
100
AcDbEntity
  8
0
100
AcDbCircle
 62
7
  6
CONTINUOUS
 10
11.2290996488
 20
2.5041573147
 40
0.1215889905
100
AcDbArc
 50
66.2990596951
 51
73.9921343722
  0
ARC
  5
365
100
AcDbEntity
  8
0
100
AcDbCircle
 62
7
  6
CONTINUOUS
 10
11.2296177482
 20
2.5043760278
 40
0.1212831493
100
AcDbArc
 50
82.9953237153
 51
95.7434185534
  0
ARC
  5
366
100
AcDbEntity
  8
0
100
AcDbCircle
 62
7
  6
CONTINUOUS
 10
11.2291649979
 20
2.5050743328
 40
0.1207459042
100
AcDbArc
 50
45.961776071
 51
54.5650999581
  0
ARC
  5
367
100
AcDbEntity
  8
0
100
AcDbCircle
 62
7
  6
CONTINUOUS
 10
11.2294511363
 20
2.505408558
 40
0.1202893363
100
AcDbArc
 50
73.9887066487
 51
77.7869932068
  0
ARC
  5
368
100
AcDbEntity
  8
0
100
AcDbCircle
 62
7
  6
CONTINUOUS
 10
11.229907391
 20
2.5060332931
 40
0.1195465582
100
AcDbArc
 50
63.0660580722
 51
66.2921295874
  0
ARC
  5
369
100
AcDbEntity
  8
0
100
AcDbCircle
 62
7
  6
CONTINUOUS
 10
11.2298411615
 20
2.5061032544
 40
0.119515549
100
AcDbArc
 50
54.543227526
 51
61.3253748786
  0
ARC
  5
36A
100
AcDbEntity
  8
0
100
AcDbCircle
 62
7
  6
CONTINUOUS
 10
11.2293868686
 20
2.5068077598
 40
0.1188405203
100
AcDbArc
 50
95.7499908691
 51
98.0014666922
  0
ARC
  5
36B
100
AcDbEntity
  8
0
100
AcDbCircle
 62
7
  6
CONTINUOUS
 10
11.2288093171
 20
2.5073474059
 40
0.1181366603
100
AcDbArc
 50
115.0616827158
 51
115.8309267398
  0
ARC
  5
36C
100
AcDbEntity
  8
0
100
AcDbCircle
 62
7
  6
CONTINUOUS
 10
11.229976002
 20
2.5077562702
 40
0.1178844607
100
AcDbArc
 50
77.7886239999
 51
82.967793877
  0
ARC
  5
36D
100
AcDbEntity
  8
0
100
AcDbCircle
 62
7
  6
CONTINUOUS
 10
11.2307363873
 20
2.5077046559
 40
0.117680986
100
AcDbArc
 50
61.3336642554
 51
63.057298789
  0
ARC
  5
36E
100
AcDbEntity
  8
0
100
AcDbCircle
 62
7
  6
CONTINUOUS
 10
11.2292274605
 20
2.507959517
 40
0.1176777867
100
AcDbArc
 50
98.0026676852
 51
100.0745052799
  0
CIRCLE
  5
36F
100
AcDbEntity
  8
0
100
AcDbCircle
 62
7
  6
CONTINUOUS
 10
10.9376923427
 20
3.1087270731
 40
3.875
  0
CIRCLE
  5
370
100
AcDbEntity
  8
0
100
AcDbCircle
 62
9
  6
CONTINUOUS
 10
10.9376923427
 20
3.1087270731
 40
3.625
  0
CIRCLE
  5
371
100
AcDbEntity
  8
0
100
AcDbCircle
 62
9
  6
CONTINUOUS
 10
10.9376923427
 20
3.1087270731
 40
3.4079209419
  0
CIRCLE
  5
372
100
AcDbEntity
  8
0
100
AcDbCircle
 62
9
  6
CONTINUOUS
 10
10.9376923427
 20
3.1087270731
 40
3.1909161778
  0
CIRCLE
  5
373
100
AcDbEntity
  8
0
100
AcDbCircle
 62
9
  6
CONTINUOUS
 10
10.9376923427
 20
3.1087270731
 40
2.9739193698
  0
CIRCLE
  5
374
100
AcDbEntity
  8
0
100
AcDbCircle
 62
9
  6
CONTINUOUS
 10
10.9376923427
 20
3.1087270731
 40
2.7568387396
  0
ARC
  5
375
100
AcDbEntity
  8
0
100
AcDbCircle
 62
7
  6
CONTINUOUS
 10
10.9376923427
 20
3.1087270731
 40
1.18
100
AcDbArc
 50
229.8128481485
 51
310.145577347
  0
ARC
  5
376
100
AcDbEntity
  8
0
100
AcDbCircle
 62
7
  6
CONTINUOUS
 10
10.9376923427
 20
3.1087270731
 40
1.18
100
AcDbArc
 50
319.8155891307
 51
40.1826969125
  0
ARC
  5
377
100
AcDbEntity
  8
0
100
AcDbCircle
 62
7
  6
CONTINUOUS
 10
10.9376923427
 20
3.1087270731
 40
1.18
100
AcDbArc
 50
49.8128481485
 51
130.145577347
  0
ARC
  5
378
100
AcDbEntity
  8
0
100
AcDbCircle
 62
7
  6
CONTINUOUS
 10
10.9376923427
 20
3.1087270731
 40
1.18
100
AcDbArc
 50
139.8155891307
 51
220.1826969126
  0
ARC
  5
379
100
AcDbEntity
  8
0
100
AcDbCircle
 62
7
  6
CONTINUOUS
 10
10.9376923427
 20
3.1087270731
 40
1.0
100
AcDbArc
 50
50.7495258645
 51
129.2504741355
  0
ARC
  5
37A
100
AcDbEntity
  8
0
100
AcDbCircle
 62
7
  6
CONTINUOUS
 10
10.9376923427
 20
3.1087270731
 40
1.0
100
AcDbArc
 50
140.7648093907
 51
219.2351906093
  0
ARC
  5
37B
100
AcDbEntity
  8
0
100
AcDbCircle
 62
7
  6
CONTINUOUS
 10
10.9376923427
 20
3.1087270731
 40
1.0
100
AcDbArc
 50
230.7495258645
 51
309.2504741355
  0
ARC
  5
37C
100
AcDbEntity
  8
0
100
AcDbCircle
 62
7
  6
CONTINUOUS
 10
10.9376923427
 20
3.1087270731
 40
1.0
100
AcDbArc
 50
320.7648093907
 51
39.2351906093
  0
ARC
  5
37D
100
AcDbEntity
  8
0
100
AcDbCircle
 62
9
  6
CONTINUOUS
 10
10.9376923427
 20
3.1087270731
 40
0.8130026738
100
AcDbArc
 50
52.096642537
 51
127.9069087272
  0
ARC
  5
37E
100
AcDbEntity
  8
0
100
AcDbCircle
 62
9
  6
CONTINUOUS
 10
10.9376923427
 20
3.1087270731
 40
0.8130026738
100
AcDbArc
 50
322.0946017583
 51
37.9094119095
  0
ARC
  5
37F
100
AcDbEntity
  8
0
100
AcDbCircle
 62
9
  6
CONTINUOUS
 10
10.9376923427
 20
3.1087270731
 40
0.8130026738
100
AcDbArc
 50
232.096642537
 51
307.9069087272
  0
ARC
  5
380
100
AcDbEntity
  8
0
100
AcDbCircle
 62
9
  6
CONTINUOUS
 10
10.9376923427
 20
3.1087270731
 40
0.8130026738
100
AcDbArc
 50
142.0946017583
 51
217.9094119095
  0
ARC
  5
381
100
AcDbEntity
  8
0
100
AcDbCircle
 62
7
  6
CONTINUOUS
 10
10.9376923427
 20
3.1087270731
 40
0.741
100
AcDbArc
 50
52.7635578729
 51
57.6295013938
  0
ARC
  5
382
100
AcDbEntity
  8
0
100
AcDbCircle
 62
7
  6
CONTINUOUS
 10
10.9376923427
 20
3.1087270731
 40
0.741
100
AcDbArc
 50
2.3704986062
 51
37.2251735668
  0
ARC
  5
383
100
AcDbEntity
  8
0
100
AcDbCircle
 62
7
  6
CONTINUOUS
 10
10.9376923427
 20
3.1087270731
 40
0.741
100
AcDbArc
 50
322.7748264332
 51
357.6295013938
  0
ARC
  5
384
100
AcDbEntity
  8
0
100
AcDbCircle
 62
7
  6
CONTINUOUS
 10
10.9376923427
 20
3.1087270731
 40
0.741
100
AcDbArc
 50
302.3704986062
 51
307.2364421271
  0
ARC
  5
385
100
AcDbEntity
  8
0
100
AcDbCircle
 62
7
  6
CONTINUOUS
 10
10.9376923427
 20
3.1087270731
 40
0.741
100
AcDbArc
 50
242.3704986062
 51
297.6295013938
  0
ARC
  5
386
100
AcDbEntity
  8
0
100
AcDbCircle
 62
7
  6
CONTINUOUS
 10
10.9376923427
 20
3.1087270731
 40
0.741
100
AcDbArc
 50
232.7635578729
 51
237.6295013938
  0
ARC
  5
387
100
AcDbEntity
  8
0
100
AcDbCircle
 62
7
  6
CONTINUOUS
 10
10.9376923427
 20
3.1087270731
 40
0.741
100
AcDbArc
 50
182.3704986062
 51
217.2251735668
  0
ARC
  5
388
100
AcDbEntity
  8
0
100
AcDbCircle
 62
7
  6
CONTINUOUS
 10
10.9376923427
 20
3.1087270731
 40
0.741
100
AcDbArc
 50
142.7748264332
 51
177.6295013938
  0
ARC
  5
389
100
AcDbEntity
  8
0
100
AcDbCircle
 62
7
  6
CONTINUOUS
 10
10.9376923427
 20
3.1087270731
 40
0.741
100
AcDbArc
 50
122.3704986062
 51
127.2364421271
  0
ARC
  5
38A
100
AcDbEntity
  8
0
100
AcDbCircle
 62
7
  6
CONTINUOUS
 10
10.9376923427
 20
3.1087270731
 40
0.741
100
AcDbArc
 50
62.3704986062
 51
117.6295013938
  0
ARC
  5
38B
100
AcDbEntity
  8
0
100
AcDbCircle
 62
7
  6
CONTINUOUS
 10
10.9376923427
 20
3.1087270731
 40
0.6515
100
AcDbArc
 50
233.9801183399
 51
306.0203369691
  0
ARC
  5
38C
100
AcDbEntity
  8
0
100
AcDbCircle
 62
7
  6
CONTINUOUS
 10
10.9376923427
 20
3.1087270731
 40
0.6515
100
AcDbArc
 50
143.8804888303
 51
216.1196634957
  0
ARC
  5
38D
100
AcDbEntity
  8
0
100
AcDbCircle
 62
7
  6
CONTINUOUS
 10
10.9376923427
 20
3.1087270731
 40
0.6515
100
AcDbArc
 50
53.9801183399
 51
126.0203369692
  0
ARC
  5
38E
100
AcDbEntity
  8
0
100
AcDbCircle
 62
7
  6
CONTINUOUS
 10
10.9376923427
 20
3.1087270731
 40
0.6515
100
AcDbArc
 50
323.8803406034
 51
36.1196634957
  0
ARC
  5
38F
100
AcDbEntity
  8
0
100
AcDbCircle
 62
9
  6
CONTINUOUS
 10
10.9376923427
 20
3.1087270731
 40
0.6146339942
100
AcDbArc
 50
54.8720954227
 51
125.1353242277
  0
ARC
  5
390
100
AcDbEntity
  8
0
100
AcDbCircle
 62
9
  6
CONTINUOUS
 10
10.9376923427
 20
3.1087270731
 40
0.6146339942
100
AcDbArc
 50
144.8014558719
 51
215.2055736809
  0
ARC
  5
391
100
AcDbEntity
  8
0
100
AcDbCircle
 62
9
  6
CONTINUOUS
 10
10.9376923427
 20
3.1087270731
 40
0.6146339942
100
AcDbArc
 50
234.8720952334
 51
305.1353242277
  0
ARC
  5
392
100
AcDbEntity
  8
0
100
AcDbCircle
 62
9
  6
CONTINUOUS
 10
10.9376923427
 20
3.1087270731
 40
0.6146339942
100
AcDbArc
 50
324.686744947
 51
35.2055736808
  0
CIRCLE
  5
393
100
AcDbEntity
  8
0
100
AcDbCircle
 62
7
  6
CONTINUOUS
 10
10.9376923427
 20
3.1087270731
 40
0.55
  0
CIRCLE
  5
394
100
AcDbEntity
  8
0
100
AcDbCircle
 62
9
  6
CONTINUOUS
 10
10.9376923427
 20
3.1087270731
 40
0.54
  0
ARC
  5
395
100
AcDbEntity
  8
0
100
AcDbCircle
 62
9
  6
CONTINUOUS
 10
10.9376923427
 20
3.1087270731
 40
0.54
100
AcDbArc
 50
134.4529894953
 51
134.6353263284
  0
CIRCLE
  5
396
100
AcDbEntity
  8
0
100
AcDbCircle
 62
7
  6
CONTINUOUS
 10
10.9376923427
 20
3.1087270731
 40
0.495
  0
CIRCLE
  5
397
100
AcDbEntity
  8
0
100
AcDbCircle
 62
7
  6
CONTINUOUS
 10
10.9376923427
 20
3.1087270731
 40
0.4375
  0
CIRCLE
  5
398
100
AcDbEntity
  8
0
100
AcDbCircle
 62
7
  6
CONTINUOUS
 10
10.9376923427
 20
3.1087270731
 40
0.4
  0
ARC
  5
399
100
AcDbEntity
  8
0
100
AcDbCircle
 62
9
  6
CONTINUOUS
 10
10.9376923427
 20
3.1087270731
 40
0.392917847
100
AcDbArc
 50
90.0
 51
89.6039959771
  0
ARC
  5
39A
100
AcDbEntity
  8
0
100
AcDbCircle
 62
7
  6
CONTINUOUS
 10
11.2837162555
 20
3.2520334443
 40
0.4601239036
100
AcDbArc
 50
195.9116588381
 51
197.9539935059
  0
ARC
  5
39B
100
AcDbEntity
  8
0
100
AcDbCircle
 62
7
  6
CONTINUOUS
 10
11.2297673574
 20
3.7121866082
 40
0.1204273469
100
AcDbArc
 50
245.5402931542
 51
261.659431796
  0
ARC
  5
39C
100
AcDbEntity
  8
0
100
AcDbCircle
 62
7
  6
CONTINUOUS
 10
11.2296015018
 20
3.7117419884
 40
0.1199806313
100
AcDbArc
 50
297.9531916046
 51
310.6136229049
  0
ARC
  5
39D
100
AcDbEntity
  8
0
100
AcDbCircle
 62
9
  6
CONTINUOUS
 10
11.2298200016
 20
3.7111082188
 40
0.1196208437
100
AcDbArc
 50
262.8469780228
 51
278.4035068221
  0
ARC
  5
39E
100
AcDbEntity
  8
0
100
AcDbCircle
 62
7
  6
CONTINUOUS
 10
11.2295053215
 20
3.7114096736
 40
0.1196207094
100
AcDbArc
 50
261.7296332069
 51
267.5728398674
  0
ARC
  5
39F
100
AcDbEntity
  8
0
100
AcDbCircle
 62
9
  6
CONTINUOUS
 10
11.2298163982
 20
3.7105182423
 40
0.1190422271
100
AcDbArc
 50
280.6218481704
 51
296.2221584453
  0
ARC
  5
3A0
100
AcDbEntity
  8
0
100
AcDbCircle
 62
9
  6
CONTINUOUS
 10
11.2303573365
 20
3.7095692935
 40
0.1179519403
100
AcDbArc
 50
296.1901115701
 51
297.9729906262
  0
ARC
  5
3A1
100
AcDbEntity
  8
0
100
AcDbCircle
 62
9
  6
CONTINUOUS
 10
11.2297113269
 20
3.7092095105
 40
0.1177232279
100
AcDbArc
 50
244.1130616505
 51
261.0362943553
  0
ARC
  5
3A2
100
AcDbEntity
  8
0
100
AcDbCircle
 62
9
  6
CONTINUOUS
 10
11.230175095
 20
3.7090839361
 40
0.1175664134
100
AcDbArc
 50
278.3764857669
 51
280.5788784675
  0
ARC
  5
3A3
100
AcDbEntity
  8
0
100
AcDbCircle
 62
9
  6
CONTINUOUS
 10
11.2307089218
 20
3.7088660607
 40
0.1171659557
100
AcDbArc
 50
297.9824510321
 51
311.1041926779
  0
ARC
  5
3A4
100
AcDbEntity
  8
0
100
AcDbCircle
 62
9
  6
CONTINUOUS
 10
11.2311001221
 20
3.7084792831
 40
0.1166185466
100
AcDbArc
 50
311.1039168871
 51
314.0133628441
  0
ARC
  5
3A5
100
AcDbEntity
  8
0
100
AcDbCircle
 62
9
  6
CONTINUOUS
 10
11.2294331408
 20
3.707201277
 40
0.1156961829
100
AcDbArc
 50
261.0174204041
 51
262.7961472433
  0
ARC
  5
3A6
100
AcDbEntity
  8
0
100
AcDbCircle
 62
9
  6
CONTINUOUS
 10
11.2319520145
 20
3.7075858749
 40
0.1153841105
100
AcDbArc
 50
314.017385649
 51
314.9995003463
  0
ARC
  5
3A7
100
AcDbEntity
  8
0
100
AcDbCircle
 62
7
  6
CONTINUOUS
 10
11.5411518773
 20
2.8166520586
 40
0.1204273463
100
AcDbArc
 50
155.5402929436
 51
171.6594314351
  0
ARC
  5
3A8
100
AcDbEntity
  8
0
100
AcDbCircle
 62
7
  6
CONTINUOUS
 10
11.5407072579
 20
2.8168179138
 40
0.1199806311
100
AcDbArc
 50
207.9531869557
 51
220.6136227398
  0
ARC
  5
3A9
100
AcDbEntity
  8
0
100
AcDbCircle
 62
9
  6
CONTINUOUS
 10
11.5400734884
 20
2.8165994142
 40
0.1196208437
100
AcDbArc
 50
172.8469779788
 51
188.4035068795
  0
ARC
  5
3AA
100
AcDbEntity
  8
0
100
AcDbCircle
 62
7
  6
CONTINUOUS
 10
11.540374938
 20
2.8169140949
 40
0.1196207041
100
AcDbArc
 50
171.7296327645
 51
177.5728121142
  0
ARC
  5
3AB
100
AcDbEntity
  8
0
100
AcDbCircle
 62
9
  6
CONTINUOUS
 10
11.5394835119
 20
2.8166030175
 40
0.1190422271
100
AcDbArc
 50
190.6218482101
 51
206.2221584581
  0
ARC
  5
3AC
100
AcDbEntity
  8
0
100
AcDbCircle
 62
9
  6
CONTINUOUS
 10
11.5385345632
 20
2.8160620793
 40
0.1179519403
100
AcDbArc
 50
206.1901115821
 51
207.9729906575
  0
ARC
  5
3AD
100
AcDbEntity
  8
0
100
AcDbCircle
 62
9
  6
CONTINUOUS
 10
11.5381747802
 20
2.8167080889
 40
0.1177232279
100
AcDbArc
 50
154.1130616509
 51
171.0362943462
  0
ARC
  5
3AE
100
AcDbEntity
  8
0
100
AcDbCircle
 62
9
  6
CONTINUOUS
 10
11.5380492058
 20
2.8162443208
 40
0.1175664134
100
AcDbArc
 50
188.3764858221
 51
190.5788785077
  0
ARC
  5
3AF
100
AcDbEntity
  8
0
100
AcDbCircle
 62
9
  6
CONTINUOUS
 10
11.5378313288
 20
2.815710493
 40
0.1171659538
100
AcDbArc
 50
207.9824510203
 51
221.1041924712
  0
ARC
  5
3B0
100
AcDbEntity
  8
0
100
AcDbCircle
 62
9
  6
CONTINUOUS
 10
11.5374445506
 20
2.8153192918
 40
0.1166185437
100
AcDbArc
 50
221.1039166947
 51
224.0133774175
  0
ARC
  5
3B1
100
AcDbEntity
  8
0
100
AcDbCircle
 62
9
  6
CONTINUOUS
 10
11.5361665467
 20
2.8169862749
 40
0.1156961829
100
AcDbArc
 50
171.0174203935
 51
172.7961471979
  0
ARC
  5
3B2
100
AcDbEntity
  8
0
100
AcDbCircle
 62
9
  6
CONTINUOUS
 10
11.5365511411
 20
2.8144673978
 40
0.1153841055
100
AcDbArc
 50
224.0174002903
 51
224.9995003607
  0
ARC
  5
3B3
100
AcDbEntity
  8
0
100
AcDbCircle
 62
7
  6
CONTINUOUS
 10
11.7862204802
 20
2.2601989356
 40
0.1
100
AcDbArc
 50
225.0000000001
 51
45.0
  0
ARC
  5
3B4
100
AcDbEntity
  8
0
100
AcDbCircle
 62
9
  6
CONTINUOUS
 10
11.769201578
 20
2.2692245384
 40
0.0943566323
100
AcDbArc
 50
233.3043863522
 51
236.0732353579
  0
ARC
  5
3B5
100
AcDbEntity
  8
0
100
AcDbCircle
 62
9
  6
CONTINUOUS
 10
11.7775165616
 20
2.2774148716
 40
0.0939811424
100
AcDbArc
 50
26.4883340595
 51
44.942304451
  0
ARC
  5
3B6
100
AcDbEntity
  8
0
100
AcDbCircle
 62
9
  6
CONTINUOUS
 10
11.7686007901
 20
2.2684374655
 40
0.093366532
100
AcDbArc
 50
225.0313303587
 51
233.3113811175
  0
ARC
  5
3B7
100
AcDbEntity
  8
0
100
AcDbCircle
 62
7
  6
CONTINUOUS
 10
11.5420015094
 20
3.4006492462
 40
0.1212411496
100
AcDbArc
 50
172.3317085646
 51
185.764180523
  0
ARC
  5
3B8
100
AcDbEntity
  8
0
100
AcDbCircle
 62
7
  6
CONTINUOUS
 10
11.5416636683
 20
3.4003422227
 40
0.1209569626
100
AcDbArc
 50
152.8329697282
 51
168.9792740238
  0
ARC
  5
3B9
100
AcDbEntity
  8
0
100
AcDbCircle
 62
7
  6
CONTINUOUS
 10
11.5412346274
 20
3.4008128746
 40
0.1205060675
100
AcDbArc
 50
190.0797423805
 51
205.0433980296
  0
ARC
  5
3BA
100
AcDbEntity
  8
0
100
AcDbCircle
 62
7
  6
CONTINUOUS
 10
11.5408416477
 20
3.4005905369
 40
0.1201123504
100
AcDbArc
 50
135.9288551483
 51
152.7593165481
  0
ARC
  5
3BB
100
AcDbEntity
  8
0
100
AcDbCircle
 62
7
  6
CONTINUOUS
 10
11.5395676702
 20
3.4004163018
 40
0.1187962217
100
AcDbArc
 50
185.7702934289
 51
188.0764624916
  0
ARC
  5
3BC
100
AcDbEntity
  8
0
100
AcDbCircle
 62
7
  6
CONTINUOUS
 10
11.538611272
 20
3.4002859255
 40
0.1178309926
100
AcDbArc
 50
188.0790325805
 51
190.0507229126
  0
ARC
  5
3BD
100
AcDbEntity
  8
0
100
AcDbCircle
 62
7
  6
CONTINUOUS
 10
11.5382920868
 20
3.4010604395
 40
0.1175102777
100
AcDbArc
 50
169.0087464363
 51
172.2920710418
  0
ARC
  5
3BE
100
AcDbEntity
  8
0
100
AcDbCircle
 62
7
  6
CONTINUOUS
 10
11.7862204802
 20
3.9572552105
 40
0.1
100
AcDbArc
 50
315.0
 51
135.0
  0
ARC
  5
3BF
100
AcDbEntity
  8
0
100
AcDbCircle
 62
9
  6
CONTINUOUS
 10
11.7771948774
 20
3.9402363084
 40
0.0943566323
100
AcDbArc
 50
323.3043863523
 51
326.0732353577
  0
ARC
  5
3C0
100
AcDbEntity
  8
0
100
AcDbCircle
 62
9
  6
CONTINUOUS
 10
11.7690045442
 20
3.9485512919
 40
0.0939811424
100
AcDbArc
 50
116.4883340596
 51
134.9423044508
  0
ARC
  5
3C1
100
AcDbEntity
  8
0
100
AcDbCircle
 62
9
  6
CONTINUOUS
 10
11.7779819503
 20
3.9396355204
 40
0.093366532
100
AcDbArc
 50
315.0313303589
 51
323.3113811176
  0
ARC
  5
3C2
100
AcDbEntity
  8
0
100
AcDbCircle
 62
7
  6
CONTINUOUS
 10
15.8423161979
 20
17.7235241086
 40
5.905511811
100
AcDbArc
 50
227.3008347419
 51
244.2579086328
  0
ARC
  5
3C3
100
AcDbEntity
  8
0
100
AcDbCircle
 62
7
  6
CONTINUOUS
 10
10.9376923427
 20
18.1087270731
 40
1.19
100
AcDbArc
 50
290.0392292498
 51
249.9702758671
  0
ARC
  5
3C4
100
AcDbEntity
  8
0
100
AcDbCircle
 62
9
  6
CONTINUOUS
 10
10.9376923427
 20
18.1087270731
 40
1.1533952125
100
AcDbArc
 50
290.6373283167
 51
249.3581220926
  0
ARC
  5
3C5
100
AcDbEntity
  8
0
100
AcDbCircle
 62
9
  6
CONTINUOUS
 10
10.9376923427
 20
18.1087270731
 40
0.4505665705
100
AcDbArc
 50
334.5810297864
 51
205.4192041349
  0
ARC
  5
3C6
100
AcDbEntity
  8
0
100
AcDbCircle
 62
7
  6
CONTINUOUS
 10
10.9376923427
 20
18.1087270731
 40
0.4173291264
100
AcDbArc
 50
349.3493898604
 51
190.7790081793
  0
ARC
  5
3C7
100
AcDbEntity
  8
0
100
AcDbCircle
 62
7
  6
CONTINUOUS
 10
10.9376923427
 20
18.1087270731
 40
0.40625
100
AcDbArc
 50
0.0
 51
180.0
  0
ARC
  5
3C8
100
AcDbEntity
  8
0
100
AcDbCircle
 62
7
  6
CONTINUOUS
 10
13.1064363341
 20
12.0494567199
 40
0.3937007874
100
AcDbArc
 50
5.3943708113
 51
64.2579086328
  0
ARC
  5
3C9
100
AcDbEntity
  8
0
100
AcDbCircle
 62
7
  6
CONTINUOUS
 10
11.4251923427
 20
13.4351180807
 40
0.2
100
AcDbArc
 50
0.0
 51
86.4166783015
  0
ARC
  5
3CA
100
AcDbEntity
  8
0
100
AcDbCircle
 62
7
  6
CONTINUOUS
 10
11.7574031541
 20
13.2966168368
 40
0.1181102362
100
AcDbArc
 50
47.3008347418
 51
90.0
  0
ARC
  5
3CB
100
AcDbEntity
  8
0
100
AcDbCircle
 62
7
  6
CONTINUOUS
 10
13.4967474608
 20
11.7780509959
 40
0.0787401575
100
AcDbArc
 50
0.0
 51
31.8984083892
  0
ARC
  5
3CC
100
AcDbEntity
  8
0
100
AcDbCircle
 62
7
  6
CONTINUOUS
 10
13.5951726577
 20
11.1706325849
 40
0.0393700787
100
AcDbArc
 50
270.0
 51
90.0
  0
ARC
  5
3CD
100
AcDbEntity
  8
0
100
AcDbCircle
 62
7
  6
CONTINUOUS
 10
13.5547565622
 20
11.9083677591
 40
0.0393700787
100
AcDbArc
 50
185.3943708107
 51
211.8984083892
  0
SPLINE
  5
3CE
100
AcDbEntity
  8
0
100
AcDbSpline
 62
7
  6
CONTINUOUS
 70
0
 71
3
 72
8
 73
4
 74
0
 42
0.0000001
 43
0.0000001
 44
0.0000000001
 40
0.0
 40
0.0
 40
0.0
 40
0.0
 40
1.0
 40
1.0
 40
1.0
 40
1.0
 10
10.9514785336
 20
5.191680137
 30
0.0
 10
10.981693645
 20
5.191680137
 30
0.0
 10
11.00486836
 20
5.2020940876
 30
0.0
 10
11.0211493149
 20
5.2232153396
 30
0.0
  0
SPLINE
  5
3CF
100
AcDbEntity
  8
0
100
AcDbSpline
 62
7
  6
CONTINUOUS
 70
0
 71
3
 72
8
 73
4
 74
0
 42
0.0000001
 43
0.0000001
 44
0.0000000001
 40
0.0
 40
0.0
 40
0.0
 40
0.0
 40
1.0
 40
1.0
 40
1.0
 40
1.0
 10
11.0211493149
 20
5.2232153396
 30
0.0
 10
11.0374302702
 20
5.2443365922
 30
0.0
 10
11.0456441061
 20
5.2742583671
 30
0.0
 10
11.0456441061
 20
5.3132740074
 30
0.0
  0
SPLINE
  5
3D0
100
AcDbEntity
  8
0
100
AcDbSpline
 62
7
  6
CONTINUOUS
 70
0
 71
3
 72
8
 73
4
 74
0
 42
0.0000001
 43
0.0000001
 44
0.0000000001
 40
0.0
 40
0.0
 40
0.0
 40
0.0
 40
1.0
 40
1.0
 40
1.0
 40
1.0
 10
11.0456441061
 20
5.3132740074
 30
0.0
 10
11.0456441061
 20
5.3518496314
 30
0.0
 10
11.0378703134
 20
5.3798646206
 30
0.0
 10
11.0225729481
 20
5.3981629026
 30
0.0
  0
SPLINE
  5
3D1
100
AcDbEntity
  8
0
100
AcDbSpline
 62
7
  6
CONTINUOUS
 70
0
 71
3
 72
8
 73
4
 74
0
 42
0.0000001
 43
0.0000001
 44
0.0000000001
 40
0.0
 40
0.0
 40
0.0
 40
0.0
 40
1.0
 40
1.0
 40
1.0
 40
1.0
 10
11.0225729481
 20
5.3981629026
 30
0.0
 10
11.0072151588
 20
5.4165334621
 30
0.0
 10
10.9834537642
 20
5.4257740074
 30
0.0
 10
10.9514785336
 20
5.4257740074
 30
0.0
  0
SPLINE
  5
3D2
100
AcDbEntity
  8
0
100
AcDbSpline
 62
7
  6
CONTINUOUS
 70
0
 71
3
 72
8
 73
4
 74
0
 42
0.0000001
 43
0.0000001
 44
0.0000000001
 40
0.0
 40
0.0
 40
0.0
 40
0.0
 40
1.0
 40
1.0
 40
1.0
 40
1.0
 10
10.9514785336
 20
5.4257740074
 30
0.0
 10
10.9214100854
 20
5.4257740074
 30
0.0
 10
10.8982353704
 20
5.4159467557
 30
0.0
 10
10.8819113858
 20
5.3964750966
 30
0.0
  0
SPLINE
  5
3D3
100
AcDbEntity
  8
0
100
AcDbSpline
 62
7
  6
CONTINUOUS
 70
0
 71
3
 72
8
 73
4
 74
0
 42
0.0000001
 43
0.0000001
 44
0.0000000001
 40
0.0
 40
0.0
 40
0.0
 40
0.0
 40
1.0
 40
1.0
 40
1.0
 40
1.0
 10
10.8819113858
 20
5.3964750966
 30
0.0
 10
10.8655267702
 20
5.3769311154
 30
0.0
 10
10.8574596243
 20
5.349209466
 30
0.0
 10
10.8574596243
 20
5.3132740074
 30
0.0
  0
SPLINE
  5
3D4
100
AcDbEntity
  8
0
100
AcDbSpline
 62
7
  6
CONTINUOUS
 70
0
 71
3
 72
8
 73
4
 74
0
 42
0.0000001
 43
0.0000001
 44
0.0000000001
 40
0.0
 40
0.0
 40
0.0
 40
0.0
 40
1.0
 40
1.0
 40
1.0
 40
1.0
 10
10.8574596243
 20
5.3132740074
 30
0.0
 10
10.8574596243
 20
5.2742583671
 30
0.0
 10
10.8655267702
 20
5.2443365922
 30
0.0
 10
10.8819085233
 20
5.2231798848
 30
0.0
  0
SPLINE
  5
3D5
100
AcDbEntity
  8
0
100
AcDbSpline
 62
7
  6
CONTINUOUS
 70
0
 71
3
 72
8
 73
4
 74
0
 42
0.0000001
 43
0.0000001
 44
0.0000000001
 40
0.0
 40
0.0
 40
0.0
 40
0.0
 40
1.0
 40
1.0
 40
1.0
 40
1.0
 10
10.8819085233
 20
5.2231798848
 30
0.0
 10
10.8982353704
 20
5.2020940876
 30
0.0
 10
10.9214100854
 20
5.191680137
 30
0.0
 10
10.9514785336
 20
5.191680137
 30
0.0
  0
SPLINE
  5
3D6
100
AcDbEntity
  8
0
100
AcDbSpline
 62
7
  6
CONTINUOUS
 70
0
 71
3
 72
8
 73
4
 74
0
 42
0.0000001
 43
0.0000001
 44
0.0000000001
 40
0.0
 40
0.0
 40
0.0
 40
0.0
 40
1.0
 40
1.0
 40
1.0
 40
1.0
 10
12.5782216968
 20
4.5924461113
 30
0.0
 10
12.6009563687
 20
4.5925927812
 30
0.0
 10
12.6182640734
 20
4.5983131216
 30
0.0
 10
12.6299613705
 20
4.6097911025
 30
0.0
  0
SPLINE
  5
3D7
100
AcDbEntity
  8
0
100
AcDbSpline
 62
7
  6
CONTINUOUS
 70
0
 71
3
 72
8
 73
4
 74
0
 42
0.0000001
 43
0.0000001
 44
0.0000000001
 40
0.0
 40
0.0
 40
0.0
 40
0.0
 40
1.0
 40
1.0
 40
1.0
 40
1.0
 10
12.6299613705
 20
4.6097911025
 30
0.0
 10
12.6417321148
 20
4.6213411534
 30
0.0
 10
12.6477457883
 20
4.6387955212
 30
0.0
 10
12.6477457883
 20
4.6619702229
 30
0.0
  0
SPLINE
  5
3D8
100
AcDbEntity
  8
0
100
AcDbSpline
 62
7
  6
CONTINUOUS
 70
0
 71
3
 72
8
 73
4
 74
0
 42
0.0000001
 43
0.0000001
 44
0.0000000001
 40
0.0
 40
0.0
 40
0.0
 40
0.0
 40
1.0
 40
1.0
 40
1.0
 40
1.0
 10
12.6477457883
 20
4.6619702229
 30
0.0
 10
12.6477457883
 20
4.6808913433
 30
0.0
 10
12.6420254411
 20
4.6955588826
 30
0.0
 10
12.6308447641
 20
4.7057895846
 30
0.0
  0
SPLINE
  5
3D9
100
AcDbEntity
  8
0
100
AcDbSpline
 62
7
  6
CONTINUOUS
 70
0
 71
3
 72
8
 73
4
 74
0
 42
0.0000001
 43
0.0000001
 44
0.0000000001
 40
0.0
 40
0.0
 40
0.0
 40
0.0
 40
1.0
 40
1.0
 40
1.0
 40
1.0
 10
12.6308447641
 20
4.7057895846
 30
0.0
 10
12.6195841493
 20
4.7160934323
 30
0.0
 10
12.6035965206
 20
4.7212270731
 30
0.0
 10
12.5827686312
 20
4.7212270731
 30
0.0
  0
SPLINE
  5
3DA
100
AcDbEntity
  8
0
100
AcDbSpline
 62
7
  6
CONTINUOUS
 70
0
 71
3
 72
8
 73
4
 74
0
 42
0.0000001
 43
0.0000001
 44
0.0000000001
 40
0.0
 40
0.0
 40
0.0
 40
0.0
 40
1.0
 40
1.0
 40
1.0
 40
1.0
 10
12.2387757801
 20
1.5591508047
 30
0.0
 10
12.2255750068
 20
1.544629942
 30
0.0
 10
12.2141343259
 20
1.534656017
 30
0.0
 10
12.2047282616
 20
1.5291144593
 30
0.0
  0
SPLINE
  5
3DB
100
AcDbEntity
  8
0
100
AcDbSpline
 62
7
  6
CONTINUOUS
 70
0
 71
3
 72
8
 73
4
 74
0
 42
0.0000001
 43
0.0000001
 44
0.0000000001
 40
0.0
 40
0.0
 40
0.0
 40
0.0
 40
1.0
 40
1.0
 40
1.0
 40
1.0
 10
12.2047282616
 20
1.5291144593
 30
0.0
 10
12.1952132054
 20
1.5235086893
 30
0.0
 10
12.1846525841
 20
1.520868534
 30
0.0
 10
12.1730652266
 20
1.520868534
 30
0.0
  0
SPLINE
  5
3DC
100
AcDbEntity
  8
0
100
AcDbSpline
 62
7
  6
CONTINUOUS
 70
0
 71
3
 72
8
 73
4
 74
0
 42
0.0000001
 43
0.0000001
 44
0.0000000001
 40
0.0
 40
0.0
 40
0.0
 40
0.0
 40
1.0
 40
1.0
 40
1.0
 40
1.0
 10
12.1730652266
 20
1.520868534
 30
0.0
 10
12.1538507529
 20
1.520868534
 30
0.0
 10
12.1390365437
 20
1.5284956535
 30
0.0
 10
12.1285722434
 20
1.5440091585
 30
0.0
  0
SPLINE
  5
3DD
100
AcDbEntity
  8
0
100
AcDbSpline
 62
7
  6
CONTINUOUS
 70
0
 71
3
 72
8
 73
4
 74
0
 42
0.0000001
 43
0.0000001
 44
0.0000000001
 40
0.0
 40
0.0
 40
0.0
 40
0.0
 40
1.0
 40
1.0
 40
1.0
 40
1.0
 10
12.1285722434
 20
1.5440091585
 30
0.0
 10
12.1180619643
 20
1.5595908278
 30
0.0
 10
12.1129283269
 20
1.58159213
 30
0.0
 10
12.1129283269
 20
1.6101938256
 30
0.0
  0
SPLINE
  5
3DE
100
AcDbEntity
  8
0
100
AcDbSpline
 62
7
  6
CONTINUOUS
 70
0
 71
3
 72
8
 73
4
 74
0
 42
0.0000001
 43
0.0000001
 44
0.0000000001
 40
0.0
 40
0.0
 40
0.0
 40
0.0
 40
1.0
 40
1.0
 40
1.0
 40
1.0
 10
12.1129283269
 20
1.6101938256
 30
0.0
 10
12.1129283269
 20
1.6365953857
 30
0.0
 10
12.1180619643
 20
1.6569832721
 30
0.0
 10
12.1285746694
 20
1.6713922866
 30
0.0
  0
SPLINE
  5
3DF
100
AcDbEntity
  8
0
100
AcDbSpline
 62
7
  6
CONTINUOUS
 70
0
 71
3
 72
8
 73
4
 74
0
 42
0.0000001
 43
0.0000001
 44
0.0000000001
 40
0.0
 40
0.0
 40
0.0
 40
0.0
 40
1.0
 40
1.0
 40
1.0
 40
1.0
 10
12.1285746694
 20
1.6713922866
 30
0.0
 10
12.1390365437
 20
1.6857316309
 30
0.0
 10
12.1538507529
 20
1.6929187307
 30
0.0
 10
12.1730652266
 20
1.6929187307
 30
0.0
  0
SPLINE
  5
3E0
100
AcDbEntity
  8
0
100
AcDbSpline
 62
7
  6
CONTINUOUS
 70
0
 71
3
 72
8
 73
4
 74
0
 42
0.0000001
 43
0.0000001
 44
0.0000000001
 40
0.0
 40
0.0
 40
0.0
 40
0.0
 40
1.0
 40
1.0
 40
1.0
 40
1.0
 10
12.1730652266
 20
1.6929187307
 30
0.0
 10
12.1874394127
 20
1.6929187307
 30
0.0
 10
12.2003468462
 20
1.6895451957
 30
0.0
 10
12.2117875184
 20
1.6827981336
 30
0.0
  0
SPLINE
  5
3E1
100
AcDbEntity
  8
0
100
AcDbSpline
 62
7
  6
CONTINUOUS
 70
0
 71
3
 72
8
 73
4
 74
0
 42
0.0000001
 43
0.0000001
 44
0.0000000001
 40
0.0
 40
0.0
 40
0.0
 40
0.0
 40
1.0
 40
1.0
 40
1.0
 40
1.0
 10
12.2117875184
 20
1.6827981336
 30
0.0
 10
12.2232281946
 20
1.6760510692
 30
0.0
 10
12.2321754002
 20
1.6665171707
 30
0.0
 10
12.2387757801
 20
1.6541964301
 30
0.0
  0
SPLINE
  5
3E2
100
AcDbEntity
  8
0
100
AcDbSpline
 62
7
  6
CONTINUOUS
 70
0
 71
3
 72
8
 73
4
 74
0
 42
0.0000001
 43
0.0000001
 44
0.0000000001
 40
0.0
 40
0.0
 40
0.0
 40
0.0
 40
1.0
 40
1.0
 40
1.0
 40
1.0
 10
12.2387757801
 20
1.698785741
 30
0.0
 10
12.231148664
 20
1.7078796097
 30
0.0
 10
12.2219081186
 20
1.7146266797
 30
0.0
 10
12.2107607932
 20
1.7190269433
 30
0.0
  0
SPLINE
  5
3E3
100
AcDbEntity
  8
0
100
AcDbSpline
 62
7
  6
CONTINUOUS
 70
0
 71
3
 72
8
 73
4
 74
0
 42
0.0000001
 43
0.0000001
 44
0.0000000001
 40
0.0
 40
0.0
 40
0.0
 40
0.0
 40
1.0
 40
1.0
 40
1.0
 40
1.0
 10
12.2107607932
 20
1.7190269433
 30
0.0
 10
12.1996134632
 20
1.7234272086
 30
0.0
 10
12.1865593531
 20
1.7257740074
 30
0.0
 10
12.1714517974
 20
1.7257740074
 30
0.0
  0
SPLINE
  5
3E4
100
AcDbEntity
  8
0
100
AcDbSpline
 62
7
  6
CONTINUOUS
 70
0
 71
3
 72
8
 73
4
 74
0
 42
0.0000001
 43
0.0000001
 44
0.0000000001
 40
0.0
 40
0.0
 40
0.0
 40
0.0
 40
1.0
 40
1.0
 40
1.0
 40
1.0
 10
12.1714517974
 20
1.7257740074
 30
0.0
 10
12.1422634021
 20
1.7257740074
 30
0.0
 10
12.1198220701
 20
1.7159467557
 30
0.0
 10
12.1039811342
 20
1.69643894
 30
0.0
  0
SPLINE
  5
3E5
100
AcDbEntity
  8
0
100
AcDbSpline
 62
7
  6
CONTINUOUS
 70
0
 71
3
 72
8
 73
4
 74
0
 42
0.0000001
 43
0.0000001
 44
0.0000000001
 40
0.0
 40
0.0
 40
0.0
 40
0.0
 40
1.0
 40
1.0
 40
1.0
 40
1.0
 10
12.1039811342
 20
1.69643894
 30
0.0
 10
12.088140191
 20
1.6769311154
 30
0.0
 10
12.0803663974
 20
1.649209466
 30
0.0
 10
12.0803663974
 20
1.6132740074
 30
0.0
  0
SPLINE
  5
3E6
100
AcDbEntity
  8
0
100
AcDbSpline
 62
7
  6
CONTINUOUS
 70
0
 71
3
 72
8
 73
4
 74
0
 42
0.0000001
 43
0.0000001
 44
0.0000000001
 40
0.0
 40
0.0
 40
0.0
 40
0.0
 40
1.0
 40
1.0
 40
1.0
 40
1.0
 10
12.0803663974
 20
1.6132740074
 30
0.0
 10
12.0803663974
 20
1.5742583671
 30
0.0
 10
12.088140191
 20
1.5443365922
 30
0.0
 10
12.103981131
 20
1.5232153392
 30
0.0
  0
SPLINE
  5
3E7
100
AcDbEntity
  8
0
100
AcDbSpline
 62
7
  6
CONTINUOUS
 70
0
 71
3
 72
8
 73
4
 74
0
 42
0.0000001
 43
0.0000001
 44
0.0000000001
 40
0.0
 40
0.0
 40
0.0
 40
0.0
 40
1.0
 40
1.0
 40
1.0
 40
1.0
 10
12.103981131
 20
1.5232153392
 30
0.0
 10
12.1198220701
 20
1.5020940876
 30
0.0
 10
12.1422634021
 20
1.491680137
 30
0.0
 10
12.1714517974
 20
1.491680137
 30
0.0
  0
SPLINE
  5
3E8
100
AcDbEntity
  8
0
100
AcDbSpline
 62
7
  6
CONTINUOUS
 70
0
 71
3
 72
8
 73
4
 74
0
 42
0.0000001
 43
0.0000001
 44
0.0000000001
 40
0.0
 40
0.0
 40
0.0
 40
0.0
 40
1.0
 40
1.0
 40
1.0
 40
1.0
 10
12.1714517974
 20
1.491680137
 30
0.0
 10
12.1849459239
 20
1.491680137
 30
0.0
 10
12.1977066808
 20
1.4944669687
 30
0.0
 10
12.2094133646
 20
1.4996618104
 30
0.0
  0
SPLINE
  5
3E9
100
AcDbEntity
  8
0
100
AcDbSpline
 62
7
  6
CONTINUOUS
 70
0
 71
3
 72
8
 73
4
 74
0
 42
0.0000001
 43
0.0000001
 44
0.0000000001
 40
0.0
 40
0.0
 40
0.0
 40
0.0
 40
1.0
 40
1.0
 40
1.0
 40
1.0
 10
12.2094133646
 20
1.4996618104
 30
0.0
 10
12.2211747356
 20
1.5048809195
 30
0.0
 10
12.2310019874
 20
1.5123613633
 30
0.0
 10
12.2387757801
 20
1.5220419367
 30
0.0
  0
SPLINE
  5
3EA
100
AcDbEntity
  8
0
100
AcDbSpline
 62
7
  6
CONTINUOUS
 70
0
 71
3
 72
8
 73
4
 74
0
 42
0.0000001
 43
0.0000001
 44
0.0000000001
 40
0.0
 40
0.0
 40
0.0
 40
0.0
 40
1.0
 40
1.0
 40
1.0
 40
1.0
 10
12.3586095431
 20
1.491680137
 30
0.0
 10
12.3888246813
 20
1.491680137
 30
0.0
 10
12.4119993963
 20
1.5020940876
 30
0.0
 10
12.4282803512
 20
1.5232153396
 30
0.0
  0
SPLINE
  5
3EB
100
AcDbEntity
  8
0
100
AcDbSpline
 62
7
  6
CONTINUOUS
 70
0
 71
3
 72
8
 73
4
 74
0
 42
0.0000001
 43
0.0000001
 44
0.0000000001
 40
0.0
 40
0.0
 40
0.0
 40
0.0
 40
1.0
 40
1.0
 40
1.0
 40
1.0
 10
12.4282803512
 20
1.5232153396
 30
0.0
 10
12.4445613065
 20
1.5443365922
 30
0.0
 10
12.4527751424
 20
1.5742583671
 30
0.0
 10
12.4527751424
 20
1.6132740074
 30
0.0
  0
SPLINE
  5
3EC
100
AcDbEntity
  8
0
100
AcDbSpline
 62
7
  6
CONTINUOUS
 70
0
 71
3
 72
8
 73
4
 74
0
 42
0.0000001
 43
0.0000001
 44
0.0000000001
 40
0.0
 40
0.0
 40
0.0
 40
0.0
 40
1.0
 40
1.0
 40
1.0
 40
1.0
 10
12.4527751424
 20
1.6132740074
 30
0.0
 10
12.4527751424
 20
1.6518496314
 30
0.0
 10
12.4450013497
 20
1.6798646206
 30
0.0
 10
12.4297039733
 20
1.6981629158
 30
0.0
  0
SPLINE
  5
3ED
100
AcDbEntity
  8
0
100
AcDbSpline
 62
7
  6
CONTINUOUS
 70
0
 71
3
 72
8
 73
4
 74
0
 42
0.0000001
 43
0.0000001
 44
0.0000000001
 40
0.0
 40
0.0
 40
0.0
 40
0.0
 40
1.0
 40
1.0
 40
1.0
 40
1.0
 10
12.4297039733
 20
1.6981629158
 30
0.0
 10
12.4143461951
 20
1.7165334621
 30
0.0
 10
12.3905847736
 20
1.7257740074
 30
0.0
 10
12.3586095431
 20
1.7257740074
 30
0.0
  0
SPLINE
  5
3EE
100
AcDbEntity
  8
0
100
AcDbSpline
 62
7
  6
CONTINUOUS
 70
0
 71
3
 72
8
 73
4
 74
0
 42
0.0000001
 43
0.0000001
 44
0.0000000001
 40
0.0
 40
0.0
 40
0.0
 40
0.0
 40
1.0
 40
1.0
 40
1.0
 40
1.0
 10
12.3586095431
 20
1.7257740074
 30
0.0
 10
12.3285410949
 20
1.7257740074
 30
0.0
 10
12.3053664067
 20
1.7159467557
 30
0.0
 10
12.2890424126
 20
1.6964750933
 30
0.0
  0
SPLINE
  5
3EF
100
AcDbEntity
  8
0
100
AcDbSpline
 62
7
  6
CONTINUOUS
 70
0
 71
3
 72
8
 73
4
 74
0
 42
0.0000001
 43
0.0000001
 44
0.0000000001
 40
0.0
 40
0.0
 40
0.0
 40
0.0
 40
1.0
 40
1.0
 40
1.0
 40
1.0
 10
12.2890424126
 20
1.6964750933
 30
0.0
 10
12.2726577931
 20
1.6769311154
 30
0.0
 10
12.2645906471
 20
1.649209466
 30
0.0
 10
12.2645906471
 20
1.6132740074
 30
0.0
  0
SPLINE
  5
3F0
100
AcDbEntity
  8
0
100
AcDbSpline
 62
7
  6
CONTINUOUS
 70
0
 71
3
 72
8
 73
4
 74
0
 42
0.0000001
 43
0.0000001
 44
0.0000000001
 40
0.0
 40
0.0
 40
0.0
 40
0.0
 40
1.0
 40
1.0
 40
1.0
 40
1.0
 10
12.2645906471
 20
1.6132740074
 30
0.0
 10
12.2645906471
 20
1.5742583671
 30
0.0
 10
12.2726577931
 20
1.5443365922
 30
0.0
 10
12.2890395504
 20
1.5231798881
 30
0.0
  0
SPLINE
  5
3F1
100
AcDbEntity
  8
0
100
AcDbSpline
 62
7
  6
CONTINUOUS
 70
0
 71
3
 72
8
 73
4
 74
0
 42
0.0000001
 43
0.0000001
 44
0.0000000001
 40
0.0
 40
0.0
 40
0.0
 40
0.0
 40
1.0
 40
1.0
 40
1.0
 40
1.0
 10
12.2890395504
 20
1.5231798881
 30
0.0
 10
12.3053664067
 20
1.5020940876
 30
0.0
 10
12.3285410949
 20
1.491680137
 30
0.0
 10
12.3586095431
 20
1.491680137
 30
0.0
  0
SPLINE
  5
3F2
100
AcDbEntity
  8
0
100
AcDbSpline
 62
7
  6
CONTINUOUS
 70
0
 71
3
 72
8
 73
4
 74
0
 42
0.0000001
 43
0.0000001
 44
0.0000000001
 40
0.0
 40
0.0
 40
0.0
 40
0.0
 40
1.0
 40
1.0
 40
1.0
 40
1.0
 10
12.7157640734
 20
1.4962270731
 30
0.0
 10
12.7474459507
 20
1.4962270731
 30
0.0
 10
12.7725273945
 20
1.5066410236
 30
0.0
 10
12.7911502889
 20
1.5277665802
 30
0.0
  0
SPLINE
  5
3F3
100
AcDbEntity
  8
0
100
AcDbSpline
 62
7
  6
CONTINUOUS
 70
0
 71
3
 72
8
 73
4
 74
0
 42
0.0000001
 43
0.0000001
 44
0.0000000001
 40
0.0
 40
0.0
 40
0.0
 40
0.0
 40
1.0
 40
1.0
 40
1.0
 40
1.0
 10
12.7911502889
 20
1.5277665802
 30
0.0
 10
12.8096362927
 20
1.5487368499
 30
0.0
 10
12.8190234878
 20
1.5771918723
 30
0.0
 10
12.8190234878
 20
1.6131273308
 30
0.0
  0
SPLINE
  5
3F4
100
AcDbEntity
  8
0
100
AcDbSpline
 62
7
  6
CONTINUOUS
 70
0
 71
3
 72
8
 73
4
 74
0
 42
0.0000001
 43
0.0000001
 44
0.0000000001
 40
0.0
 40
0.0
 40
0.0
 40
0.0
 40
1.0
 40
1.0
 40
1.0
 40
1.0
 10
12.8190234878
 20
1.6131273308
 30
0.0
 10
12.8190234878
 20
1.6502362022
 30
0.0
 10
12.8115430751
 20
1.677077792
 30
0.0
 10
12.7964979062
 20
1.6946061372
 30
0.0
  0
SPLINE
  5
3F5
100
AcDbEntity
  8
0
100
AcDbSpline
 62
7
  6
CONTINUOUS
 70
0
 71
3
 72
8
 73
4
 74
0
 42
0.0000001
 43
0.0000001
 44
0.0000000001
 40
0.0
 40
0.0
 40
0.0
 40
0.0
 40
1.0
 40
1.0
 40
1.0
 40
1.0
 10
12.7964979062
 20
1.6946061372
 30
0.0
 10
12.7813279369
 20
1.7122798809
 30
0.0
 10
12.7580065586
 20
1.7212270731
 30
0.0
 10
12.7266180076
 20
1.7212270731
 30
0.0
  0
SPLINE
  5
3F6
100
AcDbEntity
  8
0
100
AcDbSpline
 62
7
  6
CONTINUOUS
 70
0
 71
3
 72
8
 73
4
 74
0
 42
0.0000001
 43
0.0000001
 44
0.0000000001
 40
0.0
 40
0.0
 40
0.0
 40
0.0
 40
1.0
 40
1.0
 40
1.0
 40
1.0
 10
10.7778520552
 20
0.811680137
 30
0.0
 10
10.80806718
 20
0.811680137
 30
0.0
 10
10.8312418816
 20
0.8220940876
 30
0.0
 10
10.8475228499
 20
0.8432153396
 30
0.0
  0
SPLINE
  5
3F7
100
AcDbEntity
  8
0
100
AcDbSpline
 62
7
  6
CONTINUOUS
 70
0
 71
3
 72
8
 73
4
 74
0
 42
0.0000001
 43
0.0000001
 44
0.0000000001
 40
0.0
 40
0.0
 40
0.0
 40
0.0
 40
1.0
 40
1.0
 40
1.0
 40
1.0
 10
10.8475228499
 20
0.8432153396
 30
0.0
 10
10.8638038186
 20
0.8643365922
 30
0.0
 10
10.8720176411
 20
0.8942583671
 30
0.0
 10
10.8720176411
 20
0.9332740074
 30
0.0
  0
SPLINE
  5
3F8
100
AcDbEntity
  8
0
100
AcDbSpline
 62
7
  6
CONTINUOUS
 70
0
 71
3
 72
8
 73
4
 74
0
 42
0.0000001
 43
0.0000001
 44
0.0000000001
 40
0.0
 40
0.0
 40
0.0
 40
0.0
 40
1.0
 40
1.0
 40
1.0
 40
1.0
 10
10.8720176411
 20
0.9332740074
 30
0.0
 10
10.8720176411
 20
0.9718496314
 30
0.0
 10
10.8642438484
 20
0.9998646206
 30
0.0
 10
10.8489464775
 20
1.0181629092
 30
0.0
  0
SPLINE
  5
3F9
100
AcDbEntity
  8
0
100
AcDbSpline
 62
7
  6
CONTINUOUS
 70
0
 71
3
 72
8
 73
4
 74
0
 42
0.0000001
 43
0.0000001
 44
0.0000000001
 40
0.0
 40
0.0
 40
0.0
 40
0.0
 40
1.0
 40
1.0
 40
1.0
 40
1.0
 10
10.8489464775
 20
1.0181629092
 30
0.0
 10
10.8335886938
 20
1.0365334621
 30
0.0
 10
10.8098272857
 20
1.0457740074
 30
0.0
 10
10.7778520552
 20
1.0457740074
 30
0.0
  0
SPLINE
  5
3FA
100
AcDbEntity
  8
0
100
AcDbSpline
 62
7
  6
CONTINUOUS
 70
0
 71
3
 72
8
 73
4
 74
0
 42
0.0000001
 43
0.0000001
 44
0.0000000001
 40
0.0
 40
0.0
 40
0.0
 40
0.0
 40
1.0
 40
1.0
 40
1.0
 40
1.0
 10
10.7778520552
 20
1.0457740074
 30
0.0
 10
10.747783607
 20
1.0457740074
 30
0.0
 10
10.724608902
 20
1.0359467557
 30
0.0
 10
10.7082849113
 20
1.0164750933
 30
0.0
  0
SPLINE
  5
3FB
100
AcDbEntity
  8
0
100
AcDbSpline
 62
7
  6
CONTINUOUS
 70
0
 71
3
 72
8
 73
4
 74
0
 42
0.0000001
 43
0.0000001
 44
0.0000000001
 40
0.0
 40
0.0
 40
0.0
 40
0.0
 40
1.0
 40
1.0
 40
1.0
 40
1.0
 10
10.7082849113
 20
1.0164750933
 30
0.0
 10
10.6919002951
 20
0.9969311154
 30
0.0
 10
10.6838331509
 20
0.969209466
 30
0.0
 10
10.6838331509
 20
0.9332740074
 30
0.0
  0
SPLINE
  5
3FC
100
AcDbEntity
  8
0
100
AcDbSpline
 62
7
  6
CONTINUOUS
 70
0
 71
3
 72
8
 73
4
 74
0
 42
0.0000001
 43
0.0000001
 44
0.0000000001
 40
0.0
 40
0.0
 40
0.0
 40
0.0
 40
1.0
 40
1.0
 40
1.0
 40
1.0
 10
10.6838331509
 20
0.9332740074
 30
0.0
 10
10.6838331509
 20
0.8942583671
 30
0.0
 10
10.6919002951
 20
0.8643365922
 30
0.0
 10
10.7082820491
 20
0.8431798881
 30
0.0
  0
SPLINE
  5
3FD
100
AcDbEntity
  8
0
100
AcDbSpline
 62
7
  6
CONTINUOUS
 70
0
 71
3
 72
8
 73
4
 74
0
 42
0.0000001
 43
0.0000001
 44
0.0000000001
 40
0.0
 40
0.0
 40
0.0
 40
0.0
 40
1.0
 40
1.0
 40
1.0
 40
1.0
 10
10.7082820491
 20
0.8431798881
 30
0.0
 10
10.724608902
 20
0.8220940876
 30
0.0
 10
10.747783607
 20
0.811680137
 30
0.0
 10
10.7778520552
 20
0.811680137
 30
0.0
  0
SPLINE
  5
3FE
100
AcDbEntity
  8
0
100
AcDbSpline
 62
7
  6
CONTINUOUS
 70
0
 71
3
 72
8
 73
4
 74
0
 42
0.0000001
 43
0.0000001
 44
0.0000000001
 40
0.0
 40
0.0
 40
0.0
 40
0.0
 40
1.0
 40
1.0
 40
1.0
 40
1.0
 10
10.9514785336
 20
5.220868534
 30
0.0
 10
10.9318240301
 20
5.220868534
 30
0.0
 10
10.9165697979
 20
5.2284956535
 30
0.0
 10
10.9059592586
 20
5.2440089886
 30
0.0
  0
SPLINE
  5
3FF
100
AcDbEntity
  8
0
100
AcDbSpline
 62
7
  6
CONTINUOUS
 70
0
 71
3
 72
8
 73
4
 74
0
 42
0.0000001
 43
0.0000001
 44
0.0000000001
 40
0.0
 40
0.0
 40
0.0
 40
0.0
 40
1.0
 40
1.0
 40
1.0
 40
1.0
 10
10.9059592586
 20
5.2440089886
 30
0.0
 10
10.8953018652
 20
5.2595908278
 30
0.0
 10
10.8900215344
 20
5.28159213
 30
0.0
 10
10.8900215344
 20
5.3101938256
 30
0.0
  0
SPLINE
  5
400
100
AcDbEntity
  8
0
100
AcDbSpline
 62
7
  6
CONTINUOUS
 70
0
 71
3
 72
8
 73
4
 74
0
 42
0.0000001
 43
0.0000001
 44
0.0000000001
 40
0.0
 40
0.0
 40
0.0
 40
0.0
 40
1.0
 40
1.0
 40
1.0
 40
1.0
 10
10.8900215344
 20
5.3101938256
 30
0.0
 10
10.8900215344
 20
5.3365953857
 30
0.0
 10
10.8953018652
 20
5.3569832721
 30
0.0
 10
10.9059617087
 20
5.3713924302
 30
0.0
  0
SPLINE
  5
401
100
AcDbEntity
  8
0
100
AcDbSpline
 62
7
  6
CONTINUOUS
 70
0
 71
3
 72
8
 73
4
 74
0
 42
0.0000001
 43
0.0000001
 44
0.0000000001
 40
0.0
 40
0.0
 40
0.0
 40
0.0
 40
1.0
 40
1.0
 40
1.0
 40
1.0
 10
10.9059617087
 20
5.3713924302
 30
0.0
 10
10.9165697979
 20
5.3857316309
 30
0.0
 10
10.9318240301
 20
5.3929187307
 30
0.0
 10
10.9514785336
 20
5.3929187307
 30
0.0
  0
SPLINE
  5
402
100
AcDbEntity
  8
0
100
AcDbSpline
 62
7
  6
CONTINUOUS
 70
0
 71
3
 72
8
 73
4
 74
0
 42
0.0000001
 43
0.0000001
 44
0.0000000001
 40
0.0
 40
0.0
 40
0.0
 40
0.0
 40
1.0
 40
1.0
 40
1.0
 40
1.0
 10
10.9514785336
 20
5.3929187307
 30
0.0
 10
10.9731864826
 20
5.3929187307
 30
0.0
 10
10.9890274213
 20
5.3863183373
 30
0.0
 10
10.9987079965
 20
5.3734109038
 30
0.0
  0
SPLINE
  5
403
100
AcDbEntity
  8
0
100
AcDbSpline
 62
7
  6
CONTINUOUS
 70
0
 71
3
 72
8
 73
4
 74
0
 42
0.0000001
 43
0.0000001
 44
0.0000000001
 40
0.0
 40
0.0
 40
0.0
 40
0.0
 40
1.0
 40
1.0
 40
1.0
 40
1.0
 10
10.9987079965
 20
5.3734109038
 30
0.0
 10
11.0083885716
 20
5.3605034703
 30
0.0
 10
11.0130821692
 20
5.3393822276
 30
0.0
 10
11.0130821692
 20
5.3101938256
 30
0.0
  0
SPLINE
  5
404
100
AcDbEntity
  8
0
100
AcDbSpline
 62
7
  6
CONTINUOUS
 70
0
 71
3
 72
8
 73
4
 74
0
 42
0.0000001
 43
0.0000001
 44
0.0000000001
 40
0.0
 40
0.0
 40
0.0
 40
0.0
 40
1.0
 40
1.0
 40
1.0
 40
1.0
 10
11.0130821692
 20
5.3101938256
 30
0.0
 10
11.0130821692
 20
5.28159213
 30
0.0
 10
11.0076551752
 20
5.2595908278
 30
0.0
 10
10.9970446521
 20
5.2440774967
 30
0.0
  0
SPLINE
  5
405
100
AcDbEntity
  8
0
100
AcDbSpline
 62
7
  6
CONTINUOUS
 70
0
 71
3
 72
8
 73
4
 74
0
 42
0.0000001
 43
0.0000001
 44
0.0000000001
 40
0.0
 40
0.0
 40
0.0
 40
0.0
 40
1.0
 40
1.0
 40
1.0
 40
1.0
 10
10.9970446521
 20
5.2440774967
 30
0.0
 10
10.9863872694
 20
5.2284956535
 30
0.0
 10
10.9711330102
 20
5.220868534
 30
0.0
 10
10.9514785336
 20
5.220868534
 30
0.0
  0
SPLINE
  5
406
100
AcDbEntity
  8
0
100
AcDbSpline
 62
7
  6
CONTINUOUS
 70
0
 71
3
 72
8
 73
4
 74
0
 42
0.0000001
 43
0.0000001
 44
0.0000000001
 40
0.0
 40
0.0
 40
0.0
 40
0.0
 40
1.0
 40
1.0
 40
1.0
 40
1.0
 10
10.8234181828
 20
0.8640774904
 30
0.0
 10
10.8127607909
 20
0.8484956535
 30
0.0
 10
10.7975065586
 20
0.840868534
 30
0.0
 10
10.7778520552
 20
0.840868534
 30
0.0
  0
SPLINE
  5
407
100
AcDbEntity
  8
0
100
AcDbSpline
 62
7
  6
CONTINUOUS
 70
0
 71
3
 72
8
 73
4
 74
0
 42
0.0000001
 43
0.0000001
 44
0.0000000001
 40
0.0
 40
0.0
 40
0.0
 40
0.0
 40
1.0
 40
1.0
 40
1.0
 40
1.0
 10
10.8394557041
 20
0.9301938256
 30
0.0
 10
10.8394557041
 20
0.90159213
 30
0.0
 10
10.8340287236
 20
0.8795908278
 30
0.0
 10
10.8234181828
 20
0.8640774904
 30
0.0
  0
SPLINE
  5
408
100
AcDbEntity
  8
0
100
AcDbSpline
 62
7
  6
CONTINUOUS
 70
0
 71
3
 72
8
 73
4
 74
0
 42
0.0000001
 43
0.0000001
 44
0.0000000001
 40
0.0
 40
0.0
 40
0.0
 40
0.0
 40
1.0
 40
1.0
 40
1.0
 40
1.0
 10
10.825081518
 20
0.9934109038
 30
0.0
 10
10.8347620932
 20
0.9805034703
 30
0.0
 10
10.8394557041
 20
0.9593822276
 30
0.0
 10
10.8394557041
 20
0.9301938256
 30
0.0
  0
SPLINE
  5
409
100
AcDbEntity
  8
0
100
AcDbSpline
 62
7
  6
CONTINUOUS
 70
0
 71
3
 72
8
 73
4
 74
0
 42
0.0000001
 43
0.0000001
 44
0.0000000001
 40
0.0
 40
0.0
 40
0.0
 40
0.0
 40
1.0
 40
1.0
 40
1.0
 40
1.0
 10
10.7778520552
 20
1.0129187307
 30
0.0
 10
10.7995600042
 20
1.0129187307
 30
0.0
 10
10.8154009429
 20
1.0063183373
 30
0.0
 10
10.825081518
 20
0.9934109038
 30
0.0
  0
SPLINE
  5
40A
100
AcDbEntity
  8
0
100
AcDbSpline
 62
7
  6
CONTINUOUS
 70
0
 71
3
 72
8
 73
4
 74
0
 42
0.0000001
 43
0.0000001
 44
0.0000000001
 40
0.0
 40
0.0
 40
0.0
 40
0.0
 40
1.0
 40
1.0
 40
1.0
 40
1.0
 10
10.7323352371
 20
0.991392435
 30
0.0
 10
10.7429433194
 20
1.0057316309
 30
0.0
 10
10.7581975584
 20
1.0129187307
 30
0.0
 10
10.7778520552
 20
1.0129187307
 30
0.0
  0
SPLINE
  5
40B
100
AcDbEntity
  8
0
100
AcDbSpline
 62
7
  6
CONTINUOUS
 70
0
 71
3
 72
8
 73
4
 74
0
 42
0.0000001
 43
0.0000001
 44
0.0000000001
 40
0.0
 40
0.0
 40
0.0
 40
0.0
 40
1.0
 40
1.0
 40
1.0
 40
1.0
 10
10.7163950795
 20
0.9301938256
 30
0.0
 10
10.7163950795
 20
0.9565953857
 30
0.0
 10
10.7216753935
 20
0.9769832721
 30
0.0
 10
10.7323352371
 20
0.991392435
 30
0.0
  0
SPLINE
  5
40C
100
AcDbEntity
  8
0
100
AcDbSpline
 62
7
  6
CONTINUOUS
 70
0
 71
3
 72
8
 73
4
 74
0
 42
0.0000001
 43
0.0000001
 44
0.0000000001
 40
0.0
 40
0.0
 40
0.0
 40
0.0
 40
1.0
 40
1.0
 40
1.0
 40
1.0
 10
10.7323327868
 20
0.8640089839
 30
0.0
 10
10.7216753935
 20
0.8795908278
 30
0.0
 10
10.7163950795
 20
0.90159213
 30
0.0
 10
10.7163950795
 20
0.9301938256
 30
0.0
  0
SPLINE
  5
40D
100
AcDbEntity
  8
0
100
AcDbSpline
 62
7
  6
CONTINUOUS
 70
0
 71
3
 72
8
 73
4
 74
0
 42
0.0000001
 43
0.0000001
 44
0.0000000001
 40
0.0
 40
0.0
 40
0.0
 40
0.0
 40
1.0
 40
1.0
 40
1.0
 40
1.0
 10
10.7778520552
 20
0.840868534
 30
0.0
 10
10.7581975584
 20
0.840868534
 30
0.0
 10
10.7429433194
 20
0.8484956535
 30
0.0
 10
10.7323327868
 20
0.8640089839
 30
0.0
  0
SPLINE
  5
40E
100
AcDbEntity
  8
0
100
AcDbSpline
 62
7
  6
CONTINUOUS
 70
0
 71
3
 72
8
 73
4
 74
0
 42
0.0000001
 43
0.0000001
 44
0.0000000001
 40
0.0
 40
0.0
 40
0.0
 40
0.0
 40
1.0
 40
1.0
 40
1.0
 40
1.0
 10
12.579395056
 20
4.6883717963
 30
0.0
 10
12.5908357503
 20
4.6883717963
 30
0.0
 10
12.5996362927
 20
4.6855849543
 30
0.0
 10
12.6057966415
 20
4.6800113105
 30
0.0
  0
SPLINE
  5
40F
100
AcDbEntity
  8
0
100
AcDbSpline
 62
7
  6
CONTINUOUS
 70
0
 71
3
 72
8
 73
4
 74
0
 42
0.0000001
 43
0.0000001
 44
0.0000000001
 40
0.0
 40
0.0
 40
0.0
 40
0.0
 40
1.0
 40
1.0
 40
1.0
 40
1.0
 10
12.6057966415
 20
4.6800113105
 30
0.0
 10
12.6119570198
 20
4.67443764
 30
0.0
 10
12.6151838782
 20
4.6666638338
 30
0.0
 10
12.6151838782
 20
4.6563965657
 30
0.0
  0
SPLINE
  5
410
100
AcDbEntity
  8
0
100
AcDbSpline
 62
7
  6
CONTINUOUS
 70
0
 71
3
 72
8
 73
4
 74
0
 42
0.0000001
 43
0.0000001
 44
0.0000000001
 40
0.0
 40
0.0
 40
0.0
 40
0.0
 40
1.0
 40
1.0
 40
1.0
 40
1.0
 10
12.6151838782
 20
4.6563965657
 30
0.0
 10
12.6151838782
 20
4.6420223796
 30
0.0
 10
12.6115169766
 20
4.6316084349
 30
0.0
 10
12.60421965
 20
4.6252597678
 30
0.0
  0
SPLINE
  5
411
100
AcDbEntity
  8
0
100
AcDbSpline
 62
7
  6
CONTINUOUS
 70
0
 71
3
 72
8
 73
4
 74
0
 42
0.0000001
 43
0.0000001
 44
0.0000000001
 40
0.0
 40
0.0
 40
0.0
 40
0.0
 40
1.0
 40
1.0
 40
1.0
 40
1.0
 10
12.60421965
 20
4.6252597678
 30
0.0
 10
12.5968494239
 20
4.618847678
 30
0.0
 10
12.5848220768
 20
4.6157674962
 30
0.0
 10
12.5682477417
 20
4.6157674962
 30
0.0
  0
SPLINE
  5
412
100
AcDbEntity
  8
0
100
AcDbSpline
 62
7
  6
CONTINUOUS
 70
0
 71
3
 72
8
 73
4
 74
0
 42
0.0000001
 43
0.0000001
 44
0.0000000001
 40
0.0
 40
0.0
 40
0.0
 40
0.0
 40
1.0
 40
1.0
 40
1.0
 40
1.0
 10
12.7673504755
 20
1.5483329265
 30
0.0
 10
12.7546330371
 20
1.5330425878
 30
0.0
 10
12.7374719956
 20
1.5254154683
 30
0.0
 10
12.7157640734
 20
1.5254154683
 30
0.0
  0
SPLINE
  5
413
100
AcDbEntity
  8
0
100
AcDbSpline
 62
7
  6
CONTINUOUS
 70
0
 71
3
 72
8
 73
4
 74
0
 42
0.0000001
 43
0.0000001
 44
0.0000000001
 40
0.0
 40
0.0
 40
0.0
 40
0.0
 40
1.0
 40
1.0
 40
1.0
 40
1.0
 10
12.7864615776
 20
1.610047149
 30
0.0
 10
12.7864615776
 20
1.5840856121
 30
0.0
 10
12.7800078609
 20
1.5635510625
 30
0.0
 10
12.7673504755
 20
1.5483329265
 30
0.0
  0
SPLINE
  5
414
100
AcDbEntity
  8
0
100
AcDbSpline
 62
7
  6
CONTINUOUS
 70
0
 71
3
 72
8
 73
4
 74
0
 42
0.0000001
 43
0.0000001
 44
0.0000000001
 40
0.0
 40
0.0
 40
0.0
 40
0.0
 40
1.0
 40
1.0
 40
1.0
 40
1.0
 10
12.7714654291
 20
1.6683975117
 30
0.0
 10
12.7814746001
 20
1.6550764897
 30
0.0
 10
12.7864615776
 20
1.6355686629
 30
0.0
 10
12.7864615776
 20
1.610047149
 30
0.0
  0
SPLINE
  5
415
100
AcDbEntity
  8
0
100
AcDbSpline
 62
7
  6
CONTINUOUS
 70
0
 71
3
 72
8
 73
4
 74
0
 42
0.0000001
 43
0.0000001
 44
0.0000000001
 40
0.0
 40
0.0
 40
0.0
 40
0.0
 40
1.0
 40
1.0
 40
1.0
 40
1.0
 10
12.7276447573
 20
1.6883717963
 30
0.0
 10
12.7468592443
 20
1.6883717963
 30
0.0
 10
12.7615267434
 20
1.6816247263
 30
0.0
 10
12.7714654291
 20
1.6683975117
 30
0.0
  0
SPLINE
  5
416
100
AcDbEntity
  8
0
100
AcDbSpline
 62
7
  6
CONTINUOUS
 70
0
 71
3
 72
8
 73
4
 74
0
 42
0.0000001
 43
0.0000001
 44
0.0000000001
 40
0.0
 40
0.0
 40
0.0
 40
0.0
 40
1.0
 40
1.0
 40
1.0
 40
1.0
 10
12.4041756707
 20
1.5440774904
 30
0.0
 10
12.3935182788
 20
1.5284956535
 30
0.0
 10
12.3782640465
 20
1.520868534
 30
0.0
 10
12.3586095431
 20
1.520868534
 30
0.0
  0
SPLINE
  5
417
100
AcDbEntity
  8
0
100
AcDbSpline
 62
7
  6
CONTINUOUS
 70
0
 71
3
 72
8
 73
4
 74
0
 42
0.0000001
 43
0.0000001
 44
0.0000000001
 40
0.0
 40
0.0
 40
0.0
 40
0.0
 40
1.0
 40
1.0
 40
1.0
 40
1.0
 10
12.4202132054
 20
1.6101938256
 30
0.0
 10
12.4202132054
 20
1.58159213
 30
0.0
 10
12.4147862115
 20
1.5595908278
 30
0.0
 10
12.4041756707
 20
1.5440774904
 30
0.0
  0
SPLINE
  5
418
100
AcDbEntity
  8
0
100
AcDbSpline
 62
7
  6
CONTINUOUS
 70
0
 71
3
 72
8
 73
4
 74
0
 42
0.0000001
 43
0.0000001
 44
0.0000000001
 40
0.0
 40
0.0
 40
0.0
 40
0.0
 40
1.0
 40
1.0
 40
1.0
 40
1.0
 10
12.4058390145
 20
1.6734109102
 30
0.0
 10
12.4155195811
 20
1.6605034703
 30
0.0
 10
12.4202132054
 20
1.6393822276
 30
0.0
 10
12.4202132054
 20
1.6101938256
 30
0.0
  0
SPLINE
  5
419
100
AcDbEntity
  8
0
100
AcDbSpline
 62
7
  6
CONTINUOUS
 70
0
 71
3
 72
8
 73
4
 74
0
 42
0.0000001
 43
0.0000001
 44
0.0000000001
 40
0.0
 40
0.0
 40
0.0
 40
0.0
 40
1.0
 40
1.0
 40
1.0
 40
1.0
 10
12.3586095431
 20
1.6929187307
 30
0.0
 10
12.3803175189
 20
1.6929187307
 30
0.0
 10
12.3961584576
 20
1.6863183373
 30
0.0
 10
12.4058390145
 20
1.6734109102
 30
0.0
  0
SPLINE
  5
41A
100
AcDbEntity
  8
0
100
AcDbSpline
 62
7
  6
CONTINUOUS
 70
0
 71
3
 72
8
 73
4
 74
0
 42
0.0000001
 43
0.0000001
 44
0.0000000001
 40
0.0
 40
0.0
 40
0.0
 40
0.0
 40
1.0
 40
1.0
 40
1.0
 40
1.0
 10
12.3130927362
 20
1.6713924366
 30
0.0
 10
12.3237008073
 20
1.6857316309
 30
0.0
 10
12.3389550664
 20
1.6929187307
 30
0.0
 10
12.3586095431
 20
1.6929187307
 30
0.0
  0
SPLINE
  5
41B
100
AcDbEntity
  8
0
100
AcDbSpline
 62
7
  6
CONTINUOUS
 70
0
 71
3
 72
8
 73
4
 74
0
 42
0.0000001
 43
0.0000001
 44
0.0000000001
 40
0.0
 40
0.0
 40
0.0
 40
0.0
 40
1.0
 40
1.0
 40
1.0
 40
1.0
 10
12.2971525707
 20
1.6101938256
 30
0.0
 10
12.2971525707
 20
1.6365953857
 30
0.0
 10
12.3024329015
 20
1.6569832721
 30
0.0
 10
12.3130927362
 20
1.6713924366
 30
0.0
  0
SPLINE
  5
41C
100
AcDbEntity
  8
0
100
AcDbSpline
 62
7
  6
CONTINUOUS
 70
0
 71
3
 72
8
 73
4
 74
0
 42
0.0000001
 43
0.0000001
 44
0.0000000001
 40
0.0
 40
0.0
 40
0.0
 40
0.0
 40
1.0
 40
1.0
 40
1.0
 40
1.0
 10
12.3130902858
 20
1.5440089823
 30
0.0
 10
12.3024329015
 20
1.5595908278
 30
0.0
 10
12.2971525707
 20
1.58159213
 30
0.0
 10
12.2971525707
 20
1.6101938256
 30
0.0
  0
SPLINE
  5
41D
100
AcDbEntity
  8
0
100
AcDbSpline
 62
7
  6
CONTINUOUS
 70
0
 71
3
 72
8
 73
4
 74
0
 42
0.0000001
 43
0.0000001
 44
0.0000000001
 40
0.0
 40
0.0
 40
0.0
 40
0.0
 40
1.0
 40
1.0
 40
1.0
 40
1.0
 10
12.3586095431
 20
1.520868534
 30
0.0
 10
12.3389550664
 20
1.520868534
 30
0.0
 10
12.3237008073
 20
1.5284956535
 30
0.0
 10
12.3130902858
 20
1.5440089823
 30
0.0
  0
LINE
  5
41E
100
AcDbEntity
  8
0
100
AcDbLine
 62
7
  6
CONTINUOUS
 10
10.9208173427
 20
3.3631020731
 11
10.9376923427
 21
3.3631020731
  0
LINE
  5
41F
100
AcDbEntity
  8
0
100
AcDbLine
 62
7
  6
CONTINUOUS
 10
10.9208173427
 20
3.1301253227
 11
10.9208173427
 21
3.3631020731
  0
SPLINE
  5
420
100
AcDbEntity
  8
0
100
AcDbSpline
 62
7
  6
CONTINUOUS
 70
0
 71
3
 72
18
 73
14
 74
0
 42
0.0000001
 43
0.0000001
 44
0.0000000001
 40
0.0
 40
0.0
 40
0.0
 40
0.0
 40
0.1240535728
 40
0.2484894826
 40
0.3731804348
 40
0.4980481214
 40
0.5605781795
 40
0.6231941261
 40
0.6859245095
 40
0.7488018635
 40
0.8117456176
 40
0.8746169697
 40
1.0
 40
1.0
 40
1.0
 40
1.0
 10
10.8470321678
 20
3.1614281242
 30
0.0
 10
10.8500352676
 20
3.1600236087
 30
0.0
 10
10.8561200139
 20
3.1573586109
 30
0.0
 10
10.8653490153
 20
3.153579152
 30
0.0
 10
10.8745926735
 20
3.1497758814
 30
0.0
 10
10.8822280736
 20
3.1464186111
 30
0.0
 10
10.8883550872
 20
3.1437534663
 30
0.0
 10
10.8929775041
 20
3.1417928175
 30
0.0
 10
10.8976382676
 20
3.1398993509
 30
0.0
 10
10.902351567
 20
3.1381167417
 30
0.0
 10
10.907079349
 20
3.1363611138
 30
0.0
 10
10.9133287611
 20
3.133913935
 30
0.0
 10
10.9179097919
 20
3.1317909354
 30
0.0
 10
10.9208173427
 20
3.1301253227
 30
0.0
  0
SPLINE
  5
421
100
AcDbEntity
  8
0
100
AcDbSpline
 62
7
  6
CONTINUOUS
 70
0
 71
3
 72
19
 73
15
 74
0
 42
0.0000001
 43
0.0000001
 44
0.0000000001
 40
0.0
 40
0.0
 40
0.0
 40
0.0
 40
0.1189938872
 40
0.1794225702
 40
0.2403924328
 40
0.3638047467
 40
0.4889384605
 40
0.6154728021
 40
0.6791557372
 40
0.7430565132
 40
0.807132635
 40
0.8713427945
 40
0.935645997
 40
1.0
 40
1.0
 40
1.0
 40
1.0
 10
10.9376923427
 20
2.8537623004
 30
0.0
 10
10.9350910558
 20
2.8629891512
 30
0.0
 10
10.9310010358
 20
2.8768539989
 30
0.0
 10
10.9254703284
 20
2.8954141206
 30
0.0
 10
10.9198897667
 20
2.9143309496
 30
0.0
 10
10.9129087519
 20
2.9382693642
 30
0.0
 10
10.9044679388
 20
2.9672843222
 30
0.0
 10
10.8971846231
 20
2.9916238251
 30
0.0
 10
10.8912789606
 20
3.0112260545
 30
0.0
 10
10.8868419799
 20
3.0260156041
 30
0.0
 10
10.8824725417
 20
3.0408695051
 30
0.0
 10
10.8781208002
 20
3.0557624178
 30
0.0
 10
10.8736476664
 20
3.0706427154
 30
0.0
 10
10.8706472238
 20
3.0805640025
 30
0.0
 10
10.8691710139
 20
3.0855339619
 30
0.0
  0
SPLINE
  5
422
100
AcDbEntity
  8
0
100
AcDbSpline
 62
7
  6
CONTINUOUS
 70
0
 71
3
 72
12
 73
8
 74
0
 42
0.0000001
 43
0.0000001
 44
0.0000000001
 40
0.0
 40
0.0
 40
0.0
 40
0.0
 40
0.2506167207
 40
0.3758587828
 40
0.5010116526
 40
0.7509168512
 40
1.0
 40
1.0
 40
1.0
 40
1.0
 10
10.8691710139
 20
3.0855339619
 30
0.0
 10
10.8672904832
 20
3.0918651485
 30
0.0
 10
10.8645270899
 20
3.1013772039
 30
0.0
 10
10.8609234155
 20
3.1140791987
 30
0.0
 10
10.85735901
 20
3.1267727648
 30
0.0
 10
10.8528557969
 20
3.142592754
 30
0.0
 10
10.8490236379
 20
3.1551733534
 30
0.0
 10
10.8470321678
 20
3.1614281242
 30
0.0
  0
SPLINE
  5
423
100
AcDbEntity
  8
0
100
AcDbSpline
 62
7
  6
CONTINUOUS
 70
0
 71
3
 72
25
 73
21
 74
0
 42
0.0000001
 43
0.0000001
 44
0.0000000001
 40
0.0
 40
0.0
 40
0.0
 40
0.0
 40
0.0635510617
 40
0.0954141187
 40
0.1273167496
 40
0.1592502103
 40
0.1912056539
 40
0.2551461834
 40
0.3190667325
 40
0.3509964394
 40
0.3828936941
 40
0.4465544238
 40
0.509976653
 40
0.5730885747
 40
0.6358126134
 40
0.6980719671
 40
0.7597970411
 40
0.8209216457
 40
0.8813857359
 40
1.0
 40
1.0
 40
1.0
 40
1.0
 10
11.0283525176
 20
3.1614281242
 30
0.0
 10
11.0262844622
 20
3.1549558447
 30
0.0
 10
11.0233192157
 20
3.1451936717
 30
0.0
 10
11.019543855
 20
3.1321154675
 30
0.0
 10
11.0167651726
 20
3.1222681469
 30
0.0
 10
11.0139941856
 20
3.1124084489
 30
0.0
 10
11.0102463956
 20
3.099265255
 30
0.0
 10
11.005447434
 20
3.0828656716
 30
0.0
 10
11.00049708
 20
3.0665142745
 30
0.0
 10
10.9965952483
 20
3.0534251369
 30
0.0
 10
10.992741119
 20
3.0403508517
 30
0.0
 10
10.9879405927
 20
3.0240452204
 30
0.0
 10
10.9821160383
 20
3.0045622398
 30
0.0
 10
10.9762898175
 20
2.9851843802
 30
0.0
 10
10.9705347914
 20
2.9659148829
 30
0.0
 10
10.9649317434
 20
2.9467550879
 30
0.0
 10
10.9594056425
 20
2.9277510856
 30
0.0
 10
10.9539051601
 20
2.9089394384
 30
0.0
 10
10.9466242905
 20
2.8843117458
 30
0.0
 10
10.9411311255
 20
2.8659689789
 30
0.0
 10
10.9376923427
 20
2.8537623004
 30
0.0
  0
SPLINE
  5
424
100
AcDbEntity
  8
0
100
AcDbSpline
 62
7
  6
CONTINUOUS
 70
0
 71
3
 72
18
 73
14
 74
0
 42
0.0000001
 43
0.0000001
 44
0.0000000001
 40
0.0
 40
0.0
 40
0.0
 40
0.0
 40
0.1253830294
 40
0.1882543815
 40
0.2511981362
 40
0.314075491
 40
0.3768058748
 40
0.4394218216
 40
0.5019518795
 40
0.6268195657
 40
0.7515105176
 40
0.8759464273
 40
1.0
 40
1.0
 40
1.0
 40
1.0
 10
10.9545673427
 20
3.1301253227
 30
0.0
 10
10.9574748932
 20
3.131790936
 30
0.0
 10
10.9620559239
 20
3.133913936
 30
0.0
 10
10.9683053359
 20
3.1363611148
 30
0.0
 10
10.9730331181
 20
3.1381167425
 30
0.0
 10
10.9777464177
 20
3.1398993511
 30
0.0
 10
10.9824071814
 20
3.1417928174
 30
0.0
 10
10.9870295984
 20
3.143753466
 30
0.0
 10
10.9931566121
 20
3.1464186108
 30
0.0
 10
11.000792012
 20
3.1497758814
 30
0.0
 10
11.0100356701
 20
3.1535791522
 30
0.0
 10
11.0192646716
 20
3.1573586108
 30
0.0
 10
11.0253494179
 20
3.1600236086
 30
0.0
 10
11.0283525176
 20
3.1614281242
 30
0.0
  0
LINE
  5
425
100
AcDbEntity
  8
0
100
AcDbLine
 62
7
  6
CONTINUOUS
 10
10.9545673427
 20
3.3631020731
 11
10.9545673427
 21
3.1301253227
  0
LINE
  5
426
100
AcDbEntity
  8
0
100
AcDbLine
 62
7
  6
CONTINUOUS
 10
10.9376923427
 20
3.3631020731
 11
10.9545673427
 21
3.3631020731
  0
SPLINE
  5
427
100
AcDbEntity
  8
0
100
AcDbSpline
 62
7
  6
CONTINUOUS
 70
0
 71
3
 72
14
 73
10
 74
0
 42
0.0000001
 43
0.0000001
 44
0.0000000001
 40
0.0
 40
0.0
 40
0.0
 40
0.0
 40
0.2498003103
 40
0.3748301081
 40
0.4998935356
 40
0.6249132886
 40
0.7499226216
 40
0.8749737213
 40
1.0
 40
1.0
 40
1.0
 40
1.0
 10
10.9702458554
 20
3.3791716395
 30
0.0
 10
10.9675345863
 20
3.3791346599
 30
0.0
 10
10.9634655317
 20
3.3791248177
 30
0.0
 10
10.9580396425
 20
3.3791872812
 30
0.0
 10
10.9539683599
 20
3.3792442511
 30
0.0
 10
10.949896113
 20
3.3792355152
 30
0.0
 10
10.9458275371
 20
3.3790624905
 30
0.0
 10
10.9417637948
 20
3.378817084
 30
0.0
 10
10.9390494724
 20
3.3787270741
 30
0.0
 10
10.9376923427
 20
3.3787270731
 30
0.0
  0
SPLINE
  5
428
100
AcDbEntity
  8
0
100
AcDbSpline
 62
7
  6
CONTINUOUS
 70
0
 71
3
 72
32
 73
28
 74
0
 42
0.0000001
 43
0.0000001
 44
0.0000000001
 40
0.0
 40
0.0
 40
0.0
 40
0.0
 40
0.0641776124
 40
0.1283645547
 40
0.1925021086
 40
0.2563351661
 40
0.2880382161
 40
0.3195507645
 40
0.3508477609
 40
0.3819451224
 40
0.4437589977
 40
0.5053689341
 40
0.5671505532
 40
0.5982738409
 40
0.6296769614
 40
0.6614869725
 40
0.6938396988
 40
0.7266248015
 40
0.7595109659
 40
0.7921309258
 40
0.8241301773
 40
0.8552164086
 40
0.885220237
 40
0.9141740387
 40
0.9424079738
 40
0.9706396847
 40
1.0
 40
1.0
 40
1.0
 40
1.0
 10
10.9702458554
 20
3.1538011675
 30
0.0
 10
10.9696725422
 20
3.1586464643
 30
0.0
 10
10.9689704276
 20
3.1683924779
 30
0.0
 10
10.9688692062
 20
3.1830322591
 30
0.0
 10
10.9693246448
 20
3.1976353521
 30
0.0
 10
10.96984563
 20
3.209763238
 30
0.0
 10
10.9701512155
 20
3.2194174673
 30
0.0
 10
10.9702770913
 20
3.2266020611
 30
0.0
 10
10.9702437314
 20
3.2337419997
 30
0.0
 10
10.96996464
 20
3.2431815504
 30
0.0
 10
10.9693394663
 20
3.2549130238
 30
0.0
 10
10.9685844125
 20
3.2689727037
 30
0.0
 10
10.968331087
 20
3.280722266
 30
0.0
 10
10.9685740075
 20
3.290171658
 30
0.0
 10
10.9690378933
 20
3.2973305621
 30
0.0
 10
10.969833901
 20
3.3045554438
 30
0.0
 10
10.971035742
 20
3.3118303285
 30
0.0
 10
10.9725353552
 20
3.3191309491
 30
0.0
 10
10.9741479384
 20
3.3264273721
 30
0.0
 10
10.9757070853
 20
3.3336746297
 30
0.0
 10
10.9770410011
 20
3.3408290787
 30
0.0
 10
10.9779784053
 20
3.3478486614
 30
0.0
 10
10.9783446428
 20
3.3546945273
 30
0.0
 10
10.9779581344
 20
3.3613301221
 30
0.0
 10
10.9766239428
 20
3.3677162956
 30
0.0
 10
10.9741383678
 20
3.3737922428
 30
0.0
 10
10.9716696832
 20
3.3774526127
 30
0.0
 10
10.9702458554
 20
3.3791716395
 30
0.0
  0
LINE
  5
429
100
AcDbEntity
  8
0
100
AcDbLine
 62
7
  6
CONTINUOUS
 10
11.0526982814
 20
3.1887668652
 11
10.9702458554
 21
3.1538011675
  0
SPLINE
  5
42A
100
AcDbEntity
  8
0
100
AcDbSpline
 62
7
  6
CONTINUOUS
 70
0
 71
3
 72
9
 73
5
 74
0
 42
0.0000001
 43
0.0000001
 44
0.0000000001
 40
0.0
 40
0.0
 40
0.0
 40
0.0
 40
0.4989919923
 40
1.0
 40
1.0
 40
1.0
 40
1.0
 10
10.8289888168
 20
3.1673738133
 30
0.0
 10
10.831190836
 20
3.1605375452
 30
0.0
 10
10.8351031644
 20
3.1466815803
 30
0.0
 10
10.8389581014
 20
3.1328136382
 30
0.0
 10
10.8410629065
 20
3.125916472
 30
0.0
  0
LINE
  5
42B
100
AcDbEntity
  8
0
100
AcDbLine
 62
7
  6
CONTINUOUS
 10
10.8226750415
 20
3.1887965248
 11
10.8289888168
 21
3.1673738133
  0
SPLINE
  5
42C
100
AcDbEntity
  8
0
100
AcDbSpline
 62
7
  6
CONTINUOUS
 70
0
 71
3
 72
19
 73
15
 74
0
 42
0.0000001
 43
0.0000001
 44
0.0000000001
 40
0.0
 40
0.0
 40
0.0
 40
0.0
 40
0.1259533335
 40
0.2519455911
 40
0.3148834088
 40
0.3777011023
 40
0.4403934912
 40
0.5029769779
 40
0.5654607378
 40
0.6278510931
 40
0.6901562684
 40
0.7523776153
 40
0.8764788474
 40
1.0
 40
1.0
 40
1.0
 40
1.0
 10
10.9051388301
 20
3.1538011675
 30
0.0
 10
10.9018103038
 20
3.1555537057
 30
0.0
 10
10.8949594191
 20
3.1586924299
 30
0.0
 10
10.8862024663
 20
3.1621203377
 30
0.0
 10
10.8791935354
 20
3.164841889
 30
0.0
 10
10.8739743789
 20
3.1669488216
 30
0.0
 10
10.8687955964
 20
3.1691257144
 30
0.0
 10
10.8636432076
 20
3.1713389509
 30
0.0
 10
10.8585058147
 20
3.1735641265
 30
0.0
 10
10.8533716409
 20
3.1757758552
 30
0.0
 10
10.8482272488
 20
3.1779437818
 30
0.0
 10
10.8413570808
 20
3.1807615629
 30
0.0
 10
10.8327886954
 20
3.1842559177
 30
0.0
 10
10.8260121654
 20
3.1872239913
 30
0.0
 10
10.8226750415
 20
3.1887965248
 30
0.0
  0
SPLINE
  5
42D
100
AcDbEntity
  8
0
100
AcDbSpline
 62
7
  6
CONTINUOUS
 70
0
 71
3
 72
25
 73
21
 74
0
 42
0.0000001
 43
0.0000001
 44
0.0000000001
 40
0.0
 40
0.0
 40
0.0
 40
0.0
 40
0.1178724543
 40
0.1778846225
 40
0.238499982
 40
0.2996139648
 40
0.3303289423
 40
0.3611437502
 40
0.4231010956
 40
0.4855331303
 40
0.5484863226
 40
0.6120367425
 40
0.6440764918
 40
0.6763186906
 40
0.7087392524
 40
0.7412742596
 40
0.8064084969
 40
0.8712403019
 40
0.9356147055
 40
1.0
 40
1.0
 40
1.0
 40
1.0
 10
10.9051388301
 20
3.3791716395
 30
0.0
 10
10.9056425699
 20
3.3703162607
 30
0.0
 10
10.9058064684
 20
3.3569201485
 30
0.0
 10
10.9055514561
 20
3.3389767815
 30
0.0
 10
10.9052820849
 20
3.325303416
 30
0.0
 10
10.9051298223
 20
3.3138329763
 30
0.0
 10
10.9051370506
 20
3.3046040575
 30
0.0
 10
10.9052420236
 20
3.2953123333
 30
0.0
 10
10.9054888707
 20
3.2836360019
 30
0.0
 10
10.9057906119
 20
3.2695420084
 30
0.0
 10
10.9059168984
 20
3.2553247899
 30
0.0
 10
10.9057237639
 20
3.2433940995
 30
0.0
 10
10.905305228
 20
3.2337833717
 30
0.0
 10
10.9048263981
 20
3.226521918
 30
0.0
 10
10.9042251623
 20
3.2192325632
 30
0.0
 10
10.9033615212
 20
3.2094817916
 30
0.0
 10
10.9023383635
 20
3.1972960919
 30
0.0
 10
10.9017505562
 20
3.1826744591
 30
0.0
 10
10.9023654616
 20
3.1680978275
 30
0.0
 10
10.9039657499
 20
3.1585018851
 30
0.0
 10
10.9051388301
 20
3.1538011675
 30
0.0
  0
LINE
  5
42E
100
AcDbEntity
  8
0
100
AcDbLine
 62
7
  6
CONTINUOUS
 10
10.9376923427
 20
3.3791716395
 11
10.9051388301
 21
3.3791716395
  0
SPLINE
  5
42F
100
AcDbEntity
  8
0
100
AcDbSpline
 62
9
  6
CONTINUOUS
 70
0
 71
3
 72
22
 73
18
 74
0
 42
0.0000001
 43
0.0000001
 44
0.0000000001
 40
0.0
 40
0.0
 40
0.0
 40
0.0
 40
0.1874808122
 40
0.3683045143
 40
0.535195586
 40
0.6115795993
 40
0.6823575394
 40
0.7469141108
 40
0.8046627577
 40
0.8551745361
 40
0.8981836365
 40
0.9335471087
 40
0.9614573413
 40
0.9728834793
 40
0.9828699759
 40
0.9917482018
 40
1.0
 40
1.0
 40
1.0
 40
1.0
 10
11.7151308419
 20
2.3312876438
 30
0.0
 10
11.7197260149
 20
2.3358828273
 30
0.0
 10
11.7289067424
 20
2.3447581205
 30
0.0
 10
11.7426844744
 20
2.3571861203
 30
0.0
 10
11.753978661
 20
2.3666040265
 30
0.0
 10
11.7625913301
 20
2.3732634875
 30
0.0
 10
11.7685200816
 20
2.3775904617
 30
0.0
 10
11.7740520292
 20
2.3813599189
 30
0.0
 10
11.7791344773
 20
2.3845343728
 30
0.0
 10
11.7837188394
 20
2.387084514
 30
0.0
 10
11.7877640655
 20
2.3889931501
 30
0.0
 10
11.791234842
 20
2.3902439871
 30
0.0
 10
11.7937901858
 20
2.390768783
 30
0.0
 10
11.7955053895
 20
2.3907856593
 30
0.0
 10
11.796548947
 20
2.3906229186
 30
0.0
 10
11.7974338276
 20
2.3902811963
 30
0.0
 10
11.7979185129
 20
2.3899222592
 30
0.0
 10
11.7981207655
 20
2.3897200066
 30
0.0
  0
SPLINE
  5
430
100
AcDbEntity
  8
0
100
AcDbSpline
 62
9
  6
CONTINUOUS
 70
0
 71
3
 72
16
 73
12
 74
0
 42
0.0000001
 43
0.0000001
 44
0.0000000001
 40
0.0
 40
0.0
 40
0.0
 40
0.0
 40
0.1266874595
 40
0.2533977972
 40
0.3794656131
 40
0.5048631071
 40
0.6295840606
 40
0.7535352912
 40
0.8153250969
 40
0.8769985531
 40
1.0
 40
1.0
 40
1.0
 40
1.0
 10
11.8416055062
 20
2.2048139096
 30
0.0
 10
11.8375390371
 20
2.2007474406
 30
0.0
 10
11.828701883
 20
2.1932864706
 30
0.0
 10
11.8138229042
 20
2.1844558984
 30
0.0
 10
11.7977174517
 20
2.1782753588
 30
0.0
 10
11.7808881451
 20
2.1749249485
 30
0.0
 10
11.7638305798
 20
2.1744935383
 30
0.0
 10
11.7498151263
 20
2.1765898855
 30
0.0
 10
11.7390113598
 20
2.1797065045
 30
0.0
 10
11.7285656739
 20
2.183743413
 30
0.0
 10
11.7211709728
 20
2.1878155815
 30
0.0
 10
11.7165380492
 20
2.1909319667
 30
0.0
  0
SPLINE
  5
431
100
AcDbEntity
  8
0
100
AcDbSpline
 62
9
  6
CONTINUOUS
 70
0
 71
3
 72
22
 73
18
 74
0
 42
0.0000001
 43
0.0000001
 44
0.0000000001
 40
0.0
 40
0.0
 40
0.0
 40
0.0
 40
0.1874808122
 40
0.3683045143
 40
0.535195586
 40
0.6115795993
 40
0.6823575394
 40
0.7469141108
 40
0.8046627577
 40
0.8551745361
 40
0.8981836365
 40
0.9335471087
 40
0.9614573413
 40
0.9728834793
 40
0.9828699759
 40
0.9917482018
 40
1.0
 40
1.0
 40
1.0
 40
1.0
 10
10.1602538436
 20
3.8861665023
 30
0.0
 10
10.1556586706
 20
3.8815713188
 30
0.0
 10
10.1464779431
 20
3.8726960256
 30
0.0
 10
10.1327002111
 20
3.8602680258
 30
0.0
 10
10.1214060245
 20
3.8508501197
 30
0.0
 10
10.1127933553
 20
3.8441906587
 30
0.0
 10
10.1068646039
 20
3.8398636844
 30
0.0
 10
10.1013326562
 20
3.8360942272
 30
0.0
 10
10.0962502081
 20
3.8329197733
 30
0.0
 10
10.091665846
 20
3.8303696321
 30
0.0
 10
10.08762062
 20
3.828460996
 30
0.0
 10
10.0841498435
 20
3.827210159
 30
0.0
 10
10.0815944997
 20
3.8266853631
 30
0.0
 10
10.079879296
 20
3.8266684868
 30
0.0
 10
10.0788357385
 20
3.8268312275
 30
0.0
 10
10.0779508578
 20
3.8271729498
 30
0.0
 10
10.0774661726
 20
3.8275318869
 30
0.0
 10
10.07726392
 20
3.8277341395
 30
0.0
  0
SPLINE
  5
432
100
AcDbEntity
  8
0
100
AcDbSpline
 62
9
  6
CONTINUOUS
 70
0
 71
3
 72
15
 73
11
 74
0
 42
0.0000001
 43
0.0000001
 44
0.0000000001
 40
0.0
 40
0.0
 40
0.0
 40
0.0
 40
0.1229458809
 40
0.2463752276
 40
0.3705110044
 40
0.4953331413
 40
0.6207864237
 40
0.7468875904
 40
0.8735147599
 40
1.0
 40
1.0
 40
1.0
 40
1.0
 10
10.0137526337
 20
3.8981222201
 30
0.0
 10
10.011486415
 20
3.9026702885
 30
0.0
 10
10.0076832852
 20
3.9121726265
 30
0.0
 10
10.004321459
 20
3.9271762372
 30
0.0
 10
10.0033789483
 20
3.9426029825
 30
0.0
 10
10.0048505513
 20
3.9580704129
 30
0.0
 10
10.0087305607
 20
3.9731987325
 30
0.0
 10
10.0149084231
 20
3.9876245344
 30
0.0
 10
10.0232443794
 20
4.0009647936
 30
0.0
 10
10.0300826457
 20
4.008943703
 30
0.0
 10
10.0337791792
 20
4.0126402366
 30
0.0
  0
SPLINE
  5
433
100
AcDbEntity
  8
0
100
AcDbSpline
 62
9
  6
CONTINUOUS
 70
0
 71
3
 72
22
 73
18
 74
0
 42
0.0000001
 43
0.0000001
 44
0.0000000001
 40
0.0
 40
0.0
 40
0.0
 40
0.0
 40
0.0082513797
 40
0.0171276193
 40
0.0271101667
 40
0.038530483
 40
0.0664247286
 40
0.1017629326
 40
0.1447328753
 40
0.1952113348
 40
0.2529431339
 40
0.3174725079
 40
0.3882292519
 40
0.4646183752
 40
0.6315727139
 40
0.812490273
 40
1.0
 40
1.0
 40
1.0
 40
1.0
 10
10.2186852771
 20
3.969155495
 30
0.0
 10
10.2188875175
 20
3.9689532545
 30
0.0
 10
10.2192464674
 20
3.9684687096
 30
0.0
 10
10.2195883781
 20
3.9675841537
 30
0.0
 10
10.2197513703
 20
3.9665410572
 30
0.0
 10
10.2197349034
 20
3.9648267521
 30
0.0
 10
10.2192105564
 20
3.962272986
 30
0.0
 10
10.217960794
 20
3.9588048534
 30
0.0
 10
10.2160545276
 20
3.9547623138
 30
0.0
 10
10.2135063285
 20
3.9501804481
 30
0.0
 10
10.2103333892
 20
3.9451002918
 30
0.0
 10
10.2065662383
 20
3.9395695955
 30
0.0
 10
10.2022409457
 20
3.9336415442
 30
0.0
 10
10.1955805472
 20
3.9250276587
 30
0.0
 10
10.1861598994
 20
3.9137286161
 30
0.0
 10
10.1737275809
 20
3.8999463099
 30
0.0
 10
10.1648496834
 20
3.890762351
 30
0.0
 10
10.1602538444
 20
3.8861665015
 30
0.0
  0
SPLINE
  5
434
100
AcDbEntity
  8
0
100
AcDbSpline
 62
9
  6
CONTINUOUS
 70
0
 71
3
 72
16
 73
12
 74
0
 42
0.0000001
 43
0.0000001
 44
0.0000000001
 40
0.0
 40
0.0
 40
0.0
 40
0.0
 40
0.1266874595
 40
0.2533977972
 40
0.3794656131
 40
0.5048631071
 40
0.6295840606
 40
0.7535352912
 40
0.8153250969
 40
0.8769985531
 40
1.0
 40
1.0
 40
1.0
 40
1.0
 10
10.0337791793
 20
4.0126402365
 30
0.0
 10
10.0378456484
 20
4.0167067055
 30
0.0
 10
10.0466828025
 20
4.0241676755
 30
0.0
 10
10.0615617812
 20
4.0329982478
 30
0.0
 10
10.0776672338
 20
4.0391787873
 30
0.0
 10
10.0944965404
 20
4.0425291976
 30
0.0
 10
10.1115541057
 20
4.0429606078
 30
0.0
 10
10.1255695591
 20
4.0408642606
 30
0.0
 10
10.1363733257
 20
4.0377476416
 30
0.0
 10
10.1468190116
 20
4.0337107331
 30
0.0
 10
10.1542137127
 20
4.0296385646
 30
0.0
 10
10.1588466362
 20
4.0265221794
 30
0.0
  0
SPLINE
  5
435
100
AcDbEntity
  8
0
100
AcDbSpline
 62
9
  6
CONTINUOUS
 70
0
 71
3
 72
22
 73
18
 74
0
 42
0.0000001
 43
0.0000001
 44
0.0000000001
 40
0.0
 40
0.0
 40
0.0
 40
0.0
 40
0.0082513797
 40
0.0171276193
 40
0.0271101667
 40
0.038530483
 40
0.0664247286
 40
0.1017629326
 40
0.1447328753
 40
0.1952113348
 40
0.2529431339
 40
0.3174725079
 40
0.3882292519
 40
0.4646183752
 40
0.6315727139
 40
0.812490273
 40
1.0
 40
1.0
 40
1.0
 40
1.0
 10
10.0772639208
 20
2.3897200074
 30
0.0
 10
10.0774661613
 20
2.3899222479
 30
0.0
 10
10.0779507062
 20
2.3902811977
 30
0.0
 10
10.0788352621
 20
2.3906231084
 30
0.0
 10
10.0798783586
 20
2.3907861006
 30
0.0
 10
10.0815926637
 20
2.3907696337
 30
0.0
 10
10.0841464298
 20
2.3902452867
 30
0.0
 10
10.0876145624
 20
2.3889955243
 30
0.0
 10
10.091657102
 20
2.3870892579
 30
0.0
 10
10.0962389677
 20
2.3845410588
 30
0.0
 10
10.101319124
 20
2.3813681195
 30
0.0
 10
10.1068498203
 20
2.3776009686
 30
0.0
 10
10.1127778716
 20
2.373275676
 30
0.0
 10
10.1213917571
 20
2.3666152775
 30
0.0
 10
10.1326907997
 20
2.3571946298
 30
0.0
 10
10.1464731059
 20
2.3447623112
 30
0.0
 10
10.1556570648
 20
2.3358844137
 30
0.0
 10
10.1602529143
 20
2.3312885747
 30
0.0
  0
SPLINE
  5
436
100
AcDbEntity
  8
0
100
AcDbSpline
 62
9
  6
CONTINUOUS
 70
0
 71
3
 72
16
 73
12
 74
0
 42
0.0000001
 43
0.0000001
 44
0.0000000001
 40
0.0
 40
0.0
 40
0.0
 40
0.0
 40
0.1266874595
 40
0.2533977972
 40
0.3794656131
 40
0.5048631071
 40
0.6295840606
 40
0.7535352912
 40
0.8153250969
 40
0.8769985531
 40
1.0
 40
1.0
 40
1.0
 40
1.0
 10
10.0337791793
 20
2.2048139096
 30
0.0
 10
10.0297127103
 20
2.2088803787
 30
0.0
 10
10.0222517403
 20
2.2177175328
 30
0.0
 10
10.013421168
 20
2.2325965116
 30
0.0
 10
10.0072406285
 20
2.2487019641
 30
0.0
 10
10.0038902182
 20
2.2655312707
 30
0.0
 10
10.0034588079
 20
2.282588836
 30
0.0
 10
10.0055551552
 20
2.2966042895
 30
0.0
 10
10.0086717742
 20
2.307408056
 30
0.0
 10
10.0127086827
 20
2.3178537419
 30
0.0
 10
10.0167808512
 20
2.325248443
 30
0.0
 10
10.0198972364
 20
2.3298813666
 30
0.0
  0
SPLINE
  5
437
100
AcDbEntity
  8
0
100
AcDbSpline
 62
9
  6
CONTINUOUS
 70
0
 71
3
 72
22
 73
18
 74
0
 42
0.0000001
 43
0.0000001
 44
0.0000000001
 40
0.0
 40
0.0
 40
0.0
 40
0.0
 40
0.1874808122
 40
0.3683045143
 40
0.535195586
 40
0.6115795993
 40
0.6823575394
 40
0.7469141108
 40
0.8046627577
 40
0.8551745361
 40
0.8981836365
 40
0.9335471087
 40
0.9614573413
 40
0.9728834793
 40
0.9828699759
 40
0.9917482018
 40
1.0
 40
1.0
 40
1.0
 40
1.0
 10
10.1602529135
 20
2.3312885739
 30
0.0
 10
10.1648480969
 20
2.3266934009
 30
0.0
 10
10.1737233902
 20
2.3175126734
 30
0.0
 10
10.18615139
 20
2.3037349414
 30
0.0
 10
10.1955692961
 20
2.2924407548
 30
0.0
 10
10.2022287571
 20
2.2838280856
 30
0.0
 10
10.2065557314
 20
2.2778993342
 30
0.0
 10
10.2103251886
 20
2.2723673866
 30
0.0
 10
10.2134996425
 20
2.2672849385
 30
0.0
 10
10.2160497837
 20
2.2627005763
 30
0.0
 10
10.2179584198
 20
2.2586553503
 30
0.0
 10
10.2192092568
 20
2.2551845738
 30
0.0
 10
10.2197340527
 20
2.25262923
 30
0.0
 10
10.219750929
 20
2.2509140263
 30
0.0
 10
10.2195881883
 20
2.2498704688
 30
0.0
 10
10.219246466
 20
2.2489855882
 30
0.0
 10
10.2188875289
 20
2.2485009029
 30
0.0
 10
10.2186852762
 20
2.2482986503
 30
0.0
  0
SPLINE
  5
438
100
AcDbEntity
  8
0
100
AcDbSpline
 62
9
  6
CONTINUOUS
 70
0
 71
3
 72
15
 73
11
 74
0
 42
0.0000001
 43
0.0000001
 44
0.0000000001
 40
0.0
 40
0.0
 40
0.0
 40
0.0
 40
0.1229458809
 40
0.2463752276
 40
0.3705110044
 40
0.4953331413
 40
0.6207864237
 40
0.7468875904
 40
0.8735147599
 40
1.0
 40
1.0
 40
1.0
 40
1.0
 10
10.1482971957
 20
2.184787364
 30
0.0
 10
10.1437491273
 20
2.1825211453
 30
0.0
 10
10.1342467893
 20
2.1787180155
 30
0.0
 10
10.1192431786
 20
2.1753561893
 30
0.0
 10
10.1038164333
 20
2.1744136786
 30
0.0
 10
10.0883490029
 20
2.1758852816
 30
0.0
 10
10.0732206833
 20
2.1797652911
 30
0.0
 10
10.0587948814
 20
2.1859431534
 30
0.0
 10
10.0454546222
 20
2.1942791097
 30
0.0
 10
10.0374757128
 20
2.201117376
 30
0.0
 10
10.0337791792
 20
2.2048139096
 30
0.0
  0
SPLINE
  5
439
100
AcDbEntity
  8
0
100
AcDbSpline
 62
9
  6
CONTINUOUS
 70
0
 71
3
 72
14
 73
10
 74
0
 42
0.0000001
 43
0.0000001
 44
0.0000000001
 40
0.0
 40
0.0
 40
0.0
 40
0.0
 40
0.3008233386
 40
0.4443008306
 40
0.5791626245
 40
0.70289438
 40
0.8147226513
 40
0.9139858506
 40
1.0
 40
1.0
 40
1.0
 40
1.0
 10
10.5155643794
 20
2.686600034
 30
0.0
 10
10.5213464835
 20
2.6804449195
 30
0.0
 10
10.5288031318
 20
2.6703174999
 30
0.0
 10
10.53694673
 20
2.6562479315
 30
0.0
 10
10.5421088796
 20
2.6462044931
 30
0.0
 10
10.5465558831
 20
2.6368032993
 30
0.0
 10
10.5503170107
 20
2.6281875736
 30
0.0
 10
10.5534623263
 20
2.620462149
 30
0.0
 10
10.5553421568
 20
2.6156122003
 30
0.0
 10
10.5561970864
 20
2.613353939
 30
0.0
  0
SPLINE
  5
43A
100
AcDbEntity
  8
0
100
AcDbSpline
 62
9
  6
CONTINUOUS
 70
0
 71
3
 72
11
 73
7
 74
0
 42
0.0000001
 43
0.0000001
 44
0.0000000001
 40
0.0
 40
0.0
 40
0.0
 40
0.0
 40
0.3356129616
 40
0.611793921
 40
0.8320462432
 40
1.0
 40
1.0
 40
1.0
 40
1.0
 10
10.5561970864
 20
2.613353939
 30
0.0
 10
10.55693886
 20
2.6113945746
 30
0.0
 10
10.5582640519
 20
2.6078124544
 30
0.0
 10
10.5599472741
 20
2.6028977487
 30
0.0
 10
10.5611465778
 20
2.598926489
 30
0.0
 10
10.5617103489
 20
2.5965665016
 30
0.0
 10
10.5618992275
 20
2.5955351984
 30
0.0
  0
SPLINE
  5
43B
100
AcDbEntity
  8
0
100
AcDbSpline
 62
9
  6
CONTINUOUS
 70
0
 71
3
 72
11
 73
7
 74
0
 42
0.0000001
 43
0.0000001
 44
0.0000000001
 40
0.0
 40
0.0
 40
0.0
 40
0.0
 40
0.3804754624
 40
0.6682818345
 40
0.8703272424
 40
1.0
 40
1.0
 40
1.0
 40
1.0
 10
10.5618992275
 20
2.5955351984
 30
0.0
 10
10.5619942511
 20
2.595016356
 30
0.0
 10
10.5621370705
 20
2.5941009503
 30
0.0
 10
10.5622116574
 20
2.592890949
 30
0.0
 10
10.5621460936
 20
2.5920378279
 30
0.0
 10
10.5619715147
 20
2.5915848942
 30
0.0
 10
10.5618443995
 20
2.5914577736
 30
0.0
  0
SPLINE
  5
43C
100
AcDbEntity
  8
0
100
AcDbSpline
 62
9
  6
CONTINUOUS
 70
0
 71
3
 72
12
 73
8
 74
0
 42
0.0000001
 43
0.0000001
 44
0.0000000001
 40
0.0
 40
0.0
 40
0.0
 40
0.0
 40
0.1490345519
 40
0.2441154553
 40
0.3559699628
 40
0.6362182989
 40
1.0
 40
1.0
 40
1.0
 40
1.0
 10
10.4208817782
 20
2.7333378648
 30
0.0
 10
10.4211451951
 20
2.7336012766
 30
0.0
 10
10.4217115618
 20
2.7338923383
 30
0.0
 10
10.4225730437
 20
2.7341074114
 30
0.0
 10
10.4237859365
 20
2.7342547268
 30
0.0
 10
10.4256819982
 20
2.7342002196
 30
0.0
 10
10.427277708
 20
2.733971854
 30
0.0
 10
10.4281726324
 20
2.733810793
 30
0.0
  0
SPLINE
  5
43D
100
AcDbEntity
  8
0
100
AcDbSpline
 62
9
  6
CONTINUOUS
 70
0
 71
3
 72
17
 73
13
 74
0
 42
0.0000001
 43
0.0000001
 44
0.0000000001
 40
0.0
 40
0.0
 40
0.0
 40
0.0
 40
0.0575478114
 40
0.1344146848
 40
0.1806728504
 40
0.2324233619
 40
0.352124083
 40
0.4920498636
 40
0.5691691995
 40
0.6505496689
 40
0.8220764416
 40
1.0
 40
1.0
 40
1.0
 40
1.0
 10
10.4281726324
 20
2.733810793
 30
0.0
 10
10.4300685056
 20
2.7334695897
 30
0.0
 10
10.4344361067
 20
2.7323511235
 30
0.0
 10
10.4401817917
 20
2.730460416
 30
0.0
 10
10.4456847199
 20
2.7284631931
 30
0.0
 10
10.4524922203
 20
2.7258615188
 30
0.0
 10
10.4621215904
 20
2.7218635746
 30
0.0
 10
10.4723014341
 20
2.7170076468
 30
0.0
 10
10.481120922
 20
2.7123135325
 30
0.0
 10
10.4906913082
 20
2.7067914137
 30
0.0
 10
10.5026832595
 20
2.6987355693
 30
0.0
 10
10.5114874986
 20
2.6909416861
 30
0.0
 10
10.5155642689
 20
2.6865999361
 30
0.0
  0
SPLINE
  5
43E
100
AcDbEntity
  8
0
100
AcDbSpline
 62
9
  6
CONTINUOUS
 70
0
 71
3
 72
22
 73
18
 74
0
 42
0.0000001
 43
0.0000001
 44
0.0000000001
 40
0.0
 40
0.0
 40
0.0
 40
0.0
 40
0.0082513797
 40
0.0171276193
 40
0.0271101667
 40
0.038530483
 40
0.0664247286
 40
0.1017629326
 40
0.1447328753
 40
0.1952113348
 40
0.2529431339
 40
0.3174725079
 40
0.3882292519
 40
0.4646183752
 40
0.6315727139
 40
0.812490273
 40
1.0
 40
1.0
 40
1.0
 40
1.0
 10
11.6566994084
 20
2.2482986511
 30
0.0
 10
11.6564971679
 20
2.2485008916
 30
0.0
 10
11.6561382181
 20
2.2489854365
 30
0.0
 10
11.6557963074
 20
2.2498699925
 30
0.0
 10
11.6556333152
 20
2.250913089
 30
0.0
 10
11.6556497821
 20
2.252627394
 30
0.0
 10
11.6561741291
 20
2.2551811601
 30
0.0
 10
11.6574238915
 20
2.2586492927
 30
0.0
 10
11.6593301579
 20
2.2626918323
 30
0.0
 10
11.661878357
 20
2.2672736981
 30
0.0
 10
11.6650512963
 20
2.2723538543
 30
0.0
 10
11.6688184472
 20
2.2778845506
 30
0.0
 10
11.6731437398
 20
2.283812602
 30
0.0
 10
11.6798041383
 20
2.2924264875
 30
0.0
 10
11.689224786
 20
2.30372553
 30
0.0
 10
11.7016571045
 20
2.3175078362
 30
0.0
 10
11.7105350021
 20
2.3266917951
 30
0.0
 10
11.7151308411
 20
2.3312876446
 30
0.0
  0
SPLINE
  5
43F
100
AcDbEntity
  8
0
100
AcDbSpline
 62
9
  6
CONTINUOUS
 70
0
 71
3
 72
13
 73
9
 74
0
 42
0.0000001
 43
0.0000001
 44
0.0000000001
 40
0.0
 40
0.0
 40
0.0
 40
0.0
 40
0.2423951728
 40
0.3702507882
 40
0.5000005072
 40
0.6297501565
 40
0.7576055641
 40
1.0
 40
1.0
 40
1.0
 40
1.0
 10
10.4433543511
 20
2.8676255383
 30
0.0
 10
10.448484032
 20
2.8571080159
 30
0.0
 10
10.4538840477
 20
2.8396880474
 30
0.0
 10
10.4555593523
 20
2.8155408835
 30
0.0
 10
10.4539729918
 20
2.7968244713
 30
0.0
 10
10.4493793569
 20
2.7786113233
 30
0.0
 10
10.4399336746
 20
2.7563252543
 30
0.0
 10
10.4291564296
 20
2.7416125153
 30
0.0
 10
10.4208820387
 20
2.7333381256
 30
0.0
  0
SPLINE
  5
440
100
AcDbEntity
  8
0
100
AcDbSpline
 62
9
  6
CONTINUOUS
 70
0
 71
3
 72
22
 73
18
 74
0
 42
0.0000001
 43
0.0000001
 44
0.0000000001
 40
0.0
 40
0.0
 40
0.0
 40
0.0
 40
0.2014960372
 40
0.2989404909
 40
0.3924819061
 40
0.4805857703
 40
0.5623431961
 40
0.6374584001
 40
0.7056250839
 40
0.7665093703
 40
0.8199146402
 40
0.8660823973
 40
0.9053371208
 40
0.938014498
 40
0.9644656743
 40
0.9850166156
 40
1.0
 40
1.0
 40
1.0
 40
1.0
 10
10.5155653037
 20
3.5308550364
 30
0.0
 10
10.5103964391
 20
3.5259994138
 30
0.0
 10
10.5019904077
 20
3.51956278
 30
0.0
 10
10.4902316454
 20
3.5123126534
 30
0.0
 10
10.4816123
 20
3.5075923693
 30
0.0
 10
10.4733278368
 20
3.5034292055
 30
0.0
 10
10.4655206278
 20
3.4997675605
 30
0.0
 10
10.4582665342
 20
3.4965858503
 30
0.0
 10
10.4516254192
 20
3.493840299
 30
0.0
 10
10.4456503233
 20
3.4914867814
 30
0.0
 10
10.4403725011
 20
3.4894768209
 30
0.0
 10
10.4357793066
 20
3.4878095649
 30
0.0
 10
10.4318421144
 20
3.4864753596
 30
0.0
 10
10.4285301806
 20
3.4854627591
 30
0.0
 10
10.4258127256
 20
3.4847627855
 30
0.0
 10
10.4236689342
 20
3.4843537343
 30
0.0
 10
10.4224197043
 20
3.4842308185
 30
0.0
 10
10.42189235
 20
3.4842310154
 30
0.0
  0
SPLINE
  5
441
100
AcDbEntity
  8
0
100
AcDbSpline
 62
9
  6
CONTINUOUS
 70
0
 71
3
 72
9
 73
5
 74
0
 42
0.0000001
 43
0.0000001
 44
0.0000000001
 40
0.0
 40
0.0
 40
0.0
 40
0.0
 40
0.6153843254
 40
1.0
 40
1.0
 40
1.0
 40
1.0
 10
10.42189235
 20
3.4842310154
 30
0.0
 10
10.4215782053
 20
3.4842311327
 30
0.0
 10
10.4210729644
 20
3.4842555229
 30
0.0
 10
10.4205618801
 20
3.4844361855
 30
0.0
 10
10.4204230433
 20
3.4845750163
 30
0.0
  0
SPLINE
  5
442
100
AcDbEntity
  8
0
100
AcDbSpline
 62
9
  6
CONTINUOUS
 70
0
 71
3
 72
24
 73
20
 74
0
 42
0.0000001
 43
0.0000001
 44
0.0000000001
 40
0.0
 40
0.0
 40
0.0
 40
0.0
 40
0.0013804244
 40
0.004643988
 40
0.0100558648
 40
0.0177403571
 40
0.0278014374
 40
0.0403373014
 40
0.0732156674
 40
0.1168735296
 40
0.1707608624
 40
0.2340645471
 40
0.3059703014
 40
0.3854672757
 40
0.4707598345
 40
0.5598557944
 40
0.6507627214
 40
0.830958165
 40
1.0
 40
1.0
 40
1.0
 40
1.0
 10
10.5487817483
 20
2.7198202082
 30
0.0
 10
10.5487970454
 20
2.7198049109
 30
0.0
 10
10.5487664125
 20
2.7197167221
 30
0.0
 10
10.548690356
 20
2.7195970596
 30
0.0
 10
10.5485348519
 20
2.7193820521
 30
0.0
 10
10.5483079746
 20
2.7191037236
 30
0.0
 10
10.5479987547
 20
2.7187416627
 30
0.0
 10
10.5474215426
 20
2.7180924984
 30
0.0
 10
10.5464726563
 20
2.7170678399
 30
0.0
 10
10.5450624219
 20
2.7155885947
 30
0.0
 10
10.5433060005
 20
2.7137803146
 30
0.0
 10
10.5412266866
 20
2.7116687949
 30
0.0
 10
10.538852581
 20
2.7092843116
 30
0.0
 10
10.5362230512
 20
2.7066679393
 30
0.0
 10
10.533392258
 20
2.7038719321
 30
0.0
 10
10.5304251106
 20
2.7009595495
 30
0.0
 10
10.5263853105
 20
2.6970168087
 30
0.0
 10
10.5214292443
 20
2.6922191456
 30
0.0
 10
10.5174795181
 20
2.6884303253
 30
0.0
 10
10.5155633824
 20
2.6866009706
 30
0.0
  0
SPLINE
  5
443
100
AcDbEntity
  8
0
100
AcDbSpline
 62
9
  6
CONTINUOUS
 70
0
 71
3
 72
15
 73
11
 74
0
 42
0.0000001
 43
0.0000001
 44
0.0000000001
 40
0.0
 40
0.0
 40
0.0
 40
0.0
 40
0.1277123757
 40
0.2579599674
 40
0.3891138803
 40
0.5194078176
 40
0.6469432899
 40
0.7703917901
 40
0.8883074463
 40
1.0
 40
1.0
 40
1.0
 40
1.0
 10
10.4431204705
 20
3.3493484837
 30
0.0
 10
10.4457644587
 20
3.3547829368
 30
0.0
 10
10.450235936
 20
3.3662025412
 30
0.0
 10
10.4542734933
 20
3.3842426272
 30
0.0
 10
10.4553850632
 20
3.4028222389
 30
0.0
 10
10.4536719092
 20
3.4212231215
 30
0.0
 10
10.4492019531
 20
3.4387763877
 30
0.0
 10
10.4424191256
 20
3.4549300414
 30
0.0
 10
10.4337577844
 20
3.4692807189
 30
0.0
 10
10.4268834665
 20
3.477745035
 30
0.0
 10
10.4232813864
 20
3.4816129497
 30
0.0
  0
SPLINE
  5
444
100
AcDbEntity
  8
0
100
AcDbSpline
 62
9
  6
CONTINUOUS
 70
0
 71
3
 72
12
 73
8
 74
0
 42
0.0000001
 43
0.0000001
 44
0.0000000001
 40
0.0
 40
0.0
 40
0.0
 40
0.0
 40
0.1490345518
 40
0.2441154553
 40
0.3559699627
 40
0.6362182989
 40
1.0
 40
1.0
 40
1.0
 40
1.0
 10
11.4545029072
 20
3.4841162813
 30
0.0
 10
11.4542394904
 20
3.4838528695
 30
0.0
 10
11.4536731236
 20
3.4835618078
 30
0.0
 10
11.4528116417
 20
3.4833467347
 30
0.0
 10
11.451598749
 20
3.4831994193
 30
0.0
 10
11.4497026873
 20
3.4832539265
 30
0.0
 10
11.4481069775
 20
3.4834822921
 30
0.0
 10
11.4472120531
 20
3.4836433531
 30
0.0
  0
SPLINE
  5
445
100
AcDbEntity
  8
0
100
AcDbSpline
 62
9
  6
CONTINUOUS
 70
0
 71
3
 72
17
 73
13
 74
0
 42
0.0000001
 43
0.0000001
 44
0.0000000001
 40
0.0
 40
0.0
 40
0.0
 40
0.0
 40
0.0575478114
 40
0.1344146848
 40
0.1806728504
 40
0.2324233619
 40
0.352124083
 40
0.4920498636
 40
0.5691691995
 40
0.6505496689
 40
0.8220764416
 40
1.0
 40
1.0
 40
1.0
 40
1.0
 10
11.4472120531
 20
3.4836433531
 30
0.0
 10
11.4453161798
 20
3.4839845564
 30
0.0
 10
11.4409485788
 20
3.4851030227
 30
0.0
 10
11.4352028938
 20
3.4869937301
 30
0.0
 10
11.4296999656
 20
3.488990953
 30
0.0
 10
11.4228924652
 20
3.4915926273
 30
0.0
 10
11.4132630951
 20
3.4955905715
 30
0.0
 10
11.4030832514
 20
3.5004464993
 30
0.0
 10
11.3942637634
 20
3.5051406136
 30
0.0
 10
11.3846933773
 20
3.5106627324
 30
0.0
 10
11.3727014259
 20
3.5187185768
 30
0.0
 10
11.3638971869
 20
3.52651246
 30
0.0
 10
11.3598204166
 20
3.53085421
 30
0.0
  0
SPLINE
  5
446
100
AcDbEntity
  8
0
100
AcDbSpline
 62
9
  6
CONTINUOUS
 70
0
 71
3
 72
14
 73
10
 74
0
 42
0.0000001
 43
0.0000001
 44
0.0000000001
 40
0.0
 40
0.0
 40
0.0
 40
0.0
 40
0.3008233386
 40
0.4443008306
 40
0.5791626246
 40
0.70289438
 40
0.8147226513
 40
0.9139858506
 40
1.0
 40
1.0
 40
1.0
 40
1.0
 10
11.3598203061
 20
3.5308541121
 30
0.0
 10
11.354038202
 20
3.5370092266
 30
0.0
 10
11.3465815537
 20
3.5471366462
 30
0.0
 10
11.3384379555
 20
3.5612062146
 30
0.0
 10
11.3332758058
 20
3.571249653
 30
0.0
 10
11.3288288024
 20
3.5806508468
 30
0.0
 10
11.3250676748
 20
3.5892665725
 30
0.0
 10
11.3219223591
 20
3.5969919971
 30
0.0
 10
11.3200425287
 20
3.6018419458
 30
0.0
 10
11.3191875991
 20
3.6041002071
 30
0.0
  0
SPLINE
  5
447
100
AcDbEntity
  8
0
100
AcDbSpline
 62
9
  6
CONTINUOUS
 70
0
 71
3
 72
11
 73
7
 74
0
 42
0.0000001
 43
0.0000001
 44
0.0000000001
 40
0.0
 40
0.0
 40
0.0
 40
0.0
 40
0.335611577
 40
0.6117921456
 40
0.8320449633
 40
1.0
 40
1.0
 40
1.0
 40
1.0
 10
11.3191875991
 20
3.6041002071
 30
0.0
 10
11.3184458337
 20
3.6060595498
 30
0.0
 10
11.3171206546
 20
3.6096416345
 30
0.0
 10
11.3154374445
 20
3.6145562976
 30
0.0
 10
11.3142381416
 20
3.6185275363
 30
0.0
 10
11.3136743651
 20
3.6208875162
 30
0.0
 10
11.3134854815
 20
3.6219188192
 30
0.0
  0
SPLINE
  5
448
100
AcDbEntity
  8
0
100
AcDbSpline
 62
9
  6
CONTINUOUS
 70
0
 71
3
 72
11
 73
7
 74
0
 42
0.0000001
 43
0.0000001
 44
0.0000000001
 40
0.0
 40
0.0
 40
0.0
 40
0.0
 40
0.380476631
 40
0.6682833717
 40
0.8703283775
 40
1.0
 40
1.0
 40
1.0
 40
1.0
 10
11.3134854815
 20
3.6219188192
 30
0.0
 10
11.3133904521
 20
3.622437679
 30
0.0
 10
11.3132476234
 20
3.6233531147
 30
0.0
 10
11.3131730273
 20
3.6245631552
 30
0.0
 10
11.3132385874
 20
3.6254163014
 30
0.0
 10
11.3134131679
 20
3.625869249
 30
0.0
 10
11.313540286
 20
3.6259963725
 30
0.0
  0
SPLINE
  5
449
100
AcDbEntity
  8
0
100
AcDbSpline
 62
9
  6
CONTINUOUS
 70
0
 71
3
 72
13
 73
9
 74
0
 42
0.0000001
 43
0.0000001
 44
0.0000000001
 40
0.0
 40
0.0
 40
0.0
 40
0.0
 40
0.2423951931
 40
0.3702508159
 40
0.5000005388
 40
0.6297501874
 40
0.7576055896
 40
1.0
 40
1.0
 40
1.0
 40
1.0
 10
11.4320303449
 20
3.3498285862
 30
0.0
 10
11.4269006606
 20
3.3603461101
 30
0.0
 10
11.4215006406
 20
3.377766082
 30
0.0
 10
11.4198253329
 20
3.4019132514
 30
0.0
 10
11.4214116923
 20
3.4206296673
 30
0.0
 10
11.426005327
 20
3.4388428185
 30
0.0
 10
11.4354510096
 20
3.46112889
 30
0.0
 10
11.4462282554
 20
3.4758416303
 30
0.0
 10
11.4545026468
 20
3.4841160206
 30
0.0
  0
SPLINE
  5
44A
100
AcDbEntity
  8
0
100
AcDbSpline
 62
9
  6
CONTINUOUS
 70
0
 71
3
 72
21
 73
17
 74
0
 42
0.0000001
 43
0.0000001
 44
0.0000000001
 40
0.0
 40
0.0
 40
0.0
 40
0.0
 40
0.0109241598
 40
0.0179797361
 40
0.026333915
 40
0.047413493
 40
0.0749443231
 40
0.1095056106
 40
0.1516485801
 40
0.2018773041
 40
0.2606604849
 40
0.3282883449
 40
0.4044297225
 40
0.5805512157
 40
0.7835990629
 40
1.0
 40
1.0
 40
1.0
 40
1.0
 10
11.313081551
 20
2.5919165086
 30
0.0
 10
11.3128037415
 20
2.5921943233
 30
0.0
 10
11.3125035676
 20
2.5928009818
 30
0.0
 10
11.3122909512
 20
2.5937213835
 30
0.0
 10
11.3121559359
 20
2.5950313329
 30
0.0
 10
11.3122515316
 20
2.5970857357
 30
0.0
 10
11.3127231881
 20
2.6000430303
 30
0.0
 10
11.313605543
 20
2.6036895063
 30
0.0
 10
11.3149124568
 20
2.6080648926
 30
0.0
 10
11.316663334
 20
2.6132125075
 30
0.0
 10
11.3188720209
 20
2.6191695381
 30
0.0
 10
11.3215464544
 20
2.6259464073
 30
0.0
 10
11.3260730948
 20
2.6365249591
 30
0.0
 10
11.3333181069
 20
2.6512285338
 30
0.0
 10
11.3443849242
 20
2.669605828
 30
0.0
 10
11.3541457804
 20
2.6812715693
 30
0.0
 10
11.3598194797
 20
2.6865989992
 30
0.0
  0
SPLINE
  5
44B
100
AcDbEntity
  8
0
100
AcDbSpline
 62
9
  6
CONTINUOUS
 70
0
 71
3
 72
14
 73
10
 74
0
 42
0.0000001
 43
0.0000001
 44
0.0000000001
 40
0.0
 40
0.0
 40
0.0
 40
0.0
 40
0.3008233386
 40
0.4443008306
 40
0.5791626246
 40
0.7028943801
 40
0.8147226513
 40
0.9139858507
 40
1.0
 40
1.0
 40
1.0
 40
1.0
 10
11.3598193818
 20
2.6865991097
 30
0.0
 10
11.3659744963
 20
2.6923812138
 30
0.0
 10
11.3761019159
 20
2.6998378621
 30
0.0
 10
11.3901714843
 20
2.7079814603
 30
0.0
 10
11.4002149227
 20
2.71314361
 30
0.0
 10
11.4096161165
 20
2.7175906134
 30
0.0
 10
11.4182318422
 20
2.721351741
 30
0.0
 10
11.4259572668
 20
2.7244970567
 30
0.0
 10
11.4308072155
 20
2.7263768871
 30
0.0
 10
11.4330654768
 20
2.7272318167
 30
0.0
  0
SPLINE
  5
44C
100
AcDbEntity
  8
0
100
AcDbSpline
 62
9
  6
CONTINUOUS
 70
0
 71
3
 72
11
 73
7
 74
0
 42
0.0000001
 43
0.0000001
 44
0.0000000001
 40
0.0
 40
0.0
 40
0.0
 40
0.0
 40
0.3356115738
 40
0.6117921415
 40
0.8320449603
 40
1.0
 40
1.0
 40
1.0
 40
1.0
 10
11.4330654768
 20
2.7272318167
 30
0.0
 10
11.4350248194
 20
2.7279735821
 30
0.0
 10
11.438606904
 20
2.7292987611
 30
0.0
 10
11.443521567
 20
2.7309819712
 30
0.0
 10
11.4474928057
 20
2.7321812741
 30
0.0
 10
11.4498527856
 20
2.7327450506
 30
0.0
 10
11.4508840885
 20
2.7329339342
 30
0.0
  0
SPLINE
  5
44D
100
AcDbEntity
  8
0
100
AcDbSpline
 62
9
  6
CONTINUOUS
 70
0
 71
3
 72
11
 73
7
 74
0
 42
0.0000001
 43
0.0000001
 44
0.0000000001
 40
0.0
 40
0.0
 40
0.0
 40
0.0
 40
0.3804766337
 40
0.6682833754
 40
0.8703283802
 40
1.0
 40
1.0
 40
1.0
 40
1.0
 10
11.4508840885
 20
2.7329339342
 30
0.0
 10
11.4514029484
 20
2.7330289636
 30
0.0
 10
11.4523183842
 20
2.7331717923
 30
0.0
 10
11.4535284248
 20
2.7332463885
 30
0.0
 10
11.4543815711
 20
2.7331808284
 30
0.0
 10
11.4548345187
 20
2.7330062479
 30
0.0
 10
11.4549616422
 20
2.7328791298
 30
0.0
  0
SPLINE
  5
44E
100
AcDbEntity
  8
0
100
AcDbSpline
 62
9
  6
CONTINUOUS
 70
0
 71
3
 72
15
 73
11
 74
0
 42
0.0000001
 43
0.0000001
 44
0.0000000001
 40
0.0
 40
0.0
 40
0.0
 40
0.0
 40
0.1229458809
 40
0.2463752276
 40
0.3705110044
 40
0.4953331413
 40
0.6207864237
 40
0.7468875904
 40
0.8735147599
 40
1.0
 40
1.0
 40
1.0
 40
1.0
 10
11.7270874898
 20
4.0326667821
 30
0.0
 10
11.7316355582
 20
4.0349330008
 30
0.0
 10
11.7411378962
 20
4.0387361306
 30
0.0
 10
11.7561415069
 20
4.0420979568
 30
0.0
 10
11.7715682522
 20
4.0430404675
 30
0.0
 10
11.7870356825
 20
4.0415688645
 30
0.0
 10
11.8021640022
 20
4.037688855
 30
0.0
 10
11.8165898041
 20
4.0315109927
 30
0.0
 10
11.8299300633
 20
4.0231750364
 30
0.0
 10
11.8379089727
 20
4.0163367701
 30
0.0
 10
11.8416055062
 20
4.0126402366
 30
0.0
  0
SPLINE
  5
44F
100
AcDbEntity
  8
0
100
AcDbSpline
 62
9
  6
CONTINUOUS
 70
0
 71
3
 72
22
 73
18
 74
0
 42
0.0000001
 43
0.0000001
 44
0.0000000001
 40
0.0
 40
0.0
 40
0.0
 40
0.0
 40
0.1874808122
 40
0.3683045143
 40
0.535195586
 40
0.6115795993
 40
0.6823575394
 40
0.7469141108
 40
0.8046627577
 40
0.8551745361
 40
0.8981836365
 40
0.9335471087
 40
0.9614573413
 40
0.9728834793
 40
0.9828699759
 40
0.9917482018
 40
1.0
 40
1.0
 40
1.0
 40
1.0
 10
11.715131772
 20
3.8861655722
 30
0.0
 10
11.7105365885
 20
3.8907607452
 30
0.0
 10
11.7016612953
 20
3.8999414727
 30
0.0
 10
11.6892332954
 20
3.9137192047
 30
0.0
 10
11.6798153893
 20
3.9250133913
 30
0.0
 10
11.6731559283
 20
3.9336260605
 30
0.0
 10
11.6688289541
 20
3.9395548119
 30
0.0
 10
11.6650594969
 20
3.9450867596
 30
0.0
 10
11.6618850429
 20
3.9501692076
 30
0.0
 10
11.6593349018
 20
3.9547535698
 30
0.0
 10
11.6574262657
 20
3.9587987958
 30
0.0
 10
11.6561754286
 20
3.9622695723
 30
0.0
 10
11.6556506328
 20
3.9648249161
 30
0.0
 10
11.6556337565
 20
3.9665401198
 30
0.0
 10
11.6557964972
 20
3.9675836773
 30
0.0
 10
11.6561382195
 20
3.968468558
 30
0.0
 10
11.6564971566
 20
3.9689532432
 30
0.0
 10
11.6566994092
 20
3.9691554958
 30
0.0
  0
SPLINE
  5
450
100
AcDbEntity
  8
0
100
AcDbSpline
 62
9
  6
CONTINUOUS
 70
0
 71
3
 72
16
 73
12
 74
0
 42
0.0000001
 43
0.0000001
 44
0.0000000001
 40
0.0
 40
0.0
 40
0.0
 40
0.0
 40
0.1266874595
 40
0.2533977972
 40
0.3794656131
 40
0.5048631071
 40
0.6295840606
 40
0.7535352912
 40
0.8153250969
 40
0.8769985531
 40
1.0
 40
1.0
 40
1.0
 40
1.0
 10
11.8416055062
 20
4.0126402365
 30
0.0
 10
11.8456719752
 20
4.0085737674
 30
0.0
 10
11.8531329452
 20
3.9997366133
 30
0.0
 10
11.8619635174
 20
3.9848576346
 30
0.0
 10
11.868144057
 20
3.968752182
 30
0.0
 10
11.8714944673
 20
3.9519228754
 30
0.0
 10
11.8719258775
 20
3.9348653101
 30
0.0
 10
11.8698295303
 20
3.9208498566
 30
0.0
 10
11.8667129113
 20
3.9100460901
 30
0.0
 10
11.8626760027
 20
3.8996004042
 30
0.0
 10
11.8586038343
 20
3.8922057031
 30
0.0
 10
11.8554874491
 20
3.8875727796
 30
0.0
  0
SPLINE
  5
451
100
AcDbEntity
  8
0
100
AcDbSpline
 62
9
  6
CONTINUOUS
 70
0
 71
3
 72
22
 73
18
 74
0
 42
0.0000001
 43
0.0000001
 44
0.0000000001
 40
0.0
 40
0.0
 40
0.0
 40
0.0
 40
0.0082513797
 40
0.0171276193
 40
0.0271101667
 40
0.038530483
 40
0.0664247286
 40
0.1017629326
 40
0.1447328753
 40
0.1952113348
 40
0.2529431339
 40
0.3174725079
 40
0.3882292519
 40
0.4646183752
 40
0.6315727139
 40
0.812490273
 40
1.0
 40
1.0
 40
1.0
 40
1.0
 10
11.7981207647
 20
3.8277341387
 30
0.0
 10
11.7979185242
 20
3.8275318983
 30
0.0
 10
11.7974339793
 20
3.8271729484
 30
0.0
 10
11.7965494233
 20
3.8268310377
 30
0.0
 10
11.7955063268
 20
3.8266680455
 30
0.0
 10
11.7937920218
 20
3.8266845124
 30
0.0
 10
11.7912382556
 20
3.8272088594
 30
0.0
 10
11.7877701231
 20
3.8284586218
 30
0.0
 10
11.7837275835
 20
3.8303648882
 30
0.0
 10
11.7791457177
 20
3.8329130873
 30
0.0
 10
11.7740655614
 20
3.8360860266
 30
0.0
 10
11.7685348652
 20
3.8398531775
 30
0.0
 10
11.7626068138
 20
3.8441784701
 30
0.0
 10
11.7539929283
 20
3.8508388686
 30
0.0
 10
11.7426938858
 20
3.8602595164
 30
0.0
 10
11.7289115796
 20
3.8726918349
 30
0.0
 10
11.7197276207
 20
3.8815697324
 30
0.0
 10
11.7151317712
 20
3.8861655714
 30
0.0
  0
SPLINE
  5
452
100
AcDbEntity
  8
0
100
AcDbSpline
 62
9
  6
CONTINUOUS
 70
0
 71
3
 72
24
 73
20
 74
0
 42
0.0000001
 43
0.0000001
 44
0.0000000001
 40
0.0
 40
0.0
 40
0.0
 40
0.0
 40
0.0013804282
 40
0.0046440027
 40
0.010055897
 40
0.0177404129
 40
0.0278015221
 40
0.0403374199
 40
0.0732158657
 40
0.1168738191
 40
0.1707612446
 40
0.2340650126
 40
0.3059708301
 40
0.3854678383
 40
0.4707603997
 40
0.5598563306
 40
0.6507631969
 40
0.8309584338
 40
1.0
 40
1.0
 40
1.0
 40
1.0
 10
11.3266029372
 20
3.4976339379
 30
0.0
 10
11.32658764
 20
3.4976492353
 30
0.0
 10
11.3266182732
 20
3.4977374244
 30
0.0
 10
11.3266943299
 20
3.4978570871
 30
0.0
 10
11.3268498346
 20
3.4980720953
 30
0.0
 10
11.3270767126
 20
3.4983504246
 30
0.0
 10
11.3273859335
 20
3.4987124864
 30
0.0
 10
11.3279631471
 20
3.4993616524
 30
0.0
 10
11.3289120357
 20
3.5003863132
 30
0.0
 10
11.330322273
 20
3.5018655613
 30
0.0
 10
11.3320786974
 20
3.5036738442
 30
0.0
 10
11.3341580141
 20
3.5057853665
 30
0.0
 10
11.3365321218
 20
3.5081698517
 30
0.0
 10
11.3391616527
 20
3.5107862251
 30
0.0
 10
11.341992446
 20
3.5135822323
 30
0.0
 10
11.3449595926
 20
3.5164946139
 30
0.0
 10
11.3489993894
 20
3.5204373514
 30
0.0
 10
11.3539554496
 20
3.5252350086
 30
0.0
 10
11.3579051704
 20
3.5290238237
 30
0.0
 10
11.359821303
 20
3.5308531755
 30
0.0
  0
SPLINE
  5
453
100
AcDbEntity
  8
0
100
AcDbSpline
 62
9
  6
CONTINUOUS
 70
0
 71
3
 72
13
 73
9
 74
0
 42
0.0000001
 43
0.0000001
 44
0.0000000001
 40
0.0
 40
0.0
 40
0.0
 40
0.0
 40
0.2423951215
 40
0.370250719
 40
0.500000429
 40
0.6297500804
 40
0.7576055017
 40
1.0
 40
1.0
 40
1.0
 40
1.0
 10
10.6965907611
 20
3.6030650418
 30
0.0
 10
10.6860732424
 20
3.5979353687
 30
0.0
 10
10.6686532818
 20
3.5925353623
 30
0.0
 10
10.64450613
 20
3.590860064
 30
0.0
 10
10.625789726
 20
3.5924464269
 30
0.0
 10
10.6075765846
 20
3.597040062
 30
0.0
 10
10.5852905207
 20
3.6064857435
 30
0.0
 10
10.5705777842
 20
3.617262987
 30
0.0
 10
10.5623033952
 20
3.6255373771
 30
0.0
  0
SPLINE
  5
454
100
AcDbEntity
  8
0
100
AcDbSpline
 62
9
  6
CONTINUOUS
 70
0
 71
3
 72
13
 73
9
 74
0
 42
0.0000001
 43
0.0000001
 44
0.0000000001
 40
0.0
 40
0.0
 40
0.0
 40
0.0
 40
0.2423951927
 40
0.3702508152
 40
0.500000538
 40
0.6297501866
 40
0.757605589
 40
1.0
 40
1.0
 40
1.0
 40
1.0
 10
11.1787938565
 20
2.6143890712
 30
0.0
 10
11.1893113804
 20
2.6195187554
 30
0.0
 10
11.2067313522
 20
2.6249187753
 30
0.0
 10
11.2308785214
 20
2.6265940829
 30
0.0
 10
11.2495949372
 20
2.6250077235
 30
0.0
 10
11.2678080883
 20
2.6204140888
 30
0.0
 10
11.2900941598
 20
2.6109684062
 30
0.0
 10
11.3048069
 20
2.6001911604
 30
0.0
 10
11.3130812902
 20
2.591916769
 30
0.0
  0
SPLINE
  5
455
100
AcDbEntity
  8
0
100
AcDbSpline
 62
9
  6
CONTINUOUS
 70
0
 71
3
 72
24
 73
20
 74
0
 42
0.0000001
 43
0.0000001
 44
0.0000000001
 40
0.0
 40
0.0
 40
0.0
 40
0.0
 40
0.0013804218
 40
0.0046439819
 40
0.0100558549
 40
0.0177403436
 40
0.0278014201
 40
0.0403372805
 40
0.0732156395
 40
0.1168734958
 40
0.1707608238
 40
0.2340645054
 40
0.3059702585
 40
0.3854672337
 40
0.4707597953
 40
0.5598557597
 40
0.6507626926
 40
0.8309581502
 40
1.0
 40
1.0
 40
1.0
 40
1.0
 10
11.3265992075
 20
2.7198164785
 30
0.0
 10
11.3266145048
 20
2.7198317757
 30
0.0
 10
11.3267026936
 20
2.7198011429
 30
0.0
 10
11.3268223558
 20
2.7197250865
 30
0.0
 10
11.3270373633
 20
2.7195695826
 30
0.0
 10
11.3273156916
 20
2.7193427054
 30
0.0
 10
11.3276777524
 20
2.7190334856
 30
0.0
 10
11.3283269166
 20
2.7184562737
 30
0.0
 10
11.3293515749
 20
2.7175073876
 30
0.0
 10
11.33083082
 20
2.7160971534
 30
0.0
 10
11.3326390999
 20
2.7143407321
 30
0.0
 10
11.3347506195
 20
2.7122614183
 30
0.0
 10
11.3371351027
 20
2.7098873127
 30
0.0
 10
11.3397514751
 20
2.707257783
 30
0.0
 10
11.3425474824
 20
2.7044269897
 30
0.0
 10
11.3454598651
 20
2.7014598421
 30
0.0
 10
11.3494026063
 20
2.6974200417
 30
0.0
 10
11.3542002698
 20
2.6924639751
 30
0.0
 10
11.3579890903
 20
2.6885142486
 30
0.0
 10
11.3598184452
 20
2.6865981127
 30
0.0
  0
SPLINE
  5
456
100
AcDbEntity
  8
0
100
AcDbSpline
 62
9
  6
CONTINUOUS
 70
0
 71
3
 72
24
 73
20
 74
0
 42
0.0000001
 43
0.0000001
 44
0.0000000001
 40
0.0
 40
0.0
 40
0.0
 40
0.0
 40
0.001380415
 40
0.0046439507
 40
0.0100557822
 40
0.0177402135
 40
0.0278012183
 40
0.040336994
 40
0.0732151509
 40
0.1168727738
 40
0.1707598629
 40
0.2340633281
 40
0.3059689157
 40
0.3854658002
 40
0.4707583514
 40
0.5598543867
 40
0.6507614728
 40
0.8309574587
 40
1.0
 40
1.0
 40
1.0
 40
1.0
 10
10.5487854779
 20
3.4976376675
 30
0.0
 10
10.5487701806
 20
3.4976223705
 30
0.0
 10
10.5486819925
 20
3.4976530028
 30
0.0
 10
10.5485623309
 20
3.4977290587
 30
0.0
 10
10.5483473251
 20
3.4978845613
 30
0.0
 10
10.5480689987
 20
3.4981114367
 30
0.0
 10
10.5477069403
 20
3.4984206542
 30
0.0
 10
10.5470577801
 20
3.4989978622
 30
0.0
 10
10.5460331276
 20
3.4999467425
 30
0.0
 10
10.54455389
 20
3.5013569692
 30
0.0
 10
10.5427456176
 20
3.5031133826
 30
0.0
 10
10.5406341047
 20
3.5051926894
 30
0.0
 10
10.5382496265
 20
3.5075667896
 30
0.0
 10
10.5356332569
 20
3.5101963162
 30
0.0
 10
10.5328372498
 20
3.513027109
 30
0.0
 10
10.5299248646
 20
3.5159942588
 30
0.0
 10
10.525982115
 20
3.5200340675
 30
0.0
 10
10.5211844365
 20
3.5249901494
 30
0.0
 10
10.5173956026
 20
3.5289398897
 30
0.0
 10
10.5155662402
 20
3.5308560334
 30
0.0
  0
SPLINE
  5
457
100
AcDbEntity
  8
0
100
AcDbSpline
 62
9
  6
CONTINUOUS
 70
0
 71
3
 72
12
 73
8
 74
0
 42
0.0000001
 43
0.0000001
 44
0.0000000001
 40
0.0
 40
0.0
 40
0.0
 40
0.0
 40
0.1490345518
 40
0.2441154553
 40
0.3559699627
 40
0.6362182989
 40
1.0
 40
1.0
 40
1.0
 40
1.0
 10
10.5623031345
 20
3.6255376376
 30
0.0
 10
10.5625665463
 20
3.6252742207
 30
0.0
 10
10.562857608
 20
3.624707854
 30
0.0
 10
10.5630726811
 20
3.6238463721
 30
0.0
 10
10.5632199965
 20
3.6226334793
 30
0.0
 10
10.5631654893
 20
3.6207374176
 30
0.0
 10
10.5629371237
 20
3.6191417078
 30
0.0
 10
10.5627760627
 20
3.6182467834
 30
0.0
  0
SPLINE
  5
458
100
AcDbEntity
  8
0
100
AcDbSpline
 62
9
  6
CONTINUOUS
 70
0
 71
3
 72
17
 73
13
 74
0
 42
0.0000001
 43
0.0000001
 44
0.0000000001
 40
0.0
 40
0.0
 40
0.0
 40
0.0
 40
0.0575478114
 40
0.1344146848
 40
0.1806728504
 40
0.2324233619
 40
0.352124083
 40
0.4920498636
 40
0.5691691995
 40
0.6505496689
 40
0.8220764416
 40
1.0
 40
1.0
 40
1.0
 40
1.0
 10
10.5627760627
 20
3.6182467834
 30
0.0
 10
10.5624348594
 20
3.6163509101
 30
0.0
 10
10.5613163931
 20
3.6119833091
 30
0.0
 10
10.5594256857
 20
3.6062376241
 30
0.0
 10
10.5574284628
 20
3.6007346959
 30
0.0
 10
10.5548267885
 20
3.5939271955
 30
0.0
 10
10.5508288443
 20
3.5842978254
 30
0.0
 10
10.5459729164
 20
3.5741179817
 30
0.0
 10
10.5412788022
 20
3.5652984937
 30
0.0
 10
10.5357566834
 20
3.5557281076
 30
0.0
 10
10.5277008389
 20
3.5437361563
 30
0.0
 10
10.5199069557
 20
3.5349319172
 30
0.0
 10
10.5155652058
 20
3.5308551469
 30
0.0
  0
SPLINE
  5
459
100
AcDbEntity
  8
0
100
AcDbSpline
 62
9
  6
CONTINUOUS
 70
0
 71
3
 72
15
 73
11
 74
0
 42
0.0000001
 43
0.0000001
 44
0.0000000001
 40
0.0
 40
0.0
 40
0.0
 40
0.0
 40
0.1229458809
 40
0.2463752276
 40
0.3705110044
 40
0.4953331413
 40
0.6207864237
 40
0.7468875904
 40
0.8735147599
 40
1.0
 40
1.0
 40
1.0
 40
1.0
 10
11.8616320518
 20
2.319331926
 30
0.0
 10
11.8638982705
 20
2.3147838576
 30
0.0
 10
11.8677014003
 20
2.3052815196
 30
0.0
 10
11.8710632265
 20
2.2902779089
 30
0.0
 10
11.8720057372
 20
2.2748511636
 30
0.0
 10
11.8705341342
 20
2.2593837333
 30
0.0
 10
11.8666541247
 20
2.2442554136
 30
0.0
 10
11.8604762624
 20
2.2298296117
 30
0.0
 10
11.8521403061
 20
2.2164893525
 30
0.0
 10
11.8453020398
 20
2.2085104431
 30
0.0
 10
11.8416055062
 20
2.2048139096
 30
0.0
  0
SPLINE
  5
45A
100
AcDbEntity
  8
0
100
AcDbSpline
 62
7
  6
CONTINUOUS
 70
0
 71
3
 72
17
 73
13
 74
0
 42
0.0000001
 43
0.0000001
 44
0.0000000001
 40
0.0
 40
0.0
 40
0.0
 40
0.0
 40
0.0624833467
 40
0.124987115
 40
0.1875083858
 40
0.2500335354
 40
0.3749554489
 40
0.4999365453
 40
0.6249429023
 40
0.749956883
 40
0.874981072
 40
1.0
 40
1.0
 40
1.0
 40
1.0
 10
11.2687977347
 20
13.4647270735
 30
0.0
 10
11.2664628638
 20
13.4722631448
 30
0.0
 10
11.2600631378
 20
13.4868447459
 30
0.0
 10
11.2464270637
 20
13.5063433036
 30
0.0
 10
11.2298189845
 20
13.5233493794
 30
0.0
 10
11.2048742497
 20
13.5428064629
 30
0.0
 10
11.1699699822
 20
13.5617385965
 30
0.0
 10
11.1252938366
 20
13.5777312822
 30
0.0
 10
11.0791485541
 20
13.5886716966
 30
0.0
 10
11.0322778731
 20
13.5957132803
 30
0.0
 10
10.9850565351
 20
13.5996396068
 30
0.0
 10
10.9534778163
 20
13.6004775394
 30
0.0
 10
10.9376922486
 20
13.6004775377
 30
0.0
  0
SPLINE
  5
45B
100
AcDbEntity
  8
0
100
AcDbSpline
 62
7
  6
CONTINUOUS
 70
0
 71
3
 72
17
 73
13
 74
0
 42
0.0000001
 43
0.0000001
 44
0.0000000001
 40
0.0
 40
0.0
 40
0.0
 40
0.0
 40
0.1250188383
 40
0.2500428372
 40
0.375056849
 40
0.5000632637
 40
0.6250447521
 40
0.7499671613
 40
0.8124924197
 40
0.875013598
 40
0.9375169014
 40
1.0
 40
1.0
 40
1.0
 40
1.0
 10
10.9376922486
 20
13.6004775377
 30
0.0
 10
10.9219067001
 20
13.600477536
 30
0.0
 10
10.8903280339
 20
13.5996395575
 30
0.0
 10
10.8431067507
 20
13.5957132579
 30
0.0
 10
10.7962361012
 20
13.5886716993
 30
0.0
 10
10.7500907894
 20
13.5777312562
 30
0.0
 10
10.7054145406
 20
13.5617385615
 30
0.0
 10
10.6705102225
 20
13.5428062992
 30
0.0
 10
10.6455654507
 20
13.5233491823
 30
0.0
 10
10.628957471
 20
13.5063431035
 30
0.0
 10
10.6153214871
 20
13.4868446258
 30
0.0
 10
10.6089218112
 20
13.4722631111
 30
0.0
 10
10.6065869507
 20
13.4647270735
 30
0.0
  0
ENDSEC
  0
SECTION
  2
OBJECTS
  0
DICTIONARY
  5
C
100
AcDbDictionary
280
0
281
1
  3
ACAD_GROUP
350
D
  3
ACAD_MLINESTYLE
350
17
  3
ACAD_LAYOUT
350
1A
  3
ACAD_PLOTSETTINGS
350
19
  3
ACAD_PLOTSTYLENAME
350
E
  0
DICTIONARY
  5
D
102
{ACAD_REACTORS
330
C
102
}
100
AcDbDictionary
280
0
281
1
  0
ACDBDICTIONARYWDFLT
  5
E
102
{ACAD_REACTORS
330
C
102
}
100
AcDbDictionary
281
1
  3
Normal
350
F
100
AcDbDictionaryWithDefault
340
F
  0
DICTIONARY
  5
17
102
{ACAD_REACTORS
330
C
102
}
100
AcDbDictionary
280
0
281
1
  3
Standard
350
18
  0
DICTIONARY
  5
19
102
{ACAD_REACTORS
330
C
102
}
100
AcDbDictionary
281
1
  0
DICTIONARY
  5
1A
102
{ACAD_REACTORS
330
C
102
}
100
AcDbDictionary
281
1
  3
Model
350
45C
  3
Layout1
350
45D
  0
ACDBPLACEHOLDER
  5
F
102
{ACAD_REACTORS
330
E
102
}
  0
MLINESTYLE
  5
18
102
{ACAD_REACTORS
330
17
102
}
100
AcDbMlineStyle
  2
STANDARD
 70
0
  3

 62
256
 51
90.0
 52
90.0
 71
2
 49
0.5
 62
256
  6
BYLAYER
 49
-0.5
 62
256
  6
BYLAYER
  0
LAYOUT
  5
45C
102
{ACAD_REACTORS
330
1A
102
}
100
AcDbPlotSettings
  1

  2
none_device
  4
ANSI_C_(22.00_x_17.00_Inches)
  6

 40
0.0
 41
0.0
 42
0.0
 43
0.0
 44
558.8
 45
431.8
 46
0.0
 47
0.0
 48
0.0
 49
0.0
140
0.0
141
0.0
142
1.0
143
1.0
 70
1024
 72
0
 73
0
 74
0
  7

 75
0
147
1.0
148
0.0
149
0.0
100
AcDbLayout
  1
Model
 70
0
 71
0
 10
0.0
 20
0.0
 11
22.0
 21
17.0
 12
0.0
 22
0.0
 32
0.0
 14
0.0
 24
0.0
 34
0.0
 15
0.0
 25
0.0
 35
0.0
146
0.0
 13
0.0
 23
0.0
 33
0.0
 16
1.0
 26
0.0
 36
0.0
 17
0.0
 27
1.0
 37
0.0
 76
0
330
202
345
0
346
0
  0
LAYOUT
  5
45D
102
{ACAD_REACTORS
330
1A
102
}
100
AcDbPlotSettings
  1

  2
none_device
  4
ANSI_C_(22.00_x_17.00_Inches)
  6

 40
0.0
 41
0.0
 42
0.0
 43
0.0
 44
558.8
 45
431.8
 46
0.0
 47
0.0
 48
0.0
 49
0.0
140
0.0
141
0.0
142
1.0
143
1.0
 70
0
 72
0
 73
0
 74
0
  7

 75
0
147
1.0
148
0.0
149
0.0
100
AcDbLayout
  1
Layout1
 70
0
 71
1
 10
0.0
 20
0.0
 11
22.0
 21
17.0
 12
0.0
 22
0.0
 32
0.0
 14
0.0
 24
0.0
 34
0.0
 15
0.0
 25
0.0
 35
0.0
146
0.0
 13
0.0
 23
0.0
 33
0.0
 16
1.0
 26
0.0
 36
0.0
 17
0.0
 27
1.0
 37
0.0
 76
0
330
203
345
0
346
0
  0
ENDSEC
  0
EOF
