999
DXF file: 3-1004ts_FRONT.dxf
999
Pro/ENGINEER 2018400 by Parametric Technology Corporation
  0
SECTION
  2
HEADER
  9
$ACADVER
  1
AC1027
  9
$DWGCODEPAGE
  3
ANSI_1252
  9
$EXTMAX
 10
11.0
 20
8.5
 30
0.0
  9
$EXTMIN
 10
0.0
 20
0.0
 30
0.0
  9
$LIMMIN
 10
0.0
 20
0.0
  9
$LIMMAX
 10
11.0
 20
8.5
  9
$VIEWCTR
 10
5.5
 20
4.25
  9
$VIEWSIZE
 40
8.5
  9
$CLAYER
  8
0
  9
$LTSCALE
 40
0.605
  9
$CELTYPE
  6
BYLAYER
  9
$DIMSCALE
 40
1.0
  9
$DIMASZ
 40
0.1
  9
$DIMEXO
 40
0.0625
  9
$DIMDLI
 40
0.418
  9
$DIMEXE
 40
0.125
  9
$DIMCEN
 40
0.099
  9
$DIMLFAC
 40
1.0
  9
$DIMBLK
  1
_FILLED
  9
$DIMALT
 70
1
  9
$DIMALTD
 70
2
  9
$DIMALTTD
 70
2
  9
$DIMALTF
 40
25.4
  9
$DIMTXT
 40
0.08
  9
$DIMTOL
 70
1
  9
$DIMLIM
 70
0
  9
$DIMTFAC
 40
1.0
  9
$DIMTP
 40
0.001
  9
$DIMTM
 40
0.001
  9
$DIMGAP
 40
0.09
  9
$DIMDSEP
 70
46
  9
$AUNITS
 70
0
  9
$PDMODE
 70
3
  9
$PDSIZE
 40
0.3125
  9
$HANDSEED
  5
4E9
  9
$TILEMODE
 70
1
  9
$MEASUREMENT
 70
0
  9
$INSUNITS
 70
1
  0
ENDSEC
  0
SECTION
  2
CLASSES
  0
CLASS
  1
ACDBDICTIONARYWDFLT
  2
AcDbDictionaryWithDefault
  3
AutoCAD 2000
 90
0
 91
1
280
0
281
0
  0
CLASS
  1
ACDBPLACEHOLDER
  2
AcDbPlaceHolder
  3
AutoCAD 2000
 90
0
 91
1
280
0
281
0
  0
CLASS
  1
LAYOUT
  2
AcDbLayout
  3
AutoCAD 2000
 90
0
 91
0
280
0
281
0
  0
ENDSEC
  0
SECTION
  2
TABLES
  0
TABLE
  2
VPORT
  5
8
100
AcDbSymbolTable
 70
2
  0
VPORT
  5
1F4
100
AcDbSymbolTableRecord
100
AcDbViewportTableRecord
  2
*ACTIVE
 70
0
 10
0.0
 20
0.0
 11
1.0
 21
1.0
 12
5.5
 22
4.25
 13
0.0
 23
0.0
 14
1.0
 24
1.0
 15
0.0
 25
0.0
 16
0.0
 26
0.0
 36
1.0
 17
0.0
 27
0.0
 37
0.0
 40
8.5
 41
1.2941176471
 42
50.0
 43
0.0
 44
0.0
 50
0.0
 51
0.0
 71
0
 72
100
 73
1
 74
1
 75
0
 76
0
 77
0
 78
0
  0
ENDTAB
  0
TABLE
  2
LTYPE
  5
5
100
AcDbSymbolTable
 70
6
  0
LTYPE
  5
14
100
AcDbSymbolTableRecord
100
AcDbLinetypeTableRecord
  2
BYBLOCK
 70
0
  3

 72
65
 73
0
 40
0.0
  0
LTYPE
  5
15
100
AcDbSymbolTableRecord
100
AcDbLinetypeTableRecord
  2
BYLAYER
 70
0
  3

 72
65
 73
0
 40
0.0
  0
LTYPE
  5
16
100
AcDbSymbolTableRecord
100
AcDbLinetypeTableRecord
  2
CONTINUOUS
 70
64
  3
Solid line
 72
65
 73
0
 40
0.0
  0
LTYPE
  5
1F5
100
AcDbSymbolTableRecord
100
AcDbLinetypeTableRecord
  2
CENTER
 70
64
  3
____ _ ____ _ ____ _ ____ _ ____ _ ____ _ ____
 72
65
 73
4
 40
0.6
 49
0.375
 74
0
 49
-0.075
 74
0
 49
0.075
 74
0
 49
-0.075
 74
0
  0
LTYPE
  5
1F6
100
AcDbSymbolTableRecord
100
AcDbLinetypeTableRecord
  2
HIDDEN
 70
64
  3
- - - - - - - - - - - - - - - - - - - -
 72
65
 73
2
 40
0.2
 49
0.1
 74
0
 49
-0.1
 74
0
  0
LTYPE
  5
1F7
100
AcDbSymbolTableRecord
100
AcDbLinetypeTableRecord
  2
PHANTOM
 70
64
  3
_____ _ _ _____ _ _ _____ _ _ _____
 72
65
 73
6
 40
0.8
 49
0.45
 74
0
 49
-0.05
 74
0
 49
0.1
 74
0
 49
-0.05
 74
0
 49
0.1
 74
0
 49
-0.05
 74
0
  0
LTYPE
  5
1F8
100
AcDbSymbolTableRecord
100
AcDbLinetypeTableRecord
  2
DOT
 70
64
  3
. . . . . . . . . . . . . . . . . . . .
 72
65
 73
2
 40
0.2
 49
0.1
 74
0
 49
-0.1
 74
0
  0
LTYPE
  5
1F9
100
AcDbSymbolTableRecord
100
AcDbLinetypeTableRecord
  2
DASHED
 70
64
  3
- - - - - - - - - - - - - - - - - - - -
 72
65
 73
2
 40
0.2
 49
0.1
 74
0
 49
-0.1
 74
0
  0
ENDTAB
  0
TABLE
  2
LAYER
  5
2
100
AcDbSymbolTable
 70
36
  0
LAYER
  5
10
100
AcDbSymbolTableRecord
100
AcDbLayerTableRecord
  2
0
 70
0
 62
7
  6
CONTINUOUS
370
-3
390
F
  0
LAYER
  5
1FA
100
AcDbSymbolTableRecord
100
AcDbLayerTableRecord
  2
DEFAULT_1
 70
0
 62
7
  6
CENTER
370
-3
390
F
  0
LAYER
  5
1FB
100
AcDbSymbolTableRecord
100
AcDbLayerTableRecord
  2
DEFAULT_2
 70
0
 62
8
  6
HIDDEN
370
-3
390
F
  0
LAYER
  5
1FC
100
AcDbSymbolTableRecord
100
AcDbLayerTableRecord
  2
DEFAULT_3
 70
0
 62
7
  6
PHANTOM
370
-3
390
F
  0
LAYER
  5
1FD
100
AcDbSymbolTableRecord
100
AcDbLayerTableRecord
  2
2-265_ASSY_PLANES
 70
0
 62
7
  6
CONTINUOUS
370
-3
390
F
  0
LAYER
  5
1FE
100
AcDbSymbolTableRecord
100
AcDbLayerTableRecord
  2
AA
 70
0
 62
7
  6
CONTINUOUS
370
-3
390
F
  0
LAYER
  5
1FF
100
AcDbSymbolTableRecord
100
AcDbLayerTableRecord
  2
ALL_ASSEMBLY_MEMBERS
 70
0
 62
7
  6
CONTINUOUS
370
-3
390
F
  0
LAYER
  5
200
100
AcDbSymbolTableRecord
100
AcDbLayerTableRecord
  2
ALL_FEATURES
 70
0
 62
7
  6
CONTINUOUS
370
-3
390
F
  0
LAYER
  5
201
100
AcDbSymbolTableRecord
100
AcDbLayerTableRecord
  2
AXES_FEATURES
 70
0
 62
7
  6
CONTINUOUS
370
-3
390
F
  0
LAYER
  5
202
100
AcDbSymbolTableRecord
100
AcDbLayerTableRecord
  2
CHAMFER_FEATURES
 70
0
 62
7
  6
CONTINUOUS
370
-3
390
F
  0
LAYER
  5
203
100
AcDbSymbolTableRecord
100
AcDbLayerTableRecord
  2
CURVE
 70
0
 62
7
  6
CONTINUOUS
370
-3
390
F
  0
LAYER
  5
204
100
AcDbSymbolTableRecord
100
AcDbLayerTableRecord
  2
CUT_FEATURES
 70
0
 62
7
  6
CONTINUOUS
370
-3
390
F
  0
LAYER
  5
205
100
AcDbSymbolTableRecord
100
AcDbLayerTableRecord
  2
DATUM_CURVES
 70
0
 62
7
  6
CONTINUOUS
370
-3
390
F
  0
LAYER
  5
206
100
AcDbSymbolTableRecord
100
AcDbLayerTableRecord
  2
DATUM_PLANES
 70
0
 62
7
  6
CONTINUOUS
370
-3
390
F
  0
LAYER
  5
207
100
AcDbSymbolTableRecord
100
AcDbLayerTableRecord
  2
DATUM_POINTS
 70
0
 62
7
  6
CONTINUOUS
370
-3
390
F
  0
LAYER
  5
208
100
AcDbSymbolTableRecord
100
AcDbLayerTableRecord
  2
DEFAULT_COORDINATE_SYSTEM
 70
0
 62
7
  6
CONTINUOUS
370
-3
390
F
  0
LAYER
  5
209
100
AcDbSymbolTableRecord
100
AcDbLayerTableRecord
  2
DEFAULT_DATUM_AXES
 70
0
 62
7
  6
CONTINUOUS
370
-3
390
F
  0
LAYER
  5
20A
100
AcDbSymbolTableRecord
100
AcDbLayerTableRecord
  2
DEFAULT_DATUM_CURVES
 70
0
 62
7
  6
CONTINUOUS
370
-3
390
F
  0
LAYER
  5
20B
100
AcDbSymbolTableRecord
100
AcDbLayerTableRecord
  2
DEFAULT_DATUM_PLANES
 70
0
 62
7
  6
CONTINUOUS
370
-3
390
F
  0
LAYER
  5
20C
100
AcDbSymbolTableRecord
100
AcDbLayerTableRecord
  2
DEFAULT_SURFACES
 70
0
 62
7
  6
CONTINUOUS
370
-3
390
F
  0
LAYER
  5
20D
100
AcDbSymbolTableRecord
100
AcDbLayerTableRecord
  2
DIMENSIONS
 70
0
 62
7
  6
CONTINUOUS
370
-3
390
F
  0
LAYER
  5
20E
100
AcDbSymbolTableRecord
100
AcDbLayerTableRecord
  2
FEATURE_4_DRAWING
 70
0
 62
7
  6
CONTINUOUS
370
-3
390
F
  0
LAYER
  5
20F
100
AcDbSymbolTableRecord
100
AcDbLayerTableRecord
  2
HOLE_FEATURES
 70
0
 62
7
  6
CONTINUOUS
370
-3
390
F
  0
LAYER
  5
210
100
AcDbSymbolTableRecord
100
AcDbLayerTableRecord
  2
LAY0001
 70
0
 62
7
  6
CONTINUOUS
370
-3
390
F
  0
LAYER
  5
211
100
AcDbSymbolTableRecord
100
AcDbLayerTableRecord
  2
NOTES
 70
0
 62
7
  6
CONTINUOUS
370
-3
390
F
  0
LAYER
  5
212
100
AcDbSymbolTableRecord
100
AcDbLayerTableRecord
  2
PART_REFERENCE_DIMENSIONS
 70
0
 62
7
  6
CONTINUOUS
370
-3
390
F
  0
LAYER
  5
213
100
AcDbSymbolTableRecord
100
AcDbLayerTableRecord
  2
PLATED_SURFACE_AREA
 70
0
 62
7
  6
CONTINUOUS
370
-3
390
F
  0
LAYER
  5
214
100
AcDbSymbolTableRecord
100
AcDbLayerTableRecord
  2
POINTS
 70
0
 62
7
  6
CONTINUOUS
370
-3
390
F
  0
LAYER
  5
215
100
AcDbSymbolTableRecord
100
AcDbLayerTableRecord
  2
PROTRUSION
 70
0
 62
7
  6
CONTINUOUS
370
-3
390
F
  0
LAYER
  5
216
100
AcDbSymbolTableRecord
100
AcDbLayerTableRecord
  2
PROTRUSION_FEATURES
 70
0
 62
7
  6
CONTINUOUS
370
-3
390
F
  0
LAYER
  5
217
100
AcDbSymbolTableRecord
100
AcDbLayerTableRecord
  2
QUILT
 70
0
 62
7
  6
CONTINUOUS
370
-3
390
F
  0
LAYER
  5
218
100
AcDbSymbolTableRecord
100
AcDbLayerTableRecord
  2
QUILTS
 70
0
 62
7
  6
CONTINUOUS
370
-3
390
F
  0
LAYER
  5
219
100
AcDbSymbolTableRecord
100
AcDbLayerTableRecord
  2
REFERENCE_DIMENSIONS
 70
0
 62
7
  6
CONTINUOUS
370
-3
390
F
  0
LAYER
  5
21A
100
AcDbSymbolTableRecord
100
AcDbLayerTableRecord
  2
ROUND_FEATURES
 70
0
 62
7
  6
CONTINUOUS
370
-3
390
F
  0
LAYER
  5
21B
100
AcDbSymbolTableRecord
100
AcDbLayerTableRecord
  2
SHELL_FEATURES
 70
0
 62
7
  6
CONTINUOUS
370
-3
390
F
  0
LAYER
  5
21C
100
AcDbSymbolTableRecord
100
AcDbLayerTableRecord
  2
SURFACE_FEATURES
 70
0
 62
7
  6
CONTINUOUS
370
-3
390
F
  0
LAYER
  5
21D
100
AcDbSymbolTableRecord
100
AcDbLayerTableRecord
  2
WETTED_SURFACES
 70
0
 62
7
  6
CONTINUOUS
370
-3
390
F
  0
LAYER
  5
21E
100
AcDbSymbolTableRecord
100
AcDbLayerTableRecord
  2
XSEC_DATUMS
 70
0
 62
7
  6
CONTINUOUS
370
-3
390
F
  0
ENDTAB
  0
TABLE
  2
STYLE
  5
3
100
AcDbSymbolTable
 70
1
  0
STYLE
  5
11
100
AcDbSymbolTableRecord
100
AcDbTextStyleTableRecord
  2
STANDARD
 70
0
 40
0.0
 41
0.8
 50
0.0
 71
0
 42
0.2
  3
txt
  4

  0
STYLE
  5
21F
100
AcDbSymbolTableRecord
100
AcDbTextStyleTableRecord
  2
TEXTSTYLE_1
 70
0
 40
0.0
 41
0.8
 50
0.0
 71
0
 42
0.2
  3
gdt
  4

  0
ENDTAB
  0
TABLE
  2
VIEW
  5
6
100
AcDbSymbolTable
 70
0
  0
ENDTAB
  0
TABLE
  2
UCS
  5
7
100
AcDbSymbolTable
 70
0
  0
ENDTAB
  0
TABLE
  2
APPID
  5
9
100
AcDbSymbolTable
 70
1
  0
APPID
  5
220
100
AcDbSymbolTableRecord
100
AcDbRegAppTableRecord
  2
ACAD
 70
0
  0
ENDTAB
  0
TABLE
  2
BLOCK_RECORD
  5
1
100
AcDbSymbolTable
 70
0
  0
BLOCK_RECORD
  5
221
100
AcDbSymbolTableRecord
100
AcDbBlockTableRecord
  2
*Model_Space
  0
BLOCK_RECORD
  5
222
100
AcDbSymbolTableRecord
100
AcDbBlockTableRecord
  2
*Paper_Space
  0
BLOCK_RECORD
  5
223
100
AcDbSymbolTableRecord
100
AcDbBlockTableRecord
  2
_FILLED
  0
ENDTAB
  0
TABLE
  2
DIMSTYLE
  5
A
100
AcDbSymbolTable
 70
1
100
AcDbDimStyleTable
 71
0
  0
DIMSTYLE
105
224
100
AcDbSymbolTableRecord
100
AcDbDimStyleTableRecord
  2
STANDARD
 70
0
  3

  4

 40
1.0
 41
0.1
 42
0.0625
 43
0.38
 44
0.125
 45
0.0
 46
0.0
 47
0.001
 48
0.001
140
0.08
141
0.09
142
0.0
143
25.4
144
1.0
145
0.0
146
1.0
147
0.09
 71
1.0
 72
0.0
 73
1
 74
1
 75
0
 76
0
 77
0
 78
4
 79
1
170
1
171
2
172
0
173
0
174
0
175
0
176
0
177
0
178
0
270
2
179
3
271
3
272
3
273
2
274
2
275
0
280
0
281
0
282
0
283
1
284
4
285
0
286
0
287
3
288
0
340
11
278
46
341
223
342
223
343
223
344
223
  0
ENDTAB
  0
ENDSEC
  0
SECTION
  2
BLOCKS
  0
BLOCK
  5
20
100
AcDbEntity
  8
0
100
AcDbBlockBegin
  2
*Model_Space
 70
0
 10
0.0
 20
0.0
 30
0.0
  3
*Model_Space
  1

  0
ENDBLK
  5
21
100
AcDbEntity
  8
0
100
AcDbBlockEnd
  0
BLOCK
  5
1C
100
AcDbEntity
  8
0
100
AcDbBlockBegin
  2
*Paper_Space
 70
0
 10
0.0
 20
0.0
 30
0.0
  3
*Paper_Space
  1

  0
ENDBLK
  5
1D
100
AcDbEntity
  8
0
100
AcDbBlockEnd
  0
BLOCK
  5
225
100
AcDbEntity
  8
0
100
AcDbBlockBegin
  2
_FILLED
 70
64
 10
0.0
 20
0.0
  3
_FILLED
  1

  0
SOLID
  5
226
100
AcDbEntity
  8
0
  6
BYBLOCK
 62
0
100
AcDbTrace
 10
0.0
 20
0.0
 11
-1.0
 21
0.2
 12
-1.0
 22
-0.2
 13
-1.0
 23
-0.2
  0
ENDBLK
  5
227
100
AcDbEntity
  8
0
  6
BYBLOCK
 62
0
100
AcDbBlockEnd
  0
ENDSEC
  0
SECTION
  2
ENTITIES
  0
MTEXT
  5
228
100
AcDbEntity
  8
0
100
AcDbMText
 62
2
  6
CONTINUOUS
  7
STANDARD
 71
3
 72
1
 10
4.7505822981
 20
2.7317663043
 30
0.0
 11
1.0
 21
0.0
 31
0.0
 73
2
 44
0.9
  1
SCALE  .500
 40
0.08
 41
0.704
  0
LINE
  5
229
100
AcDbEntity
  8
0
100
AcDbLine
 62
7
  6
CONTINUOUS
 10
0.0
 20
0.0
 11
0.0
 21
8.5
  0
LINE
  5
22A
100
AcDbEntity
  8
0
100
AcDbLine
 62
7
  6
CONTINUOUS
 10
0.0
 20
0.0
 11
11.0
 21
0.0
  0
LINE
  5
22B
100
AcDbEntity
  8
0
100
AcDbLine
 62
7
  6
CONTINUOUS
 10
0.0
 20
8.5
 11
11.0
 21
8.5
  0
LINE
  5
22C
100
AcDbEntity
  8
0
100
AcDbLine
 62
7
  6
CONTINUOUS
 10
11.0
 20
0.0
 11
11.0
 21
8.5
  0
LINE
  5
22D
100
AcDbEntity
  8
ALL_ASSEMBLY_MEMBERS
100
AcDbLine
 62
7
  6
CONTINUOUS
 10
3.1255822981
 20
6.0767663043
 11
3.1255822981
 21
2.8267663043
  0
LINE
  5
22E
100
AcDbEntity
  8
ALL_ASSEMBLY_MEMBERS
100
AcDbLine
 62
7
  6
CONTINUOUS
 10
3.1830822981
 20
6.0192663043
 11
3.1830822981
 21
2.8842663043
  0
LINE
  5
22F
100
AcDbEntity
  8
ALL_ASSEMBLY_MEMBERS
100
AcDbLine
 62
7
  6
CONTINUOUS
 10
3.1255822981
 20
2.8267663043
 11
6.3755822981
 21
2.8267663043
  0
LINE
  5
230
100
AcDbEntity
  8
ALL_ASSEMBLY_MEMBERS
100
AcDbLine
 62
7
  6
CONTINUOUS
 10
3.1830822981
 20
2.8842663043
 11
6.3180822981
 21
2.8842663043
  0
LWPOLYLINE
  5
231
100
AcDbEntity
  8
ALL_ASSEMBLY_MEMBERS
100
AcDbPolyline
 62
7
  6
CONTINUOUS
 90
7
 70
0
 10
3.1830822981
 20
2.8842663043
 10
3.182958123
 20
2.8841043307
 10
3.1824467629
 20
2.8836012153
 10
3.1815482179
 20
2.8827322241
 10
3.1802559042
 20
2.8814638221
 10
3.1785764054
 20
2.8797806832
 10
3.1765294732
 20
2.8777134794
  0
LWPOLYLINE
  5
232
100
AcDbEntity
  8
ALL_ASSEMBLY_MEMBERS
100
AcDbPolyline
 62
7
  6
CONTINUOUS
 90
7
 70
0
 10
6.3180822981
 20
2.8842663043
 10
6.3182442718
 20
2.8841421292
 10
6.3187473872
 20
2.8836307691
 10
6.3196163784
 20
2.8827322241
 10
6.3208847804
 20
2.8814399104
 10
6.3225679193
 20
2.8797604117
 10
6.3246351231
 20
2.8777134794
  0
LWPOLYLINE
  5
233
100
AcDbEntity
  8
ALL_ASSEMBLY_MEMBERS
100
AcDbPolyline
 62
7
  6
CONTINUOUS
 90
7
 70
0
 10
3.1830822981
 20
6.0192663043
 10
3.182958123
 20
6.019428278
 10
3.1824467629
 20
6.0199313934
 10
3.1815482179
 20
6.0208003846
 10
3.1802559042
 20
6.0220687866
 10
3.1785764054
 20
6.0237519255
 10
3.1765294732
 20
6.0258191293
  0
LINE
  5
234
100
AcDbEntity
  8
ALL_ASSEMBLY_MEMBERS
100
AcDbLine
 62
7
  6
CONTINUOUS
 10
4.5086972566
 20
4.3123312037
 11
4.5087360705
 21
4.3119663575
  0
LINE
  5
235
100
AcDbEntity
  8
ALL_ASSEMBLY_MEMBERS
100
AcDbLine
 62
7
  6
CONTINUOUS
 10
4.5087360705
 20
4.3119663575
 11
4.5087729241
 21
4.3115984877
  0
LINE
  5
236
100
AcDbEntity
  8
ALL_ASSEMBLY_MEMBERS
100
AcDbLine
 62
7
  6
CONTINUOUS
 10
4.5087729241
 20
4.3115984877
 11
4.508807772
 21
4.3112275179
  0
LINE
  5
237
100
AcDbEntity
  8
ALL_ASSEMBLY_MEMBERS
100
AcDbLine
 62
7
  6
CONTINUOUS
 10
4.508807772
 20
4.3112275179
 11
4.5088405641
 21
4.3108534005
  0
LINE
  5
238
100
AcDbEntity
  8
ALL_ASSEMBLY_MEMBERS
100
AcDbLine
 62
7
  6
CONTINUOUS
 10
4.5088405641
 20
4.3108534005
 11
4.5088712507
 21
4.3104760598
  0
LINE
  5
239
100
AcDbEntity
  8
ALL_ASSEMBLY_MEMBERS
100
AcDbLine
 62
7
  6
CONTINUOUS
 10
4.5088712507
 20
4.3104760598
 11
4.5088997793
 21
4.3100954209
  0
LINE
  5
23A
100
AcDbEntity
  8
ALL_ASSEMBLY_MEMBERS
100
AcDbLine
 62
7
  6
CONTINUOUS
 10
4.5088997793
 20
4.3100954209
 11
4.5089260932
 21
4.3097114377
  0
LINE
  5
23B
100
AcDbEntity
  8
ALL_ASSEMBLY_MEMBERS
100
AcDbLine
 62
7
  6
CONTINUOUS
 10
4.5089260932
 20
4.3097114377
 11
4.5089501353
 21
4.3093240363
  0
LINE
  5
23C
100
AcDbEntity
  8
ALL_ASSEMBLY_MEMBERS
100
AcDbLine
 62
7
  6
CONTINUOUS
 10
4.5089501353
 20
4.3093240363
 11
4.5089718459
 21
4.3089331448
  0
LINE
  5
23D
100
AcDbEntity
  8
ALL_ASSEMBLY_MEMBERS
100
AcDbLine
 62
7
  6
CONTINUOUS
 10
4.5089718459
 20
4.3089331448
 11
4.5089911613
 21
4.3085387156
  0
LINE
  5
23E
100
AcDbEntity
  8
ALL_ASSEMBLY_MEMBERS
100
AcDbLine
 62
7
  6
CONTINUOUS
 10
4.5089911613
 20
4.3085387156
 11
4.5090080155
 21
4.3081407094
  0
LINE
  5
23F
100
AcDbEntity
  8
ALL_ASSEMBLY_MEMBERS
100
AcDbLine
 62
7
  6
CONTINUOUS
 10
4.5090080155
 20
4.3081407094
 11
4.5090223494
 21
4.3077388223
  0
LINE
  5
240
100
AcDbEntity
  8
ALL_ASSEMBLY_MEMBERS
100
AcDbLine
 62
7
  6
CONTINUOUS
 10
4.5090223494
 20
4.3077388223
 11
4.5090340927
 21
4.3073328137
  0
LINE
  5
241
100
AcDbEntity
  8
ALL_ASSEMBLY_MEMBERS
100
AcDbLine
 62
7
  6
CONTINUOUS
 10
4.5090340927
 20
4.3073328137
 11
4.5090431723
 21
4.3069222093
  0
LINE
  5
242
100
AcDbEntity
  8
ALL_ASSEMBLY_MEMBERS
100
AcDbLine
 62
7
  6
CONTINUOUS
 10
4.5090431723
 20
4.3069222093
 11
4.5090495003
 21
4.306506546
  0
LINE
  5
243
100
AcDbEntity
  8
ALL_ASSEMBLY_MEMBERS
100
AcDbLine
 62
7
  6
CONTINUOUS
 10
4.5090495003
 20
4.306506546
 11
4.5090529741
 21
4.3060855231
  0
LINE
  5
244
100
AcDbEntity
  8
ALL_ASSEMBLY_MEMBERS
100
AcDbLine
 62
7
  6
CONTINUOUS
 10
4.5090529741
 20
4.3060855231
 11
4.5090534801
 21
4.3056586817
  0
LINE
  5
245
100
AcDbEntity
  8
ALL_ASSEMBLY_MEMBERS
100
AcDbLine
 62
7
  6
CONTINUOUS
 10
4.5090534801
 20
4.3056586817
 11
4.50905089
 21
4.3052255646
  0
LINE
  5
246
100
AcDbEntity
  8
ALL_ASSEMBLY_MEMBERS
100
AcDbLine
 62
7
  6
CONTINUOUS
 10
4.50905089
 20
4.3052255646
 11
4.5090450622
 21
4.3047858762
  0
LINE
  5
247
100
AcDbEntity
  8
ALL_ASSEMBLY_MEMBERS
100
AcDbLine
 62
7
  6
CONTINUOUS
 10
4.5090450622
 20
4.3047858762
 11
4.5090358405
 21
4.3043391609
  0
LINE
  5
248
100
AcDbEntity
  8
ALL_ASSEMBLY_MEMBERS
100
AcDbLine
 62
7
  6
CONTINUOUS
 10
4.5090358405
 20
4.3043391609
 11
4.5090230504
 21
4.3038849291
  0
LINE
  5
249
100
AcDbEntity
  8
ALL_ASSEMBLY_MEMBERS
100
AcDbLine
 62
7
  6
CONTINUOUS
 10
4.5090230504
 20
4.3038849291
 11
4.5090065143
 21
4.3034230651
  0
LINE
  5
24A
100
AcDbEntity
  8
ALL_ASSEMBLY_MEMBERS
100
AcDbLine
 62
7
  6
CONTINUOUS
 10
4.5090065143
 20
4.3034230651
 11
4.5089860513
 21
4.3029535397
  0
LINE
  5
24B
100
AcDbEntity
  8
ALL_ASSEMBLY_MEMBERS
100
AcDbLine
 62
7
  6
CONTINUOUS
 10
4.5089860513
 20
4.3029535397
 11
4.5089615242
 21
4.3024771997
  0
LINE
  5
24C
100
AcDbEntity
  8
ALL_ASSEMBLY_MEMBERS
100
AcDbLine
 62
7
  6
CONTINUOUS
 10
4.5089615242
 20
4.3024771997
 11
4.5089327972
 21
4.3019945455
  0
LWPOLYLINE
  5
24D
100
AcDbEntity
  8
ALL_ASSEMBLY_MEMBERS
100
AcDbPolyline
 62
7
  6
CONTINUOUS
 90
3
 70
0
 10
4.5089905126
 20
4.5950651594
 10
4.5087965489
 20
4.5922273646
 10
4.5085341717
 20
4.5899675934
  0
LINE
  5
24E
100
AcDbEntity
  8
ALL_ASSEMBLY_MEMBERS
100
AcDbLine
 62
7
  6
CONTINUOUS
 10
4.5089327972
 20
4.3019945455
 11
4.508899766
 21
4.3015063372
  0
LINE
  5
24F
100
AcDbEntity
  8
ALL_ASSEMBLY_MEMBERS
100
AcDbLine
 62
7
  6
CONTINUOUS
 10
4.508899766
 20
4.3015063372
 11
4.5088623481
 21
4.301013331
  0
LINE
  5
250
100
AcDbEntity
  8
ALL_ASSEMBLY_MEMBERS
100
AcDbLine
 62
7
  6
CONTINUOUS
 10
4.5088623481
 20
4.301013331
 11
4.5088204623
 21
4.3005160458
  0
LINE
  5
251
100
AcDbEntity
  8
ALL_ASSEMBLY_MEMBERS
100
AcDbLine
 62
7
  6
CONTINUOUS
 10
4.5088204623
 20
4.3005160458
 11
4.5087740656
 21
4.3000152387
  0
LINE
  5
252
100
AcDbEntity
  8
ALL_ASSEMBLY_MEMBERS
100
AcDbLine
 62
7
  6
CONTINUOUS
 10
4.5087740656
 20
4.3000152387
 11
4.5087231361
 21
4.2995116414
  0
LINE
  5
253
100
AcDbEntity
  8
ALL_ASSEMBLY_MEMBERS
100
AcDbLine
 62
7
  6
CONTINUOUS
 10
4.5087231361
 20
4.2995116414
 11
4.5086676596
 21
4.2990058519
  0
LINE
  5
254
100
AcDbEntity
  8
ALL_ASSEMBLY_MEMBERS
100
AcDbLine
 62
7
  6
CONTINUOUS
 10
4.5086676596
 20
4.2990058519
 11
4.5086076767
 21
4.2984987618
  0
LINE
  5
255
100
AcDbEntity
  8
ALL_ASSEMBLY_MEMBERS
100
AcDbLine
 62
7
  6
CONTINUOUS
 10
4.5086076767
 20
4.2984987618
 11
4.5085433608
 21
4.2979920486
  0
LINE
  5
256
100
AcDbEntity
  8
ALL_ASSEMBLY_MEMBERS
100
AcDbLine
 62
7
  6
CONTINUOUS
 10
4.5085433608
 20
4.2979920486
 11
4.5084748582
 21
4.2974867887
  0
LINE
  5
257
100
AcDbEntity
  8
ALL_ASSEMBLY_MEMBERS
100
AcDbLine
 62
7
  6
CONTINUOUS
 10
4.5084748582
 20
4.2974867887
 11
4.5084024351
 21
4.2969846239
  0
LINE
  5
258
100
AcDbEntity
  8
ALL_ASSEMBLY_MEMBERS
100
AcDbLine
 62
7
  6
CONTINUOUS
 10
4.5084024351
 20
4.2969846239
 11
4.5083264111
 21
4.2964871771
  0
LINE
  5
259
100
AcDbEntity
  8
ALL_ASSEMBLY_MEMBERS
100
AcDbLine
 62
7
  6
CONTINUOUS
 10
4.5083264111
 20
4.2964871771
 11
4.5082470703
 21
4.2959955301
  0
LINE
  5
25A
100
AcDbEntity
  8
ALL_ASSEMBLY_MEMBERS
100
AcDbLine
 62
7
  6
CONTINUOUS
 10
4.5082470703
 20
4.2959955301
 11
4.5081648234
 21
4.2955112878
  0
LINE
  5
25B
100
AcDbEntity
  8
ALL_ASSEMBLY_MEMBERS
100
AcDbLine
 62
7
  6
CONTINUOUS
 10
4.5081648234
 20
4.2955112878
 11
4.5080801399
 21
4.2950360916
  0
LINE
  5
25C
100
AcDbEntity
  8
ALL_ASSEMBLY_MEMBERS
100
AcDbLine
 62
7
  6
CONTINUOUS
 10
4.5080801399
 20
4.2950360916
 11
4.5079494409
 21
4.2943425215
  0
LINE
  5
25D
100
AcDbEntity
  8
ALL_ASSEMBLY_MEMBERS
100
AcDbLine
 62
7
  6
CONTINUOUS
 10
4.5079916609
 20
4.2945609151
 11
4.5079051098
 21
4.2941169523
  0
LINE
  5
25E
100
AcDbEntity
  8
ALL_ASSEMBLY_MEMBERS
100
AcDbLine
 62
7
  6
CONTINUOUS
 10
4.5079365681
 20
4.2942757933
 11
4.5078604225
 21
4.2938940613
  0
LINE
  5
25F
100
AcDbEntity
  8
ALL_ASSEMBLY_MEMBERS
100
AcDbLine
 62
7
  6
CONTINUOUS
 10
4.5078803168
 20
4.2939920404
 11
4.5078154142
 21
4.2936738764
  0
LINE
  5
260
100
AcDbEntity
  8
ALL_ASSEMBLY_MEMBERS
100
AcDbLine
 62
7
  6
CONTINUOUS
 10
4.5078229178
 20
4.2937096302
 11
4.5077244956
 21
4.2932413548
  0
LINE
  5
261
100
AcDbEntity
  8
ALL_ASSEMBLY_MEMBERS
100
AcDbLine
 62
7
  6
CONTINUOUS
 10
4.5077643943
 20
4.2934285958
 11
4.5076786041
 21
4.293028845
  0
LINE
  5
262
100
AcDbEntity
  8
ALL_ASSEMBLY_MEMBERS
100
AcDbLine
 62
7
  6
CONTINUOUS
 10
4.5077047991
 20
4.293149107
 11
4.5076324592
 21
4.2928188323
  0
LINE
  5
263
100
AcDbEntity
  8
ALL_ASSEMBLY_MEMBERS
100
AcDbLine
 62
7
  6
CONTINUOUS
 10
4.5076441517
 20
4.2928711654
 11
4.5075393962
 21
4.2924057845
  0
LINE
  5
264
100
AcDbEntity
  8
ALL_ASSEMBLY_MEMBERS
100
AcDbLine
 62
7
  6
CONTINUOUS
 10
4.5075824714
 20
4.2925947742
 11
4.507492525
 21
4.2922027443
  0
LINE
  5
265
100
AcDbEntity
  8
ALL_ASSEMBLY_MEMBERS
100
AcDbLine
 62
7
  6
CONTINUOUS
 10
4.5075198163
 20
4.292320104
 11
4.5074454186
 21
4.2920018555
  0
LINE
  5
266
100
AcDbEntity
  8
ALL_ASSEMBLY_MEMBERS
100
AcDbLine
 62
7
  6
CONTINUOUS
 10
4.5074562078
 20
4.2920471557
 11
4.507350585
 21
4.2916065255
  0
LINE
  5
267
100
AcDbEntity
  8
ALL_ASSEMBLY_MEMBERS
100
AcDbLine
 62
7
  6
CONTINUOUS
 10
4.5073916673
 20
4.2917759312
 11
4.5073028567
 21
4.2914119064
  0
LINE
  5
268
100
AcDbEntity
  8
ALL_ASSEMBLY_MEMBERS
100
AcDbLine
 62
7
  6
CONTINUOUS
 10
4.5073262576
 20
4.2915066006
 11
4.5072068273
 21
4.291028568
  0
LINE
  5
269
100
AcDbEntity
  8
ALL_ASSEMBLY_MEMBERS
100
AcDbLine
 62
7
  6
CONTINUOUS
 10
4.5072600023
 20
4.2912391651
 11
4.5071585239
 21
4.2908396918
  0
LINE
  5
26A
100
AcDbEntity
  8
ALL_ASSEMBLY_MEMBERS
100
AcDbLine
 62
7
  6
CONTINUOUS
 10
4.5071929245
 20
4.2909736241
 11
4.5071100372
 21
4.2906526219
  0
LINE
  5
26B
100
AcDbEntity
  8
ALL_ASSEMBLY_MEMBERS
100
AcDbLine
 62
7
  6
CONTINUOUS
 10
4.5071250907
 20
4.290710144
 11
4.5070125382
 21
4.2902837394
  0
LINE
  5
26C
100
AcDbEntity
  8
ALL_ASSEMBLY_MEMBERS
100
AcDbLine
 62
7
  6
CONTINUOUS
 10
4.5070565273
 20
4.2904487289
 11
4.5069635156
 21
4.2901017681
  0
LINE
  5
26D
100
AcDbEntity
  8
ALL_ASSEMBLY_MEMBERS
100
AcDbLine
 62
7
  6
CONTINUOUS
 10
4.5069872582
 20
4.2901893732
 11
4.506864954
 21
4.2897426013
  0
LINE
  5
26E
100
AcDbEntity
  8
ALL_ASSEMBLY_MEMBERS
100
AcDbLine
 62
7
  6
CONTINUOUS
 10
4.5069173496
 20
4.2899322269
 11
4.5068153988
 21
4.2895652459
  0
LINE
  5
26F
100
AcDbEntity
  8
ALL_ASSEMBLY_MEMBERS
100
AcDbLine
 62
7
  6
CONTINUOUS
 10
4.5068468316
 20
4.2896773
 11
4.5067040968
 21
4.289174177
  0
LINE
  5
270
100
AcDbEntity
  8
ALL_ASSEMBLY_MEMBERS
100
AcDbLine
 62
7
  6
CONTINUOUS
 10
4.5067157615
 20
4.2892148369
 11
4.5066154262
 21
4.2888698935
  0
LINE
  5
271
100
AcDbEntity
  8
ALL_ASSEMBLY_MEMBERS
100
AcDbLine
 62
7
  6
CONTINUOUS
 10
4.5066319606
 20
4.28892607
 11
4.5064863538
 21
4.2884369748
  0
LINE
  5
272
100
AcDbEntity
  8
ALL_ASSEMBLY_MEMBERS
100
AcDbLine
 62
7
  6
CONTINUOUS
 10
4.5065140597
 20
4.2885289917
 11
4.5064122155
 21
4.2881936247
  0
LINE
  5
273
100
AcDbEntity
  8
ALL_ASSEMBLY_MEMBERS
100
AcDbLine
 62
7
  6
CONTINUOUS
 10
4.5064117041
 20
4.2881920516
 11
4.5063085545
 21
4.2878594905
  0
LINE
  5
274
100
AcDbEntity
  8
ALL_ASSEMBLY_MEMBERS
100
AcDbLine
 62
7
  6
CONTINUOUS
 10
4.5063377234
 20
4.2879527648
 11
4.5061937807
 21
4.2874971813
  0
LINE
  5
275
100
AcDbEntity
  8
ALL_ASSEMBLY_MEMBERS
100
AcDbLine
 62
7
  6
CONTINUOUS
 10
4.5062060691
 20
4.2875356446
 11
4.5061050992
 21
4.2872226613
  0
LINE
  5
276
100
AcDbEntity
  8
ALL_ASSEMBLY_MEMBERS
100
AcDbLine
 62
7
  6
CONTINUOUS
 10
4.5061245333
 20
4.2872824019
 11
4.5060068161
 21
4.2869235101
  0
LINE
  5
277
100
AcDbEntity
  8
ALL_ASSEMBLY_MEMBERS
100
AcDbLine
 62
7
  6
CONTINUOUS
 10
4.5060185595
 20
4.2869589433
 11
4.5059589503
 21
4.2867797056
  0
LINE
  5
278
100
AcDbEntity
  8
ALL_ASSEMBLY_MEMBERS
100
AcDbLine
 62
7
  6
CONTINUOUS
 10
4.5059664906
 20
4.2868023087
 11
4.5057359497
 21
4.2861251394
  0
LINE
  5
279
100
AcDbEntity
  8
ALL_ASSEMBLY_MEMBERS
100
AcDbLine
 62
7
  6
CONTINUOUS
 10
4.5058193948
 20
4.2863671741
 11
4.5057977023
 21
4.2863039306
  0
LINE
  5
27A
100
AcDbEntity
  8
ALL_ASSEMBLY_MEMBERS
100
AcDbLine
 62
7
  6
CONTINUOUS
 10
4.5057977023
 20
4.2863039306
 11
4.505593052
 21
4.2857182044
  0
LINE
  5
27B
100
AcDbEntity
  8
ALL_ASSEMBLY_MEMBERS
100
AcDbLine
 62
7
  6
CONTINUOUS
 10
4.5056031448
 20
4.2857466965
 11
4.5055241433
 21
4.2855252828
  0
LINE
  5
27C
100
AcDbEntity
  8
ALL_ASSEMBLY_MEMBERS
100
AcDbLine
 62
7
  6
CONTINUOUS
 10
4.5055241433
 20
4.2855252828
 11
4.5054091375
 21
4.2852078175
  0
LWPOLYLINE
  5
27D
100
AcDbEntity
  8
ALL_ASSEMBLY_MEMBERS
100
AcDbPolyline
 62
7
  6
CONTINUOUS
 90
4
 70
0
 10
4.5054091375
 20
4.2852078175
 10
4.5052552205
 20
4.2847914316
 10
4.5051619541
 20
4.284543632
 10
4.5050634573
 20
4.284285473
  0
LWPOLYLINE
  5
27E
100
AcDbEntity
  8
ALL_ASSEMBLY_MEMBERS
100
AcDbPolyline
 62
7
  6
CONTINUOUS
 90
10
 70
0
 10
4.5050634573
 20
4.284285473
 10
4.5049607731
 20
4.2840200702
 10
4.5048525905
 20
4.2837444276
 10
4.5047405796
 20
4.2834631661
 10
4.5046249167
 20
4.2831769853
 10
4.5045052501
 20
4.2828852736
 10
4.5043825626
 20
4.2825906445
 10
4.5042568399
 20
4.2822932208
 10
4.5041279907
 20
4.281992944
 10
4.5039969599
 20
4.2816921245
  0
LWPOLYLINE
  5
27F
100
AcDbEntity
  8
ALL_ASSEMBLY_MEMBERS
100
AcDbPolyline
 62
7
  6
CONTINUOUS
 90
40
 70
0
 10
4.5039969599
 20
4.2816921245
 10
4.5038640951
 20
4.2813915977
 10
4.5037290248
 20
4.2810905602
 10
4.5035916498
 20
4.2807888503
 10
4.5034519234
 20
4.2804864291
 10
4.5033098531
 20
4.2801833759
 10
4.5031654177
 20
4.2798797076
 10
4.5030185966
 20
4.2795754419
 10
4.502869372
 20
4.2792706031
 10
4.5027177274
 20
4.2789652176
 10
4.5025636438
 20
4.2786593073
 10
4.5024071025
 20
4.2783528941
 10
4.5022480871
 20
4.2780460048
 10
4.5020865789
 20
4.2777386621
 10
4.5019225595
 20
4.2774308887
 10
4.5017560134
 20
4.2771227132
 10
4.5015869223
 20
4.2768141588
 10
4.5014152682
 20
4.2765052493
 10
4.5012410363
 20
4.2761960144
 10
4.5010642088
 20
4.2758864783
 10
4.5008847681
 20
4.2755766656
 10
4.5007027003
 20
4.2752666071
 10
4.500517988
 20
4.274956328
 10
4.5003306141
 20
4.2746458536
 10
4.5001405653
 20
4.2743352158
 10
4.499947825
 20
4.2740244404
 10
4.4997523764
 20
4.2737135538
 10
4.4995542071
 20
4.2734025887
 10
4.4993533008
 20
4.2730915718
 10
4.4991496416
 20
4.2727805302
 10
4.4989432176
 20
4.2724694975
 10
4.4987340133
 20
4.2721585013
 10
4.4985220133
 20
4.2718475695
 10
4.4983072065
 20
4.2715367364
 10
4.498089578
 20
4.2712260306
 10
4.4978691131
 20
4.2709154807
 10
4.4976458016
 20
4.270605122
 10
4.4974196298
 20
4.2702949844
 10
4.4971905832
 20
4.2699850968
 10
4.4969586508
 20
4.2696754931
  0
LINE
  5
280
100
AcDbEntity
  8
ALL_ASSEMBLY_MEMBERS
100
AcDbLine
 62
7
  6
CONTINUOUS
 10
4.9268565787
 20
4.7015180967
 11
4.9241099022
 21
4.7000042491
  0
LINE
  5
281
100
AcDbEntity
  8
ALL_ASSEMBLY_MEMBERS
100
AcDbLine
 62
7
  6
CONTINUOUS
 10
4.9254817144
 20
4.7007444746
 11
4.9228381164
 21
4.699369501
  0
LINE
  5
282
100
AcDbEntity
  8
ALL_ASSEMBLY_MEMBERS
100
AcDbLine
 62
7
  6
CONTINUOUS
 10
4.9249034782
 20
4.7004179963
 11
4.9227989208
 21
4.6993421772
  0
LINE
  5
283
100
AcDbEntity
  8
ALL_ASSEMBLY_MEMBERS
100
AcDbLine
 62
7
  6
CONTINUOUS
 10
4.9241099022
 20
4.7000042491
 11
4.9213312137
 21
4.698655692
  0
LINE
  5
284
100
AcDbEntity
  8
ALL_ASSEMBLY_MEMBERS
100
AcDbLine
 62
7
  6
CONTINUOUS
 10
4.9231182893
 20
4.6994992304
 11
4.9203778963
 21
4.6982303372
  0
LWPOLYLINE
  5
285
100
AcDbEntity
  8
ALL_ASSEMBLY_MEMBERS
100
AcDbPolyline
 62
7
  6
CONTINUOUS
 90
3
 70
0
 10
4.9227989208
 20
4.6993421772
 10
4.9206882077
 20
4.6983652713
 10
4.9204876585
 20
4.6982811608
  0
LINE
  5
286
100
AcDbEntity
  8
ALL_ASSEMBLY_MEMBERS
100
AcDbLine
 62
7
  6
CONTINUOUS
 10
4.9221690943
 20
4.6990623334
 11
4.920094715
 21
4.6981123814
  0
LINE
  5
287
100
AcDbEntity
  8
ALL_ASSEMBLY_MEMBERS
100
AcDbLine
 62
7
  6
CONTINUOUS
 10
4.9213312137
 20
4.698655692
 11
4.918492893
 21
4.697454358
  0
LWPOLYLINE
  5
288
100
AcDbEntity
  8
ALL_ASSEMBLY_MEMBERS
100
AcDbPolyline
 62
7
  6
CONTINUOUS
 90
5
 70
0
 10
4.9201979354
 20
4.6981596507
 10
4.9188102815
 20
4.6975776674
 10
4.9174982158
 20
4.697071139
 10
4.9164479795
 20
4.6966908672
 10
4.9149431778
 20
4.696184208
  0
LINE
  5
289
100
AcDbEntity
  8
ALL_ASSEMBLY_MEMBERS
100
AcDbLine
 62
7
  6
CONTINUOUS
 10
4.918492893
 20
4.697454358
 11
4.9155443155
 21
4.6963829106
  0
LWPOLYLINE
  5
28A
100
AcDbEntity
  8
ALL_ASSEMBLY_MEMBERS
100
AcDbPolyline
 62
7
  6
CONTINUOUS
 90
4
 70
0
 10
4.9155443155
 20
4.6963829106
 10
4.9125501081
 20
4.6954688631
 10
4.9096593186
 20
4.6947450671
 10
4.9069908463
 20
4.6942103605
  0
LWPOLYLINE
  5
28B
100
AcDbEntity
  8
ALL_ASSEMBLY_MEMBERS
100
AcDbPolyline
 62
7
  6
CONTINUOUS
 90
5
 70
0
 10
4.5924981864
 20
4.2090013576
 10
4.5955944418
 20
4.2095555708
 10
4.5988114669
 20
4.2099561675
 10
4.6020773248
 20
4.2101838031
 10
4.6053226663
 20
4.2102333443
  0
LINE
  5
28C
100
AcDbEntity
  8
ALL_ASSEMBLY_MEMBERS
100
AcDbLine
 62
7
  6
CONTINUOUS
 10
4.8888199367
 20
4.2097379104
 11
4.8890960332
 21
4.2097731805
  0
LINE
  5
28D
100
AcDbEntity
  8
ALL_ASSEMBLY_MEMBERS
100
AcDbLine
 62
7
  6
CONTINUOUS
 10
4.8890960332
 20
4.2097731805
 11
4.8894531725
 21
4.2098167895
  0
LINE
  5
28E
100
AcDbEntity
  8
ALL_ASSEMBLY_MEMBERS
100
AcDbLine
 62
7
  6
CONTINUOUS
 10
4.8894531725
 20
4.2098167895
 11
4.8898131493
 21
4.2098585481
  0
LINE
  5
28F
100
AcDbEntity
  8
ALL_ASSEMBLY_MEMBERS
100
AcDbLine
 62
7
  6
CONTINUOUS
 10
4.8898131493
 20
4.2098585481
 11
4.8901760417
 21
4.2098984171
  0
LINE
  5
290
100
AcDbEntity
  8
ALL_ASSEMBLY_MEMBERS
100
AcDbLine
 62
7
  6
CONTINUOUS
 10
4.8901760417
 20
4.2098984171
 11
4.890541927
 21
4.209936355
  0
LINE
  5
291
100
AcDbEntity
  8
ALL_ASSEMBLY_MEMBERS
100
AcDbLine
 62
7
  6
CONTINUOUS
 10
4.890541927
 20
4.209936355
 11
4.890910854
 21
4.209972315
  0
LINE
  5
292
100
AcDbEntity
  8
ALL_ASSEMBLY_MEMBERS
100
AcDbLine
 62
7
  6
CONTINUOUS
 10
4.890910854
 20
4.209972315
 11
4.8912828994
 21
4.2100062512
  0
LINE
  5
293
100
AcDbEntity
  8
ALL_ASSEMBLY_MEMBERS
100
AcDbLine
 62
7
  6
CONTINUOUS
 10
4.8912828994
 20
4.2100062512
 11
4.8916581395
 21
4.2100381149
  0
LINE
  5
294
100
AcDbEntity
  8
ALL_ASSEMBLY_MEMBERS
100
AcDbLine
 62
7
  6
CONTINUOUS
 10
4.8916581395
 20
4.2100381149
 11
4.8920366215
 21
4.2100678531
  0
LINE
  5
295
100
AcDbEntity
  8
ALL_ASSEMBLY_MEMBERS
100
AcDbLine
 62
7
  6
CONTINUOUS
 10
4.8920366215
 20
4.2100678531
 11
4.8924184207
 21
4.2100954125
  0
LINE
  5
296
100
AcDbEntity
  8
ALL_ASSEMBLY_MEMBERS
100
AcDbLine
 62
7
  6
CONTINUOUS
 10
4.8924184207
 20
4.2100954125
 11
4.8928036117
 21
4.2101207373
  0
LINE
  5
297
100
AcDbEntity
  8
ALL_ASSEMBLY_MEMBERS
100
AcDbLine
 62
7
  6
CONTINUOUS
 10
4.8928036117
 20
4.2101207373
 11
4.8931922399
 21
4.2101437676
  0
LINE
  5
298
100
AcDbEntity
  8
ALL_ASSEMBLY_MEMBERS
100
AcDbLine
 62
7
  6
CONTINUOUS
 10
4.8931922399
 20
4.2101437676
 11
4.893584377
 21
4.2101644427
  0
LINE
  5
299
100
AcDbEntity
  8
ALL_ASSEMBLY_MEMBERS
100
AcDbLine
 62
7
  6
CONTINUOUS
 10
4.893584377
 20
4.2101644427
 11
4.8939800846
 21
4.2101826987
  0
LINE
  5
29A
100
AcDbEntity
  8
ALL_ASSEMBLY_MEMBERS
100
AcDbLine
 62
7
  6
CONTINUOUS
 10
4.8939800846
 20
4.2101826987
 11
4.8943794725
 21
4.2101984713
  0
LINE
  5
29B
100
AcDbEntity
  8
ALL_ASSEMBLY_MEMBERS
100
AcDbLine
 62
7
  6
CONTINUOUS
 10
4.8943794725
 20
4.2101984713
 11
4.8947827824
 21
4.2102116958
  0
LINE
  5
29C
100
AcDbEntity
  8
ALL_ASSEMBLY_MEMBERS
100
AcDbLine
 62
7
  6
CONTINUOUS
 10
4.8947827824
 20
4.2102116958
 11
4.8951905034
 21
4.210222306
  0
LINE
  5
29D
100
AcDbEntity
  8
ALL_ASSEMBLY_MEMBERS
100
AcDbLine
 62
7
  6
CONTINUOUS
 10
4.8951905034
 20
4.210222306
 11
4.8956029314
 21
4.210230218
  0
LINE
  5
29E
100
AcDbEntity
  8
ALL_ASSEMBLY_MEMBERS
100
AcDbLine
 62
7
  6
CONTINUOUS
 10
4.8956029314
 20
4.210230218
 11
4.8960205222
 21
4.2102353398
  0
LINE
  5
29F
100
AcDbEntity
  8
ALL_ASSEMBLY_MEMBERS
100
AcDbLine
 62
7
  6
CONTINUOUS
 10
4.8960205222
 20
4.2102353398
 11
4.8964437297
 21
4.2102375651
  0
LINE
  5
2A0
100
AcDbEntity
  8
ALL_ASSEMBLY_MEMBERS
100
AcDbLine
 62
7
  6
CONTINUOUS
 10
4.8964437297
 20
4.2102375651
 11
4.8968728485
 21
4.2102367737
  0
LINE
  5
2A1
100
AcDbEntity
  8
ALL_ASSEMBLY_MEMBERS
100
AcDbLine
 62
7
  6
CONTINUOUS
 10
4.8968728485
 20
4.2102367737
 11
4.8973083288
 21
4.2102328332
  0
LINE
  5
2A2
100
AcDbEntity
  8
ALL_ASSEMBLY_MEMBERS
100
AcDbLine
 62
7
  6
CONTINUOUS
 10
4.8973083288
 20
4.2102328332
 11
4.8977506199
 21
4.2102255952
  0
LINE
  5
2A3
100
AcDbEntity
  8
ALL_ASSEMBLY_MEMBERS
100
AcDbLine
 62
7
  6
CONTINUOUS
 10
4.8977506199
 20
4.2102255952
 11
4.8982000073
 21
4.2102149
  0
LINE
  5
2A4
100
AcDbEntity
  8
ALL_ASSEMBLY_MEMBERS
100
AcDbLine
 62
7
  6
CONTINUOUS
 10
4.8982000073
 20
4.2102149
 11
4.8986570227
 21
4.2102005676
  0
LWPOLYLINE
  5
2A5
100
AcDbEntity
  8
ALL_ASSEMBLY_MEMBERS
100
AcDbPolyline
 62
7
  6
CONTINUOUS
 90
3
 70
0
 10
4.6053226663
 20
4.2102333443
 10
4.6085010298
 20
4.2101116078
 10
4.6116405867
 20
4.2098249488
  0
LINE
  5
2A6
100
AcDbEntity
  8
ALL_ASSEMBLY_MEMBERS
100
AcDbLine
 62
7
  6
CONTINUOUS
 10
4.8986570227
 20
4.2102005676
 11
4.8991216367
 21
4.2101824221
  0
LINE
  5
2A7
100
AcDbEntity
  8
ALL_ASSEMBLY_MEMBERS
100
AcDbLine
 62
7
  6
CONTINUOUS
 10
4.6073054935
 20
4.2101778921
 11
4.6075763513
 21
4.2101651312
  0
LINE
  5
2A8
100
AcDbEntity
  8
ALL_ASSEMBLY_MEMBERS
100
AcDbLine
 62
7
  6
CONTINUOUS
 10
4.8991216367
 20
4.2101824221
 11
4.8995936114
 21
4.2101602955
  0
LINE
  5
2A9
100
AcDbEntity
  8
ALL_ASSEMBLY_MEMBERS
100
AcDbLine
 62
7
  6
CONTINUOUS
 10
4.6075763513
 20
4.2101651312
 11
4.607846712
 21
4.2101511698
  0
LINE
  5
2AA
100
AcDbEntity
  8
ALL_ASSEMBLY_MEMBERS
100
AcDbLine
 62
7
  6
CONTINUOUS
 10
4.8995936114
 20
4.2101602955
 11
4.9000722139
 21
4.2101340525
  0
LINE
  5
2AB
100
AcDbEntity
  8
ALL_ASSEMBLY_MEMBERS
100
AcDbLine
 62
7
  6
CONTINUOUS
 10
4.607846712
 20
4.2101511698
 11
4.6081165672
 21
4.2101360144
  0
LINE
  5
2AC
100
AcDbEntity
  8
ALL_ASSEMBLY_MEMBERS
100
AcDbLine
 62
7
  6
CONTINUOUS
 10
4.6081165672
 20
4.2101360144
 11
4.6083859014
 21
4.2101196719
  0
LINE
  5
2AD
100
AcDbEntity
  8
ALL_ASSEMBLY_MEMBERS
100
AcDbLine
 62
7
  6
CONTINUOUS
 10
4.9000722139
 20
4.2101340525
 11
4.9005567036
 21
4.2101035783
  0
LINE
  5
2AE
100
AcDbEntity
  8
ALL_ASSEMBLY_MEMBERS
100
AcDbLine
 62
7
  6
CONTINUOUS
 10
4.6083859014
 20
4.2101196719
 11
4.6086547001
 21
4.2101021493
  0
LWPOLYLINE
  5
2AF
100
AcDbEntity
  8
ALL_ASSEMBLY_MEMBERS
100
AcDbPolyline
 62
7
  6
CONTINUOUS
 90
3
 70
0
 10
4.6072864819
 20
4.2101743832
 10
4.609950164
 20
4.2099960776
 10
4.6124722397
 20
4.209714264
  0
LINE
  5
2B0
100
AcDbEntity
  8
ALL_ASSEMBLY_MEMBERS
100
AcDbLine
 62
7
  6
CONTINUOUS
 10
4.6086547001
 20
4.2101021493
 11
4.6089229521
 21
4.2100834536
  0
LINE
  5
2B1
100
AcDbEntity
  8
ALL_ASSEMBLY_MEMBERS
100
AcDbLine
 62
7
  6
CONTINUOUS
 10
4.9005567036
 20
4.2101035783
 11
4.9010465801
 21
4.210068761
  0
LINE
  5
2B2
100
AcDbEntity
  8
ALL_ASSEMBLY_MEMBERS
100
AcDbLine
 62
7
  6
CONTINUOUS
 10
4.6089229521
 20
4.2100834536
 11
4.6091906432
 21
4.2100635922
  0
LINE
  5
2B3
100
AcDbEntity
  8
ALL_ASSEMBLY_MEMBERS
100
AcDbLine
 62
7
  6
CONTINUOUS
 10
4.6091906432
 20
4.2100635922
 11
4.6094577592
 21
4.2100425725
  0
LINE
  5
2B4
100
AcDbEntity
  8
ALL_ASSEMBLY_MEMBERS
100
AcDbLine
 62
7
  6
CONTINUOUS
 10
4.9010465801
 20
4.210068761
 11
4.9015411128
 21
4.2100295217
  0
LINE
  5
2B5
100
AcDbEntity
  8
ALL_ASSEMBLY_MEMBERS
100
AcDbLine
 62
7
  6
CONTINUOUS
 10
4.6094577592
 20
4.2100425725
 11
4.6097242892
 21
4.2100204019
  0
LINE
  5
2B6
100
AcDbEntity
  8
ALL_ASSEMBLY_MEMBERS
100
AcDbLine
 62
7
  6
CONTINUOUS
 10
4.6097242892
 20
4.2100204019
 11
4.6099902192
 21
4.2099970884
  0
LINE
  5
2B7
100
AcDbEntity
  8
ALL_ASSEMBLY_MEMBERS
100
AcDbLine
 62
7
  6
CONTINUOUS
 10
4.9015411128
 20
4.2100295217
 11
4.9020395703
 21
4.2099858033
  0
LINE
  5
2B8
100
AcDbEntity
  8
ALL_ASSEMBLY_MEMBERS
100
AcDbLine
 62
7
  6
CONTINUOUS
 10
4.6099902192
 20
4.2099970884
 11
4.6102555353
 21
4.2099726398
  0
LINE
  5
2B9
100
AcDbEntity
  8
ALL_ASSEMBLY_MEMBERS
100
AcDbLine
 62
7
  6
CONTINUOUS
 10
4.6102555353
 20
4.2099726398
 11
4.6105202267
 21
4.2099470641
  0
LINE
  5
2BA
100
AcDbEntity
  8
ALL_ASSEMBLY_MEMBERS
100
AcDbLine
 62
7
  6
CONTINUOUS
 10
4.9020395703
 20
4.2099858033
 11
4.90254145
 21
4.209937548
  0
LINE
  5
2BB
100
AcDbEntity
  8
ALL_ASSEMBLY_MEMBERS
100
AcDbLine
 62
7
  6
CONTINUOUS
 10
4.6105202267
 20
4.2099470641
 11
4.6107842798
 21
4.2099203695
  0
LINE
  5
2BC
100
AcDbEntity
  8
ALL_ASSEMBLY_MEMBERS
100
AcDbLine
 62
7
  6
CONTINUOUS
 10
4.6107842798
 20
4.2099203695
 11
4.6110476808
 21
4.2098925644
  0
LINE
  5
2BD
100
AcDbEntity
  8
ALL_ASSEMBLY_MEMBERS
100
AcDbLine
 62
7
  6
CONTINUOUS
 10
4.90254145
 20
4.209937548
 11
4.9030460685
 21
4.2098847331
  0
LINE
  5
2BE
100
AcDbEntity
  8
ALL_ASSEMBLY_MEMBERS
100
AcDbLine
 62
7
  6
CONTINUOUS
 10
4.6110476808
 20
4.2098925644
 11
4.6113104194
 21
4.2098636572
  0
LINE
  5
2BF
100
AcDbEntity
  8
ALL_ASSEMBLY_MEMBERS
100
AcDbLine
 62
7
  6
CONTINUOUS
 10
4.9030460685
 20
4.2098847331
 11
4.9035524981
 21
4.2098273857
  0
LINE
  5
2C0
100
AcDbEntity
  8
ALL_ASSEMBLY_MEMBERS
100
AcDbLine
 62
7
  6
CONTINUOUS
 10
4.6113104194
 20
4.2098636572
 11
4.611572482
 21
4.2098336565
  0
LINE
  5
2C1
100
AcDbEntity
  8
ALL_ASSEMBLY_MEMBERS
100
AcDbLine
 62
7
  6
CONTINUOUS
 10
4.611572482
 20
4.2098336565
 11
4.6118338552
 21
4.2098025713
  0
LINE
  5
2C2
100
AcDbEntity
  8
ALL_ASSEMBLY_MEMBERS
100
AcDbLine
 62
7
  6
CONTINUOUS
 10
4.9035524981
 20
4.2098273857
 11
4.904059887
 21
4.2097655541
  0
LINE
  5
2C3
100
AcDbEntity
  8
ALL_ASSEMBLY_MEMBERS
100
AcDbLine
 62
7
  6
CONTINUOUS
 10
4.6118338552
 20
4.2098025713
 11
4.6120945288
 21
4.2097704102
  0
LWPOLYLINE
  5
2C4
100
AcDbEntity
  8
ALL_ASSEMBLY_MEMBERS
100
AcDbPolyline
 62
7
  6
CONTINUOUS
 90
3
 70
0
 10
4.6120945288
 20
4.2097704102
 10
4.6123544896
 20
4.2097371823
 10
4.6124549607
 20
4.2097240058
  0
LINE
  5
2C5
100
AcDbEntity
  8
ALL_ASSEMBLY_MEMBERS
100
AcDbLine
 62
7
  6
CONTINUOUS
 10
4.904059887
 20
4.2097655541
 11
4.9045666282
 21
4.2096994164
  0
LINE
  5
2C6
100
AcDbEntity
  8
ALL_ASSEMBLY_MEMBERS
100
AcDbLine
 62
7
  6
CONTINUOUS
 10
4.9045666282
 20
4.2096994164
 11
4.9050710324
 21
4.2096292172
  0
LINE
  5
2C7
100
AcDbEntity
  8
ALL_ASSEMBLY_MEMBERS
100
AcDbLine
 62
7
  6
CONTINUOUS
 10
4.6116405867
 20
4.2098249488
 11
4.612495457
 21
4.2097011742
  0
LINE
  5
2C8
100
AcDbEntity
  8
ALL_ASSEMBLY_MEMBERS
100
AcDbLine
 62
7
  6
CONTINUOUS
 10
4.9050710324
 20
4.2096292172
 11
4.905571985
 21
4.2095551714
  0
LINE
  5
2C9
100
AcDbEntity
  8
ALL_ASSEMBLY_MEMBERS
100
AcDbLine
 62
7
  6
CONTINUOUS
 10
4.905571985
 20
4.2095551714
 11
4.906067837
 21
4.2094776169
  0
LINE
  5
2CA
100
AcDbEntity
  8
ALL_ASSEMBLY_MEMBERS
100
AcDbLine
 62
7
  6
CONTINUOUS
 10
4.906067837
 20
4.2094776169
 11
4.9065569499
 21
4.2093969456
  0
LINE
  5
2CB
100
AcDbEntity
  8
ALL_ASSEMBLY_MEMBERS
100
AcDbLine
 62
7
  6
CONTINUOUS
 10
4.9065569499
 20
4.2093969456
 11
4.9070382359
 21
4.2093135052
  0
LINE
  5
2CC
100
AcDbEntity
  8
ALL_ASSEMBLY_MEMBERS
100
AcDbLine
 62
7
  6
CONTINUOUS
 10
4.9070382359
 20
4.2093135052
 11
4.9075099916
 21
4.2092277919
  0
LINE
  5
2CD
100
AcDbEntity
  8
ALL_ASSEMBLY_MEMBERS
100
AcDbLine
 62
7
  6
CONTINUOUS
 10
4.9075099916
 20
4.2092277919
 11
4.907970923
 21
4.2091402759
  0
LINE
  5
2CE
100
AcDbEntity
  8
ALL_ASSEMBLY_MEMBERS
100
AcDbLine
 62
7
  6
CONTINUOUS
 10
4.9078541116
 20
4.2091629601
 11
4.9081971614
 21
4.2090959523
  0
LINE
  5
2CF
100
AcDbEntity
  8
ALL_ASSEMBLY_MEMBERS
100
AcDbLine
 62
7
  6
CONTINUOUS
 10
4.9081395646
 20
4.2091074686
 11
4.9086415039
 21
4.2090062664
  0
LINE
  5
2D0
100
AcDbEntity
  8
ALL_ASSEMBLY_MEMBERS
100
AcDbLine
 62
7
  6
CONTINUOUS
 10
4.9084236296
 20
4.2090508196
 11
4.9088596132
 21
4.2089609631
  0
LINE
  5
2D1
100
AcDbEntity
  8
ALL_ASSEMBLY_MEMBERS
100
AcDbLine
 62
7
  6
CONTINUOUS
 10
4.90870633
 20
4.208993025
 11
4.9090752016
 21
4.2089153523
  0
LINE
  5
2D2
100
AcDbEntity
  8
ALL_ASSEMBLY_MEMBERS
100
AcDbLine
 62
7
  6
CONTINUOUS
 10
4.9089876357
 20
4.2089341076
 11
4.9092882717
 21
4.2088694606
  0
LINE
  5
2D3
100
AcDbEntity
  8
ALL_ASSEMBLY_MEMBERS
100
AcDbLine
 62
7
  6
CONTINUOUS
 10
4.9092673745
 20
4.2088741214
 11
4.9097070388
 21
4.2087769004
  0
LINE
  5
2D4
100
AcDbEntity
  8
ALL_ASSEMBLY_MEMBERS
100
AcDbLine
 62
7
  6
CONTINUOUS
 10
4.9095455444
 20
4.208813086
 11
4.9099129124
 21
4.2087302433
  0
LINE
  5
2D5
100
AcDbEntity
  8
ALL_ASSEMBLY_MEMBERS
100
AcDbLine
 62
7
  6
CONTINUOUS
 10
4.9098221427
 20
4.2087510211
 11
4.9101164493
 21
4.2086833661
  0
LINE
  5
2D6
100
AcDbEntity
  8
ALL_ASSEMBLY_MEMBERS
100
AcDbLine
 62
7
  6
CONTINUOUS
 10
4.9100969973
 20
4.2086879857
 11
4.9105170348
 21
4.2085889226
  0
LINE
  5
2D7
100
AcDbEntity
  8
ALL_ASSEMBLY_MEMBERS
100
AcDbLine
 62
7
  6
CONTINUOUS
 10
4.9103701074
 20
4.2086240014
 11
4.9107140883
 21
4.2085413985
  0
LINE
  5
2D8
100
AcDbEntity
  8
ALL_ASSEMBLY_MEMBERS
100
AcDbLine
 62
7
  6
CONTINUOUS
 10
4.9106414712
 20
4.20855909
 11
4.9111022568
 21
4.2084457177
  0
LINE
  5
2D9
100
AcDbEntity
  8
ALL_ASSEMBLY_MEMBERS
100
AcDbLine
 62
7
  6
CONTINUOUS
 10
4.9109109171
 20
4.2084933152
 11
4.9112933764
 21
4.2083975985
  0
LINE
  5
2DA
100
AcDbEntity
  8
ALL_ASSEMBLY_MEMBERS
100
AcDbLine
 62
7
  6
CONTINUOUS
 10
4.911178444
 20
4.2084267009
 11
4.9114826784
 21
4.2083492779
  0
LINE
  5
2DB
100
AcDbEntity
  8
ALL_ASSEMBLY_MEMBERS
100
AcDbLine
 62
7
  6
CONTINUOUS
 10
4.9114440526
 20
4.2083592705
 11
4.9118558396
 21
4.2082520993
  0
LINE
  5
2DC
100
AcDbEntity
  8
ALL_ASSEMBLY_MEMBERS
100
AcDbLine
 62
7
  6
CONTINUOUS
 10
4.9117075759
 20
4.2082910913
 11
4.9120398566
 21
4.2082032332
  0
LINE
  5
2DD
100
AcDbEntity
  8
ALL_ASSEMBLY_MEMBERS
100
AcDbLine
 62
7
  6
CONTINUOUS
 10
4.9119690093
 20
4.2082221901
 11
4.9124029273
 21
4.2081049817
  0
LINE
  5
2DE
100
AcDbEntity
  8
ALL_ASSEMBLY_MEMBERS
100
AcDbLine
 62
7
  6
CONTINUOUS
 10
4.9122283593
 20
4.208152591
 11
4.9125821394
 21
4.2080555827
  0
LINE
  5
2DF
100
AcDbEntity
  8
ALL_ASSEMBLY_MEMBERS
100
AcDbLine
 62
7
  6
CONTINUOUS
 10
4.9124854767
 20
4.2080823606
 11
4.9129360834
 21
4.2079562605
  0
LINE
  5
2E0
100
AcDbEntity
  8
ALL_ASSEMBLY_MEMBERS
100
AcDbLine
 62
7
  6
CONTINUOUS
 10
4.9127403514
 20
4.2080115291
 11
4.9132433038
 21
4.207868193
  0
LINE
  5
2E1
100
AcDbEntity
  8
ALL_ASSEMBLY_MEMBERS
100
AcDbLine
 62
7
  6
CONTINUOUS
 10
4.9131109662
 20
4.2079063206
 11
4.9134913323
 21
4.2077957581
  0
LINE
  5
2E2
100
AcDbEntity
  8
ALL_ASSEMBLY_MEMBERS
100
AcDbLine
 62
7
  6
CONTINUOUS
 10
4.9134565829
 20
4.2078059356
 11
4.9137980502
 21
4.2077045422
  0
LINE
  5
2E3
100
AcDbEntity
  8
ALL_ASSEMBLY_MEMBERS
100
AcDbLine
 62
7
  6
CONTINUOUS
 10
4.9137370264
 20
4.2077228598
 11
4.9142236459
 21
4.2075750973
  0
LINE
  5
2E4
100
AcDbEntity
  8
ALL_ASSEMBLY_MEMBERS
100
AcDbLine
 62
7
  6
CONTINUOUS
 10
4.9141355015
 20
4.207602168
 11
4.9144645723
 21
4.2075002681
  0
LINE
  5
2E5
100
AcDbEntity
  8
ALL_ASSEMBLY_MEMBERS
100
AcDbLine
 62
7
  6
CONTINUOUS
 10
4.9144687978
 20
4.2074989223
 11
4.9147935493
 21
4.2073962743
  0
LINE
  5
2E6
100
AcDbEntity
  8
ALL_ASSEMBLY_MEMBERS
100
AcDbLine
 62
7
  6
CONTINUOUS
 10
4.9146933357
 20
4.2074281866
 11
4.9151219188
 21
4.2072904295
  0
LINE
  5
2E7
100
AcDbEntity
  8
ALL_ASSEMBLY_MEMBERS
100
AcDbLine
 62
7
  6
CONTINUOUS
 10
4.9151075892
 20
4.2072950782
 11
4.9154285521
 21
4.2071896863
  0
LINE
  5
2E8
100
AcDbEntity
  8
ALL_ASSEMBLY_MEMBERS
100
AcDbLine
 62
7
  6
CONTINUOUS
 10
4.9154078942
 20
4.2071965198
 11
4.9155523007
 21
4.2071485012
  0
LINE
  5
2E9
100
AcDbEntity
  8
ALL_ASSEMBLY_MEMBERS
100
AcDbLine
 62
7
  6
CONTINUOUS
 10
4.9155469249
 20
4.2071502937
 11
4.9162041018
 21
4.2069266666
  0
LINE
  5
2EA
100
AcDbEntity
  8
ALL_ASSEMBLY_MEMBERS
100
AcDbLine
 62
7
  6
CONTINUOUS
 10
4.9158602897
 20
4.2070447324
 11
4.9159079351
 21
4.2070285117
  0
LINE
  5
2EB
100
AcDbEntity
  8
ALL_ASSEMBLY_MEMBERS
100
AcDbLine
 62
7
  6
CONTINUOUS
 10
4.9159617699
 20
4.2070101253
 11
4.9163185263
 21
4.2068868632
  0
LINE
  5
2EC
100
AcDbEntity
  8
ALL_ASSEMBLY_MEMBERS
100
AcDbLine
 62
7
  6
CONTINUOUS
 10
4.9162041018
 20
4.2069266666
 11
4.9164616304
 21
4.2068367032
  0
LINE
  5
2ED
100
AcDbEntity
  8
ALL_ASSEMBLY_MEMBERS
100
AcDbLine
 62
7
  6
CONTINUOUS
 10
4.9164117984
 20
4.2068542156
 11
4.9168226242
 21
4.2067083993
  0
LINE
  5
2EE
100
AcDbEntity
  8
ALL_ASSEMBLY_MEMBERS
100
AcDbLine
 62
7
  6
CONTINUOUS
 10
4.9168226242
 20
4.2067083993
 11
4.9171398393
 21
4.2065934893
  0
LWPOLYLINE
  5
2EF
100
AcDbEntity
  8
ALL_ASSEMBLY_MEMBERS
100
AcDbPolyline
 62
7
  6
CONTINUOUS
 90
4
 70
0
 10
4.9171398393
 20
4.2065934893
 10
4.9175560155
 20
4.2064396586
 10
4.9178037409
 20
4.2063464262
 10
4.9180618453
 20
4.2062479569
  0
LWPOLYLINE
  5
2F0
100
AcDbEntity
  8
ALL_ASSEMBLY_MEMBERS
100
AcDbPolyline
 62
7
  6
CONTINUOUS
 90
10
 70
0
 10
4.9180618453
 20
4.2062479569
 10
4.9183272191
 20
4.2061452909
 10
4.9186028521
 20
4.2060371197
 10
4.9188841077
 20
4.2059251188
 10
4.919170281
 20
4.205809467
 10
4.9194619889
 20
4.20568981
 10
4.9197566195
 20
4.2055671304
 10
4.9200540515
 20
4.2054414127
 10
4.9203543415
 20
4.2053125662
 10
4.9206551756
 20
4.2051815376
  0
LWPOLYLINE
  5
2F1
100
AcDbEntity
  8
ALL_ASSEMBLY_MEMBERS
100
AcDbPolyline
 62
7
  6
CONTINUOUS
 90
40
 70
0
 10
4.9206551756
 20
4.2051815376
 10
4.9209557176
 20
4.2050486746
 10
4.9212567715
 20
4.2049136054
 10
4.9215584978
 20
4.2047762313
 10
4.9218609347
 20
4.2046365061
 10
4.9221640034
 20
4.2044944368
 10
4.9224676876
 20
4.2043500023
 10
4.9227719693
 20
4.2042031817
 10
4.9230768243
 20
4.2040539575
 10
4.9233822261
 20
4.203902313
 10
4.923688153
 20
4.2037482294
 10
4.9239945829
 20
4.2035916878
 10
4.9243014889
 20
4.2034326718
 10
4.9246088487
 20
4.2032711629
 10
4.9249166391
 20
4.2031071425
 10
4.9252248318
 20
4.2029405951
 10
4.9255334036
 20
4.2027715025
 10
4.9258423306
 20
4.2025998466
 10
4.9261515831
 20
4.2024256126
 10
4.926461137
 20
4.2022487828
 10
4.9267709675
 20
4.2020693396
 10
4.9270810439
 20
4.201887269
 10
4.9273913412
 20
4.2017025536
 10
4.9277018337
 20
4.2015151763
 10
4.9280124899
 20
4.201325124
 10
4.9283232836
 20
4.2011323797
 10
4.9286341887
 20
4.2009369269
 10
4.9289451724
 20
4.2007387531
 10
4.9292562079
 20
4.2005378421
 10
4.9295672682
 20
4.2003341778
 10
4.9298783197
 20
4.2001277485
 10
4.9301893348
 20
4.1999185385
 10
4.9305002855
 20
4.1997065325
 10
4.9308111376
 20
4.1994917195
 10
4.9311218625
 20
4.1992740844
 10
4.9314324315
 20
4.1990536127
 10
4.9317428094
 20
4.198830294
 10
4.9320529662
 20
4.1986041146
 10
4.9323628729
 20
4.1983750602
 10
4.9326724959
 20
4.1981431197
  0
LINE
  5
2F2
100
AcDbEntity
  8
ALL_ASSEMBLY_MEMBERS
100
AcDbLine
 62
7
  6
CONTINUOUS
 10
4.5008304121
 20
4.6280407448
 11
4.5023442554
 21
4.6252940977
  0
LINE
  5
2F3
100
AcDbEntity
  8
ALL_ASSEMBLY_MEMBERS
100
AcDbLine
 62
7
  6
CONTINUOUS
 10
4.5016040338
 20
4.626665891
 11
4.502979006
 21
4.6240223181
  0
LINE
  5
2F4
100
AcDbEntity
  8
ALL_ASSEMBLY_MEMBERS
100
AcDbLine
 62
7
  6
CONTINUOUS
 10
4.5019306002
 20
4.6260874955
 11
4.5030064187
 21
4.6239829406
  0
LINE
  5
2F5
100
AcDbEntity
  8
ALL_ASSEMBLY_MEMBERS
100
AcDbLine
 62
7
  6
CONTINUOUS
 10
4.5023442554
 20
4.6252940977
 11
4.5036928111
 21
4.622515439
  0
LINE
  5
2F6
100
AcDbEntity
  8
ALL_ASSEMBLY_MEMBERS
100
AcDbLine
 62
7
  6
CONTINUOUS
 10
4.5028492716
 20
4.624302499
 11
4.5041181639
 21
4.6215621367
  0
LWPOLYLINE
  5
2F7
100
AcDbEntity
  8
ALL_ASSEMBLY_MEMBERS
100
AcDbPolyline
 62
7
  6
CONTINUOUS
 90
3
 70
0
 10
4.5030064187
 20
4.6239829406
 10
4.5039833241
 20
4.6218722301
 10
4.5040673761
 20
4.6216718206
  0
LINE
  5
2F8
100
AcDbEntity
  8
ALL_ASSEMBLY_MEMBERS
100
AcDbLine
 62
7
  6
CONTINUOUS
 10
4.5032861661
 20
4.6233533189
 11
4.5042361225
 21
4.6212789518
  0
LINE
  5
2F9
100
AcDbEntity
  8
ALL_ASSEMBLY_MEMBERS
100
AcDbLine
 62
7
  6
CONTINUOUS
 10
4.5036928111
 20
4.622515439
 11
4.5048941449
 21
4.6196771524
  0
LWPOLYLINE
  5
2FA
100
AcDbEntity
  8
ALL_ASSEMBLY_MEMBERS
100
AcDbPolyline
 62
7
  6
CONTINUOUS
 90
5
 70
0
 10
4.50418888
 20
4.6213821126
 10
4.5047709285
 20
4.6199943042
 10
4.5052774593
 20
4.6186822333
 10
4.505657734
 20
4.6176319894
 10
4.5061643941
 20
4.6161271852
  0
LINE
  5
2FB
100
AcDbEntity
  8
ALL_ASSEMBLY_MEMBERS
100
AcDbLine
 62
7
  6
CONTINUOUS
 10
4.5048941449
 20
4.6196771524
 11
4.5059655924
 21
4.6167286194
  0
LWPOLYLINE
  5
2FC
100
AcDbEntity
  8
ALL_ASSEMBLY_MEMBERS
100
AcDbPolyline
 62
7
  6
CONTINUOUS
 90
4
 70
0
 10
4.5059655924
 20
4.6167286194
 10
4.5068796433
 20
4.6137344611
 10
4.5076034487
 20
4.6108437115
 10
4.5081381698
 20
4.6081752611
  0
LWPOLYLINE
  5
2FD
100
AcDbEntity
  8
ALL_ASSEMBLY_MEMBERS
100
AcDbPolyline
 62
7
  6
CONTINUOUS
 90
6
 70
0
 10
4.5081381698
 20
4.6081752611
 10
4.5085307298
 20
4.6056374752
 10
4.5088163429
 20
4.603062859
 10
4.5089938596
 20
4.6004082584
 10
4.5090535277
 20
4.5977353282
 10
4.5089934703
 20
4.5950493056
  0
LINE
  5
2FE
100
AcDbEntity
  8
ALL_ASSEMBLY_MEMBERS
100
AcDbLine
 62
7
  6
CONTINUOUS
 10
4.5085395851
 20
4.3136382156
 11
4.5085694792
 21
4.3134082871
  0
LINE
  5
2FF
100
AcDbEntity
  8
ALL_ASSEMBLY_MEMBERS
100
AcDbLine
 62
7
  6
CONTINUOUS
 10
4.5085694792
 20
4.3134082871
 11
4.5086139198
 21
4.3130521052
  0
LINE
  5
300
100
AcDbEntity
  8
ALL_ASSEMBLY_MEMBERS
100
AcDbLine
 62
7
  6
CONTINUOUS
 10
4.5086139198
 20
4.3130521052
 11
4.508656525
 21
4.3126931033
  0
LINE
  5
301
100
AcDbEntity
  8
ALL_ASSEMBLY_MEMBERS
100
AcDbLine
 62
7
  6
CONTINUOUS
 10
4.508656525
 20
4.3126931033
 11
4.5086972566
 21
4.3123312037
  0
LINE
  5
302
100
AcDbEntity
  8
ALL_ASSEMBLY_MEMBERS
100
AcDbLine
 62
7
  6
CONTINUOUS
 10
4.6855822981
 20
4.9323020569
 11
4.6855822981
 21
5.0475495724
  0
LINE
  5
303
100
AcDbEntity
  8
ALL_ASSEMBLY_MEMBERS
100
AcDbLine
 62
7
  6
CONTINUOUS
 10
4.4969586508
 20
4.2696754931
 11
4.4966787551
 21
4.269304263
  0
LINE
  5
304
100
AcDbEntity
  8
ALL_ASSEMBLY_MEMBERS
100
AcDbLine
 62
7
  6
CONTINUOUS
 10
4.4967238192
 20
4.2693662035
 11
4.4964451931
 21
4.2690015186
  0
LINE
  5
305
100
AcDbEntity
  8
ALL_ASSEMBLY_MEMBERS
100
AcDbLine
 62
7
  6
CONTINUOUS
 10
4.4964860751
 20
4.2690572584
 11
4.4962339494
 21
4.2687311101
  0
LINE
  5
306
100
AcDbEntity
  8
ALL_ASSEMBLY_MEMBERS
100
AcDbLine
 62
7
  6
CONTINUOUS
 10
4.4962454081
 20
4.2687486922
 11
4.4959252026
 21
4.2683415582
  0
LINE
  5
307
100
AcDbEntity
  8
ALL_ASSEMBLY_MEMBERS
100
AcDbLine
 62
7
  6
CONTINUOUS
 10
4.4960018053
 20
4.2684405355
 11
4.4957552543
 21
4.2681328202
  0
LINE
  5
308
100
AcDbEntity
  8
ALL_ASSEMBLY_MEMBERS
100
AcDbLine
 62
7
  6
CONTINUOUS
 10
4.4957603208
 20
4.2681362166
 11
4.4955057466
 21
4.2678255824
  0
LINE
  5
309
100
AcDbEntity
  8
ALL_ASSEMBLY_MEMBERS
100
AcDbLine
 62
7
  6
CONTINUOUS
 10
4.4955887975
 20
4.267924551
 11
4.4952532704
 21
4.267518854
  0
LINE
  5
30A
100
AcDbEntity
  8
ALL_ASSEMBLY_MEMBERS
100
AcDbLine
 62
7
  6
CONTINUOUS
 10
4.4954110224
 20
4.2677072307
 11
4.4952274397
 21
4.2674849746
  0
LINE
  5
30B
100
AcDbEntity
  8
ALL_ASSEMBLY_MEMBERS
100
AcDbLine
 62
7
  6
CONTINUOUS
 10
4.4952532704
 20
4.267518854
 11
4.4949418906
 21
4.2671435524
  0
LINE
  5
30C
100
AcDbEntity
  8
ALL_ASSEMBLY_MEMBERS
100
AcDbLine
 62
7
  6
CONTINUOUS
 10
4.4949978139
 20
4.2672126673
 11
4.4947393695
 21
4.2669070593
  0
LINE
  5
30D
100
AcDbEntity
  8
ALL_ASSEMBLY_MEMBERS
100
AcDbLine
 62
7
  6
CONTINUOUS
 10
4.4947453789
 20
4.2669115539
 11
4.4944779262
 21
4.2666020627
  0
LINE
  5
30E
100
AcDbEntity
  8
ALL_ASSEMBLY_MEMBERS
100
AcDbLine
 62
7
  6
CONTINUOUS
 10
4.4945444636
 20
4.2666768039
 11
4.494213473
 21
4.2662977104
  0
LINE
  5
30F
100
AcDbEntity
  8
ALL_ASSEMBLY_MEMBERS
100
AcDbLine
 62
7
  6
CONTINUOUS
 10
4.4943396633
 20
4.2664400156
 11
4.494131265
 21
4.2662016125
  0
LINE
  5
310
100
AcDbEntity
  8
ALL_ASSEMBLY_MEMBERS
100
AcDbLine
 62
7
  6
CONTINUOUS
 10
4.494213473
 20
4.2662977104
 11
4.4939196742
 21
4.2659621366
  0
LINE
  5
311
100
AcDbEntity
  8
ALL_ASSEMBLY_MEMBERS
100
AcDbLine
 62
7
  6
CONTINUOUS
 10
4.4939460034
 20
4.2659940402
 11
4.4935968148
 21
4.2656016318
  0
LINE
  5
312
100
AcDbEntity
  8
ALL_ASSEMBLY_MEMBERS
100
AcDbLine
 62
7
  6
CONTINUOUS
 10
4.4936755072
 20
4.2656910857
 11
4.4933785114
 21
4.2653611615
  0
LINE
  5
313
100
AcDbEntity
  8
ALL_ASSEMBLY_MEMBERS
100
AcDbLine
 62
7
  6
CONTINUOUS
 10
4.4934019744
 20
4.2653888805
 11
4.493047458
 21
4.2650014339
  0
LINE
  5
314
100
AcDbEntity
  8
ALL_ASSEMBLY_MEMBERS
100
AcDbLine
 62
7
  6
CONTINUOUS
 10
4.4931253996
 20
4.2650874633
 11
4.4928251297
 21
4.264763123
  0
LINE
  5
315
100
AcDbEntity
  8
ALL_ASSEMBLY_MEMBERS
100
AcDbLine
 62
7
  6
CONTINUOUS
 10
4.4928457733
 20
4.2647868683
 11
4.4924910581
 21
4.2644098689
  0
LINE
  5
316
100
AcDbEntity
  8
ALL_ASSEMBLY_MEMBERS
100
AcDbLine
 62
7
  6
CONTINUOUS
 10
4.4925630867
 20
4.26448713
 11
4.492269232
 21
4.2641784488
  0
LINE
  5
317
100
AcDbEntity
  8
ALL_ASSEMBLY_MEMBERS
100
AcDbLine
 62
7
  6
CONTINUOUS
 10
4.4922773353
 20
4.2641882876
 11
4.4919390899
 21
4.2638385717
  0
LINE
  5
318
100
AcDbEntity
  8
ALL_ASSEMBLY_MEMBERS
100
AcDbLine
 62
7
  6
CONTINUOUS
 10
4.4919885108
 20
4.2638903762
 11
4.4916966052
 21
4.2635934311
  0
LWPOLYLINE
  5
319
100
AcDbEntity
  8
ALL_ASSEMBLY_MEMBERS
100
AcDbPolyline
 62
7
  6
CONTINUOUS
 90
7
 70
0
 10
3.1608345067
 20
2.8620305469
 10
3.1522057979
 20
2.8533837115
 10
3.1474401345
 20
2.8486358914
 10
3.1423927075
 20
2.8435767137
 10
3.1370710013
 20
2.8382124689
 10
3.1314675315
 20
2.8325956247
 10
3.1255822981
 20
2.8267663043
  0
LWPOLYLINE
  5
31A
100
AcDbEntity
  8
ALL_ASSEMBLY_MEMBERS
100
AcDbPolyline
 62
7
  6
CONTINUOUS
 90
7
 70
0
 10
6.3403300896
 20
6.0415020618
 10
6.3489587983
 20
6.0501488972
 10
6.3537244617
 20
6.0548967173
 10
6.3587718888
 20
6.059955895
 10
6.3640935949
 20
6.0653201398
 10
6.3696970647
 20
6.0709369839
 10
6.3755822981
 20
6.0767663043
  0
LINE
  5
31B
100
AcDbEntity
  8
ALL_ASSEMBLY_MEMBERS
100
AcDbLine
 62
7
  6
CONTINUOUS
 10
4.2909628905
 20
4.0628575748
 11
4.4922381504
 21
4.2641329269
  0
LINE
  5
31C
100
AcDbEntity
  8
ALL_ASSEMBLY_MEMBERS
100
AcDbLine
 62
7
  6
CONTINUOUS
 10
4.9385063406
 20
4.7104010249
 11
5.1394910276
 21
4.911385712
  0
LINE
  5
31D
100
AcDbEntity
  8
ALL_ASSEMBLY_MEMBERS
100
AcDbLine
 62
7
  6
CONTINUOUS
 10
4.5395176777
 20
4.2407034576
 11
4.2909628904
 21
3.9921468966
  0
LINE
  5
31E
100
AcDbEntity
  8
ALL_ASSEMBLY_MEMBERS
100
AcDbLine
 62
7
  6
CONTINUOUS
 10
3.1830822981
 20
2.8842663043
 11
3.1255822981
 21
2.8267663043
  0
LINE
  5
31F
100
AcDbEntity
  8
ALL_ASSEMBLY_MEMBERS
100
AcDbLine
 62
7
  6
CONTINUOUS
 10
6.3180822981
 20
6.0192663043
 11
6.3755822981
 21
6.0767663043
  0
LINE
  5
320
100
AcDbEntity
  8
ALL_ASSEMBLY_MEMBERS
100
AcDbLine
 62
7
  6
CONTINUOUS
 10
4.9616469186
 20
4.6628291511
 11
5.2102017059
 21
4.9113857121
  0
LINE
  5
321
100
AcDbEntity
  8
ALL_ASSEMBLY_MEMBERS
100
AcDbLine
 62
7
  6
CONTINUOUS
 10
6.3364670442
 20
6.0376505107
 11
6.3403300896
 21
6.0415020618
  0
LINE
  5
322
100
AcDbEntity
  8
ALL_ASSEMBLY_MEMBERS
100
AcDbLine
 62
7
  6
CONTINUOUS
 10
3.1646975521
 20
2.865882098
 11
3.1608345067
 21
2.8620305469
  0
LINE
  5
323
100
AcDbEntity
  8
ALL_ASSEMBLY_MEMBERS
100
AcDbLine
 62
7
  6
CONTINUOUS
 10
4.9388135501
 20
4.7107721176
 11
4.9374524869
 21
4.7094537879
  0
LINE
  5
324
100
AcDbEntity
  8
ALL_ASSEMBLY_MEMBERS
100
AcDbLine
 62
7
  6
CONTINUOUS
 10
4.9389547472
 20
4.7108618504
 11
4.9373331813
 21
4.7093000316
  0
LINE
  5
325
100
AcDbEntity
  8
ALL_ASSEMBLY_MEMBERS
100
AcDbLine
 62
7
  6
CONTINUOUS
 10
4.9379220987
 20
4.7098433657
 11
4.9375087512
 21
4.7094691326
  0
LWPOLYLINE
  5
326
100
AcDbEntity
  8
ALL_ASSEMBLY_MEMBERS
100
AcDbPolyline
 62
7
  6
CONTINUOUS
 90
3
 70
0
 10
4.9374524869
 20
4.7094537879
 10
4.9352518365
 20
4.7074894785
 10
4.9329487504
 20
4.7056305309
  0
LINE
  5
327
100
AcDbEntity
  8
ALL_ASSEMBLY_MEMBERS
100
AcDbLine
 62
7
  6
CONTINUOUS
 10
4.9373331813
 20
4.7093000316
 11
4.9348225295
 21
4.7070979006
  0
LWPOLYLINE
  5
328
100
AcDbEntity
  8
ALL_ASSEMBLY_MEMBERS
100
AcDbPolyline
 62
7
  6
CONTINUOUS
 90
6
 70
0
 10
4.935681885
 20
4.7078151398
 10
4.9333426502
 20
4.7059024872
 10
4.930910362
 20
4.7041102227
 10
4.9283912278
 20
4.7024428569
 10
4.925791666
 20
4.7009045754
 10
4.9231182893
 20
4.6994992304
  0
LWPOLYLINE
  5
329
100
AcDbEntity
  8
ALL_ASSEMBLY_MEMBERS
100
AcDbPolyline
 62
7
  6
CONTINUOUS
 90
6
 70
0
 10
4.9348108148
 20
4.7070789172
 10
4.9328811535
 20
4.7055469076
 10
4.9309198502
 20
4.7041161126
 10
4.9289324369
 20
4.7027851635
 10
4.9269247277
 20
4.7015527772
 10
4.9249034782
 20
4.7004179963
  0
LINE
  5
32A
100
AcDbEntity
  8
ALL_ASSEMBLY_MEMBERS
100
AcDbLine
 62
7
  6
CONTINUOUS
 10
4.9348225295
 20
4.7070979006
 11
4.9322311225
 21
4.7050669363
  0
LINE
  5
32B
100
AcDbEntity
  8
ALL_ASSEMBLY_MEMBERS
100
AcDbLine
 62
7
  6
CONTINUOUS
 10
4.9329487504
 20
4.7056305309
 11
4.9305487858
 21
4.703883007
  0
LINE
  5
32C
100
AcDbEntity
  8
ALL_ASSEMBLY_MEMBERS
100
AcDbLine
 62
7
  6
CONTINUOUS
 10
4.9322311225
 20
4.7050669363
 11
4.9295716481
 21
4.7032072212
  0
LINE
  5
32D
100
AcDbEntity
  8
ALL_ASSEMBLY_MEMBERS
100
AcDbLine
 62
7
  6
CONTINUOUS
 10
4.9305487858
 20
4.703883007
 11
4.9280579615
 21
4.7022526924
  0
LINE
  5
32E
100
AcDbEntity
  8
ALL_ASSEMBLY_MEMBERS
100
AcDbLine
 62
7
  6
CONTINUOUS
 10
4.9295716481
 20
4.7032072212
 11
4.9268565787
 21
4.7015180967
  0
LINE
  5
32F
100
AcDbEntity
  8
ALL_ASSEMBLY_MEMBERS
100
AcDbLine
 62
7
  6
CONTINUOUS
 10
4.9280579615
 20
4.7022526924
 11
4.9254817144
 21
4.7007444746
  0
LINE
  5
330
100
AcDbEntity
  8
ALL_ASSEMBLY_MEMBERS
100
AcDbLine
 62
7
  6
CONTINUOUS
 10
4.9326724959
 20
4.1981431197
 11
4.9330440636
 21
4.1978629728
  0
LINE
  5
331
100
AcDbEntity
  8
ALL_ASSEMBLY_MEMBERS
100
AcDbLine
 62
7
  6
CONTINUOUS
 10
4.9329818048
 20
4.1979082796
 11
4.9333465473
 21
4.197629616
  0
LINE
  5
332
100
AcDbEntity
  8
ALL_ASSEMBLY_MEMBERS
100
AcDbLine
 62
7
  6
CONTINUOUS
 10
4.9332907691
 20
4.1976705267
 11
4.9336167796
 21
4.1974185157
  0
LINE
  5
333
100
AcDbEntity
  8
ALL_ASSEMBLY_MEMBERS
100
AcDbLine
 62
7
  6
CONTINUOUS
 10
4.9335993546
 20
4.1974298506
 11
4.9340060941
 21
4.1971099683
  0
LINE
  5
334
100
AcDbEntity
  8
ALL_ASSEMBLY_MEMBERS
100
AcDbLine
 62
7
  6
CONTINUOUS
 10
4.9339075306
 20
4.1971862383
 11
4.9342152653
 21
4.1969396775
  0
LINE
  5
335
100
AcDbEntity
  8
ALL_ASSEMBLY_MEMBERS
100
AcDbLine
 62
7
  6
CONTINUOUS
 10
4.9342113065
 20
4.1969451977
 11
4.9345225224
 21
4.1966901598
  0
LINE
  5
336
100
AcDbEntity
  8
ALL_ASSEMBLY_MEMBERS
100
AcDbLine
 62
7
  6
CONTINUOUS
 10
4.9344228342
 20
4.1967737948
 11
4.93482927
 21
4.1964376731
  0
LINE
  5
337
100
AcDbEntity
  8
ALL_ASSEMBLY_MEMBERS
100
AcDbLine
 62
7
  6
CONTINUOUS
 10
4.9346400058
 20
4.1965961513
 11
4.9348621094
 21
4.1964127062
  0
LINE
  5
338
100
AcDbEntity
  8
ALL_ASSEMBLY_MEMBERS
100
AcDbLine
 62
7
  6
CONTINUOUS
 10
4.93482927
 20
4.1964376731
 11
4.935203306
 21
4.1961273665
  0
LINE
  5
339
100
AcDbEntity
  8
ALL_ASSEMBLY_MEMBERS
100
AcDbLine
 62
7
  6
CONTINUOUS
 10
4.935135476
 20
4.1961822058
 11
4.9354411033
 21
4.1959237502
  0
LINE
  5
33A
100
AcDbEntity
  8
ALL_ASSEMBLY_MEMBERS
100
AcDbLine
 62
7
  6
CONTINUOUS
 10
4.9354351645
 20
4.1959309891
 11
4.9357461192
 21
4.1956622954
  0
LINE
  5
33B
100
AcDbEntity
  8
ALL_ASSEMBLY_MEMBERS
100
AcDbLine
 62
7
  6
CONTINUOUS
 10
4.9356697896
 20
4.1957301981
 11
4.9360504907
 21
4.1953978304
  0
LINE
  5
33C
100
AcDbEntity
  8
ALL_ASSEMBLY_MEMBERS
100
AcDbLine
 62
7
  6
CONTINUOUS
 10
4.9359064747
 20
4.1955255059
 11
4.9361447992
 21
4.1953171964
  0
LINE
  5
33D
100
AcDbEntity
  8
ALL_ASSEMBLY_MEMBERS
100
AcDbLine
 62
7
  6
CONTINUOUS
 10
4.9360504907
 20
4.1953978304
 11
4.9363842239
 21
4.195105672
  0
LINE
  5
33E
100
AcDbEntity
  8
ALL_ASSEMBLY_MEMBERS
100
AcDbLine
 62
7
  6
CONTINUOUS
 10
4.93635418
 20
4.1951303486
 11
4.9367447022
 21
4.1947828691
  0
LINE
  5
33F
100
AcDbEntity
  8
ALL_ASSEMBLY_MEMBERS
100
AcDbLine
 62
7
  6
CONTINUOUS
 10
4.9366571536
 20
4.1948598399
 11
4.9369851853
 21
4.1945645764
  0
LINE
  5
340
100
AcDbEntity
  8
ALL_ASSEMBLY_MEMBERS
100
AcDbLine
 62
7
  6
CONTINUOUS
 10
4.9369593778
 20
4.1945862942
 11
4.9373449709
 21
4.1942335032
  0
LINE
  5
341
100
AcDbEntity
  8
ALL_ASSEMBLY_MEMBERS
100
AcDbLine
 62
7
  6
CONTINUOUS
 10
4.9372608141
 20
4.1943097061
 11
4.9375833428
 21
4.1940111401
  0
LINE
  5
342
100
AcDbEntity
  8
ALL_ASSEMBLY_MEMBERS
100
AcDbLine
 62
7
  6
CONTINUOUS
 10
4.9375614281
 20
4.1940300663
 11
4.9379367222
 21
4.1936769819
  0
LINE
  5
343
100
AcDbEntity
  8
ALL_ASSEMBLY_MEMBERS
100
AcDbLine
 62
7
  6
CONTINUOUS
 10
4.9378611852
 20
4.1937473658
 11
4.9381682377
 21
4.1934550846
  0
LINE
  5
344
100
AcDbEntity
  8
ALL_ASSEMBLY_MEMBERS
100
AcDbLine
 62
7
  6
CONTINUOUS
 10
4.9381600464
 20
4.1934616
 11
4.938508268
 21
4.1931248219
  0
LINE
  5
345
100
AcDbEntity
  8
ALL_ASSEMBLY_MEMBERS
100
AcDbLine
 62
7
  6
CONTINUOUS
 10
4.9384579766
 20
4.1931727608
 11
4.9387549403
 21
4.1928808402
  0
LWPOLYLINE
  5
346
100
AcDbEntity
  8
ALL_ASSEMBLY_MEMBERS
100
AcDbPolyline
 62
7
  6
CONTINUOUS
 90
6
 70
0
 10
3.1522057979
 20
6.0501488972
 10
3.1474401345
 20
6.0548967173
 10
3.1423927075
 20
6.059955895
 10
3.1370710013
 20
6.0653201398
 10
3.1314675315
 20
6.0709369839
 10
3.1255822981
 20
6.0767663043
  0
LWPOLYLINE
  5
347
100
AcDbEntity
  8
ALL_ASSEMBLY_MEMBERS
100
AcDbPolyline
 62
7
  6
CONTINUOUS
 90
7
 70
0
 10
6.3403180555
 20
2.8620185129
 10
6.3489648909
 20
2.8533898042
 10
6.3537127111
 20
2.8486241407
 10
6.3587718888
 20
2.8435767137
 10
6.3641361336
 20
2.8382550075
 10
6.3697529777
 20
2.8326515378
 10
6.3755822981
 20
2.8267663043
  0
LINE
  5
348
100
AcDbEntity
  8
ALL_ASSEMBLY_MEMBERS
100
AcDbLine
 62
7
  6
CONTINUOUS
 10
5.1394910276
 20
3.9921468967
 11
4.9382156785
 21
4.1934221536
  0
LINE
  5
349
100
AcDbEntity
  8
ALL_ASSEMBLY_MEMBERS
100
AcDbLine
 62
7
  6
CONTINUOUS
 10
4.4919475776
 20
4.6396903468
 11
4.2909628905
 21
4.8406750339
  0
LINE
  5
34A
100
AcDbEntity
  8
ALL_ASSEMBLY_MEMBERS
100
AcDbLine
 62
7
  6
CONTINUOUS
 10
4.9616451449
 20
4.2407016839
 11
5.2102017059
 21
3.9921468966
  0
LINE
  5
34B
100
AcDbEntity
  8
ALL_ASSEMBLY_MEMBERS
100
AcDbLine
 62
7
  6
CONTINUOUS
 10
6.3180822981
 20
2.8842663043
 11
6.3755822981
 21
2.8267663043
  0
LINE
  5
34C
100
AcDbEntity
  8
ALL_ASSEMBLY_MEMBERS
100
AcDbLine
 62
7
  6
CONTINUOUS
 10
3.1830822981
 20
6.0192663043
 11
3.1255822981
 21
6.0767663043
  0
LINE
  5
34D
100
AcDbEntity
  8
ALL_ASSEMBLY_MEMBERS
100
AcDbLine
 62
7
  6
CONTINUOUS
 10
4.5395194514
 20
4.6628309248
 11
4.2909628904
 21
4.9113857121
  0
LWPOLYLINE
  5
34E
100
AcDbEntity
  8
ALL_ASSEMBLY_MEMBERS
100
AcDbPolyline
 62
7
  6
CONTINUOUS
 90
4
 70
0
 10
3.1682038267
 20
6.0341447758
 10
3.1646975521
 20
6.0376505107
 10
3.1608345067
 20
6.0415020618
 10
3.1566672442
 20
6.0456813583
  0
LINE
  5
34F
100
AcDbEntity
  8
ALL_ASSEMBLY_MEMBERS
100
AcDbLine
 62
7
  6
CONTINUOUS
 10
6.3364665044
 20
2.8658815583
 11
6.3403180555
 21
2.8620185129
  0
LINE
  5
350
100
AcDbEntity
  8
ALL_ASSEMBLY_MEMBERS
100
AcDbLine
 62
7
  6
CONTINUOUS
 10
4.4915764849
 20
4.6399975563
 11
4.4928947768
 21
4.6386365334
  0
LINE
  5
351
100
AcDbEntity
  8
ALL_ASSEMBLY_MEMBERS
100
AcDbLine
 62
7
  6
CONTINUOUS
 10
4.4914867521
 20
4.6401387534
 11
4.4930485276
 21
4.6385172341
  0
LINE
  5
352
100
AcDbEntity
  8
ALL_ASSEMBLY_MEMBERS
100
AcDbLine
 62
7
  6
CONTINUOUS
 10
4.4925051974
 20
4.6391061462
 11
4.4928794294
 21
4.638692801
  0
LWPOLYLINE
  5
353
100
AcDbEntity
  8
ALL_ASSEMBLY_MEMBERS
100
AcDbPolyline
 62
7
  6
CONTINUOUS
 90
3
 70
0
 10
4.4928947768
 20
4.6386365334
 10
4.4948590702
 20
4.636435906
 10
4.4967180041
 20
4.6341328446
  0
LINE
  5
354
100
AcDbEntity
  8
ALL_ASSEMBLY_MEMBERS
100
AcDbLine
 62
7
  6
CONTINUOUS
 10
4.4930485276
 20
4.6385172341
 11
4.4952506415
 21
4.6360066086
  0
LWPOLYLINE
  5
355
100
AcDbEntity
  8
ALL_ASSEMBLY_MEMBERS
100
AcDbPolyline
 62
7
  6
CONTINUOUS
 90
6
 70
0
 10
4.494533407
 20
4.6368659559
 10
4.4964460455
 20
4.6345267463
 10
4.4982382983
 20
4.6320944848
 10
4.4999056551
 20
4.6295753785
 10
4.5014439302
 20
4.6269758458
 10
4.5028492716
 20
4.624302499
  0
LWPOLYLINE
  5
356
100
AcDbEntity
  8
ALL_ASSEMBLY_MEMBERS
100
AcDbPolyline
 62
7
  6
CONTINUOUS
 90
6
 70
0
 10
4.4952696816
 20
4.6359948254
 10
4.4968016906
 20
4.6340651654
 10
4.498232485
 20
4.6321038634
 10
4.4995634336
 20
4.6301164514
 10
4.5007958197
 20
4.6281087436
 10
4.5019306002
 20
4.6260874955
  0
LINE
  5
357
100
AcDbEntity
  8
ALL_ASSEMBLY_MEMBERS
100
AcDbLine
 62
7
  6
CONTINUOUS
 10
4.4952506415
 20
4.6360066086
 11
4.4972815916
 21
4.6334152295
  0
LINE
  5
358
100
AcDbEntity
  8
ALL_ASSEMBLY_MEMBERS
100
AcDbLine
 62
7
  6
CONTINUOUS
 10
4.4967180041
 20
4.6341328446
 11
4.4984655166
 21
4.6317329062
  0
LINE
  5
359
100
AcDbEntity
  8
ALL_ASSEMBLY_MEMBERS
100
AcDbLine
 62
7
  6
CONTINUOUS
 10
4.4972815916
 20
4.6334152295
 11
4.4991412956
 21
4.6307557842
  0
LINE
  5
35A
100
AcDbEntity
  8
ALL_ASSEMBLY_MEMBERS
100
AcDbLine
 62
7
  6
CONTINUOUS
 10
4.4984655166
 20
4.6317329062
 11
4.5000958223
 21
4.6292421094
  0
LINE
  5
35B
100
AcDbEntity
  8
ALL_ASSEMBLY_MEMBERS
100
AcDbLine
 62
7
  6
CONTINUOUS
 10
4.4991412956
 20
4.6307557842
 11
4.5008304121
 21
4.6280407448
  0
LINE
  5
35C
100
AcDbEntity
  8
ALL_ASSEMBLY_MEMBERS
100
AcDbLine
 62
7
  6
CONTINUOUS
 10
4.5000958223
 20
4.6292421094
 11
4.5016040338
 21
4.626665891
  0
LINE
  5
35D
100
AcDbEntity
  8
ALL_ASSEMBLY_MEMBERS
100
AcDbLine
 62
7
  6
CONTINUOUS
 10
4.8155822981
 20
4.9323020569
 11
4.8155822981
 21
5.0475495724
  0
LINE
  5
35E
100
AcDbEntity
  8
ALL_ASSEMBLY_MEMBERS
100
AcDbLine
 62
7
  6
CONTINUOUS
 10
4.9956936343
 20
4.6181548232
 11
4.9958255172
 21
4.6185154936
  0
LWPOLYLINE
  5
35F
100
AcDbEntity
  8
ALL_ASSEMBLY_MEMBERS
100
AcDbPolyline
 62
7
  6
CONTINUOUS
 90
3
 70
0
 10
4.9958255172
 20
4.6185154936
 10
4.9960017131
 20
4.6189865246
 10
4.9961001551
 20
4.6192445745
  0
LWPOLYLINE
  5
360
100
AcDbEntity
  8
ALL_ASSEMBLY_MEMBERS
100
AcDbPolyline
 62
7
  6
CONTINUOUS
 90
10
 70
0
 10
4.9961001551
 20
4.6192445745
 10
4.9962028028
 20
4.6195099194
 10
4.9963109628
 20
4.6197855427
 10
4.9964229536
 20
4.6200667926
 10
4.9965385945
 20
4.6203529583
 10
4.9966582418
 20
4.6206446625
 10
4.9967809137
 20
4.6209392945
 10
4.9969066264
 20
4.6212367346
 10
4.99703547
 20
4.6215370378
 10
4.9971664965
 20
4.6218378864
  0
LWPOLYLINE
  5
361
100
AcDbEntity
  8
ALL_ASSEMBLY_MEMBERS
100
AcDbPolyline
 62
7
  6
CONTINUOUS
 90
40
 70
0
 10
4.9971664965
 20
4.6218378864
 10
4.9972993577
 20
4.6221384435
 10
4.9974344259
 20
4.6224395137
 10
4.9975717989
 20
4.6227412563
 10
4.997711523
 20
4.6230437088
 10
4.9978535913
 20
4.6233467931
 10
4.997998025
 20
4.623650493
 10
4.9981448449
 20
4.6239547906
 10
4.9982940688
 20
4.6242596618
 10
4.9984457131
 20
4.6245650799
 10
4.9985997968
 20
4.6248710231
 10
4.9987563388
 20
4.6251774696
 10
4.9989153553
 20
4.6254843924
 10
4.999076865
 20
4.625791769
 10
4.9992408864
 20
4.6260995764
 10
4.9994074351
 20
4.6264077863
 10
4.9995765292
 20
4.6267163753
 10
4.9997481869
 20
4.6270253197
 10
4.9999224228
 20
4.6273345897
 10
5.0000992549
 20
4.6276441613
 10
5.0002787006
 20
4.6279540096
 10
5.000460774
 20
4.6282641039
 10
5.0006454925
 20
4.6285744191
 10
5.0008328731
 20
4.6288849297
 10
5.0010229291
 20
4.6291956041
 10
5.0012156772
 20
4.6295064161
 10
5.0014111342
 20
4.6298173395
 10
5.0016093124
 20
4.6301283417
 10
5.0018102282
 20
4.6304393958
 10
5.0020138975
 20
4.6307504747
 10
5.0022203322
 20
4.6310615449
 10
5.0024295478
 20
4.6313725788
 10
5.0026415597
 20
4.6316835483
 10
5.002856379
 20
4.6319944193
 10
5.0030740206
 20
4.6323051632
 10
5.0032944992
 20
4.6326157511
 10
5.003517825
 20
4.6329261481
 10
5.0037440118
 20
4.6332363239
 10
5.003973074
 20
4.6335462498
 10
5.0042050226
 20
4.6338558919
  0
LINE
  5
362
100
AcDbEntity
  8
ALL_ASSEMBLY_MEMBERS
100
AcDbLine
 62
7
  6
CONTINUOUS
 10
5.0042050226
 20
4.6338558919
 11
5.0044854172
 21
4.6342277926
  0
LINE
  5
363
100
AcDbEntity
  8
ALL_ASSEMBLY_MEMBERS
100
AcDbLine
 62
7
  6
CONTINUOUS
 10
5.0044398711
 20
4.6341652199
 11
5.0047185679
 21
4.6345300146
  0
LINE
  5
364
100
AcDbEntity
  8
ALL_ASSEMBLY_MEMBERS
100
AcDbLine
 62
7
  6
CONTINUOUS
 10
5.0046776328
 20
4.6344742035
 11
5.0049295243
 21
4.63480007
  0
LINE
  5
365
100
AcDbEntity
  8
ALL_ASSEMBLY_MEMBERS
100
AcDbLine
 62
7
  6
CONTINUOUS
 10
5.0049183179
 20
4.6347828082
 11
5.0052378717
 21
4.6351891464
  0
LINE
  5
366
100
AcDbEntity
  8
ALL_ASSEMBLY_MEMBERS
100
AcDbLine
 62
7
  6
CONTINUOUS
 10
5.0051619397
 20
4.6350910034
 11
5.0054873992
 21
4.6354992156
  0
LINE
  5
367
100
AcDbEntity
  8
ALL_ASSEMBLY_MEMBERS
100
AcDbLine
 62
7
  6
CONTINUOUS
 10
5.0054085102
 20
4.6353987573
 11
5.005661785
 21
4.6357134309
  0
LINE
  5
368
100
AcDbEntity
  8
ALL_ASSEMBLY_MEMBERS
100
AcDbLine
 62
7
  6
CONTINUOUS
 10
5.005658038
 20
4.6357060336
 11
5.0059346315
 21
4.6360445917
  0
LINE
  5
369
100
AcDbEntity
  8
ALL_ASSEMBLY_MEMBERS
100
AcDbLine
 62
7
  6
CONTINUOUS
 10
5.0059105351
 20
4.6360128004
 11
5.006219761
 21
4.6363855617
  0
LINE
  5
36A
100
AcDbEntity
  8
ALL_ASSEMBLY_MEMBERS
100
AcDbLine
 62
7
  6
CONTINUOUS
 10
5.0061660131
 20
4.6363190255
 11
5.0064244797
 21
4.636624672
  0
LINE
  5
36B
100
AcDbEntity
  8
ALL_ASSEMBLY_MEMBERS
100
AcDbLine
 62
7
  6
CONTINUOUS
 10
5.0064160034
 20
4.6366172795
 11
5.006685946
 21
4.636929707
  0
LINE
  5
36C
100
AcDbEntity
  8
ALL_ASSEMBLY_MEMBERS
100
AcDbLine
 62
7
  6
CONTINUOUS
 10
5.0066166695
 20
4.6368517791
 11
5.0069504228
 21
4.6372340976
  0
LINE
  5
36D
100
AcDbEntity
  8
ALL_ASSEMBLY_MEMBERS
100
AcDbLine
 62
7
  6
CONTINUOUS
 10
5.006821253
 20
4.6370883604
 11
5.0070294731
 21
4.6373266056
  0
LINE
  5
36E
100
AcDbEntity
  8
ALL_ASSEMBLY_MEMBERS
100
AcDbLine
 62
7
  6
CONTINUOUS
 10
5.0069504228
 20
4.6372340976
 11
5.0072409307
 21
4.6375659786
  0
LINE
  5
36F
100
AcDbEntity
  8
ALL_ASSEMBLY_MEMBERS
100
AcDbLine
 62
7
  6
CONTINUOUS
 10
5.0072179167
 20
4.637537806
 11
5.0075636766
 21
4.6379264301
  0
LINE
  5
370
100
AcDbEntity
  8
ALL_ASSEMBLY_MEMBERS
100
AcDbLine
 62
7
  6
CONTINUOUS
 10
5.0074884379
 20
4.6378407986
 11
5.0077819584
 21
4.6381669258
  0
LINE
  5
371
100
AcDbEntity
  8
ALL_ASSEMBLY_MEMBERS
100
AcDbLine
 62
7
  6
CONTINUOUS
 10
5.0077619964
 20
4.6381430418
 11
5.0081130513
 21
4.6385267696
  0
LINE
  5
372
100
AcDbEntity
  8
ALL_ASSEMBLY_MEMBERS
100
AcDbLine
 62
7
  6
CONTINUOUS
 10
5.0080385976
 20
4.6384444969
 11
5.0083354495
 21
4.6387652028
  0
LINE
  5
373
100
AcDbEntity
  8
ALL_ASSEMBLY_MEMBERS
100
AcDbLine
 62
7
  6
CONTINUOUS
 10
5.008318251
 20
4.6387451298
 11
5.0086696947
 21
4.6391187082
  0
LINE
  5
374
100
AcDbEntity
  8
ALL_ASSEMBLY_MEMBERS
100
AcDbLine
 62
7
  6
CONTINUOUS
 10
5.0086009654
 20
4.6390449057
 11
5.0088916636
 21
4.6393503195
  0
LINE
  5
375
100
AcDbEntity
  8
ALL_ASSEMBLY_MEMBERS
100
AcDbLine
 62
7
  6
CONTINUOUS
 10
5.0088867454
 20
4.6393437856
 11
5.0092220475
 21
4.6396905039
  0
LINE
  5
376
100
AcDbEntity
  8
ALL_ASSEMBLY_MEMBERS
100
AcDbLine
 62
7
  6
CONTINUOUS
 10
5.0091755992
 20
4.6396417344
 11
5.0094675347
 21
4.6399387166
  0
LINE
  5
377
100
AcDbEntity
  8
ALL_ASSEMBLY_MEMBERS
100
AcDbLine
 62
7
  6
CONTINUOUS
 10
5.2102017058
 20
4.8406750339
 11
5.0089264519
 21
4.6393996877
  0
LINE
  5
378
100
AcDbEntity
  8
ALL_ASSEMBLY_MEMBERS
100
AcDbLine
 62
7
  6
CONTINUOUS
 10
4.5626582557
 20
4.1931315838
 11
4.3616735686
 21
3.9921468967
  0
LINE
  5
379
100
AcDbEntity
  8
ALL_ASSEMBLY_MEMBERS
100
AcDbLine
 62
7
  6
CONTINUOUS
 10
4.5623510462
 20
4.1927604911
 11
4.5637123092
 21
4.1940790083
  0
LINE
  5
37A
100
AcDbEntity
  8
ALL_ASSEMBLY_MEMBERS
100
AcDbLine
 62
7
  6
CONTINUOUS
 10
4.5626769749
 20
4.1931117554
 11
4.5647189435
 21
4.1950395063
  0
LINE
  5
37B
100
AcDbEntity
  8
ALL_ASSEMBLY_MEMBERS
100
AcDbLine
 62
7
  6
CONTINUOUS
 10
4.5632427019
 20
4.1936894376
 11
4.5649111688
 21
4.1952000022
  0
LINE
  5
37C
100
AcDbEntity
  8
ALL_ASSEMBLY_MEMBERS
100
AcDbLine
 62
7
  6
CONTINUOUS
 10
4.5637123092
 20
4.1940790083
 11
4.5659130734
 21
4.1960433965
  0
LINE
  5
37D
100
AcDbEntity
  8
ALL_ASSEMBLY_MEMBERS
100
AcDbLine
 62
7
  6
CONTINUOUS
 10
4.5647189435
 20
4.1950395063
 11
4.5676825703
 21
4.1975139473
  0
LWPOLYLINE
  5
37E
100
AcDbEntity
  8
ALL_ASSEMBLY_MEMBERS
100
AcDbPolyline
 62
7
  6
CONTINUOUS
 90
3
 70
0
 10
4.5659130734
 20
4.1960433965
 10
4.5682162818
 20
4.1979024122
 10
4.5706163762
 20
4.1996499924
  0
LWPOLYLINE
  5
37F
100
AcDbEntity
  8
ALL_ASSEMBLY_MEMBERS
100
AcDbPolyline
 62
7
  6
CONTINUOUS
 90
6
 70
0
 10
4.5675534503
 20
4.1974061403
 10
4.5682834699
 20
4.1979857217
 10
4.5702447796
 20
4.1994165195
 10
4.5722321991
 20
4.2007474706
 10
4.5742399145
 20
4.2019798585
 10
4.576261171
 20
4.2031146408
  0
LINE
  5
380
100
AcDbEntity
  8
ALL_ASSEMBLY_MEMBERS
100
AcDbLine
 62
7
  6
CONTINUOUS
 10
4.5676825703
 20
4.1975139473
 11
4.5707109176
 21
4.1997321977
  0
LINE
  5
381
100
AcDbEntity
  8
ALL_ASSEMBLY_MEMBERS
100
AcDbLine
 62
7
  6
CONTINUOUS
 10
4.5706043231
 20
4.1996541177
 11
4.5727740843
 21
4.2010902001
  0
LINE
  5
382
100
AcDbEntity
  8
ALL_ASSEMBLY_MEMBERS
100
AcDbLine
 62
7
  6
CONTINUOUS
 10
4.5706163762
 20
4.1996499924
 11
4.5731073368
 21
4.2012803511
  0
LINE
  5
383
100
AcDbEntity
  8
ALL_ASSEMBLY_MEMBERS
100
AcDbLine
 62
7
  6
CONTINUOUS
 10
4.5707109176
 20
4.1997321977
 11
4.5737867393
 21
4.2017056266
  0
LINE
  5
384
100
AcDbEntity
  8
ALL_ASSEMBLY_MEMBERS
100
AcDbLine
 62
7
  6
CONTINUOUS
 10
4.5727740843
 20
4.2010902001
 11
4.57537379
 21
4.2026285133
  0
LINE
  5
385
100
AcDbEntity
  8
ALL_ASSEMBLY_MEMBERS
100
AcDbLine
 62
7
  6
CONTINUOUS
 10
4.5731073368
 20
4.2012803511
 11
4.5756837259
 21
4.2027886003
  0
LINE
  5
386
100
AcDbEntity
  8
ALL_ASSEMBLY_MEMBERS
100
AcDbLine
 62
7
  6
CONTINUOUS
 10
4.5737867393
 20
4.2017056266
 11
4.5769089091
 21
4.2034526559
  0
LINE
  5
387
100
AcDbEntity
  8
ALL_ASSEMBLY_MEMBERS
100
AcDbLine
 62
7
  6
CONTINUOUS
 10
4.57537379
 20
4.2026285133
 11
4.5780473152
 21
4.2040338763
  0
LINE
  5
388
100
AcDbEntity
  8
ALL_ASSEMBLY_MEMBERS
100
AcDbLine
 62
7
  6
CONTINUOUS
 10
4.5756837259
 20
4.2027886003
 11
4.5783274481
 21
4.2041635804
  0
LINE
  5
389
100
AcDbEntity
  8
ALL_ASSEMBLY_MEMBERS
100
AcDbLine
 62
7
  6
CONTINUOUS
 10
4.576261171
 20
4.2031146408
 11
4.5783657404
 21
4.2041904631
  0
LINE
  5
38A
100
AcDbEntity
  8
ALL_ASSEMBLY_MEMBERS
100
AcDbLine
 62
7
  6
CONTINUOUS
 10
4.5769089091
 20
4.2034526559
 11
4.58007122
 21
4.204984262
  0
LINE
  5
38B
100
AcDbEntity
  8
ALL_ASSEMBLY_MEMBERS
100
AcDbLine
 62
7
  6
CONTINUOUS
 10
4.5780473152
 20
4.2040338763
 11
4.5807878603
 21
4.2053027736
  0
LWPOLYLINE
  5
38C
100
AcDbEntity
  8
ALL_ASSEMBLY_MEMBERS
100
AcDbPolyline
 62
7
  6
CONTINUOUS
 90
3
 70
0
 10
4.5783657404
 20
4.2041904631
 10
4.5804764664
 20
4.2051673716
 10
4.5806777088
 20
4.2052517725
  0
LINE
  5
38D
100
AcDbEntity
  8
ALL_ASSEMBLY_MEMBERS
100
AcDbLine
 62
7
  6
CONTINUOUS
 10
4.5792617711
 20
4.2045922205
 11
4.5810710234
 21
4.205420716
  0
LINE
  5
38E
100
AcDbEntity
  8
ALL_ASSEMBLY_MEMBERS
100
AcDbLine
 62
7
  6
CONTINUOUS
 10
4.58007122
 20
4.204984262
 11
4.5832458292
 21
4.2063006892
  0
LINE
  5
38F
100
AcDbEntity
  8
ALL_ASSEMBLY_MEMBERS
100
AcDbLine
 62
7
  6
CONTINUOUS
 10
4.5841921639
 20
4.6968782254
 11
4.5838309863
 21
4.6970103074
  0
LWPOLYLINE
  5
390
100
AcDbEntity
  8
ALL_ASSEMBLY_MEMBERS
100
AcDbPolyline
 62
7
  6
CONTINUOUS
 90
3
 70
0
 10
4.5838309863
 20
4.6970103074
 10
4.5833596259
 20
4.6971866483
 10
4.5831014669
 20
4.6972851451
  0
LWPOLYLINE
  5
391
100
AcDbEntity
  8
ALL_ASSEMBLY_MEMBERS
100
AcDbPolyline
 62
7
  6
CONTINUOUS
 90
10
 70
0
 10
4.5831014669
 20
4.6972851451
 10
4.5828360641
 20
4.6973878294
 10
4.5825604215
 20
4.6974960119
 10
4.58227916
 20
4.6976080228
 10
4.5819929792
 20
4.6977236857
 10
4.5817012676
 20
4.6978433524
 10
4.5814066384
 20
4.6979660398
 10
4.5811092147
 20
4.6980917625
 10
4.5808089379
 20
4.6982206118
 10
4.5805081184
 20
4.6983516425
  0
LWPOLYLINE
  5
392
100
AcDbEntity
  8
ALL_ASSEMBLY_MEMBERS
100
AcDbPolyline
 62
7
  6
CONTINUOUS
 90
40
 70
0
 10
4.5805081184
 20
4.6983516425
 10
4.5802075916
 20
4.6984845073
 10
4.5799065541
 20
4.6986195776
 10
4.5796048441
 20
4.6987569526
 10
4.579302423
 20
4.698896679
 10
4.5789993698
 20
4.6990387494
 10
4.5786957015
 20
4.6991831848
 10
4.5783914358
 20
4.6993300059
 10
4.578086597
 20
4.6994792304
 10
4.5777812115
 20
4.6996308751
 10
4.5774753012
 20
4.6997849586
 10
4.5771688879
 20
4.6999414999
 10
4.5768619987
 20
4.7001005153
 10
4.5765546559
 20
4.7002620235
 10
4.5762468826
 20
4.7004260429
 10
4.5759387071
 20
4.700592589
 10
4.5756301527
 20
4.7007616801
 10
4.5753212432
 20
4.7009333343
 10
4.5750120083
 20
4.7011075662
 10
4.5747024722
 20
4.7012843937
 10
4.5743926595
 20
4.7014638343
 10
4.574082601
 20
4.7016459022
 10
4.5737723219
 20
4.7018306145
 10
4.5734618475
 20
4.7020179884
 10
4.5731512096
 20
4.7022080371
 10
4.5728404343
 20
4.7024007775
 10
4.5725295477
 20
4.702596226
 10
4.5722185826
 20
4.7027943954
 10
4.5719075656
 20
4.7029953016
 10
4.5715965241
 20
4.7031989608
 10
4.5712854914
 20
4.7034053848
 10
4.5709744951
 20
4.7036145891
 10
4.5706635634
 20
4.7038265892
 10
4.5703527303
 20
4.704041396
 10
4.5700420244
 20
4.7042590245
 10
4.5697314746
 20
4.7044794893
 10
4.5694211158
 20
4.7047028008
 10
4.5691109782
 20
4.7049289726
 10
4.5688010907
 20
4.7051580193
 10
4.568491487
 20
4.7053899516
  0
LINE
  5
393
100
AcDbEntity
  8
ALL_ASSEMBLY_MEMBERS
100
AcDbLine
 62
7
  6
CONTINUOUS
 10
4.568491487
 20
4.7053899516
 11
4.5681202567
 21
4.7056698474
  0
LINE
  5
394
100
AcDbEntity
  8
ALL_ASSEMBLY_MEMBERS
100
AcDbLine
 62
7
  6
CONTINUOUS
 10
4.5681821974
 20
4.7056247832
 11
4.5678175124
 21
4.7059034093
  0
LINE
  5
395
100
AcDbEntity
  8
ALL_ASSEMBLY_MEMBERS
100
AcDbLine
 62
7
  6
CONTINUOUS
 10
4.5678732523
 20
4.7058625274
 11
4.5675471039
 21
4.7061146531
  0
LINE
  5
396
100
AcDbEntity
  8
ALL_ASSEMBLY_MEMBERS
100
AcDbLine
 62
7
  6
CONTINUOUS
 10
4.567564686
 20
4.7061031943
 11
4.567157552
 21
4.7064233999
  0
LINE
  5
397
100
AcDbEntity
  8
ALL_ASSEMBLY_MEMBERS
100
AcDbLine
 62
7
  6
CONTINUOUS
 10
4.5672565294
 20
4.7063467972
 11
4.566948814
 21
4.7065933482
  0
LINE
  5
398
100
AcDbEntity
  8
ALL_ASSEMBLY_MEMBERS
100
AcDbLine
 62
7
  6
CONTINUOUS
 10
4.5669522104
 20
4.7065882816
 11
4.5666415762
 21
4.7068428558
  0
LINE
  5
399
100
AcDbEntity
  8
ALL_ASSEMBLY_MEMBERS
100
AcDbLine
 62
7
  6
CONTINUOUS
 10
4.5667405448
 20
4.7067598049
 11
4.5663348479
 21
4.707095332
  0
LINE
  5
39A
100
AcDbEntity
  8
ALL_ASSEMBLY_MEMBERS
100
AcDbLine
 62
7
  6
CONTINUOUS
 10
4.5665232245
 20
4.7069375801
 11
4.5663009684
 21
4.7071211628
  0
LINE
  5
39B
100
AcDbEntity
  8
ALL_ASSEMBLY_MEMBERS
100
AcDbLine
 62
7
  6
CONTINUOUS
 10
4.5663348479
 20
4.707095332
 11
4.5659595462
 21
4.7074067118
  0
LINE
  5
39C
100
AcDbEntity
  8
ALL_ASSEMBLY_MEMBERS
100
AcDbLine
 62
7
  6
CONTINUOUS
 10
4.5660286612
 20
4.7073507885
 11
4.5657230531
 21
4.7076092329
  0
LINE
  5
39D
100
AcDbEntity
  8
ALL_ASSEMBLY_MEMBERS
100
AcDbLine
 62
7
  6
CONTINUOUS
 10
4.5657275478
 20
4.7076032236
 11
4.5654180565
 21
4.7078706763
  0
LINE
  5
39E
100
AcDbEntity
  8
ALL_ASSEMBLY_MEMBERS
100
AcDbLine
 62
7
  6
CONTINUOUS
 10
4.5654927977
 20
4.7078041389
 11
4.5651137042
 21
4.7081351295
  0
LINE
  5
39F
100
AcDbEntity
  8
ALL_ASSEMBLY_MEMBERS
100
AcDbLine
 62
7
  6
CONTINUOUS
 10
4.5652560094
 20
4.7080089392
 11
4.5650176063
 21
4.7082173375
  0
LINE
  5
3A0
100
AcDbEntity
  8
ALL_ASSEMBLY_MEMBERS
100
AcDbLine
 62
7
  6
CONTINUOUS
 10
4.5651137042
 20
4.7081351295
 11
4.5647781304
 21
4.7084289282
  0
LINE
  5
3A1
100
AcDbEntity
  8
ALL_ASSEMBLY_MEMBERS
100
AcDbLine
 62
7
  6
CONTINUOUS
 10
4.564810034
 20
4.7084025991
 11
4.5644176256
 21
4.7087517876
  0
LINE
  5
3A2
100
AcDbEntity
  8
ALL_ASSEMBLY_MEMBERS
100
AcDbLine
 62
7
  6
CONTINUOUS
 10
4.5645070795
 20
4.7086730953
 11
4.5641771553
 21
4.7089700911
  0
LINE
  5
3A3
100
AcDbEntity
  8
ALL_ASSEMBLY_MEMBERS
100
AcDbLine
 62
7
  6
CONTINUOUS
 10
4.5642048744
 20
4.708946628
 11
4.5638174277
 21
4.7093011445
  0
LINE
  5
3A4
100
AcDbEntity
  8
ALL_ASSEMBLY_MEMBERS
100
AcDbLine
 62
7
  6
CONTINUOUS
 10
4.5639034571
 20
4.7092232029
 11
4.5635791168
 21
4.7095234727
  0
LINE
  5
3A5
100
AcDbEntity
  8
ALL_ASSEMBLY_MEMBERS
100
AcDbLine
 62
7
  6
CONTINUOUS
 10
4.5636028621
 20
4.7095028291
 11
4.5632258627
 21
4.7098575444
  0
LINE
  5
3A6
100
AcDbEntity
  8
ALL_ASSEMBLY_MEMBERS
100
AcDbLine
 62
7
  6
CONTINUOUS
 10
4.5633031238
 20
4.7097855157
 11
4.5629944426
 21
4.7100793705
  0
LINE
  5
3A7
100
AcDbEntity
  8
ALL_ASSEMBLY_MEMBERS
100
AcDbLine
 62
7
  6
CONTINUOUS
 10
4.5630042814
 20
4.7100712671
 11
4.5626545655
 21
4.7104095126
  0
LINE
  5
3A8
100
AcDbEntity
  8
ALL_ASSEMBLY_MEMBERS
100
AcDbLine
 62
7
  6
CONTINUOUS
 10
4.56270637
 20
4.7103600917
 11
4.5624094249
 21
4.7106519973
  0
LINE
  5
3A9
100
AcDbEntity
  8
ALL_ASSEMBLY_MEMBERS
100
AcDbLine
 62
7
  6
CONTINUOUS
 10
4.3616735686
 20
4.911385712
 11
4.5629489207
 21
4.7101104521
  0
LINE
  5
3AA
100
AcDbEntity
  8
ALL_ASSEMBLY_MEMBERS
100
AcDbLine
 62
7
  6
CONTINUOUS
 10
5.0092170187
 20
4.2638422619
 11
5.2102017058
 21
4.0628575748
  0
LINE
  5
3AB
100
AcDbEntity
  8
ALL_ASSEMBLY_MEMBERS
100
AcDbLine
 62
7
  6
CONTINUOUS
 10
5.0095881114
 20
4.2635350524
 11
5.0082697849
 21
4.2648961121
  0
LINE
  5
3AC
100
AcDbEntity
  8
ALL_ASSEMBLY_MEMBERS
100
AcDbLine
 62
7
  6
CONTINUOUS
 10
5.0096778442
 20
4.2633938553
 11
5.0081160292
 21
4.2650154172
  0
LINE
  5
3AD
100
AcDbEntity
  8
ALL_ASSEMBLY_MEMBERS
100
AcDbLine
 62
7
  6
CONTINUOUS
 10
5.0086593629
 20
4.2644265002
 11
5.0082851299
 21
4.2648398475
  0
LWPOLYLINE
  5
3AE
100
AcDbEntity
  8
ALL_ASSEMBLY_MEMBERS
100
AcDbPolyline
 62
7
  6
CONTINUOUS
 90
3
 70
0
 10
5.0082697849
 20
4.2648961121
 10
5.0063054769
 20
4.2670967605
 10
5.0044465305
 20
4.2693998445
  0
LINE
  5
3AF
100
AcDbEntity
  8
ALL_ASSEMBLY_MEMBERS
100
AcDbLine
 62
7
  6
CONTINUOUS
 10
5.0081160292
 20
4.2650154172
 11
5.0059138996
 21
4.2675260667
  0
LWPOLYLINE
  5
3B0
100
AcDbEntity
  8
ALL_ASSEMBLY_MEMBERS
100
AcDbPolyline
 62
7
  6
CONTINUOUS
 90
6
 70
0
 10
5.0066311384
 20
4.2666667119
 10
5.004718487
 20
4.2690059446
 10
5.0029262235
 20
4.2714382304
 10
5.0012588585
 20
4.2739573622
 10
4.9997205775
 20
4.2765569215
 10
4.9983152329
 20
4.2792302956
  0
LWPOLYLINE
  5
3B1
100
AcDbEntity
  8
ALL_ASSEMBLY_MEMBERS
100
AcDbPolyline
 62
7
  6
CONTINUOUS
 90
6
 70
0
 10
5.0058949118
 20
4.2675377868
 10
5.0043629023
 20
4.2694674478
 10
5.0029321074
 20
4.2714287508
 10
5.0016011584
 20
4.2734161639
 10
5.0003687721
 20
4.2754238728
 10
4.9992339913
 20
4.277445122
  0
LINE
  5
3B2
100
AcDbEntity
  8
ALL_ASSEMBLY_MEMBERS
100
AcDbLine
 62
7
  6
CONTINUOUS
 10
5.0059138996
 20
4.2675260667
 11
5.0038829365
 21
4.2701174712
  0
LINE
  5
3B3
100
AcDbEntity
  8
ALL_ASSEMBLY_MEMBERS
100
AcDbLine
 62
7
  6
CONTINUOUS
 10
5.0044465305
 20
4.2693998445
 11
5.0026990076
 21
4.2717998069
  0
LINE
  5
3B4
100
AcDbEntity
  8
ALL_ASSEMBLY_MEMBERS
100
AcDbLine
 62
7
  6
CONTINUOUS
 10
5.0038829365
 20
4.2701174712
 11
5.0020232224
 21
4.2727769432
  0
LINE
  5
3B5
100
AcDbEntity
  8
ALL_ASSEMBLY_MEMBERS
100
AcDbLine
 62
7
  6
CONTINUOUS
 10
5.0026990076
 20
4.2717998069
 11
5.0010686938
 21
4.2742906288
  0
LINE
  5
3B6
100
AcDbEntity
  8
ALL_ASSEMBLY_MEMBERS
100
AcDbLine
 62
7
  6
CONTINUOUS
 10
5.0020232224
 20
4.2727769432
 11
5.0003340986
 21
4.27549201
  0
LINE
  5
3B7
100
AcDbEntity
  8
ALL_ASSEMBLY_MEMBERS
100
AcDbLine
 62
7
  6
CONTINUOUS
 10
5.0010686938
 20
4.2742906288
 11
4.9995604765
 21
4.2768668734
  0
LINE
  5
3B8
100
AcDbEntity
  8
ALL_ASSEMBLY_MEMBERS
100
AcDbLine
 62
7
  6
CONTINUOUS
 10
5.0003340986
 20
4.27549201
 11
4.9988202514
 21
4.2782386839
  0
LINE
  5
3B9
100
AcDbEntity
  8
ALL_ASSEMBLY_MEMBERS
100
AcDbLine
 62
7
  6
CONTINUOUS
 10
4.9995604765
 20
4.2768668734
 11
4.9981855031
 21
4.2795104692
  0
LINE
  5
3BA
100
AcDbEntity
  8
ALL_ASSEMBLY_MEMBERS
100
AcDbLine
 62
7
  6
CONTINUOUS
 10
4.9992339913
 20
4.277445122
 11
4.9981581722
 21
4.2795496791
  0
LINE
  5
3BB
100
AcDbEntity
  8
ALL_ASSEMBLY_MEMBERS
100
AcDbLine
 62
7
  6
CONTINUOUS
 10
4.9988202514
 20
4.2782386839
 11
4.9974716944
 21
4.2810173699
  0
LINE
  5
3BC
100
AcDbEntity
  8
ALL_ASSEMBLY_MEMBERS
100
AcDbLine
 62
7
  6
CONTINUOUS
 10
4.9983152329
 20
4.2792302956
 11
4.9970463398
 21
4.281970686
  0
LWPOLYLINE
  5
3BD
100
AcDbEntity
  8
ALL_ASSEMBLY_MEMBERS
100
AcDbPolyline
 62
7
  6
CONTINUOUS
 90
3
 70
0
 10
4.9981581722
 20
4.2795496791
 10
4.9971812664
 20
4.2816603918
 10
4.9970971605
 20
4.2818609299
  0
LINE
  5
3BE
100
AcDbEntity
  8
ALL_ASSEMBLY_MEMBERS
100
AcDbLine
 62
7
  6
CONTINUOUS
 10
4.9978783361
 20
4.2801794893
 11
4.9969283837
 21
4.2822538676
  0
LINE
  5
3BF
100
AcDbEntity
  8
ALL_ASSEMBLY_MEMBERS
100
AcDbLine
 62
7
  6
CONTINUOUS
 10
4.9974716944
 20
4.2810173699
 11
4.9962703604
 21
4.2838556877
  0
LINE
  5
3C0
100
AcDbEntity
  8
ALL_ASSEMBLY_MEMBERS
100
AcDbLine
 62
7
  6
CONTINUOUS
 10
4.9962703604
 20
4.2838556877
 11
4.995198913
 21
4.2868042613
  0
LINE
  5
3C1
100
AcDbEntity
  8
ALL_ASSEMBLY_MEMBERS
100
AcDbLine
 62
7
  6
CONTINUOUS
 10
4.9924724154
 20
4.5911552072
 11
4.9924334135
 21
4.5915191149
  0
LINE
  5
3C2
100
AcDbEntity
  8
ALL_ASSEMBLY_MEMBERS
100
AcDbLine
 62
7
  6
CONTINUOUS
 10
4.9924334135
 20
4.5915191149
 11
4.9923963596
 21
4.5918860338
  0
LINE
  5
3C3
100
AcDbEntity
  8
ALL_ASSEMBLY_MEMBERS
100
AcDbLine
 62
7
  6
CONTINUOUS
 10
4.9923963596
 20
4.5918860338
 11
4.9923612985
 21
4.5922560415
  0
LINE
  5
3C4
100
AcDbEntity
  8
ALL_ASSEMBLY_MEMBERS
100
AcDbLine
 62
7
  6
CONTINUOUS
 10
4.9923612985
 20
4.5922560415
 11
4.9923282801
 21
4.5926291861
  0
LINE
  5
3C5
100
AcDbEntity
  8
ALL_ASSEMBLY_MEMBERS
100
AcDbLine
 62
7
  6
CONTINUOUS
 10
4.9923282801
 20
4.5926291861
 11
4.9922973534
 21
4.5930055442
  0
LINE
  5
3C6
100
AcDbEntity
  8
ALL_ASSEMBLY_MEMBERS
100
AcDbLine
 62
7
  6
CONTINUOUS
 10
4.9922973534
 20
4.5930055442
 11
4.9922685705
 21
4.5933851919
  0
LINE
  5
3C7
100
AcDbEntity
  8
ALL_ASSEMBLY_MEMBERS
100
AcDbLine
 62
7
  6
CONTINUOUS
 10
4.9922685705
 20
4.5933851919
 11
4.9922419876
 21
4.5937681757
  0
LINE
  5
3C8
100
AcDbEntity
  8
ALL_ASSEMBLY_MEMBERS
100
AcDbLine
 62
7
  6
CONTINUOUS
 10
4.9922419876
 20
4.5937681757
 11
4.9922176614
 21
4.5941545706
  0
LINE
  5
3C9
100
AcDbEntity
  8
ALL_ASSEMBLY_MEMBERS
100
AcDbLine
 62
7
  6
CONTINUOUS
 10
4.9922176614
 20
4.5941545706
 11
4.9921956513
 21
4.5945444501
  0
LINE
  5
3CA
100
AcDbEntity
  8
ALL_ASSEMBLY_MEMBERS
100
AcDbLine
 62
7
  6
CONTINUOUS
 10
4.9921956513
 20
4.5945444501
 11
4.9921760204
 21
4.5949378608
  0
LINE
  5
3CB
100
AcDbEntity
  8
ALL_ASSEMBLY_MEMBERS
100
AcDbLine
 62
7
  6
CONTINUOUS
 10
4.9921760204
 20
4.5949378608
 11
4.9921588343
 21
4.5953348441
  0
LINE
  5
3CC
100
AcDbEntity
  8
ALL_ASSEMBLY_MEMBERS
100
AcDbLine
 62
7
  6
CONTINUOUS
 10
4.9921588343
 20
4.5953348441
 11
4.9921441532
 21
4.595735663
  0
LINE
  5
3CD
100
AcDbEntity
  8
ALL_ASSEMBLY_MEMBERS
100
AcDbLine
 62
7
  6
CONTINUOUS
 10
4.9921441532
 20
4.595735663
 11
4.992132046
 21
4.5961405415
  0
LINE
  5
3CE
100
AcDbEntity
  8
ALL_ASSEMBLY_MEMBERS
100
AcDbLine
 62
7
  6
CONTINUOUS
 10
4.992132046
 20
4.5961405415
 11
4.9921225844
 21
4.5965499386
  0
LINE
  5
3CF
100
AcDbEntity
  8
ALL_ASSEMBLY_MEMBERS
100
AcDbLine
 62
7
  6
CONTINUOUS
 10
4.9921225844
 20
4.5965499386
 11
4.9921158539
 21
4.5969643064
  0
LINE
  5
3D0
100
AcDbEntity
  8
ALL_ASSEMBLY_MEMBERS
100
AcDbLine
 62
7
  6
CONTINUOUS
 10
4.9921158539
 20
4.5969643064
 11
4.9921119549
 21
4.5973839379
  0
LINE
  5
3D1
100
AcDbEntity
  8
ALL_ASSEMBLY_MEMBERS
100
AcDbLine
 62
7
  6
CONTINUOUS
 10
4.9921119549
 20
4.5973839379
 11
4.9921109977
 21
4.5978092802
  0
LINE
  5
3D2
100
AcDbEntity
  8
ALL_ASSEMBLY_MEMBERS
100
AcDbLine
 62
7
  6
CONTINUOUS
 10
4.9921109977
 20
4.5978092802
 11
4.9921131075
 21
4.5982407788
  0
LINE
  5
3D3
100
AcDbEntity
  8
ALL_ASSEMBLY_MEMBERS
100
AcDbLine
 62
7
  6
CONTINUOUS
 10
4.9921131075
 20
4.5982407788
 11
4.9921184219
 21
4.5986787217
  0
LINE
  5
3D4
100
AcDbEntity
  8
ALL_ASSEMBLY_MEMBERS
100
AcDbLine
 62
7
  6
CONTINUOUS
 10
4.9921184219
 20
4.5986787217
 11
4.9921270933
 21
4.5991235511
  0
LINE
  5
3D5
100
AcDbEntity
  8
ALL_ASSEMBLY_MEMBERS
100
AcDbLine
 62
7
  6
CONTINUOUS
 10
4.9921270933
 20
4.5991235511
 11
4.9921392909
 21
4.599575743
  0
LINE
  5
3D6
100
AcDbEntity
  8
ALL_ASSEMBLY_MEMBERS
100
AcDbLine
 62
7
  6
CONTINUOUS
 10
4.9921392909
 20
4.599575743
 11
4.9921551891
 21
4.6000354461
  0
LINE
  5
3D7
100
AcDbEntity
  8
ALL_ASSEMBLY_MEMBERS
100
AcDbLine
 62
7
  6
CONTINUOUS
 10
4.9921551891
 20
4.6000354461
 11
4.9921749707
 21
4.6005028086
  0
LINE
  5
3D8
100
AcDbEntity
  8
ALL_ASSEMBLY_MEMBERS
100
AcDbLine
 62
7
  6
CONTINUOUS
 10
4.9921749707
 20
4.6005028086
 11
4.9921987767
 21
4.6009770563
  0
LINE
  5
3D9
100
AcDbEntity
  8
ALL_ASSEMBLY_MEMBERS
100
AcDbLine
 62
7
  6
CONTINUOUS
 10
4.9921987767
 20
4.6009770563
 11
4.992226747
 21
4.6014577311
  0
LINE
  5
3DA
100
AcDbEntity
  8
ALL_ASSEMBLY_MEMBERS
100
AcDbLine
 62
7
  6
CONTINUOUS
 10
4.992226747
 20
4.6014577311
 11
4.9922589923
 21
4.6019441222
  0
LWPOLYLINE
  5
3DB
100
AcDbEntity
  8
ALL_ASSEMBLY_MEMBERS
100
AcDbPolyline
 62
7
  6
CONTINUOUS
 90
3
 70
0
 10
4.9921741045
 20
4.3084679157
 10
4.9923685539
 20
4.3113107365
 10
4.9926283364
 20
4.3135455521
  0
LINE
  5
3DC
100
AcDbEntity
  8
ALL_ASSEMBLY_MEMBERS
100
AcDbLine
 62
7
  6
CONTINUOUS
 10
4.9922589923
 20
4.6019441222
 11
4.9922956034
 21
4.602435525
  0
LINE
  5
3DD
100
AcDbEntity
  8
ALL_ASSEMBLY_MEMBERS
100
AcDbLine
 62
7
  6
CONTINUOUS
 10
4.9922956034
 20
4.602435525
 11
4.99233667
 21
4.6029314549
  0
LINE
  5
3DE
100
AcDbEntity
  8
ALL_ASSEMBLY_MEMBERS
100
AcDbLine
 62
7
  6
CONTINUOUS
 10
4.99233667
 20
4.6029314549
 11
4.9923822464
 21
4.6034312058
  0
LINE
  5
3DF
100
AcDbEntity
  8
ALL_ASSEMBLY_MEMBERS
100
AcDbLine
 62
7
  6
CONTINUOUS
 10
4.9923822464
 20
4.6034312058
 11
4.992432368
 21
4.6039340932
  0
LINE
  5
3E0
100
AcDbEntity
  8
ALL_ASSEMBLY_MEMBERS
100
AcDbLine
 62
7
  6
CONTINUOUS
 10
4.992432368
 20
4.6039340932
 11
4.9924870636
 21
4.6044395662
  0
LINE
  5
3E1
100
AcDbEntity
  8
ALL_ASSEMBLY_MEMBERS
100
AcDbLine
 62
7
  6
CONTINUOUS
 10
4.9924870636
 20
4.6044395662
 11
4.9925463176
 21
4.6049468483
  0
LINE
  5
3E2
100
AcDbEntity
  8
ALL_ASSEMBLY_MEMBERS
100
AcDbLine
 62
7
  6
CONTINUOUS
 10
4.9925463176
 20
4.6049468483
 11
4.9926099696
 21
4.6054542434
  0
LINE
  5
3E3
100
AcDbEntity
  8
ALL_ASSEMBLY_MEMBERS
100
AcDbLine
 62
7
  6
CONTINUOUS
 10
4.9926099696
 20
4.6054542434
 11
4.9926778848
 21
4.6059606534
  0
LINE
  5
3E4
100
AcDbEntity
  8
ALL_ASSEMBLY_MEMBERS
100
AcDbLine
 62
7
  6
CONTINUOUS
 10
4.9926778848
 20
4.6059606534
 11
4.9927498013
 21
4.6064643711
  0
LINE
  5
3E5
100
AcDbEntity
  8
ALL_ASSEMBLY_MEMBERS
100
AcDbLine
 62
7
  6
CONTINUOUS
 10
4.9927498013
 20
4.6064643711
 11
4.9928254032
 21
4.6069637138
  0
LINE
  5
3E6
100
AcDbEntity
  8
ALL_ASSEMBLY_MEMBERS
100
AcDbLine
 62
7
  6
CONTINUOUS
 10
4.9928254032
 20
4.6069637138
 11
4.9929044094
 21
4.6074575596
  0
LINE
  5
3E7
100
AcDbEntity
  8
ALL_ASSEMBLY_MEMBERS
100
AcDbLine
 62
7
  6
CONTINUOUS
 10
4.9929044094
 20
4.6074575596
 11
4.9929864087
 21
4.6079442445
  0
LINE
  5
3E8
100
AcDbEntity
  8
ALL_ASSEMBLY_MEMBERS
100
AcDbLine
 62
7
  6
CONTINUOUS
 10
4.9929864087
 20
4.6079442445
 11
4.9930709303
 21
4.6084220793
  0
LINE
  5
3E9
100
AcDbEntity
  8
ALL_ASSEMBLY_MEMBERS
100
AcDbLine
 62
7
  6
CONTINUOUS
 10
4.9930709303
 20
4.6084220793
 11
4.9931575846
 21
4.6088900835
  0
LINE
  5
3EA
100
AcDbEntity
  8
ALL_ASSEMBLY_MEMBERS
100
AcDbLine
 62
7
  6
CONTINUOUS
 10
4.9931575846
 20
4.6088900835
 11
4.9932458348
 21
4.6093466777
  0
LINE
  5
3EB
100
AcDbEntity
  8
ALL_ASSEMBLY_MEMBERS
100
AcDbLine
 62
7
  6
CONTINUOUS
 10
4.9932348376
 20
4.6092915501
 11
4.9933355108
 21
4.6097922939
  0
LINE
  5
3EC
100
AcDbEntity
  8
ALL_ASSEMBLY_MEMBERS
100
AcDbLine
 62
7
  6
CONTINUOUS
 10
4.9932979739
 20
4.6096085817
 11
4.993380811
 21
4.6100110033
  0
LINE
  5
3ED
100
AcDbEntity
  8
ALL_ASSEMBLY_MEMBERS
100
AcDbLine
 62
7
  6
CONTINUOUS
 10
4.9933624823
 20
4.6099236542
 11
4.9934723123
 21
4.6104408056
  0
LINE
  5
3EE
100
AcDbEntity
  8
ALL_ASSEMBLY_MEMBERS
100
AcDbLine
 62
7
  6
CONTINUOUS
 10
4.9934256356
 20
4.6102240907
 11
4.9935184602
 21
4.6106519038
  0
LINE
  5
3EF
100
AcDbEntity
  8
ALL_ASSEMBLY_MEMBERS
100
AcDbLine
 62
7
  6
CONTINUOUS
 10
4.993480502
 20
4.6104791041
 11
4.993563813
 21
4.6108564161
  0
LINE
  5
3F0
100
AcDbEntity
  8
ALL_ASSEMBLY_MEMBERS
100
AcDbLine
 62
7
  6
CONTINUOUS
 10
4.9935384423
 20
4.6107427287
 11
4.9936333854
 21
4.6111629925
  0
LINE
  5
3F1
100
AcDbEntity
  8
ALL_ASSEMBLY_MEMBERS
100
AcDbLine
 62
7
  6
CONTINUOUS
 10
4.9935989418
 20
4.6110121442
 11
4.993705543
 21
4.6114729257
  0
LINE
  5
3F2
100
AcDbEntity
  8
ALL_ASSEMBLY_MEMBERS
100
AcDbLine
 62
7
  6
CONTINUOUS
 10
4.9936620838
 20
4.6112873303
 11
4.9937759093
 21
4.6117690684
  0
LINE
  5
3F3
100
AcDbEntity
  8
ALL_ASSEMBLY_MEMBERS
100
AcDbLine
 62
7
  6
CONTINUOUS
 10
4.9937279514
 20
4.6115682571
 11
4.993848795
 21
4.6120685662
  0
LINE
  5
3F4
100
AcDbEntity
  8
ALL_ASSEMBLY_MEMBERS
100
AcDbLine
 62
7
  6
CONTINUOUS
 10
4.9937959541
 20
4.6118521059
 11
4.9939226743
 21
4.6123655229
  0
LINE
  5
3F5
100
AcDbEntity
  8
ALL_ASSEMBLY_MEMBERS
100
AcDbLine
 62
7
  6
CONTINUOUS
 10
4.993866138
 20
4.6121388599
 11
4.9939975121
 21
4.6126599383
  0
LINE
  5
3F6
100
AcDbEntity
  8
ALL_ASSEMBLY_MEMBERS
100
AcDbLine
 62
7
  6
CONTINUOUS
 10
4.9939385489
 20
4.6124284991
 11
4.9940732737
 21
4.6129518138
  0
LINE
  5
3F7
100
AcDbEntity
  8
ALL_ASSEMBLY_MEMBERS
100
AcDbLine
 62
7
  6
CONTINUOUS
 10
4.9940125148
 20
4.6127182188
 11
4.9941498771
 21
4.6132409728
  0
LINE
  5
3F8
100
AcDbEntity
  8
ALL_ASSEMBLY_MEMBERS
100
AcDbLine
 62
7
  6
CONTINUOUS
 10
4.9940880384
 20
4.6130080027
 11
4.9942272528
 21
4.6135272972
  0
LINE
  5
3F9
100
AcDbEntity
  8
ALL_ASSEMBLY_MEMBERS
100
AcDbLine
 62
7
  6
CONTINUOUS
 10
4.9941651265
 20
4.6132978493
 11
4.9943053959
 21
4.6138109098
  0
LINE
  5
3FA
100
AcDbEntity
  8
ALL_ASSEMBLY_MEMBERS
100
AcDbLine
 62
7
  6
CONTINUOUS
 10
4.9942430296
 20
4.6135849972
 11
4.9943843219
 21
4.6140919952
  0
LINE
  5
3FB
100
AcDbEntity
  8
ALL_ASSEMBLY_MEMBERS
100
AcDbLine
 62
7
  6
CONTINUOUS
 10
4.9943217061
 20
4.6138694293
 11
4.9944641266
 21
4.6143710027
  0
LINE
  5
3FC
100
AcDbEntity
  8
ALL_ASSEMBLY_MEMBERS
100
AcDbLine
 62
7
  6
CONTINUOUS
 10
4.9944011251
 20
4.6141511676
 11
4.9945446525
 21
4.6146474863
  0
LINE
  5
3FD
100
AcDbEntity
  8
ALL_ASSEMBLY_MEMBERS
100
AcDbLine
 62
7
  6
CONTINUOUS
 10
4.9944804736
 20
4.6144275314
 11
4.9946255212
 21
4.6149202921
  0
LINE
  5
3FE
100
AcDbEntity
  8
ALL_ASSEMBLY_MEMBERS
100
AcDbLine
 62
7
  6
CONTINUOUS
 10
4.9945596864
 20
4.6146985631
 11
4.994707537
 21
4.6151922324
  0
LINE
  5
3FF
100
AcDbEntity
  8
ALL_ASSEMBLY_MEMBERS
100
AcDbLine
 62
7
  6
CONTINUOUS
 10
4.9946386833
 20
4.6149642491
 11
4.994789825
 21
4.6154605027
  0
LINE
  5
400
100
AcDbEntity
  8
ALL_ASSEMBLY_MEMBERS
100
AcDbLine
 62
7
  6
CONTINUOUS
 10
4.9947165538
 20
4.615221848
 11
4.9948696966
 21
4.6157167087
  0
LINE
  5
401
100
AcDbEntity
  8
ALL_ASSEMBLY_MEMBERS
100
AcDbLine
 62
7
  6
CONTINUOUS
 10
4.994789825
 20
4.6154605027
 11
4.9949414935
 21
4.6159436386
  0
LINE
  5
402
100
AcDbEntity
  8
ALL_ASSEMBLY_MEMBERS
100
AcDbLine
 62
7
  6
CONTINUOUS
 10
4.9948693388
 20
4.61571557
 11
4.9950214758
 21
4.6161928272
  0
LINE
  5
403
100
AcDbEntity
  8
ALL_ASSEMBLY_MEMBERS
100
AcDbLine
 62
7
  6
CONTINUOUS
 10
4.9949971469
 20
4.6161173713
 11
4.9951275424
 21
4.6165176602
  0
LINE
  5
404
100
AcDbEntity
  8
ALL_ASSEMBLY_MEMBERS
100
AcDbLine
 62
7
  6
CONTINUOUS
 10
4.9950864395
 20
4.6163925236
 11
4.9951982794
 21
4.6167308792
  0
LINE
  5
405
100
AcDbEntity
  8
ALL_ASSEMBLY_MEMBERS
100
AcDbLine
 62
7
  6
CONTINUOUS
 10
4.9951526763
 20
4.6165936227
 11
4.995376318
 21
4.6172560691
  0
LINE
  5
406
100
AcDbEntity
  8
ALL_ASSEMBLY_MEMBERS
100
AcDbLine
 62
7
  6
CONTINUOUS
 10
4.9953338965
 20
4.6171323843
 11
4.9954591213
 21
4.6174950445
  0
LINE
  5
407
100
AcDbEntity
  8
ALL_ASSEMBLY_MEMBERS
100
AcDbLine
 62
7
  6
CONTINUOUS
 10
4.9954171533
 20
4.6173743091
 11
4.9955097003
 21
4.6176393799
  0
LWPOLYLINE
  5
408
100
AcDbEntity
  8
ALL_ASSEMBLY_MEMBERS
100
AcDbPolyline
 62
7
  6
CONTINUOUS
 90
3
 70
0
 10
4.9954924391
 20
4.6175902612
 10
4.995639955
 20
4.6180059392
 10
4.9956936343
 20
4.6181548232
  0
LWPOLYLINE
  5
409
100
AcDbEntity
  8
ALL_ASSEMBLY_MEMBERS
100
AcDbPolyline
 62
7
  6
CONTINUOUS
 90
7
 70
0
 10
6.3180822981
 20
6.0192663043
 10
6.3182064733
 20
6.019428278
 10
6.3187178333
 20
6.0199313934
 10
6.3196163784
 20
6.0208003846
 10
6.3209086921
 20
6.0220687866
 10
6.3225881908
 20
6.0237519255
 10
6.3246351231
 20
6.0258191293
  0
LWPOLYLINE
  5
40A
100
AcDbEntity
  8
ALL_ASSEMBLY_MEMBERS
100
AcDbPolyline
 62
7
  6
CONTINUOUS
 90
4
 70
0
 10
4.5832458292
 20
4.2063006892
 10
4.5864030988
 20
4.2074052275
 10
4.5894768732
 20
4.2082958757
 10
4.5924981864
 20
4.2090013576
  0
LWPOLYLINE
  5
40B
100
AcDbEntity
  8
ALL_ASSEMBLY_MEMBERS
100
AcDbPolyline
 62
7
  6
CONTINUOUS
 90
6
 70
0
 10
4.9069908463
 20
4.6942103605
 10
4.9044530479
 20
4.6938178167
 10
4.9018784165
 20
4.6935322207
 10
4.8992237939
 20
4.6933547224
 10
4.8965508391
 20
4.6932950748
 10
4.8938647893
 20
4.693355155
  0
LINE
  5
40C
100
AcDbEntity
  8
ALL_ASSEMBLY_MEMBERS
100
AcDbLine
 62
7
  6
CONTINUOUS
 10
4.612325271
 20
4.6937921833
 11
4.6120465438
 21
4.6937566767
  0
LINE
  5
40D
100
AcDbEntity
  8
ALL_ASSEMBLY_MEMBERS
100
AcDbLine
 62
7
  6
CONTINUOUS
 10
4.6120465438
 20
4.6937566767
 11
4.6116889511
 21
4.6937131478
  0
LINE
  5
40E
100
AcDbEntity
  8
ALL_ASSEMBLY_MEMBERS
100
AcDbLine
 62
7
  6
CONTINUOUS
 10
4.6116889511
 20
4.6937131478
 11
4.6113285136
 21
4.6936714749
  0
LINE
  5
40F
100
AcDbEntity
  8
ALL_ASSEMBLY_MEMBERS
100
AcDbLine
 62
7
  6
CONTINUOUS
 10
4.6113285136
 20
4.6936714749
 11
4.6109651538
 21
4.6936316973
  0
LINE
  5
410
100
AcDbEntity
  8
ALL_ASSEMBLY_MEMBERS
100
AcDbLine
 62
7
  6
CONTINUOUS
 10
4.6109651538
 20
4.6936316973
 11
4.6105987948
 21
4.6935938569
  0
LINE
  5
411
100
AcDbEntity
  8
ALL_ASSEMBLY_MEMBERS
100
AcDbLine
 62
7
  6
CONTINUOUS
 10
4.6105987948
 20
4.6935938569
 11
4.6102293881
 21
4.6935580007
  0
LINE
  5
412
100
AcDbEntity
  8
ALL_ASSEMBLY_MEMBERS
100
AcDbLine
 62
7
  6
CONTINUOUS
 10
4.6102293881
 20
4.6935580007
 11
4.6098568576
 21
4.693524175
  0
LINE
  5
413
100
AcDbEntity
  8
ALL_ASSEMBLY_MEMBERS
100
AcDbLine
 62
7
  6
CONTINUOUS
 10
4.6098568576
 20
4.693524175
 11
4.6094811273
 21
4.6934924283
  0
LINE
  5
414
100
AcDbEntity
  8
ALL_ASSEMBLY_MEMBERS
100
AcDbLine
 62
7
  6
CONTINUOUS
 10
4.6094811273
 20
4.6934924283
 11
4.6091021505
 21
4.6934628143
  0
LINE
  5
415
100
AcDbEntity
  8
ALL_ASSEMBLY_MEMBERS
100
AcDbLine
 62
7
  6
CONTINUOUS
 10
4.6091021505
 20
4.6934628143
 11
4.6087198523
 21
4.6934353863
  0
LINE
  5
416
100
AcDbEntity
  8
ALL_ASSEMBLY_MEMBERS
100
AcDbLine
 62
7
  6
CONTINUOUS
 10
4.6087198523
 20
4.6934353863
 11
4.6083341585
 21
4.6934102003
  0
LINE
  5
417
100
AcDbEntity
  8
ALL_ASSEMBLY_MEMBERS
100
AcDbLine
 62
7
  6
CONTINUOUS
 10
4.6083341585
 20
4.6934102003
 11
4.6079450242
 21
4.6933873165
  0
LINE
  5
418
100
AcDbEntity
  8
ALL_ASSEMBLY_MEMBERS
100
AcDbLine
 62
7
  6
CONTINUOUS
 10
4.6079450242
 20
4.6933873165
 11
4.6075523787
 21
4.6933667959
  0
LINE
  5
419
100
AcDbEntity
  8
ALL_ASSEMBLY_MEMBERS
100
AcDbLine
 62
7
  6
CONTINUOUS
 10
4.6075523787
 20
4.6933667959
 11
4.6071561593
 21
4.6933487024
  0
LINE
  5
41A
100
AcDbEntity
  8
ALL_ASSEMBLY_MEMBERS
100
AcDbLine
 62
7
  6
CONTINUOUS
 10
4.6071561593
 20
4.6933487024
 11
4.60675625
 21
4.6933331004
  0
LINE
  5
41B
100
AcDbEntity
  8
ALL_ASSEMBLY_MEMBERS
100
AcDbLine
 62
7
  6
CONTINUOUS
 10
4.60675625
 20
4.6933331004
 11
4.6063523888
 21
4.6933200543
  0
LINE
  5
41C
100
AcDbEntity
  8
ALL_ASSEMBLY_MEMBERS
100
AcDbLine
 62
7
  6
CONTINUOUS
 10
4.6063523888
 20
4.6933200543
 11
4.6059440803
 21
4.6933096313
  0
LINE
  5
41D
100
AcDbEntity
  8
ALL_ASSEMBLY_MEMBERS
100
AcDbLine
 62
7
  6
CONTINUOUS
 10
4.6059440803
 20
4.6933096313
 11
4.605531024
 21
4.6933019161
  0
LINE
  5
41E
100
AcDbEntity
  8
ALL_ASSEMBLY_MEMBERS
100
AcDbLine
 62
7
  6
CONTINUOUS
 10
4.605531024
 20
4.6933019161
 11
4.6051127584
 21
4.693297002
  0
LINE
  5
41F
100
AcDbEntity
  8
ALL_ASSEMBLY_MEMBERS
100
AcDbLine
 62
7
  6
CONTINUOUS
 10
4.6051127584
 20
4.693297002
 11
4.6046888237
 21
4.6932949967
  0
LINE
  5
420
100
AcDbEntity
  8
ALL_ASSEMBLY_MEMBERS
100
AcDbLine
 62
7
  6
CONTINUOUS
 10
4.6046888237
 20
4.6932949967
 11
4.6042589214
 21
4.6932960218
  0
LINE
  5
421
100
AcDbEntity
  8
ALL_ASSEMBLY_MEMBERS
100
AcDbLine
 62
7
  6
CONTINUOUS
 10
4.6042589214
 20
4.6932960218
 11
4.6038225954
 21
4.6933002119
  0
LINE
  5
422
100
AcDbEntity
  8
ALL_ASSEMBLY_MEMBERS
100
AcDbLine
 62
7
  6
CONTINUOUS
 10
4.6038225954
 20
4.6933002119
 11
4.6033793903
 21
4.693307717
  0
LINE
  5
423
100
AcDbEntity
  8
ALL_ASSEMBLY_MEMBERS
100
AcDbLine
 62
7
  6
CONTINUOUS
 10
4.6033793903
 20
4.693307717
 11
4.6029290181
 21
4.6933186992
  0
LINE
  5
424
100
AcDbEntity
  8
ALL_ASSEMBLY_MEMBERS
100
AcDbLine
 62
7
  6
CONTINUOUS
 10
4.6029290181
 20
4.6933186992
 11
4.6024709345
 21
4.6933333411
  0
LINE
  5
425
100
AcDbEntity
  8
ALL_ASSEMBLY_MEMBERS
100
AcDbLine
 62
7
  6
CONTINUOUS
 10
4.6024709345
 20
4.6933333411
 11
4.6020052354
 21
4.6933518182
  0
LINE
  5
426
100
AcDbEntity
  8
ALL_ASSEMBLY_MEMBERS
100
AcDbLine
 62
7
  6
CONTINUOUS
 10
4.6020052354
 20
4.6933518182
 11
4.6015321887
 21
4.6933742977
  0
LINE
  5
427
100
AcDbEntity
  8
ALL_ASSEMBLY_MEMBERS
100
AcDbLine
 62
7
  6
CONTINUOUS
 10
4.6015321887
 20
4.6933742977
 11
4.601052565
 21
4.6934009123
  0
LINE
  5
428
100
AcDbEntity
  8
ALL_ASSEMBLY_MEMBERS
100
AcDbLine
 62
7
  6
CONTINUOUS
 10
4.601052565
 20
4.6934009123
 11
4.6005671287
 21
4.693431774
  0
LWPOLYLINE
  5
429
100
AcDbEntity
  8
ALL_ASSEMBLY_MEMBERS
100
AcDbPolyline
 62
7
  6
CONTINUOUS
 90
3
 70
0
 10
4.8938806427
 20
4.6933581126
 10
4.8910373431
 20
4.6935526084
 10
4.8888030133
 20
4.6938123632
  0
LINE
  5
42A
100
AcDbEntity
  8
ALL_ASSEMBLY_MEMBERS
100
AcDbLine
 62
7
  6
CONTINUOUS
 10
4.6005671287
 20
4.693431774
 11
4.6000763972
 21
4.6934669915
  0
LINE
  5
42B
100
AcDbEntity
  8
ALL_ASSEMBLY_MEMBERS
100
AcDbLine
 62
7
  6
CONTINUOUS
 10
4.6000763972
 20
4.6934669915
 11
4.5995811272
 21
4.6935066392
  0
LINE
  5
42C
100
AcDbEntity
  8
ALL_ASSEMBLY_MEMBERS
100
AcDbLine
 62
7
  6
CONTINUOUS
 10
4.5995811272
 20
4.6935066392
 11
4.5990820756
 21
4.6935507686
  0
LINE
  5
42D
100
AcDbEntity
  8
ALL_ASSEMBLY_MEMBERS
100
AcDbLine
 62
7
  6
CONTINUOUS
 10
4.5990820756
 20
4.6935507686
 11
4.5985797621
 21
4.693599432
  0
LINE
  5
42E
100
AcDbEntity
  8
ALL_ASSEMBLY_MEMBERS
100
AcDbLine
 62
7
  6
CONTINUOUS
 10
4.5985797621
 20
4.693599432
 11
4.5980748918
 21
4.6936526454
  0
LINE
  5
42F
100
AcDbEntity
  8
ALL_ASSEMBLY_MEMBERS
100
AcDbLine
 62
7
  6
CONTINUOUS
 10
4.5980748918
 20
4.6936526454
 11
4.5975684468
 21
4.6937103701
  0
LINE
  5
430
100
AcDbEntity
  8
ALL_ASSEMBLY_MEMBERS
100
AcDbLine
 62
7
  6
CONTINUOUS
 10
4.5975684468
 20
4.6937103701
 11
4.5970612918
 21
4.6937725495
  0
LINE
  5
431
100
AcDbEntity
  8
ALL_ASSEMBLY_MEMBERS
100
AcDbLine
 62
7
  6
CONTINUOUS
 10
4.5970612918
 20
4.6937725495
 11
4.5965550294
 21
4.6938389984
  0
LINE
  5
432
100
AcDbEntity
  8
ALL_ASSEMBLY_MEMBERS
100
AcDbLine
 62
7
  6
CONTINUOUS
 10
4.5965550294
 20
4.6938389984
 11
4.5960513136
 21
4.6939094698
  0
LINE
  5
433
100
AcDbEntity
  8
ALL_ASSEMBLY_MEMBERS
100
AcDbLine
 62
7
  6
CONTINUOUS
 10
4.5960513136
 20
4.6939094698
 11
4.5955512387
 21
4.6939837459
  0
LINE
  5
434
100
AcDbEntity
  8
ALL_ASSEMBLY_MEMBERS
100
AcDbLine
 62
7
  6
CONTINUOUS
 10
4.5955512387
 20
4.6939837459
 11
4.5950564241
 21
4.6940614874
  0
LINE
  5
435
100
AcDbEntity
  8
ALL_ASSEMBLY_MEMBERS
100
AcDbLine
 62
7
  6
CONTINUOUS
 10
4.5950564241
 20
4.6940614874
 11
4.5945684788
 21
4.6941423028
  0
LINE
  5
436
100
AcDbEntity
  8
ALL_ASSEMBLY_MEMBERS
100
AcDbLine
 62
7
  6
CONTINUOUS
 10
4.5945684788
 20
4.6941423028
 11
4.5940884704
 21
4.694225844
  0
LINE
  5
437
100
AcDbEntity
  8
ALL_ASSEMBLY_MEMBERS
100
AcDbLine
 62
7
  6
CONTINUOUS
 10
4.5940884704
 20
4.694225844
 11
4.5936180843
 21
4.6943116147
  0
LINE
  5
438
100
AcDbEntity
  8
ALL_ASSEMBLY_MEMBERS
100
AcDbLine
 62
7
  6
CONTINUOUS
 10
4.5936180843
 20
4.6943116147
 11
4.5932506917
 21
4.6943811534
  0
LINE
  5
439
100
AcDbEntity
  8
ALL_ASSEMBLY_MEMBERS
100
AcDbLine
 62
7
  6
CONTINUOUS
 10
4.5933868438
 20
4.6943552014
 11
4.5929329478
 21
4.6944434923
  0
LINE
  5
43A
100
AcDbEntity
  8
ALL_ASSEMBLY_MEMBERS
100
AcDbLine
 62
7
  6
CONTINUOUS
 10
4.5930568873
 20
4.6944188762
 11
4.5926084822
 21
4.6945086976
  0
LINE
  5
43B
100
AcDbEntity
  8
ALL_ASSEMBLY_MEMBERS
100
AcDbLine
 62
7
  6
CONTINUOUS
 10
4.5927398549
 20
4.6944820136
 11
4.5922723598
 21
4.6945784944
  0
LINE
  5
43C
100
AcDbEntity
  8
ALL_ASSEMBLY_MEMBERS
100
AcDbLine
 62
7
  6
CONTINUOUS
 10
4.5924247818
 20
4.6945465231
 11
4.5920573501
 21
4.6946241065
  0
LINE
  5
43D
100
AcDbEntity
  8
ALL_ASSEMBLY_MEMBERS
100
AcDbLine
 62
7
  6
CONTINUOUS
 10
4.5921244148
 20
4.6946096624
 11
4.5918007687
 21
4.6946794941
  0
LINE
  5
43E
100
AcDbEntity
  8
ALL_ASSEMBLY_MEMBERS
100
AcDbLine
 62
7
  6
CONTINUOUS
 10
4.5918694024
 20
4.6946645291
 11
4.5914271416
 21
4.6947625535
  0
LINE
  5
43F
100
AcDbEntity
  8
ALL_ASSEMBLY_MEMBERS
100
AcDbLine
 62
7
  6
CONTINUOUS
 10
4.5916057794
 20
4.6947224695
 11
4.5911854413
 21
4.6948174304
  0
LINE
  5
440
100
AcDbEntity
  8
ALL_ASSEMBLY_MEMBERS
100
AcDbLine
 62
7
  6
CONTINUOUS
 10
4.591336366
 20
4.694782969
 11
4.590881223
 21
4.6948881412
  0
LINE
  5
441
100
AcDbEntity
  8
ALL_ASSEMBLY_MEMBERS
100
AcDbLine
 62
7
  6
CONTINUOUS
 10
4.5910611825
 20
4.6948461108
 11
4.5905793647
 21
4.6949599563
  0
LINE
  5
442
100
AcDbEntity
  8
ALL_ASSEMBLY_MEMBERS
100
AcDbLine
 62
7
  6
CONTINUOUS
 10
4.5907802588
 20
4.6949119781
 11
4.5902798666
 21
4.695032843
  0
LINE
  5
443
100
AcDbEntity
  8
ALL_ASSEMBLY_MEMBERS
100
AcDbLine
 62
7
  6
CONTINUOUS
 10
4.5904964134
 20
4.6949799804
 11
4.5899829097
 21
4.6951067232
  0
LINE
  5
444
100
AcDbEntity
  8
ALL_ASSEMBLY_MEMBERS
100
AcDbLine
 62
7
  6
CONTINUOUS
 10
4.5902096631
 20
4.6950501639
 11
4.5896884942
 21
4.695181562
  0
LINE
  5
445
100
AcDbEntity
  8
ALL_ASSEMBLY_MEMBERS
100
AcDbLine
 62
7
  6
CONTINUOUS
 10
4.5899200279
 20
4.6951225742
 11
4.5893966186
 21
4.6952573245
  0
LINE
  5
446
100
AcDbEntity
  8
ALL_ASSEMBLY_MEMBERS
100
AcDbLine
 62
7
  6
CONTINUOUS
 10
4.5896303122
 20
4.6951965394
 11
4.5891074597
 21
4.6953339289
  0
LINE
  5
447
100
AcDbEntity
  8
ALL_ASSEMBLY_MEMBERS
100
AcDbLine
 62
7
  6
CONTINUOUS
 10
4.5893405324
 20
4.6952720624
 11
4.5888211354
 21
4.6954113054
  0
LINE
  5
448
100
AcDbEntity
  8
ALL_ASSEMBLY_MEMBERS
100
AcDbLine
 62
7
  6
CONTINUOUS
 10
4.58905069
 20
4.6953491497
 11
4.5885375231
 21
4.6954894493
  0
LINE
  5
449
100
AcDbEntity
  8
ALL_ASSEMBLY_MEMBERS
100
AcDbLine
 62
7
  6
CONTINUOUS
 10
4.5887635463
 20
4.695427052
 11
4.5882564378
 21
4.6955683761
  0
LINE
  5
44A
100
AcDbEntity
  8
ALL_ASSEMBLY_MEMBERS
100
AcDbLine
 62
7
  6
CONTINUOUS
 10
4.5884791182
 20
4.6955057276
 11
4.5879774296
 21
4.695648182
  0
LINE
  5
44B
100
AcDbEntity
  8
ALL_ASSEMBLY_MEMBERS
100
AcDbLine
 62
7
  6
CONTINUOUS
 10
4.5881973838
 20
4.6955851459
 11
4.5877009451
 21
4.695728709
  0
LINE
  5
44C
100
AcDbEntity
  8
ALL_ASSEMBLY_MEMBERS
100
AcDbLine
 62
7
  6
CONTINUOUS
 10
4.5879210235
 20
4.6956644936
 11
4.5874281398
 21
4.6958095784
  0
LINE
  5
44D
100
AcDbEntity
  8
ALL_ASSEMBLY_MEMBERS
100
AcDbLine
 62
7
  6
CONTINUOUS
 10
4.5876499951
 20
4.6957437056
 11
4.5871562019
 21
4.6958915943
  0
LINE
  5
44E
100
AcDbEntity
  8
ALL_ASSEMBLY_MEMBERS
100
AcDbLine
 62
7
  6
CONTINUOUS
 10
4.5873843121
 20
4.6958227019
 11
4.5868879355
 21
4.695973882
  0
LINE
  5
44F
100
AcDbEntity
  8
ALL_ASSEMBLY_MEMBERS
100
AcDbLine
 62
7
  6
CONTINUOUS
 10
4.5871267155
 20
4.6959005719
 11
4.5866318569
 21
4.6960537144
  0
LINE
  5
450
100
AcDbEntity
  8
ALL_ASSEMBLY_MEMBERS
100
AcDbLine
 62
7
  6
CONTINUOUS
 10
4.5868879355
 20
4.695973882
 11
4.5863876937
 21
4.6961310043
  0
LINE
  5
451
100
AcDbEntity
  8
ALL_ASSEMBLY_MEMBERS
100
AcDbLine
 62
7
  6
CONTINUOUS
 10
4.5865122927
 20
4.69609144
 11
4.5861556315
 21
4.6962055285
  0
LINE
  5
452
100
AcDbEntity
  8
ALL_ASSEMBLY_MEMBERS
100
AcDbLine
 62
7
  6
CONTINUOUS
 10
4.5861934391
 20
4.6961933324
 11
4.5857979237
 21
4.6963224448
  0
LINE
  5
453
100
AcDbEntity
  8
ALL_ASSEMBLY_MEMBERS
100
AcDbLine
 62
7
  6
CONTINUOUS
 10
4.5858873794
 20
4.6962929859
 11
4.5855957002
 21
4.6963896519
  0
LINE
  5
454
100
AcDbEntity
  8
ALL_ASSEMBLY_MEMBERS
100
AcDbLine
 62
7
  6
CONTINUOUS
 10
4.5856188388
 20
4.6963819389
 11
4.5849411344
 21
4.6966126524
  0
LINE
  5
455
100
AcDbEntity
  8
ALL_ASSEMBLY_MEMBERS
100
AcDbLine
 62
7
  6
CONTINUOUS
 10
4.5851382584
 20
4.6965446053
 11
4.5844658306
 21
4.6967798936
  0
LINE
  5
456
100
AcDbEntity
  8
ALL_ASSEMBLY_MEMBERS
100
AcDbLine
 62
7
  6
CONTINUOUS
 10
4.5844658306
 20
4.6967798936
 11
4.5841921639
 21
4.6968782254
  0
LWPOLYLINE
  5
457
100
AcDbEntity
  8
ALL_ASSEMBLY_MEMBERS
100
AcDbPolyline
 62
7
  6
CONTINUOUS
 90
4
 70
0
 10
4.995198913
 20
4.2868042613
 10
4.9942848652
 20
4.2897984644
 10
4.9935610684
 20
4.2926892505
 10
4.9930263605
 20
4.2953577209
  0
LWPOLYLINE
  5
458
100
AcDbEntity
  8
ALL_ASSEMBLY_MEMBERS
100
AcDbPolyline
 62
7
  6
CONTINUOUS
 90
6
 70
0
 10
4.9930263605
 20
4.2953577209
 10
4.9926338154
 20
4.2978955182
 10
4.9923482179
 20
4.3004701483
 10
4.9921707179
 20
4.303124769
 10
4.9921110686
 20
4.3057977217
 10
4.9921711469
 20
4.3084837691
  0
LINE
  5
459
100
AcDbEntity
  8
ALL_ASSEMBLY_MEMBERS
100
AcDbLine
 62
7
  6
CONTINUOUS
 10
4.9926081678
 20
4.5900233482
 11
4.9925781657
 21
4.5902581489
  0
LINE
  5
45A
100
AcDbEntity
  8
ALL_ASSEMBLY_MEMBERS
100
AcDbLine
 62
7
  6
CONTINUOUS
 10
4.9925781657
 20
4.5902581489
 11
4.9925344773
 21
4.5906148375
  0
LWPOLYLINE
  5
45B
100
AcDbEntity
  8
ALL_ASSEMBLY_MEMBERS
100
AcDbPolyline
 62
7
  6
CONTINUOUS
 90
3
 70
0
 10
4.9925344773
 20
4.5906148375
 10
4.9924926338
 20
4.5909743564
 10
4.9924724154
 20
4.5911552072
  0
LINE
  5
45C
100
AcDbEntity
  8
ALL_ASSEMBLY_MEMBERS
100
AcDbLine
 62
7
  6
CONTINUOUS
 10
4.6855822981
 20
5.0475495724
 11
4.8155822981
 21
5.0475495724
  0
LINE
  5
45D
100
AcDbEntity
  8
ALL_ASSEMBLY_MEMBERS
100
AcDbLine
 62
7
  6
CONTINUOUS
 10
4.7060368436
 20
5.0759904637
 11
4.7951277527
 21
5.0759904637
  0
LINE
  5
45E
100
AcDbEntity
  8
ALL_ASSEMBLY_MEMBERS
100
AcDbLine
 62
7
  6
CONTINUOUS
 10
4.1818470054
 20
5.1267663043
 11
4.3348175908
 21
5.1267663043
  0
LINE
  5
45F
100
AcDbEntity
  8
ALL_ASSEMBLY_MEMBERS
100
AcDbLine
 62
7
  6
CONTINUOUS
 10
5.1663470054
 20
5.1267663043
 11
5.3193175908
 21
5.1267663043
  0
LINE
  5
460
100
AcDbEntity
  8
ALL_ASSEMBLY_MEMBERS
100
AcDbLine
 62
7
  6
CONTINUOUS
 10
5.3193175908
 20
5.1517663043
 11
5.1663470054
 21
5.1517663043
  0
LINE
  5
461
100
AcDbEntity
  8
ALL_ASSEMBLY_MEMBERS
100
AcDbLine
 62
7
  6
CONTINUOUS
 10
4.3348175908
 20
5.1517663043
 11
4.1818470054
 21
5.1517663043
  0
LINE
  5
462
100
AcDbEntity
  8
ALL_ASSEMBLY_MEMBERS
100
AcDbLine
 62
7
  6
CONTINUOUS
 10
6.3180822981
 20
2.8842663043
 11
6.3180822981
 21
6.0192663043
  0
LINE
  5
463
100
AcDbEntity
  8
ALL_ASSEMBLY_MEMBERS
100
AcDbLine
 62
7
  6
CONTINUOUS
 10
6.3755822981
 20
2.8267663043
 11
6.3755822981
 21
6.0767663043
  0
LINE
  5
464
100
AcDbEntity
  8
ALL_ASSEMBLY_MEMBERS
100
AcDbLine
 62
7
  6
CONTINUOUS
 10
6.3180822981
 20
6.0192663043
 11
3.1830822981
 21
6.0192663043
  0
LINE
  5
465
100
AcDbEntity
  8
ALL_ASSEMBLY_MEMBERS
100
AcDbLine
 62
7
  6
CONTINUOUS
 10
6.3755822981
 20
6.0767663043
 11
3.1255822981
 21
6.0767663043
  0
ARC
  5
466
100
AcDbEntity
  8
ALL_ASSEMBLY_MEMBERS
100
AcDbCircle
 62
7
  6
CONTINUOUS
 10
4.6046127903
 20
4.1502661546
 40
0.0599767716
100
AcDbArc
 50
123.9019150387
 51
127.4677612488
  0
ARC
  5
467
100
AcDbEntity
  8
ALL_ASSEMBLY_MEMBERS
100
AcDbCircle
 62
7
  6
CONTINUOUS
 10
4.6046127903
 20
4.1502661546
 40
0.0599767716
100
AcDbArc
 50
119.7973820457
 51
122.6765316728
  0
ARC
  5
468
100
AcDbEntity
  8
ALL_ASSEMBLY_MEMBERS
100
AcDbCircle
 62
7
  6
CONTINUOUS
 10
4.6046127903
 20
4.1502661546
 40
0.0599767716
100
AcDbArc
 50
115.8029843998
 51
118.5542746525
  0
ARC
  5
469
100
AcDbEntity
  8
ALL_ASSEMBLY_MEMBERS
100
AcDbCircle
 62
7
  6
CONTINUOUS
 10
4.6046127903
 20
4.1502661546
 40
0.0599767716
100
AcDbArc
 50
114.5365092246
 51
115.3239807264
  0
ARC
  5
46A
100
AcDbEntity
  8
ALL_ASSEMBLY_MEMBERS
100
AcDbCircle
 62
7
  6
CONTINUOUS
 10
4.6046127903
 20
4.1502661546
 40
0.0599767716
100
AcDbArc
 50
84.4219894377
 51
99.8229709441
  0
ARC
  5
46B
100
AcDbEntity
  8
ALL_ASSEMBLY_MEMBERS
100
AcDbCircle
 62
7
  6
CONTINUOUS
 10
4.6046127903
 20
4.1502661546
 40
0.0599767716
100
AcDbArc
 50
82.417858755
 51
83.1182807171
  0
ARC
  5
46C
100
AcDbEntity
  8
ALL_ASSEMBLY_MEMBERS
100
AcDbCircle
 62
7
  6
CONTINUOUS
 10
4.6045082083
 20
4.1508781064
 40
0.0595118699
100
AcDbArc
 50
82.5507326263
 51
111.2880414398
  0
ARC
  5
46D
100
AcDbEntity
  8
ALL_ASSEMBLY_MEMBERS
100
AcDbCircle
 62
7
  6
CONTINUOUS
 10
4.6044253557
 20
4.1510960064
 40
0.0592788899
100
AcDbArc
 50
111.2898882753
 51
115.2215960367
  0
ARC
  5
46E
100
AcDbEntity
  8
ALL_ASSEMBLY_MEMBERS
100
AcDbCircle
 62
7
  6
CONTINUOUS
 10
4.6042130658
 20
4.1514968018
 40
0.0588258464
100
AcDbArc
 50
115.2008845894
 51
131.0069049058
  0
ARC
  5
46F
100
AcDbEntity
  8
ALL_ASSEMBLY_MEMBERS
100
AcDbCircle
 62
7
  6
CONTINUOUS
 10
4.6037179819
 20
4.152068088
 40
0.0580698872
100
AcDbArc
 50
131.0081322767
 51
134.9973700086
  0
ARC
  5
470
100
AcDbEntity
  8
ALL_ASSEMBLY_MEMBERS
100
AcDbCircle
 62
7
  6
CONTINUOUS
 10
4.3263182294
 20
4.0275022356
 40
0.05
100
AcDbArc
 50
135.0
 51
315.0
  0
ARC
  5
471
100
AcDbEntity
  8
ALL_ASSEMBLY_MEMBERS
100
AcDbCircle
 62
7
  6
CONTINUOUS
 10
4.3352490436
 20
4.0314672064
 40
0.0464886185
100
AcDbArc
 50
310.5464538474
 51
314.9975807136
  0
ARC
  5
472
100
AcDbEntity
  8
ALL_ASSEMBLY_MEMBERS
100
AcDbCircle
 62
7
  6
CONTINUOUS
 10
4.3302831997
 20
4.0364330503
 40
0.0464886178
100
AcDbArc
 50
135.0024192804
 51
139.453542694
  0
CIRCLE
  5
473
100
AcDbEntity
  8
ALL_ASSEMBLY_MEMBERS
100
AcDbCircle
 62
7
  6
CONTINUOUS
 10
4.2583322981
 20
5.1392663043
 40
0.07825
  0
ARC
  5
474
100
AcDbEntity
  8
ALL_ASSEMBLY_MEMBERS
100
AcDbCircle
 62
7
  6
CONTINUOUS
 10
4.2583322981
 20
5.1392663043
 40
0.0775
100
AcDbArc
 50
189.2817990867
 51
350.7182009133
  0
ARC
  5
475
100
AcDbEntity
  8
ALL_ASSEMBLY_MEMBERS
100
AcDbCircle
 62
7
  6
CONTINUOUS
 10
4.2583322981
 20
5.1392663043
 40
0.0775
100
AcDbArc
 50
9.2817990867
 51
170.7182009133
  0
ARC
  5
476
100
AcDbEntity
  8
ALL_ASSEMBLY_MEMBERS
100
AcDbCircle
 62
7
  6
CONTINUOUS
 10
4.4490821484
 20
4.5977358122
 40
0.0599767716
100
AcDbArc
 50
33.9020551937
 51
37.4680061154
  0
ARC
  5
477
100
AcDbEntity
  8
ALL_ASSEMBLY_MEMBERS
100
AcDbCircle
 62
7
  6
CONTINUOUS
 10
4.4490821484
 20
4.5977358122
 40
0.0599767716
100
AcDbArc
 50
29.7957764388
 51
32.6769081607
  0
ARC
  5
478
100
AcDbEntity
  8
ALL_ASSEMBLY_MEMBERS
100
AcDbCircle
 62
7
  6
CONTINUOUS
 10
4.4490821484
 20
4.5977358122
 40
0.0599767716
100
AcDbArc
 50
25.8034707387
 51
28.5476780236
  0
ARC
  5
479
100
AcDbEntity
  8
ALL_ASSEMBLY_MEMBERS
100
AcDbCircle
 62
7
  6
CONTINUOUS
 10
4.4490821484
 20
4.5977358122
 40
0.0599767716
100
AcDbArc
 50
24.286864461
 51
25.3239807264
  0
ARC
  5
47A
100
AcDbEntity
  8
ALL_ASSEMBLY_MEMBERS
100
AcDbCircle
 62
7
  6
CONTINUOUS
 10
4.4490821484
 20
4.5977358122
 40
0.0599767716
100
AcDbArc
 50
17.7790178445
 51
21.3887768717
  0
ARC
  5
47B
100
AcDbEntity
  8
ALL_ASSEMBLY_MEMBERS
100
AcDbCircle
 62
7
  6
CONTINUOUS
 10
4.4490821484
 20
4.5977358122
 40
0.0599767716
100
AcDbArc
 50
354.3729024199
 51
1.712757598
  0
ARC
  5
47C
100
AcDbEntity
  8
ALL_ASSEMBLY_MEMBERS
100
AcDbCircle
 62
7
  6
CONTINUOUS
 10
4.4490821484
 20
4.5977358122
 40
0.0599767716
100
AcDbArc
 50
352.5265241945
 51
352.9834124486
  0
ARC
  5
47D
100
AcDbEntity
  8
ALL_ASSEMBLY_MEMBERS
100
AcDbCircle
 62
7
  6
CONTINUOUS
 10
4.4496934979
 20
4.5978402627
 40
0.0595124803
100
AcDbArc
 50
352.663510525
 51
21.2879488812
  0
ARC
  5
47E
100
AcDbEntity
  8
ALL_ASSEMBLY_MEMBERS
100
AcDbCircle
 62
7
  6
CONTINUOUS
 10
4.4499120002
 20
4.5979232467
 40
0.0592788899
100
AcDbArc
 50
21.2898882753
 51
25.2215960367
  0
ARC
  5
47F
100
AcDbEntity
  8
ALL_ASSEMBLY_MEMBERS
100
AcDbCircle
 62
7
  6
CONTINUOUS
 10
4.4503127956
 20
4.5981355367
 40
0.0588258464
100
AcDbArc
 50
25.2008845894
 51
41.0069049058
  0
ARC
  5
480
100
AcDbEntity
  8
ALL_ASSEMBLY_MEMBERS
100
AcDbCircle
 62
7
  6
CONTINUOUS
 10
4.4508840817
 20
4.5986306206
 40
0.0580698872
100
AcDbArc
 50
41.0081322767
 51
44.9973700085
  0
ARC
  5
481
100
AcDbEntity
  8
ALL_ASSEMBLY_MEMBERS
100
AcDbCircle
 62
7
  6
CONTINUOUS
 10
4.3263182294
 20
4.8760303731
 40
0.05
100
AcDbArc
 50
45.0
 51
225.0
  0
ARC
  5
482
100
AcDbEntity
  8
ALL_ASSEMBLY_MEMBERS
100
AcDbCircle
 62
7
  6
CONTINUOUS
 10
4.3302832002
 20
4.8670995589
 40
0.0464886185
100
AcDbArc
 50
220.5464538474
 51
224.9975807136
  0
ARC
  5
483
100
AcDbEntity
  8
ALL_ASSEMBLY_MEMBERS
100
AcDbCircle
 62
7
  6
CONTINUOUS
 10
4.3352490441
 20
4.8720654028
 40
0.0464886178
100
AcDbArc
 50
45.0024192803
 51
49.453542694
  0
ARC
  5
484
100
AcDbEntity
  8
ALL_ASSEMBLY_MEMBERS
100
AcDbCircle
 62
7
  6
CONTINUOUS
 10
4.7155822981
 20
5.0475495724
 40
0.03
100
AcDbArc
 50
108.553004535
 51
180.0
  0
ARC
  5
485
100
AcDbEntity
  8
ALL_ASSEMBLY_MEMBERS
100
AcDbCircle
 62
7
  6
CONTINUOUS
 10
4.7505822981
 20
4.4517663043
 40
0.56
100
AcDbArc
 50
96.6656940154
 51
129.8768899709
  0
ARC
  5
486
100
AcDbEntity
  8
ALL_ASSEMBLY_MEMBERS
100
AcDbCircle
 62
7
  6
CONTINUOUS
 10
4.7505822981
 20
4.4517663043
 40
0.56
100
AcDbArc
 50
50.1231100291
 51
83.3343059846
  0
ARC
  5
487
100
AcDbEntity
  8
ALL_ASSEMBLY_MEMBERS
100
AcDbCircle
 62
7
  6
CONTINUOUS
 10
4.7505822981
 20
4.4517663043
 40
0.56
100
AcDbArc
 50
140.1231100291
 51
219.8768899709
  0
ARC
  5
488
100
AcDbEntity
  8
ALL_ASSEMBLY_MEMBERS
100
AcDbCircle
 62
7
  6
CONTINUOUS
 10
4.7505822981
 20
4.4517663043
 40
0.56
100
AcDbArc
 50
230.1231100291
 51
309.8768899709
  0
ARC
  5
489
100
AcDbEntity
  8
ALL_ASSEMBLY_MEMBERS
100
AcDbCircle
 62
7
  6
CONTINUOUS
 10
4.7505822981
 20
4.4517663043
 40
0.56
100
AcDbArc
 50
320.1231100291
 51
39.8768899709
  0
ARC
  5
48A
100
AcDbEntity
  8
ALL_ASSEMBLY_MEMBERS
100
AcDbCircle
 62
7
  6
CONTINUOUS
 10
4.7505822981
 20
4.4517663043
 40
0.53
100
AcDbArc
 50
230.4134972721
 51
309.5865027279
  0
ARC
  5
48B
100
AcDbEntity
  8
ALL_ASSEMBLY_MEMBERS
100
AcDbCircle
 62
7
  6
CONTINUOUS
 10
4.7505822981
 20
4.4517663043
 40
0.53
100
AcDbArc
 50
140.4141197547
 51
219.5858802453
  0
ARC
  5
48C
100
AcDbEntity
  8
ALL_ASSEMBLY_MEMBERS
100
AcDbCircle
 62
7
  6
CONTINUOUS
 10
4.7505822981
 20
4.4517663043
 40
0.53
100
AcDbArc
 50
97.0458462332
 51
129.5865027279
  0
ARC
  5
48D
100
AcDbEntity
  8
ALL_ASSEMBLY_MEMBERS
100
AcDbCircle
 62
7
  6
CONTINUOUS
 10
4.7505822981
 20
4.4517663043
 40
0.53
100
AcDbArc
 50
50.4134972721
 51
82.9541537668
  0
ARC
  5
48E
100
AcDbEntity
  8
ALL_ASSEMBLY_MEMBERS
100
AcDbCircle
 62
7
  6
CONTINUOUS
 10
4.7505822981
 20
4.4517663043
 40
0.53
100
AcDbArc
 50
320.4141197547
 51
39.5858802453
  0
ARC
  5
48F
100
AcDbEntity
  8
ALL_ASSEMBLY_MEMBERS
100
AcDbCircle
 62
7
  6
CONTINUOUS
 10
4.7505822981
 20
4.4517663043
 40
0.5
100
AcDbArc
 50
230.739268589
 51
309.260731411
  0
ARC
  5
490
100
AcDbEntity
  8
ALL_ASSEMBLY_MEMBERS
100
AcDbCircle
 62
7
  6
CONTINUOUS
 10
4.7505822981
 20
4.4517663043
 40
0.5
100
AcDbArc
 50
140.740316069
 51
219.259683931
  0
ARC
  5
491
100
AcDbEntity
  8
ALL_ASSEMBLY_MEMBERS
100
AcDbCircle
 62
7
  6
CONTINUOUS
 10
4.7505822981
 20
4.4517663043
 40
0.5
100
AcDbArc
 50
97.4709326377
 51
129.260731411
  0
ARC
  5
492
100
AcDbEntity
  8
ALL_ASSEMBLY_MEMBERS
100
AcDbCircle
 62
7
  6
CONTINUOUS
 10
4.7505822981
 20
4.4517663043
 40
0.5
100
AcDbArc
 50
50.739268589
 51
82.5290673623
  0
ARC
  5
493
100
AcDbEntity
  8
ALL_ASSEMBLY_MEMBERS
100
AcDbCircle
 62
7
  6
CONTINUOUS
 10
4.7505822981
 20
4.4517663043
 40
0.5
100
AcDbArc
 50
320.740316069
 51
39.259683931
  0
ARC
  5
494
100
AcDbEntity
  8
ALL_ASSEMBLY_MEMBERS
100
AcDbCircle
 62
7
  6
CONTINUOUS
 10
4.7505822981
 20
4.4517663043
 40
0.4925
100
AcDbArc
 50
97.5865465151
 51
129.172996856
  0
ARC
  5
495
100
AcDbEntity
  8
ALL_ASSEMBLY_MEMBERS
100
AcDbCircle
 62
7
  6
CONTINUOUS
 10
4.7505822981
 20
4.4517663043
 40
0.4925
100
AcDbArc
 50
50.827003144
 51
82.4134534849
  0
ARC
  5
496
100
AcDbEntity
  8
ALL_ASSEMBLY_MEMBERS
100
AcDbCircle
 62
7
  6
CONTINUOUS
 10
4.7505822981
 20
4.4517663043
 40
0.4925
100
AcDbArc
 50
320.827003144
 51
39.172996856
  0
ARC
  5
497
100
AcDbEntity
  8
ALL_ASSEMBLY_MEMBERS
100
AcDbCircle
 62
7
  6
CONTINUOUS
 10
4.7505822981
 20
4.4517663043
 40
0.4925
100
AcDbArc
 50
230.827003144
 51
309.172996856
  0
ARC
  5
498
100
AcDbEntity
  8
ALL_ASSEMBLY_MEMBERS
100
AcDbCircle
 62
7
  6
CONTINUOUS
 10
4.7505822981
 20
4.4517663043
 40
0.4925
100
AcDbArc
 50
140.827003144
 51
219.172996856
  0
ARC
  5
499
100
AcDbEntity
  8
ALL_ASSEMBLY_MEMBERS
100
AcDbCircle
 62
7
  6
CONTINUOUS
 10
4.7505822981
 20
4.4517663043
 40
0.485
100
AcDbArc
 50
320.9176172491
 51
39.0823827509
  0
ARC
  5
49A
100
AcDbEntity
  8
ALL_ASSEMBLY_MEMBERS
100
AcDbCircle
 62
7
  6
CONTINUOUS
 10
4.7505822981
 20
4.4517663043
 40
0.485
100
AcDbArc
 50
50.9176172491
 51
129.0823827509
  0
ARC
  5
49B
100
AcDbEntity
  8
ALL_ASSEMBLY_MEMBERS
100
AcDbCircle
 62
7
  6
CONTINUOUS
 10
4.7505822981
 20
4.4517663043
 40
0.485
100
AcDbArc
 50
140.9176172491
 51
219.0823827509
  0
ARC
  5
49C
100
AcDbEntity
  8
ALL_ASSEMBLY_MEMBERS
100
AcDbCircle
 62
7
  6
CONTINUOUS
 10
4.7505822981
 20
4.4517663043
 40
0.485
100
AcDbArc
 50
230.9176172491
 51
309.0823827509
  0
ARC
  5
49D
100
AcDbEntity
  8
ALL_ASSEMBLY_MEMBERS
100
AcDbCircle
 62
7
  6
CONTINUOUS
 10
4.7505822981
 20
4.4517663043
 40
0.3232712108
100
AcDbArc
 50
143.8993329012
 51
216.1006670988
  0
ARC
  5
49E
100
AcDbEntity
  8
ALL_ASSEMBLY_MEMBERS
100
AcDbCircle
 62
7
  6
CONTINUOUS
 10
4.7505822981
 20
4.4517663043
 40
0.3232712108
100
AcDbArc
 50
53.8993329012
 51
126.1006670988
  0
ARC
  5
49F
100
AcDbEntity
  8
ALL_ASSEMBLY_MEMBERS
100
AcDbCircle
 62
7
  6
CONTINUOUS
 10
4.7505822981
 20
4.4517663043
 40
0.3232712108
100
AcDbArc
 50
323.8993329012
 51
36.1006670988
  0
ARC
  5
4A0
100
AcDbEntity
  8
ALL_ASSEMBLY_MEMBERS
100
AcDbCircle
 62
7
  6
CONTINUOUS
 10
4.7505822981
 20
4.4517663043
 40
0.3232712108
100
AcDbArc
 50
233.8993329012
 51
306.1006670988
  0
CIRCLE
  5
4A1
100
AcDbEntity
  8
ALL_ASSEMBLY_MEMBERS
100
AcDbCircle
 62
7
  6
CONTINUOUS
 10
4.7505822981
 20
4.4517663043
 40
0.27875
  0
CIRCLE
  5
4A2
100
AcDbEntity
  8
ALL_ASSEMBLY_MEMBERS
100
AcDbCircle
 62
7
  6
CONTINUOUS
 10
4.7505822981
 20
4.4517663043
 40
0.25875
  0
CIRCLE
  5
4A3
100
AcDbEntity
  8
ALL_ASSEMBLY_MEMBERS
100
AcDbCircle
 62
7
  6
CONTINUOUS
 10
4.7505822981
 20
4.4517663043
 40
0.21248501
  0
CIRCLE
  5
4A4
100
AcDbEntity
  8
ALL_ASSEMBLY_MEMBERS
100
AcDbCircle
 62
7
  6
CONTINUOUS
 10
4.7505822981
 20
4.4517663043
 40
0.20375
  0
CIRCLE
  5
4A5
100
AcDbEntity
  8
ALL_ASSEMBLY_MEMBERS
100
AcDbCircle
 62
7
  6
CONTINUOUS
 10
4.7505822981
 20
4.4517663043
 40
0.2
  0
CIRCLE
  5
4A6
100
AcDbEntity
  8
ALL_ASSEMBLY_MEMBERS
100
AcDbCircle
 62
7
  6
CONTINUOUS
 10
4.7505822981
 20
4.4517663043
 40
0.1964589235
  0
ARC
  5
4A7
100
AcDbEntity
  8
ALL_ASSEMBLY_MEMBERS
100
AcDbCircle
 62
7
  6
CONTINUOUS
 10
5.1748463668
 20
4.0275022356
 40
0.05
100
AcDbArc
 50
225.0
 51
45.0
  0
ARC
  5
4A8
100
AcDbEntity
  8
ALL_ASSEMBLY_MEMBERS
100
AcDbCircle
 62
7
  6
CONTINUOUS
 10
5.1708813961
 20
4.0364330498
 40
0.0464886185
100
AcDbArc
 50
40.5464538473
 51
44.9975807136
  0
ARC
  5
4A9
100
AcDbEntity
  8
ALL_ASSEMBLY_MEMBERS
100
AcDbCircle
 62
7
  6
CONTINUOUS
 10
5.1659155522
 20
4.0314672059
 40
0.0464886178
100
AcDbArc
 50
225.0024192804
 51
229.453542694
  0
ARC
  5
4AA
100
AcDbEntity
  8
ALL_ASSEMBLY_MEMBERS
100
AcDbCircle
 62
7
  6
CONTINUOUS
 10
5.0520824479
 20
4.3057967965
 40
0.0599767716
100
AcDbArc
 50
213.9020337041
 51
217.4679685381
  0
ARC
  5
4AB
100
AcDbEntity
  8
ALL_ASSEMBLY_MEMBERS
100
AcDbCircle
 62
7
  6
CONTINUOUS
 10
5.0520824479
 20
4.3057967965
 40
0.0599767716
100
AcDbArc
 50
209.7960233361
 51
212.6768503753
  0
ARC
  5
4AC
100
AcDbEntity
  8
ALL_ASSEMBLY_MEMBERS
100
AcDbCircle
 62
7
  6
CONTINUOUS
 10
5.0520824479
 20
4.3057967965
 40
0.0599767716
100
AcDbArc
 50
205.8033961113
 51
208.5486845395
  0
ARC
  5
4AD
100
AcDbEntity
  8
ALL_ASSEMBLY_MEMBERS
100
AcDbCircle
 62
7
  6
CONTINUOUS
 10
5.0520824479
 20
4.3057967965
 40
0.0599767716
100
AcDbArc
 50
204.2868065885
 51
205.3239807264
  0
ARC
  5
4AE
100
AcDbEntity
  8
ALL_ASSEMBLY_MEMBERS
100
AcDbCircle
 62
7
  6
CONTINUOUS
 10
5.0520824479
 20
4.3057967965
 40
0.0599767716
100
AcDbArc
 50
174.3710827338
 51
181.712757598
  0
ARC
  5
4AF
100
AcDbEntity
  8
ALL_ASSEMBLY_MEMBERS
100
AcDbCircle
 62
7
  6
CONTINUOUS
 10
5.0520824479
 20
4.3057967965
 40
0.0599767716
100
AcDbArc
 50
172.5466681339
 51
172.9792659024
  0
ARC
  5
4B0
100
AcDbEntity
  8
ALL_ASSEMBLY_MEMBERS
100
AcDbCircle
 62
7
  6
CONTINUOUS
 10
5.0514712207
 20
4.305692373
 40
0.0595126044
100
AcDbArc
 50
172.686635309
 51
201.2879303352
  0
ARC
  5
4B1
100
AcDbEntity
  8
ALL_ASSEMBLY_MEMBERS
100
AcDbCircle
 62
7
  6
CONTINUOUS
 10
5.0512525961
 20
4.3056093619
 40
0.0592788899
100
AcDbArc
 50
201.2898882753
 51
205.2215960367
  0
ARC
  5
4B2
100
AcDbEntity
  8
ALL_ASSEMBLY_MEMBERS
100
AcDbCircle
 62
7
  6
CONTINUOUS
 10
5.0508518006
 20
4.305397072
 40
0.0588258464
100
AcDbArc
 50
205.2008845894
 51
221.0069049058
  0
ARC
  5
4B3
100
AcDbEntity
  8
ALL_ASSEMBLY_MEMBERS
100
AcDbCircle
 62
7
  6
CONTINUOUS
 10
5.0502805145
 20
4.3049019881
 40
0.0580698872
100
AcDbArc
 50
221.0081322767
 51
224.9973700085
  0
ARC
  5
4B4
100
AcDbEntity
  8
ALL_ASSEMBLY_MEMBERS
100
AcDbCircle
 62
7
  6
CONTINUOUS
 10
4.7505822981
 20
4.9432663043
 40
0.14
100
AcDbArc
 50
71.446995465
 51
108.553004535
  0
CIRCLE
  5
4B5
100
AcDbEntity
  8
ALL_ASSEMBLY_MEMBERS
100
AcDbCircle
 62
7
  6
CONTINUOUS
 10
5.2428322981
 20
5.1392663043
 40
0.07825
  0
ARC
  5
4B6
100
AcDbEntity
  8
ALL_ASSEMBLY_MEMBERS
100
AcDbCircle
 62
7
  6
CONTINUOUS
 10
5.2428322981
 20
5.1392663043
 40
0.0775
100
AcDbArc
 50
189.2817990867
 51
350.7182009133
  0
ARC
  5
4B7
100
AcDbEntity
  8
ALL_ASSEMBLY_MEMBERS
100
AcDbCircle
 62
7
  6
CONTINUOUS
 10
5.2428322981
 20
5.1392663043
 40
0.0775
100
AcDbArc
 50
9.2817990867
 51
170.7182009133
  0
ARC
  5
4B8
100
AcDbEntity
  8
ALL_ASSEMBLY_MEMBERS
100
AcDbCircle
 62
7
  6
CONTINUOUS
 10
4.8965518059
 20
4.7532664541
 40
0.0599767716
100
AcDbArc
 50
303.9020316725
 51
307.4679649862
  0
ARC
  5
4B9
100
AcDbEntity
  8
ALL_ASSEMBLY_MEMBERS
100
AcDbCircle
 62
7
  6
CONTINUOUS
 10
4.8965518059
 20
4.7532664541
 40
0.0599767716
100
AcDbArc
 50
299.7960466638
 51
302.6768449135
  0
ARC
  5
4BA
100
AcDbEntity
  8
ALL_ASSEMBLY_MEMBERS
100
AcDbCircle
 62
7
  6
CONTINUOUS
 10
4.8965518059
 20
4.7532664541
 40
0.0599767716
100
AcDbArc
 50
295.8033890573
 51
298.5487797851
  0
ARC
  5
4BB
100
AcDbEntity
  8
ALL_ASSEMBLY_MEMBERS
100
AcDbCircle
 62
7
  6
CONTINUOUS
 10
4.8965518059
 20
4.7532664541
 40
0.0599767716
100
AcDbArc
 50
294.2868011193
 51
295.3239807264
  0
ARC
  5
4BC
100
AcDbEntity
  8
ALL_ASSEMBLY_MEMBERS
100
AcDbCircle
 62
7
  6
CONTINUOUS
 10
4.8965518059
 20
4.7532664541
 40
0.0599767716
100
AcDbArc
 50
287.7790169795
 51
291.3887768717
  0
ARC
  5
4BD
100
AcDbEntity
  8
ALL_ASSEMBLY_MEMBERS
100
AcDbCircle
 62
7
  6
CONTINUOUS
 10
4.8965518059
 20
4.7532664541
 40
0.0599767716
100
AcDbArc
 50
264.3709089664
 51
271.712757598
  0
ARC
  5
4BE
100
AcDbEntity
  8
ALL_ASSEMBLY_MEMBERS
100
AcDbCircle
 62
7
  6
CONTINUOUS
 10
4.8965518059
 20
4.7532664541
 40
0.0599767716
100
AcDbArc
 50
262.5466681339
 51
262.9788706115
  0
ARC
  5
4BF
100
AcDbEntity
  8
ALL_ASSEMBLY_MEMBERS
100
AcDbCircle
 62
7
  6
CONTINUOUS
 10
4.8966562295
 20
4.752655227
 40
0.0595126044
100
AcDbArc
 50
262.6866352377
 51
291.2879302469
  0
ARC
  5
4C0
100
AcDbEntity
  8
ALL_ASSEMBLY_MEMBERS
100
AcDbCircle
 62
7
  6
CONTINUOUS
 10
4.8967392405
 20
4.7524366023
 40
0.0592788899
100
AcDbArc
 50
291.2898882753
 51
295.2215960367
  0
ARC
  5
4C1
100
AcDbEntity
  8
ALL_ASSEMBLY_MEMBERS
100
AcDbCircle
 62
7
  6
CONTINUOUS
 10
4.8969515305
 20
4.7520358068
 40
0.0588258464
100
AcDbArc
 50
295.2008845894
 51
311.0069049058
  0
ARC
  5
4C2
100
AcDbEntity
  8
ALL_ASSEMBLY_MEMBERS
100
AcDbCircle
 62
7
  6
CONTINUOUS
 10
4.8974466144
 20
4.7514645207
 40
0.0580698872
100
AcDbArc
 50
311.0081322767
 51
314.9973700086
  0
ARC
  5
4C3
100
AcDbEntity
  8
ALL_ASSEMBLY_MEMBERS
100
AcDbCircle
 62
7
  6
CONTINUOUS
 10
5.1748463668
 20
4.8760303731
 40
0.05
100
AcDbArc
 50
315.0
 51
135.0
  0
ARC
  5
4C4
100
AcDbEntity
  8
ALL_ASSEMBLY_MEMBERS
100
AcDbCircle
 62
7
  6
CONTINUOUS
 10
5.1659155527
 20
4.8720654023
 40
0.0464886185
100
AcDbArc
 50
130.5464538473
 51
134.9975807136
  0
ARC
  5
4C5
100
AcDbEntity
  8
ALL_ASSEMBLY_MEMBERS
100
AcDbCircle
 62
7
  6
CONTINUOUS
 10
5.1708813966
 20
4.8670995584
 40
0.0464886178
100
AcDbArc
 50
315.0024192804
 51
319.453542694
  0
ARC
  5
4C6
100
AcDbEntity
  8
ALL_ASSEMBLY_MEMBERS
100
AcDbCircle
 62
7
  6
CONTINUOUS
 10
4.7855822981
 20
5.0475495724
 40
0.03
100
AcDbArc
 50
0.0
 51
71.446995465
  0
SPLINE
  5
4C7
100
AcDbEntity
  8
ALL_ASSEMBLY_MEMBERS
100
AcDbSpline
 62
7
  6
CONTINUOUS
 70
0
 71
3
 72
25
 73
21
 74
0
 42
0.0000001
 43
0.0000001
 44
0.0000000001
 40
0.0
 40
0.0
 40
0.0
 40
0.0
 40
0.00826384
 40
0.0171436472
 40
0.0271232945
 40
0.0385402363
 40
0.0516145461
 40
0.0664794497
 40
0.0832060942
 40
0.1018308892
 40
0.1448082623
 40
0.1953195054
 40
0.2530480334
 40
0.3175752728
 40
0.3883525669
 40
0.4647800894
 40
0.546155619
 40
0.6317327962
 40
0.8123953176
 40
1.0
 40
1.0
 40
1.0
 40
1.0
 10
4.3910787653
 20
4.0215520934
 30
0.0
 10
4.3911800469
 20
4.021653375
 30
0.0
 10
4.3913599311
 20
4.0218956713
 30
0.0
 10
4.3915317091
 20
4.0223379399
 30
0.0
 10
4.391613593
 20
4.0228594394
 30
0.0
 10
4.3916082862
 20
4.0234588798
 30
0.0
 10
4.3915168689
 20
4.024136234
 30
0.0
 10
4.3913398681
 20
4.0248908361
 30
0.0
 10
4.3910781012
 20
4.0257215934
 30
0.0
 10
4.3905928249
 20
4.0269902275
 30
0.0
 10
4.3897624126
 20
4.0287498685
 30
0.0
 10
4.3884878518
 20
4.0310414349
 30
0.0
 10
4.3869016021
 20
4.0335825376
 30
0.0
 10
4.3850176579
 20
4.0363483076
 30
0.0
 10
4.3828537675
 20
4.0393130244
 30
0.0
 10
4.3804298311
 20
4.0424474378
 30
0.0
 10
4.3777695544
 20
4.0457217362
 30
0.0
 10
4.3738697728
 20
4.0503149847
 30
0.0
 10
4.3686000193
 20
4.0561578139
 30
0.0
 10
4.3641620987
 20
4.0607475402
 30
0.0
 10
4.3618628164
 20
4.0630468227
 30
0.0
  0
SPLINE
  5
4C8
100
AcDbEntity
  8
ALL_ASSEMBLY_MEMBERS
100
AcDbSpline
 62
7
  6
CONTINUOUS
 70
0
 71
3
 72
26
 73
22
 74
0
 42
0.0000001
 43
0.0000001
 44
0.0000000001
 40
0.0
 40
0.0
 40
0.0
 40
0.0
 40
0.184218794
 40
0.2747971169
 40
0.363390921
 40
0.4492888915
 40
0.5317358677
 40
0.6099125719
 40
0.6829469346
 40
0.7499976697
 40
0.8102799757
 40
0.8630829545
 40
0.9078060501
 40
0.9439985423
 40
0.9588022688
 40
0.9713801351
 40
0.9817273507
 40
0.98986388
 40
0.9931267486
 40
0.9958767171
 40
1.0
 40
1.0
 40
1.0
 40
1.0
 10
4.5395176777
 20
4.2407034576
 30
0.0
 10
4.5417696985
 20
4.238306156
 30
0.0
 10
4.5447925002
 20
4.234407165
 30
0.0
 10
4.5482615961
 20
4.2289238838
 30
0.0
 10
4.550586692
 20
4.2247991004
 30
0.0
 10
4.5526763949
 20
4.220714198
 30
0.0
 10
4.554555677
 20
4.2167333113
 30
0.0
 10
4.5562453191
 20
4.2129185987
 30
0.0
 10
4.557762723
 20
4.2093289854
 30
0.0
 10
4.5591031705
 20
4.2060119229
 30
0.0
 10
4.5602559942
 20
4.2030091691
 30
0.0
 10
4.5612099883
 20
4.2003576162
 30
0.0
 10
4.5619533606
 20
4.1980884747
 30
0.0
 10
4.5624167136
 20
4.196442276
 30
0.0
 10
4.5626618471
 20
4.1953336441
 30
0.0
 10
4.5627752543
 20
4.1946692435
 30
0.0
 10
4.5628319383
 20
4.1941170436
 30
0.0
 10
4.5628349654
 20
4.1937278325
 30
0.0
 10
4.5628047971
 20
4.193476134
 30
0.0
 10
4.5627637553
 20
4.1933007709
 30
0.0
 10
4.5627103124
 20
4.1931836415
 30
0.0
 10
4.5626582557
 20
4.1931315838
 30
0.0
  0
SPLINE
  5
4C9
100
AcDbEntity
  8
ALL_ASSEMBLY_MEMBERS
100
AcDbSpline
 62
7
  6
CONTINUOUS
 70
0
 71
3
 72
26
 73
22
 74
0
 42
0.0000001
 43
0.0000001
 44
0.0000000001
 40
0.0
 40
0.0
 40
0.0
 40
0.0
 40
0.184218794
 40
0.2747971169
 40
0.363390921
 40
0.4492888915
 40
0.5317358677
 40
0.6099125719
 40
0.6829469346
 40
0.7499976697
 40
0.8102799757
 40
0.8630829545
 40
0.9078060501
 40
0.9439985423
 40
0.9588022688
 40
0.9713801351
 40
0.9817273507
 40
0.98986388
 40
0.9931267486
 40
0.9958767171
 40
1.0
 40
1.0
 40
1.0
 40
1.0
 10
4.5395194514
 20
4.6628309248
 30
0.0
 10
4.5371221498
 20
4.660578904
 30
0.0
 10
4.5332231588
 20
4.6575561023
 30
0.0
 10
4.5277398776
 20
4.6540870064
 30
0.0
 10
4.5236150941
 20
4.6517619105
 30
0.0
 10
4.5195301918
 20
4.6496722076
 30
0.0
 10
4.5155493051
 20
4.6477929254
 30
0.0
 10
4.5117345925
 20
4.6461032834
 30
0.0
 10
4.5081449792
 20
4.6445858795
 30
0.0
 10
4.5048279167
 20
4.643245432
 30
0.0
 10
4.5018251629
 20
4.6420926082
 30
0.0
 10
4.49917361
 20
4.6411386142
 30
0.0
 10
4.4969044684
 20
4.6403952419
 30
0.0
 10
4.4952582698
 20
4.6399318889
 30
0.0
 10
4.4941496379
 20
4.6396867554
 30
0.0
 10
4.4934852373
 20
4.6395733482
 30
0.0
 10
4.4929330374
 20
4.6395166642
 30
0.0
 10
4.4925438263
 20
4.6395136371
 30
0.0
 10
4.4922921277
 20
4.6395438054
 30
0.0
 10
4.4921167647
 20
4.6395848471
 30
0.0
 10
4.4919996353
 20
4.6396382901
 30
0.0
 10
4.4919475776
 20
4.6396903468
 30
0.0
  0
SPLINE
  5
4CA
100
AcDbEntity
  8
ALL_ASSEMBLY_MEMBERS
100
AcDbSpline
 62
7
  6
CONTINUOUS
 70
0
 71
3
 72
25
 73
21
 74
0
 42
0.0000001
 43
0.0000001
 44
0.0000000001
 40
0.0
 40
0.0
 40
0.0
 40
0.0
 40
0.0082638417
 40
0.0171436506
 40
0.0271232992
 40
0.0385402422
 40
0.051614553
 40
0.0664794574
 40
0.0832061025
 40
0.1018308982
 40
0.1448082719
 40
0.1953195156
 40
0.2530480437
 40
0.3175752829
 40
0.3883525766
 40
0.4647800982
 40
0.546155627
 40
0.631732803
 40
0.8123953207
 40
1.0
 40
1.0
 40
1.0
 40
1.0
 10
4.3910787653
 20
4.8819805153
 30
0.0
 10
4.3911800469
 20
4.8818792337
 30
0.0
 10
4.3913599312
 20
4.8816369373
 30
0.0
 10
4.3915317093
 20
4.8811946686
 30
0.0
 10
4.3916135932
 20
4.8806731691
 30
0.0
 10
4.3916082865
 20
4.8800737286
 30
0.0
 10
4.3915168692
 20
4.8793963744
 30
0.0
 10
4.3913398684
 20
4.8786417722
 30
0.0
 10
4.3910781016
 20
4.8778110148
 30
0.0
 10
4.3905928253
 20
4.8765423807
 30
0.0
 10
4.389762413
 20
4.8747827396
 30
0.0
 10
4.3884878523
 20
4.8724911731
 30
0.0
 10
4.3869016026
 20
4.8699500705
 30
0.0
 10
4.3850176584
 20
4.8671843004
 30
0.0
 10
4.3828537679
 20
4.8642195836
 30
0.0
 10
4.3804298315
 20
4.8610851703
 30
0.0
 10
4.3777695547
 20
4.8578108719
 30
0.0
 10
4.3738697731
 20
4.8532176236
 30
0.0
 10
4.3686000195
 20
4.8473747945
 30
0.0
 10
4.3641620988
 20
4.8427850684
 30
0.0
 10
4.3618628164
 20
4.8404857861
 30
0.0
  0
SPLINE
  5
4CB
100
AcDbEntity
  8
ALL_ASSEMBLY_MEMBERS
100
AcDbSpline
 62
7
  6
CONTINUOUS
 70
0
 71
3
 72
20
 73
16
 74
0
 42
0.0000001
 43
0.0000001
 44
0.0000000001
 40
0.0
 40
0.0
 40
0.0
 40
0.0
 40
0.0614282537
 40
0.1229336353
 40
0.2460668916
 40
0.3698504725
 40
0.4320999186
 40
0.494551966
 40
0.5572074997
 40
0.6200617871
 40
0.6830942401
 40
0.7462801611
 40
0.8096111289
 40
0.873080715
 40
1.0
 40
1.0
 40
1.0
 40
1.0
 10
5.1356949591
 20
4.9073911347
 30
0.0
 10
5.1368388724
 20
4.9083699441
 30
0.0
 10
5.1392244496
 20
4.9102197054
 30
0.0
 10
5.1443305817
 20
4.9134427064
 30
0.0
 10
5.1512841285
 20
4.9165324804
 30
0.0
 10
5.1587147376
 20
4.9182462976
 30
0.0
 10
5.1647900013
 20
4.9187665665
 30
0.0
 10
5.1693886962
 20
4.9187280357
 30
0.0
 10
5.1739782487
 20
4.9182608346
 30
0.0
 10
5.1785186309
 20
4.9173671977
 30
0.0
 10
5.1829706039
 20
4.9160581457
 30
0.0
 10
5.1872946502
 20
4.914342596
 30
0.0
 10
5.1914550077
 20
4.9122360244
 30
0.0
 10
5.1967298463
 20
4.908932202
 30
0.0
 10
5.2003393371
 20
4.9059224289
 30
0.0
 10
5.2025388799
 20
4.9037228861
 30
0.0
  0
SPLINE
  5
4CC
100
AcDbEntity
  8
ALL_ASSEMBLY_MEMBERS
100
AcDbSpline
 62
7
  6
CONTINUOUS
 70
0
 71
3
 72
25
 73
21
 74
0
 42
0.0000001
 43
0.0000001
 44
0.0000000001
 40
0.0
 40
0.0
 40
0.0
 40
0.0
 40
0.00826384
 40
0.0171436472
 40
0.0271232945
 40
0.0385402363
 40
0.0516145461
 40
0.0664794497
 40
0.0832060942
 40
0.1018308892
 40
0.1448082623
 40
0.1953195054
 40
0.2530480334
 40
0.3175752728
 40
0.3883525669
 40
0.4647800894
 40
0.546155619
 40
0.6317327962
 40
0.8123953176
 40
1.0
 40
1.0
 40
1.0
 40
1.0
 10
5.110085831
 20
4.8819805153
 30
0.0
 10
5.1099845494
 20
4.8818792337
 30
0.0
 10
5.1098046652
 20
4.8816369374
 30
0.0
 10
5.1096328872
 20
4.8811946688
 30
0.0
 10
5.1095510032
 20
4.8806731693
 30
0.0
 10
5.10955631
 20
4.8800737289
 30
0.0
 10
5.1096477274
 20
4.8793963747
 30
0.0
 10
5.1098247282
 20
4.8786417726
 30
0.0
 10
5.1100864951
 20
4.8778110153
 30
0.0
 10
5.1105717714
 20
4.8765423812
 30
0.0
 10
5.1114021837
 20
4.8747827402
 30
0.0
 10
5.1126767444
 20
4.8724911738
 30
0.0
 10
5.1142629942
 20
4.8699500711
 30
0.0
 10
5.1161469383
 20
4.8671843011
 30
0.0
 10
5.1183108288
 20
4.8642195843
 30
0.0
 10
5.1207347652
 20
4.8610851709
 30
0.0
 10
5.1233950419
 20
4.8578108725
 30
0.0
 10
5.1272948235
 20
4.853217624
 30
0.0
 10
5.132564577
 20
4.8473747948
 30
0.0
 10
5.1370024975
 20
4.8427850685
 30
0.0
 10
5.1393017798
 20
4.840485786
 30
0.0
  0
SPLINE
  5
4CD
100
AcDbEntity
  8
ALL_ASSEMBLY_MEMBERS
100
AcDbSpline
 62
7
  6
CONTINUOUS
 70
0
 71
3
 72
26
 73
22
 74
0
 42
0.0000001
 43
0.0000001
 44
0.0000000001
 40
0.0
 40
0.0
 40
0.0
 40
0.0
 40
0.184218794
 40
0.2747971169
 40
0.363390921
 40
0.4492888915
 40
0.5317358677
 40
0.6099125719
 40
0.6829469346
 40
0.7499976697
 40
0.8102799757
 40
0.8630829545
 40
0.9078060501
 40
0.9439985423
 40
0.9588022688
 40
0.9713801351
 40
0.9817273507
 40
0.98986388
 40
0.9931267486
 40
0.9958767171
 40
1.0
 40
1.0
 40
1.0
 40
1.0
 10
4.9616469186
 20
4.6628291511
 30
0.0
 10
4.9593948978
 20
4.6652264527
 30
0.0
 10
4.956372096
 20
4.6691254437
 30
0.0
 10
4.9529030002
 20
4.6746087249
 30
0.0
 10
4.9505779042
 20
4.6787335083
 30
0.0
 10
4.9484882014
 20
4.6828184107
 30
0.0
 10
4.9466089192
 20
4.6867992974
 30
0.0
 10
4.9449192772
 20
4.69061401
 30
0.0
 10
4.9434018733
 20
4.6942036233
 30
0.0
 10
4.9420614258
 20
4.6975206858
 30
0.0
 10
4.940908602
 20
4.7005234396
 30
0.0
 10
4.939954608
 20
4.7031749925
 30
0.0
 10
4.9392112357
 20
4.705444134
 30
0.0
 10
4.9387478826
 20
4.7070903327
 30
0.0
 10
4.9385027492
 20
4.7081989646
 30
0.0
 10
4.938389342
 20
4.7088633652
 30
0.0
 10
4.9383326579
 20
4.7094155651
 30
0.0
 10
4.9383296309
 20
4.7098047762
 30
0.0
 10
4.9383597992
 20
4.7100564747
 30
0.0
 10
4.9384008409
 20
4.7102318377
 30
0.0
 10
4.9384542839
 20
4.7103489672
 30
0.0
 10
4.9385063406
 20
4.7104010249
 30
0.0
  0
LINE
  5
4CE
100
AcDbEntity
  8
ALL_ASSEMBLY_MEMBERS
100
AcDbLine
 62
7
  6
CONTINUOUS
 10
4.5395184728
 20
4.6628300455
 11
4.5533542293
 21
4.6487217029
  0
SPLINE
  5
4CF
100
AcDbEntity
  8
ALL_ASSEMBLY_MEMBERS
100
AcDbSpline
 62
7
  6
CONTINUOUS
 70
0
 71
3
 72
20
 73
16
 74
0
 42
0.0000001
 43
0.0000001
 44
0.0000000001
 40
0.0
 40
0.0
 40
0.0
 40
0.0
 40
0.061428253
 40
0.1229336338
 40
0.2460668892
 40
0.3698504697
 40
0.4320999158
 40
0.4945519632
 40
0.5572074972
 40
0.6200617848
 40
0.6830942381
 40
0.7462801595
 40
0.8096111277
 40
0.8730807143
 40
1.0
 40
1.0
 40
1.0
 40
1.0
 10
5.1356949569
 20
3.9961414758
 30
0.0
 10
5.1368388702
 20
3.9951626663
 30
0.0
 10
5.1392244474
 20
3.9933129049
 30
0.0
 10
5.1443305795
 20
3.9900899036
 30
0.0
 10
5.1512841262
 20
3.9870001291
 30
0.0
 10
5.1587147356
 20
3.9852863116
 30
0.0
 10
5.1647899995
 20
3.9847660424
 30
0.0
 10
5.1693886945
 20
3.9848045731
 30
0.0
 10
5.1739782472
 20
3.985271774
 30
0.0
 10
5.1785186297
 20
3.9861654108
 30
0.0
 10
5.1829706028
 20
3.9874744628
 30
0.0
 10
5.1872946494
 20
3.9891900125
 30
0.0
 10
5.1914550071
 20
3.9912965841
 30
0.0
 10
5.196729846
 20
3.9946004066
 30
0.0
 10
5.200339337
 20
3.9976101798
 30
0.0
 10
5.2025388799
 20
3.9998097226
 30
0.0
  0
SPLINE
  5
4D0
100
AcDbEntity
  8
ALL_ASSEMBLY_MEMBERS
100
AcDbSpline
 62
7
  6
CONTINUOUS
 70
0
 71
3
 72
25
 73
21
 74
0
 42
0.0000001
 43
0.0000001
 44
0.0000000001
 40
0.0
 40
0.0
 40
0.0
 40
0.0
 40
0.0064875051
 40
0.0143895979
 40
0.0240125449
 40
0.0355178204
 40
0.0489913182
 40
0.0644761591
 40
0.0819878393
 40
0.1015214694
 40
0.1465499668
 40
0.1992317218
 40
0.2590561134
 40
0.3253954697
 40
0.3975308859
 40
0.4746606902
 40
0.6407069681
 40
0.7281924202
 40
0.8177170317
 40
1.0
 40
1.0
 40
1.0
 40
1.0
 10
4.9382768218
 20
4.1933611026
 30
0.0
 10
4.9381943089
 20
4.1934436163
 30
0.0
 10
4.9380491037
 20
4.1936643777
 30
0.0
 10
4.93791313
 20
4.1940771328
 30
0.0
 10
4.9378380495
 20
4.194595854
 30
0.0
 10
4.9378258255
 20
4.1952191971
 30
0.0
 10
4.9378770835
 20
4.1959459484
 30
0.0
 10
4.9379923373
 20
4.1967743079
 30
0.0
 10
4.9381711716
 20
4.1977024345
 30
0.0
 10
4.9385099111
 20
4.1991396429
 30
0.0
 10
4.9390966832
 20
4.2011664767
 30
0.0
 10
4.9400002599
 20
4.2038526685
 30
0.0
 10
4.9411234244
 20
4.2068676464
 30
0.0
 10
4.9424542163
 20
4.2101772309
 30
0.0
 10
4.9439824986
 20
4.2137419854
 30
0.0
 10
4.946352439
 20
4.2188949856
 30
0.0
 10
4.9491057368
 20
4.2241750823
 30
0.0
 10
4.9523345685
 20
4.2294374514
 30
0.0
 10
4.9560282428
 20
4.2347415611
 30
0.0
 10
4.9592550021
 20
4.238457276
 30
0.0
 10
4.9616451833
 20
4.2407016455
 30
0.0
  0
SPLINE
  5
4D1
100
AcDbEntity
  8
ALL_ASSEMBLY_MEMBERS
100
AcDbSpline
 62
7
  6
CONTINUOUS
 70
0
 71
3
 72
25
 73
21
 74
0
 42
0.0000001
 43
0.0000001
 44
0.0000000001
 40
0.0
 40
0.0
 40
0.0
 40
0.0
 40
0.0082638417
 40
0.0171436506
 40
0.0271232992
 40
0.0385402422
 40
0.051614553
 40
0.0664794574
 40
0.0832061025
 40
0.1018308982
 40
0.1448082719
 40
0.1953195156
 40
0.2530480437
 40
0.3175752829
 40
0.3883525766
 40
0.4647800982
 40
0.546155627
 40
0.631732803
 40
0.8123953207
 40
1.0
 40
1.0
 40
1.0
 40
1.0
 10
5.110085831
 20
4.0215520934
 30
0.0
 10
5.1099845494
 20
4.021653375
 30
0.0
 10
5.1098046651
 20
4.0218956714
 30
0.0
 10
5.109632887
 20
4.0223379401
 30
0.0
 10
5.1095510031
 20
4.0228594396
 30
0.0
 10
5.1095563098
 20
4.0234588801
 30
0.0
 10
5.1096477271
 20
4.0241362343
 30
0.0
 10
5.1098247278
 20
4.0248908365
 30
0.0
 10
5.1100864947
 20
4.0257215938
 30
0.0
 10
5.110571771
 20
4.026990228
 30
0.0
 10
5.1114021832
 20
4.0287498691
 30
0.0
 10
5.112676744
 20
4.0310414356
 30
0.0
 10
5.1142629937
 20
4.0335825382
 30
0.0
 10
5.1161469379
 20
4.0363483083
 30
0.0
 10
5.1183108283
 20
4.0393130251
 30
0.0
 10
5.1207347648
 20
4.0424474384
 30
0.0
 10
5.1233950416
 20
4.0457217368
 30
0.0
 10
5.1272948232
 20
4.0503149851
 30
0.0
 10
5.1325645768
 20
4.0561578142
 30
0.0
 10
5.1370024975
 20
4.0607475403
 30
0.0
 10
5.1393017798
 20
4.0630468226
 30
0.0
  0
SPLINE
  5
4D2
100
AcDbEntity
  8
ALL_ASSEMBLY_MEMBERS
100
AcDbSpline
 62
7
  6
CONTINUOUS
 70
0
 71
3
 72
15
 73
11
 74
0
 42
0.0000001
 43
0.0000001
 44
0.0000000001
 40
0.0
 40
0.0
 40
0.0
 40
0.0
 40
0.1240832917
 40
0.2487192774
 40
0.3736434702
 40
0.498811582
 40
0.6241582549
 40
0.7495551248
 40
0.874876737
 40
1.0
 40
1.0
 40
1.0
 40
1.0
 10
4.49223815
 20
4.2641329273
 30
0.0
 10
4.4938044333
 20
4.2657039818
 30
0.0
 10
4.4967625844
 20
4.2690397329
 30
0.0
 10
4.500601047
 20
4.2745241122
 30
0.0
 10
4.5037950753
 20
4.2804302394
 30
0.0
 10
4.5063013563
 20
4.2866726374
 30
0.0
 10
4.5080866392
 20
4.2931669123
 30
0.0
 10
4.5091253339
 20
4.299824495
 30
0.0
 10
4.5094043895
 20
4.3065519659
 30
0.0
 10
4.5090801887
 20
4.3110293136
 30
0.0
 10
4.5087916063
 20
4.3132476501
 30
0.0
  0
LINE
  5
4D3
100
AcDbEntity
  8
ALL_ASSEMBLY_MEMBERS
100
AcDbLine
 62
7
  6
CONTINUOUS
 10
4.9616461235
 20
4.2407025632
 11
4.9478095483
 21
4.2548117039
  0
SPLINE
  5
4D4
100
AcDbEntity
  8
ALL_ASSEMBLY_MEMBERS
100
AcDbSpline
 62
7
  6
CONTINUOUS
 70
0
 71
3
 72
15
 73
11
 74
0
 42
0.0000001
 43
0.0000001
 44
0.0000000001
 40
0.0
 40
0.0
 40
0.0
 40
0.0
 40
0.1240825646
 40
0.2487174008
 40
0.3736402055
 40
0.4988065965
 40
0.6241521493
 40
0.7495491793
 40
0.8748728437
 40
1.0
 40
1.0
 40
1.0
 40
1.0
 10
4.9382156782
 20
4.1934221533
 30
0.0
 10
4.9366480765
 20
4.1949849944
 30
0.0
 10
4.9333200756
 20
4.1979370282
 30
0.0
 10
4.9278492707
 20
4.2017690889
 30
0.0
 10
4.9219582105
 20
4.2049597407
 30
0.0
 10
4.9157318169
 20
4.207465937
 30
0.0
 10
4.909253876
 20
4.2092545074
 30
0.0
 10
4.9026123598
 20
4.2103000466
 30
0.0
 10
4.8959000439
 20
4.2105893138
 30
0.0
 10
4.8914318562
 20
4.2102742149
 30
0.0
 10
4.8892177412
 20
4.2099906867
 30
0.0
  0
SPLINE
  5
4D5
100
AcDbEntity
  8
ALL_ASSEMBLY_MEMBERS
100
AcDbSpline
 62
7
  6
CONTINUOUS
 70
0
 71
3
 72
20
 73
16
 74
0
 42
0.0000001
 43
0.0000001
 44
0.0000000001
 40
0.0
 40
0.0
 40
0.0
 40
0.0
 40
0.061428253
 40
0.1229336338
 40
0.2460668892
 40
0.3698504697
 40
0.4320999158
 40
0.4945519632
 40
0.5572074972
 40
0.6200617848
 40
0.6830942381
 40
0.7462801595
 40
0.8096111277
 40
0.8730807143
 40
1.0
 40
1.0
 40
1.0
 40
1.0
 10
4.2949574696
 20
4.0666536456
 30
0.0
 10
4.2939786601
 20
4.0655097323
 30
0.0
 10
4.2921288987
 20
4.0631241551
 30
0.0
 10
4.2889058974
 20
4.058018023
 30
0.0
 10
4.2858161229
 20
4.0510644762
 30
0.0
 10
4.2841023053
 20
4.0436338669
 30
0.0
 10
4.2835820362
 20
4.037558603
 30
0.0
 10
4.2836205668
 20
4.0329599079
 30
0.0
 10
4.2840877678
 20
4.0283703553
 30
0.0
 10
4.2849814046
 20
4.0238299728
 30
0.0
 10
4.2862904566
 20
4.0193779996
 30
0.0
 10
4.2880060063
 20
4.0150539531
 30
0.0
 10
4.2901125779
 20
4.0108935954
 30
0.0
 10
4.2934164004
 20
4.0056187565
 30
0.0
 10
4.2964261735
 20
4.0020092655
 30
0.0
 10
4.2986257164
 20
3.9998097226
 30
0.0
  0
SPLINE
  5
4D6
100
AcDbEntity
  8
ALL_ASSEMBLY_MEMBERS
100
AcDbSpline
 62
7
  6
CONTINUOUS
 70
0
 71
3
 72
25
 73
21
 74
0
 42
0.0000001
 43
0.0000001
 44
0.0000000001
 40
0.0
 40
0.0
 40
0.0
 40
0.0
 40
0.0064875051
 40
0.0143895979
 40
0.0240125449
 40
0.0355178204
 40
0.0489913182
 40
0.0644761591
 40
0.0819878393
 40
0.1015214694
 40
0.1465499668
 40
0.1992317218
 40
0.2590561134
 40
0.3253954697
 40
0.3975308859
 40
0.4746606902
 40
0.6407069681
 40
0.7281924202
 40
0.8177170317
 40
1.0
 40
1.0
 40
1.0
 40
1.0
 10
4.4921770964
 20
4.2640717807
 30
0.0
 10
4.4922596101
 20
4.2641542936
 30
0.0
 10
4.4924803715
 20
4.2642994987
 30
0.0
 10
4.4928931266
 20
4.2644354724
 30
0.0
 10
4.4934118478
 20
4.264510553
 30
0.0
 10
4.4940351909
 20
4.264522777
 30
0.0
 10
4.4947619422
 20
4.264471519
 30
0.0
 10
4.4955903017
 20
4.2643562652
 30
0.0
 10
4.4965184283
 20
4.2641774309
 30
0.0
 10
4.4979556367
 20
4.2638386914
 30
0.0
 10
4.4999824705
 20
4.2632519193
 30
0.0
 10
4.5026686623
 20
4.2623483426
 30
0.0
 10
4.5056836402
 20
4.2612251781
 30
0.0
 10
4.5089932247
 20
4.2598943862
 30
0.0
 10
4.5125579792
 20
4.2583661039
 30
0.0
 10
4.5177109794
 20
4.2559961634
 30
0.0
 10
4.5229910761
 20
4.2532428657
 30
0.0
 10
4.5282534452
 20
4.2500140339
 30
0.0
 10
4.5335575548
 20
4.2463203597
 30
0.0
 10
4.5372732698
 20
4.2430936004
 30
0.0
 10
4.5395176393
 20
4.2407034192
 30
0.0
  0
SPLINE
  5
4D7
100
AcDbEntity
  8
ALL_ASSEMBLY_MEMBERS
100
AcDbSpline
 62
7
  6
CONTINUOUS
 70
0
 71
3
 72
25
 73
21
 74
0
 42
0.0000001
 43
0.0000001
 44
0.0000000001
 40
0.0
 40
0.0
 40
0.0
 40
0.0
 40
0.0082638417
 40
0.0171436506
 40
0.0271232992
 40
0.0385402422
 40
0.051614553
 40
0.0664794574
 40
0.0832061025
 40
0.1018308982
 40
0.1448082719
 40
0.1953195156
 40
0.2530480437
 40
0.3175752829
 40
0.3883525766
 40
0.4647800982
 40
0.546155627
 40
0.631732803
 40
0.8123953207
 40
1.0
 40
1.0
 40
1.0
 40
1.0
 10
4.3203680872
 20
4.0922627715
 30
0.0
 10
4.3204693688
 20
4.0923640531
 30
0.0
 10
4.3207116652
 20
4.0925439374
 30
0.0
 10
4.3211539339
 20
4.0927157155
 30
0.0
 10
4.3216754334
 20
4.0927975994
 30
0.0
 10
4.3222748739
 20
4.0927922927
 30
0.0
 10
4.3229522281
 20
4.0927008754
 30
0.0
 10
4.3237068302
 20
4.0925238747
 30
0.0
 10
4.3245375876
 20
4.0922621078
 30
0.0
 10
4.3258062218
 20
4.0917768315
 30
0.0
 10
4.3275658629
 20
4.0909464193
 30
0.0
 10
4.3298574293
 20
4.0896718585
 30
0.0
 10
4.332398532
 20
4.0880856088
 30
0.0
 10
4.3351643021
 20
4.0862016646
 30
0.0
 10
4.3381290189
 20
4.0840377741
 30
0.0
 10
4.3412634322
 20
4.0816138377
 30
0.0
 10
4.3445377305
 20
4.0789535609
 30
0.0
 10
4.3491309789
 20
4.0750537793
 30
0.0
 10
4.354973808
 20
4.0697840257
 30
0.0
 10
4.3595635341
 20
4.065346105
 30
0.0
 10
4.3618628164
 20
4.0630468226
 30
0.0
  0
SPLINE
  5
4D8
100
AcDbEntity
  8
ALL_ASSEMBLY_MEMBERS
100
AcDbSpline
 62
7
  6
CONTINUOUS
 70
0
 71
3
 72
15
 73
11
 74
0
 42
0.0000001
 43
0.0000001
 44
0.0000000001
 40
0.0
 40
0.0
 40
0.0
 40
0.0
 40
0.1240824197
 40
0.2487170254
 40
0.3736395518
 40
0.498805597
 40
0.6241509237
 40
0.7495479849
 40
0.8748720601
 40
1.0
 40
1.0
 40
1.0
 40
1.0
 10
4.5629489211
 20
4.7101104525
 30
0.0
 10
4.5645158275
 20
4.7085483046
 30
0.0
 10
4.5678422684
 20
4.7055975031
 30
0.0
 10
4.5733103407
 20
4.7017667332
 30
0.0
 10
4.579198368
 20
4.6985767639
 30
0.0
 10
4.5854215396
 20
4.6960705883
 30
0.0
 10
4.5918961915
 20
4.6942813607
 30
0.0
 10
4.5985344716
 20
4.6932344488
 30
0.0
 10
4.6052437338
 20
4.6929431318
 30
0.0
 10
4.6097100745
 20
4.6932564025
 30
0.0
 10
4.6119233379
 20
4.6935389153
 30
0.0
  0
SPLINE
  5
4D9
100
AcDbEntity
  8
ALL_ASSEMBLY_MEMBERS
100
AcDbSpline
 62
7
  6
CONTINUOUS
 70
0
 71
3
 72
20
 73
16
 74
0
 42
0.0000001
 43
0.0000001
 44
0.0000000001
 40
0.0
 40
0.0
 40
0.0
 40
0.0
 40
0.0614282537
 40
0.1229336353
 40
0.2460668916
 40
0.3698504725
 40
0.4320999186
 40
0.494551966
 40
0.5572074997
 40
0.6200617871
 40
0.6830942401
 40
0.7462801611
 40
0.8096111289
 40
0.873080715
 40
1.0
 40
1.0
 40
1.0
 40
1.0
 10
5.2062071285
 20
4.0666536434
 30
0.0
 10
5.2071859379
 20
4.0655097301
 30
0.0
 10
5.2090356992
 20
4.0631241529
 30
0.0
 10
5.2122587001
 20
4.0580180207
 30
0.0
 10
5.2153484741
 20
4.051064474
 30
0.0
 10
5.2170622914
 20
4.0436338649
 30
0.0
 10
5.2175825603
 20
4.0375586012
 30
0.0
 10
5.2175440295
 20
4.0329599063
 30
0.0
 10
5.2170768284
 20
4.0283703538
 30
0.0
 10
5.2161831915
 20
4.0238299716
 30
0.0
 10
5.2148741395
 20
4.0193779986
 30
0.0
 10
5.2131585898
 20
4.0150539522
 30
0.0
 10
5.2110520182
 20
4.0108935948
 30
0.0
 10
5.2077481958
 20
4.0056187562
 30
0.0
 10
5.2047384227
 20
4.0020092654
 30
0.0
 10
5.2025388799
 20
3.9998097226
 30
0.0
  0
SPLINE
  5
4DA
100
AcDbEntity
  8
ALL_ASSEMBLY_MEMBERS
100
AcDbSpline
 62
7
  6
CONTINUOUS
 70
0
 71
3
 72
25
 73
21
 74
0
 42
0.0000001
 43
0.0000001
 44
0.0000000001
 40
0.0
 40
0.0
 40
0.0
 40
0.0
 40
0.00826384
 40
0.0171436472
 40
0.0271232945
 40
0.0385402363
 40
0.0516145461
 40
0.0664794497
 40
0.0832060942
 40
0.1018308892
 40
0.1448082623
 40
0.1953195054
 40
0.2530480334
 40
0.3175752728
 40
0.3883525669
 40
0.4647800894
 40
0.546155619
 40
0.6317327962
 40
0.8123953176
 40
1.0
 40
1.0
 40
1.0
 40
1.0
 10
5.1807965091
 20
4.0922627715
 30
0.0
 10
5.1806952275
 20
4.0923640531
 30
0.0
 10
5.1804529311
 20
4.0925439373
 30
0.0
 10
5.1800106625
 20
4.0927157153
 30
0.0
 10
5.1794891631
 20
4.0927975992
 30
0.0
 10
5.1788897227
 20
4.0927922924
 30
0.0
 10
5.1782123685
 20
4.0927008751
 30
0.0
 10
5.1774577664
 20
4.0925238743
 30
0.0
 10
5.1766270091
 20
4.0922621074
 30
0.0
 10
5.175358375
 20
4.0917768311
 30
0.0
 10
5.173598734
 20
4.0909464188
 30
0.0
 10
5.1713071676
 20
4.0896718581
 30
0.0
 10
5.1687660649
 20
4.0880856083
 30
0.0
 10
5.1660002948
 20
4.0862016641
 30
0.0
 10
5.1630355781
 20
4.0840377737
 30
0.0
 10
5.1599011647
 20
4.0816138373
 30
0.0
 10
5.1566268663
 20
4.0789535606
 30
0.0
 10
5.1520336178
 20
4.075053779
 30
0.0
 10
5.1461907886
 20
4.0697840255
 30
0.0
 10
5.1416010623
 20
4.0653461049
 30
0.0
 10
5.1393017798
 20
4.0630468227
 30
0.0
  0
SPLINE
  5
4DB
100
AcDbEntity
  8
ALL_ASSEMBLY_MEMBERS
100
AcDbSpline
 62
7
  6
CONTINUOUS
 70
0
 71
3
 72
26
 73
22
 74
0
 42
0.0000001
 43
0.0000001
 44
0.0000000001
 40
0.0
 40
0.0
 40
0.0
 40
0.0
 40
0.184218794
 40
0.2747971169
 40
0.363390921
 40
0.4492888915
 40
0.5317358677
 40
0.6099125719
 40
0.6829469346
 40
0.7499976697
 40
0.8102799757
 40
0.8630829545
 40
0.9078060501
 40
0.9439985423
 40
0.9588022688
 40
0.9713801351
 40
0.9817273507
 40
0.98986388
 40
0.9931267486
 40
0.9958767171
 40
1.0
 40
1.0
 40
1.0
 40
1.0
 10
4.9616451449
 20
4.2407016839
 30
0.0
 10
4.9640424465
 20
4.2429537047
 30
0.0
 10
4.9679414375
 20
4.2459765064
 30
0.0
 10
4.9734247187
 20
4.2494456023
 30
0.0
 10
4.9775495021
 20
4.2517706982
 30
0.0
 10
4.9816344045
 20
4.2538604011
 30
0.0
 10
4.9856152912
 20
4.2557396833
 30
0.0
 10
4.9894300037
 20
4.2574293253
 30
0.0
 10
4.9930196171
 20
4.2589467292
 30
0.0
 10
4.9963366796
 20
4.2602871767
 30
0.0
 10
4.9993394334
 20
4.2614400004
 30
0.0
 10
5.0019909863
 20
4.2623939945
 30
0.0
 10
5.0042601278
 20
4.2631373668
 30
0.0
 10
5.0059063265
 20
4.2636007198
 30
0.0
 10
5.0070149584
 20
4.2638458533
 30
0.0
 10
5.007679359
 20
4.2639592605
 30
0.0
 10
5.0082315589
 20
4.2640159445
 30
0.0
 10
5.00862077
 20
4.2640189716
 30
0.0
 10
5.0088724685
 20
4.2639888033
 30
0.0
 10
5.0090478315
 20
4.2639477616
 30
0.0
 10
5.009164961
 20
4.2638943186
 30
0.0
 10
5.0092170187
 20
4.2638422619
 30
0.0
  0
LINE
  5
4DC
100
AcDbEntity
  8
ALL_ASSEMBLY_MEMBERS
100
AcDbLine
 62
7
  6
CONTINUOUS
 10
4.5395185569
 20
4.240702479
 11
4.5536746888
 21
4.2545872722
  0
SPLINE
  5
4DD
100
AcDbEntity
  8
ALL_ASSEMBLY_MEMBERS
100
AcDbSpline
 62
7
  6
CONTINUOUS
 70
0
 71
3
 72
20
 73
16
 74
0
 42
0.0000001
 43
0.0000001
 44
0.0000000001
 40
0.0
 40
0.0
 40
0.0
 40
0.0
 40
0.0614282537
 40
0.1229336353
 40
0.2460668916
 40
0.3698504725
 40
0.4320999186
 40
0.494551966
 40
0.5572074997
 40
0.6200617871
 40
0.6830942401
 40
0.7462801611
 40
0.8096111289
 40
0.873080715
 40
1.0
 40
1.0
 40
1.0
 40
1.0
 10
4.3654696372
 20
3.996141474
 30
0.0
 10
4.3643257239
 20
3.9951626646
 30
0.0
 10
4.3619401466
 20
3.9933129033
 30
0.0
 10
4.3568340145
 20
3.9900899023
 30
0.0
 10
4.3498804678
 20
3.9870001283
 30
0.0
 10
4.3424498587
 20
3.9852863111
 30
0.0
 10
4.336374595
 20
3.9847660422
 30
0.0
 10
4.3317759001
 20
3.984804573
 30
0.0
 10
4.3271863476
 20
3.9852717741
 30
0.0
 10
4.3226459654
 20
3.986165411
 30
0.0
 10
4.3181939924
 20
3.987474463
 30
0.0
 10
4.313869946
 20
3.9891900127
 30
0.0
 10
4.3097095886
 20
3.9912965843
 30
0.0
 10
4.30443475
 20
3.9946004067
 30
0.0
 10
4.3008252592
 20
3.9976101798
 30
0.0
 10
4.2986257164
 20
3.9998097226
 30
0.0
  0
SPLINE
  5
4DE
100
AcDbEntity
  8
ALL_ASSEMBLY_MEMBERS
100
AcDbSpline
 62
7
  6
CONTINUOUS
 70
0
 71
3
 72
25
 73
21
 74
0
 42
0.0000001
 43
0.0000001
 44
0.0000000001
 40
0.0
 40
0.0
 40
0.0
 40
0.0
 40
0.00826384
 40
0.0171436472
 40
0.0271232945
 40
0.0385402363
 40
0.0516145461
 40
0.0664794497
 40
0.0832060942
 40
0.1018308892
 40
0.1448082623
 40
0.1953195054
 40
0.2530480334
 40
0.3175752728
 40
0.3883525669
 40
0.4647800894
 40
0.546155619
 40
0.6317327962
 40
0.8123953176
 40
1.0
 40
1.0
 40
1.0
 40
1.0
 10
4.3203680872
 20
4.8112698372
 30
0.0
 10
4.3204693688
 20
4.8111685556
 30
0.0
 10
4.3207116651
 20
4.8109886714
 30
0.0
 10
4.3211539337
 20
4.8108168934
 30
0.0
 10
4.3216754332
 20
4.8107350095
 30
0.0
 10
4.3222748736
 20
4.8107403163
 30
0.0
 10
4.3229522278
 20
4.8108317336
 30
0.0
 10
4.3237068299
 20
4.8110087344
 30
0.0
 10
4.3245375872
 20
4.8112705013
 30
0.0
 10
4.3258062213
 20
4.8117557776
 30
0.0
 10
4.3275658623
 20
4.8125861899
 30
0.0
 10
4.3298574287
 20
4.8138607506
 30
0.0
 10
4.3323985313
 20
4.8154470004
 30
0.0
 10
4.3351643014
 20
4.8173309445
 30
0.0
 10
4.3381290182
 20
4.819494835
 30
0.0
 10
4.3412634315
 20
4.8219187714
 30
0.0
 10
4.34453773
 20
4.8245790481
 30
0.0
 10
4.3491309784
 20
4.8284788297
 30
0.0
 10
4.3549738077
 20
4.8337485832
 30
0.0
 10
4.359563534
 20
4.8381865038
 30
0.0
 10
4.3618628164
 20
4.840485786
 30
0.0
  0
SPLINE
  5
4DF
100
AcDbEntity
  8
ALL_ASSEMBLY_MEMBERS
100
AcDbSpline
 62
7
  6
CONTINUOUS
 70
0
 71
3
 72
15
 73
11
 74
0
 42
0.0000001
 43
0.0000001
 44
0.0000000001
 40
0.0
 40
0.0
 40
0.0
 40
0.0
 40
0.1240824191
 40
0.2487170246
 40
0.3736395509
 40
0.4988055962
 40
0.624150923
 40
0.7495479844
 40
0.8748720599
 40
1.0
 40
1.0
 40
1.0
 40
1.0
 10
5.0089264522
 20
4.6393996874
 30
0.0
 10
5.0073643039
 20
4.6378327809
 30
0.0
 10
5.0044135015
 20
4.63450634
 30
0.0
 10
5.0005827303
 20
4.6290382672
 30
0.0
 10
4.9973927599
 20
4.6231502393
 30
0.0
 10
4.9948865834
 20
4.6169270669
 30
0.0
 10
4.9930973551
 20
4.6104524141
 30
0.0
 10
4.9920504428
 20
4.603814133
 30
0.0
 10
4.9917591255
 20
4.5971048697
 30
0.0
 10
4.9920723962
 20
4.5926385283
 30
0.0
 10
4.9923549091
 20
4.5904252645
 30
0.0
  0
SPLINE
  5
4E0
100
AcDbEntity
  8
ALL_ASSEMBLY_MEMBERS
100
AcDbSpline
 62
7
  6
CONTINUOUS
 70
0
 71
3
 72
20
 73
16
 74
0
 42
0.0000001
 43
0.0000001
 44
0.0000000001
 40
0.0
 40
0.0
 40
0.0
 40
0.0
 40
0.061428253
 40
0.1229336338
 40
0.2460668892
 40
0.3698504697
 40
0.4320999158
 40
0.4945519632
 40
0.5572074972
 40
0.6200617848
 40
0.6830942381
 40
0.7462801595
 40
0.8096111277
 40
0.8730807143
 40
1.0
 40
1.0
 40
1.0
 40
1.0
 10
4.3654696394
 20
4.9073911329
 30
0.0
 10
4.3643257261
 20
4.9083699424
 30
0.0
 10
4.3619401489
 20
4.9102197038
 30
0.0
 10
4.3568340168
 20
4.9134427051
 30
0.0
 10
4.34988047
 20
4.9165324796
 30
0.0
 10
4.3424498607
 20
4.9182462971
 30
0.0
 10
4.3363745968
 20
4.9187665662
 30
0.0
 10
4.3317759017
 20
4.9187280356
 30
0.0
 10
4.327186349
 20
4.9182608347
 30
0.0
 10
4.3226459666
 20
4.9173671979
 30
0.0
 10
4.3181939934
 20
4.9160581459
 30
0.0
 10
4.3138699469
 20
4.9143425962
 30
0.0
 10
4.3097095892
 20
4.9122360246
 30
0.0
 10
4.3044347503
 20
4.9089322021
 30
0.0
 10
4.3008252593
 20
4.9059224289
 30
0.0
 10
4.2986257164
 20
4.9037228861
 30
0.0
  0
SPLINE
  5
4E1
100
AcDbEntity
  8
ALL_ASSEMBLY_MEMBERS
100
AcDbSpline
 62
7
  6
CONTINUOUS
 70
0
 71
3
 72
20
 73
16
 74
0
 42
0.0000001
 43
0.0000001
 44
0.0000000001
 40
0.0
 40
0.0
 40
0.0
 40
0.0
 40
0.061428253
 40
0.1229336338
 40
0.2460668892
 40
0.3698504697
 40
0.4320999158
 40
0.4945519632
 40
0.5572074972
 40
0.6200617848
 40
0.6830942381
 40
0.7462801595
 40
0.8096111277
 40
0.8730807143
 40
1.0
 40
1.0
 40
1.0
 40
1.0
 10
5.2062071267
 20
4.8368789631
 30
0.0
 10
5.2071859361
 20
4.8380228764
 30
0.0
 10
5.2090356976
 20
4.8404084536
 30
0.0
 10
5.2122586989
 20
4.8455145857
 30
0.0
 10
5.2153484733
 20
4.8524681325
 30
0.0
 10
5.2170622909
 20
4.8598987418
 30
0.0
 10
5.21758256
 20
4.8659740057
 30
0.0
 10
5.2175440294
 20
4.8705727007
 30
0.0
 10
5.2170768285
 20
4.8751622534
 30
0.0
 10
5.2161831917
 20
4.8797026359
 30
0.0
 10
5.2148741397
 20
4.884154609
 30
0.0
 10
5.21315859
 20
4.8884786556
 30
0.0
 10
5.2110520184
 20
4.8926390133
 30
0.0
 10
5.2077481959
 20
4.8979138522
 30
0.0
 10
5.2047384227
 20
4.9015233432
 30
0.0
 10
5.2025388799
 20
4.9037228861
 30
0.0
  0
SPLINE
  5
4E2
100
AcDbEntity
  8
ALL_ASSEMBLY_MEMBERS
100
AcDbSpline
 62
7
  6
CONTINUOUS
 70
0
 71
3
 72
25
 73
21
 74
0
 42
0.0000001
 43
0.0000001
 44
0.0000000001
 40
0.0
 40
0.0
 40
0.0
 40
0.0
 40
0.0064875051
 40
0.0143895979
 40
0.0240125449
 40
0.0355178204
 40
0.0489913182
 40
0.0644761591
 40
0.0819878393
 40
0.1015214694
 40
0.1465499668
 40
0.1992317218
 40
0.2590561134
 40
0.3253954697
 40
0.3975308859
 40
0.4746606902
 40
0.6407069681
 40
0.7281924202
 40
0.8177170317
 40
1.0
 40
1.0
 40
1.0
 40
1.0
 10
5.0089874999
 20
4.639460828
 30
0.0
 10
5.0089049862
 20
4.6393783151
 30
0.0
 10
5.0086842248
 20
4.6392331099
 30
0.0
 10
5.0082714697
 20
4.6390971363
 30
0.0
 10
5.0077527485
 20
4.6390220557
 30
0.0
 10
5.0071294054
 20
4.6390098317
 30
0.0
 10
5.006402654
 20
4.6390610897
 30
0.0
 10
5.0055742946
 20
4.6391763435
 30
0.0
 10
5.0046461679
 20
4.6393551778
 30
0.0
 10
5.0032089596
 20
4.6396939173
 30
0.0
 10
5.0011821258
 20
4.6402806894
 30
0.0
 10
4.998495934
 20
4.6411842661
 30
0.0
 10
4.9954809561
 20
4.6423074306
 30
0.0
 10
4.9921713716
 20
4.6436382225
 30
0.0
 10
4.9886066171
 20
4.6451665048
 30
0.0
 10
4.9834536169
 20
4.6475364452
 30
0.0
 10
4.9781735202
 20
4.650289743
 30
0.0
 10
4.9729111511
 20
4.6535185747
 30
0.0
 10
4.9676070414
 20
4.657212249
 30
0.0
 10
4.9638913265
 20
4.6604390083
 30
0.0
 10
4.961646957
 20
4.6628291895
 30
0.0
  0
SPLINE
  5
4E3
100
AcDbEntity
  8
ALL_ASSEMBLY_MEMBERS
100
AcDbSpline
 62
7
  6
CONTINUOUS
 70
0
 71
3
 72
25
 73
21
 74
0
 42
0.0000001
 43
0.0000001
 44
0.0000000001
 40
0.0
 40
0.0
 40
0.0
 40
0.0
 40
0.0082638417
 40
0.0171436506
 40
0.0271232992
 40
0.0385402422
 40
0.051614553
 40
0.0664794574
 40
0.0832061025
 40
0.1018308982
 40
0.1448082719
 40
0.1953195156
 40
0.2530480437
 40
0.3175752829
 40
0.3883525766
 40
0.4647800982
 40
0.546155627
 40
0.631732803
 40
0.8123953207
 40
1.0
 40
1.0
 40
1.0
 40
1.0
 10
5.1807965091
 20
4.8112698372
 30
0.0
 10
5.1806952275
 20
4.8111685556
 30
0.0
 10
5.1804529311
 20
4.8109886713
 30
0.0
 10
5.1800106624
 20
4.8108168932
 30
0.0
 10
5.1794891629
 20
4.8107350093
 30
0.0
 10
5.1788897224
 20
4.810740316
 30
0.0
 10
5.1782123682
 20
4.8108317333
 30
0.0
 10
5.177457766
 20
4.811008734
 30
0.0
 10
5.1766270086
 20
4.8112705009
 30
0.0
 10
5.1753583745
 20
4.8117557772
 30
0.0
 10
5.1735987334
 20
4.8125861894
 30
0.0
 10
5.1713071669
 20
4.8138607502
 30
0.0
 10
5.1687660642
 20
4.8154469999
 30
0.0
 10
5.1660002941
 20
4.8173309441
 30
0.0
 10
5.1630355774
 20
4.8194948345
 30
0.0
 10
5.1599011641
 20
4.821918771
 30
0.0
 10
5.1566268657
 20
4.8245790478
 30
0.0
 10
5.1520336174
 20
4.8284788294
 30
0.0
 10
5.1461907883
 20
4.833748583
 30
0.0
 10
5.1416010622
 20
4.8381865037
 30
0.0
 10
5.1393017798
 20
4.8404857861
 30
0.0
  0
SPLINE
  5
4E4
100
AcDbEntity
  8
ALL_ASSEMBLY_MEMBERS
100
AcDbSpline
 62
7
  6
CONTINUOUS
 70
0
 71
3
 72
20
 73
16
 74
0
 42
0.0000001
 43
0.0000001
 44
0.0000000001
 40
0.0
 40
0.0
 40
0.0
 40
0.0
 40
0.0614282537
 40
0.1229336353
 40
0.2460668916
 40
0.3698504725
 40
0.4320999186
 40
0.494551966
 40
0.5572074997
 40
0.6200617871
 40
0.6830942401
 40
0.7462801611
 40
0.8096111289
 40
0.873080715
 40
1.0
 40
1.0
 40
1.0
 40
1.0
 10
4.2949574678
 20
4.8368789653
 30
0.0
 10
4.2939786584
 20
4.8380228786
 30
0.0
 10
4.2921288971
 20
4.8404084558
 30
0.0
 10
4.2889058961
 20
4.845514588
 30
0.0
 10
4.2858161221
 20
4.8524681347
 30
0.0
 10
4.2841023049
 20
4.8598987438
 30
0.0
 10
4.283582036
 20
4.8659740075
 30
0.0
 10
4.2836205668
 20
4.8705727024
 30
0.0
 10
4.2840877679
 20
4.8751622549
 30
0.0
 10
4.2849814048
 20
4.8797026371
 30
0.0
 10
4.2862904568
 20
4.8841546101
 30
0.0
 10
4.2880060065
 20
4.8884786564
 30
0.0
 10
4.2901125781
 20
4.8926390139
 30
0.0
 10
4.2934164005
 20
4.8979138525
 30
0.0
 10
4.2964261736
 20
4.9015233433
 30
0.0
 10
4.2986257164
 20
4.9037228861
 30
0.0
  0
SPLINE
  5
4E5
100
AcDbEntity
  8
ALL_ASSEMBLY_MEMBERS
100
AcDbSpline
 62
7
  6
CONTINUOUS
 70
0
 71
3
 72
25
 73
21
 74
0
 42
0.0000001
 43
0.0000001
 44
0.0000000001
 40
0.0
 40
0.0
 40
0.0
 40
0.0
 40
0.0064875051
 40
0.0143895979
 40
0.0240125449
 40
0.0355178204
 40
0.0489913182
 40
0.0644761591
 40
0.0819878393
 40
0.1015214694
 40
0.1465499668
 40
0.1992317218
 40
0.2590561134
 40
0.3253954697
 40
0.3975308859
 40
0.4746606902
 40
0.6407069681
 40
0.7281924202
 40
0.8177170317
 40
1.0
 40
1.0
 40
1.0
 40
1.0
 10
4.5628877745
 20
4.7101715061
 30
0.0
 10
4.5629702874
 20
4.7100889924
 30
0.0
 10
4.5631154925
 20
4.709868231
 30
0.0
 10
4.5632514662
 20
4.7094554759
 30
0.0
 10
4.5633265468
 20
4.7089367547
 30
0.0
 10
4.5633387708
 20
4.7083134116
 30
0.0
 10
4.5632875128
 20
4.7075866603
 30
0.0
 10
4.563172259
 20
4.7067583008
 30
0.0
 10
4.5629934247
 20
4.7058301741
 30
0.0
 10
4.5626546851
 20
4.7043929658
 30
0.0
 10
4.5620679131
 20
4.702366132
 30
0.0
 10
4.5611643364
 20
4.6996799402
 30
0.0
 10
4.5600411719
 20
4.6966649623
 30
0.0
 10
4.55871038
 20
4.6933553778
 30
0.0
 10
4.5571820977
 20
4.6897906233
 30
0.0
 10
4.5548121572
 20
4.6846376231
 30
0.0
 10
4.5520588595
 20
4.6793575264
 30
0.0
 10
4.5488300277
 20
4.6740951573
 30
0.0
 10
4.5451363535
 20
4.6687910476
 30
0.0
 10
4.5419095942
 20
4.6650753327
 30
0.0
 10
4.539519413
 20
4.6628309632
 30
0.0
  0
LINE
  5
4E6
100
AcDbEntity
  8
ALL_ASSEMBLY_MEMBERS
100
AcDbLine
 62
7
  6
CONTINUOUS
 10
4.9616460393
 20
4.6628301297
 11
4.9475368986
 21
4.6489935545
  0
ENDSEC
  0
SECTION
  2
OBJECTS
  0
DICTIONARY
  5
C
100
AcDbDictionary
280
0
281
1
  3
ACAD_GROUP
350
D
  3
ACAD_MLINESTYLE
350
17
  3
ACAD_LAYOUT
350
1A
  3
ACAD_PLOTSETTINGS
350
19
  3
ACAD_PLOTSTYLENAME
350
E
  0
DICTIONARY
  5
D
102
{ACAD_REACTORS
330
C
102
}
100
AcDbDictionary
280
0
281
1
  0
ACDBDICTIONARYWDFLT
  5
E
102
{ACAD_REACTORS
330
C
102
}
100
AcDbDictionary
281
1
  3
Normal
350
F
100
AcDbDictionaryWithDefault
340
F
  0
DICTIONARY
  5
17
102
{ACAD_REACTORS
330
C
102
}
100
AcDbDictionary
280
0
281
1
  3
Standard
350
18
  0
DICTIONARY
  5
19
102
{ACAD_REACTORS
330
C
102
}
100
AcDbDictionary
281
1
  0
DICTIONARY
  5
1A
102
{ACAD_REACTORS
330
C
102
}
100
AcDbDictionary
281
1
  3
Model
350
4E7
  3
Layout1
350
4E8
  0
ACDBPLACEHOLDER
  5
F
102
{ACAD_REACTORS
330
E
102
}
  0
MLINESTYLE
  5
18
102
{ACAD_REACTORS
330
17
102
}
100
AcDbMlineStyle
  2
STANDARD
 70
0
  3

 62
256
 51
90.0
 52
90.0
 71
2
 49
0.5
 62
256
  6
BYLAYER
 49
-0.5
 62
256
  6
BYLAYER
  0
LAYOUT
  5
4E7
102
{ACAD_REACTORS
330
1A
102
}
100
AcDbPlotSettings
  1

  2
none_device
  4
ANSI_A_(11.00_x_8.50_Inches)
  6

 40
0.0
 41
0.0
 42
0.0
 43
0.0
 44
279.4
 45
215.9
 46
0.0
 47
0.0
 48
0.0
 49
0.0
140
0.0
141
0.0
142
1.0
143
1.0
 70
1024
 72
0
 73
0
 74
0
  7

 75
0
147
1.0
148
0.0
149
0.0
100
AcDbLayout
  1
Model
 70
0
 71
0
 10
0.0
 20
0.0
 11
11.0
 21
8.5
 12
0.0
 22
0.0
 32
0.0
 14
0.0
 24
0.0
 34
0.0
 15
0.0
 25
0.0
 35
0.0
146
0.0
 13
0.0
 23
0.0
 33
0.0
 16
1.0
 26
0.0
 36
0.0
 17
0.0
 27
1.0
 37
0.0
 76
0
330
221
345
0
346
0
  0
LAYOUT
  5
4E8
102
{ACAD_REACTORS
330
1A
102
}
100
AcDbPlotSettings
  1

  2
none_device
  4
ANSI_A_(11.00_x_8.50_Inches)
  6

 40
0.0
 41
0.0
 42
0.0
 43
0.0
 44
279.4
 45
215.9
 46
0.0
 47
0.0
 48
0.0
 49
0.0
140
0.0
141
0.0
142
1.0
143
1.0
 70
0
 72
0
 73
0
 74
0
  7

 75
0
147
1.0
148
0.0
149
0.0
100
AcDbLayout
  1
Layout1
 70
0
 71
1
 10
0.0
 20
0.0
 11
11.0
 21
8.5
 12
0.0
 22
0.0
 32
0.0
 14
0.0
 24
0.0
 34
0.0
 15
0.0
 25
0.0
 35
0.0
146
0.0
 13
0.0
 23
0.0
 33
0.0
 16
1.0
 26
0.0
 36
0.0
 17
0.0
 27
1.0
 37
0.0
 76
0
330
222
345
0
346
0
  0
ENDSEC
  0
EOF
