999
DXF file: E:\BT Custom\CADOUTPUT\_RIGHT.dxf
999
Pro/ENGINEER 2018400 by Parametric Technology Corporation
  0
SECTION
  2
HEADER
  9
$ACADVER
  1
AC1018
  9
$DWGCODEPAGE
  3
ANSI_1252
  9
$EXTMAX
 10
22.0
 20
17.0
 30
0.0
  9
$EXTMIN
 10
0.0
 20
0.0
 30
0.0
  9
$LIMMIN
 10
0.0
 20
0.0
  9
$LIMMAX
 10
22.0
 20
17.0
  9
$VIEWCTR
 10
11.0
 20
8.5
  9
$VIEWSIZE
 40
17.0
  9
$CLAYER
  8
0
  9
$LTSCALE
 40
1.21
  9
$CELTYPE
  6
BYLAYER
  9
$DIMSCALE
 40
1.0
  9
$DIMASZ
 40
0.1
  9
$DIMEXO
 40
0.0625
  9
$DIMDLI
 40
0.836
  9
$DIMEXE
 40
0.125
  9
$DIMCEN
 40
0.198
  9
$DIMLFAC
 40
1.0
  9
$DIMBLK
  1
_FILLED
  9
$DIMALT
 70
1
  9
$DIMALTD
 70
2
  9
$DIMALTTD
 70
2
  9
$DIMALTF
 40
25.4
  9
$DIMTXT
 40
0.08
  9
$DIMTOL
 70
1
  9
$DIMLIM
 70
0
  9
$DIMTFAC
 40
1.0
  9
$DIMTP
 40
0.001
  9
$DIMTM
 40
0.001
  9
$DIMGAP
 40
0.09
  9
$DIMDSEP
 70
46
  9
$AUNITS
 70
0
  9
$PDMODE
 70
3
  9
$PDSIZE
 40
0.06
  9
$HANDSEED
  5
67E
  9
$TILEMODE
 70
1
  9
$MEASUREMENT
 70
0
  9
$INSUNITS
 70
1
  0
ENDSEC
  0
SECTION
  2
CLASSES
  0
CLASS
  1
ACDBDICTIONARYWDFLT
  2
AcDbDictionaryWithDefault
  3
AutoCAD 2000
 90
0
 91
1
280
0
281
0
  0
CLASS
  1
ACDBPLACEHOLDER
  2
AcDbPlaceHolder
  3
AutoCAD 2000
 90
0
 91
1
280
0
281
0
  0
CLASS
  1
LAYOUT
  2
AcDbLayout
  3
AutoCAD 2000
 90
0
 91
0
280
0
281
0
  0
ENDSEC
  0
SECTION
  2
TABLES
  0
TABLE
  2
VPORT
  5
8
100
AcDbSymbolTable
 70
2
  0
VPORT
  5
1F4
100
AcDbSymbolTableRecord
100
AcDbViewportTableRecord
  2
*ACTIVE
 70
0
 10
0.0
 20
0.0
 11
1.0
 21
1.0
 12
11.0
 22
8.5
 13
0.0
 23
0.0
 14
1.0
 24
1.0
 15
0.0
 25
0.0
 16
0.0
 26
0.0
 36
1.0
 17
0.0
 27
0.0
 37
0.0
 40
17.0
 41
1.2941176471
 42
50.0
 43
0.0
 44
0.0
 50
0.0
 51
0.0
 71
0
 72
100
 73
1
 74
1
 75
0
 76
0
 77
0
 78
0
  0
ENDTAB
  0
TABLE
  2
LTYPE
  5
5
100
AcDbSymbolTable
 70
6
  0
LTYPE
  5
14
100
AcDbSymbolTableRecord
100
AcDbLinetypeTableRecord
  2
BYBLOCK
 70
0
  3

 72
65
 73
0
 40
0.0
  0
LTYPE
  5
15
100
AcDbSymbolTableRecord
100
AcDbLinetypeTableRecord
  2
BYLAYER
 70
0
  3

 72
65
 73
0
 40
0.0
  0
LTYPE
  5
16
100
AcDbSymbolTableRecord
100
AcDbLinetypeTableRecord
  2
CONTINUOUS
 70
64
  3
Solid line
 72
65
 73
0
 40
0.0
  0
LTYPE
  5
1F5
100
AcDbSymbolTableRecord
100
AcDbLinetypeTableRecord
  2
CENTER
 70
64
  3
____ _ ____ _ ____ _ ____ _ ____ _ ____ _ ____
 72
65
 73
4
 40
0.6
 49
0.375
 74
0
 49
-0.075
 74
0
 49
0.075
 74
0
 49
-0.075
 74
0
  0
LTYPE
  5
1F6
100
AcDbSymbolTableRecord
100
AcDbLinetypeTableRecord
  2
HIDDEN
 70
64
  3
- - - - - - - - - - - - - - - - - - - -
 72
65
 73
2
 40
0.2
 49
0.1
 74
0
 49
-0.1
 74
0
  0
LTYPE
  5
1F7
100
AcDbSymbolTableRecord
100
AcDbLinetypeTableRecord
  2
PHANTOM
 70
64
  3
_____ _ _ _____ _ _ _____ _ _ _____
 72
65
 73
6
 40
0.8
 49
0.45
 74
0
 49
-0.05
 74
0
 49
0.1
 74
0
 49
-0.05
 74
0
 49
0.1
 74
0
 49
-0.05
 74
0
  0
LTYPE
  5
1F8
100
AcDbSymbolTableRecord
100
AcDbLinetypeTableRecord
  2
DOT
 70
64
  3
. . . . . . . . . . . . . . . . . . . .
 72
65
 73
2
 40
0.2
 49
0.1
 74
0
 49
-0.1
 74
0
  0
LTYPE
  5
1F9
100
AcDbSymbolTableRecord
100
AcDbLinetypeTableRecord
  2
DASHED
 70
64
  3
- - - - - - - - - - - - - - - - - - - -
 72
65
 73
2
 40
0.2
 49
0.1
 74
0
 49
-0.1
 74
0
  0
ENDTAB
  0
TABLE
  2
LAYER
  5
2
100
AcDbSymbolTable
 70
36
  0
LAYER
  5
10
100
AcDbSymbolTableRecord
100
AcDbLayerTableRecord
  2
0
 70
0
 62
7
  6
CONTINUOUS
370
-3
390
F
  0
LAYER
  5
1FA
100
AcDbSymbolTableRecord
100
AcDbLayerTableRecord
  2
DEFAULT_1
 70
0
 62
7
  6
CENTER
370
-3
390
F
  0
LAYER
  5
1FB
100
AcDbSymbolTableRecord
100
AcDbLayerTableRecord
  2
DEFAULT_2
 70
0
 62
8
  6
HIDDEN
370
-3
390
F
  0
LAYER
  5
1FC
100
AcDbSymbolTableRecord
100
AcDbLayerTableRecord
  2
DEFAULT_3
 70
0
 62
7
  6
PHANTOM
370
-3
390
F
  0
LAYER
  5
1FD
100
AcDbSymbolTableRecord
100
AcDbLayerTableRecord
  2
ALL_FEATURES
 70
0
 62
7
  6
CONTINUOUS
370
-3
390
F
  0
LAYER
  5
1FE
100
AcDbSymbolTableRecord
100
AcDbLayerTableRecord
  2
AXES_FEATURES
 70
0
 62
7
  6
CONTINUOUS
370
-3
390
F
  0
LAYER
  5
1FF
100
AcDbSymbolTableRecord
100
AcDbLayerTableRecord
  2
DIMENSIONS
 70
0
 62
7
  6
CONTINUOUS
370
-3
390
F
  0
ENDTAB
  0
TABLE
  2
STYLE
  5
3
100
AcDbSymbolTable
 70
1
  0
STYLE
  5
11
100
AcDbSymbolTableRecord
100
AcDbTextStyleTableRecord
  2
STANDARD
 70
0
 40
0.0
 41
0.8
 50
0.0
 71
0
 42
0.2
  3
txt
  4

  0
STYLE
  5
200
100
AcDbSymbolTableRecord
100
AcDbTextStyleTableRecord
  2
TEXTSTYLE_1
 70
0
 40
0.0
 41
0.8
 50
0.0
 71
0
 42
0.2
  3
gdt
  4

  0
ENDTAB
  0
TABLE
  2
VIEW
  5
6
100
AcDbSymbolTable
 70
0
  0
ENDTAB
  0
TABLE
  2
UCS
  5
7
100
AcDbSymbolTable
 70
0
  0
ENDTAB
  0
TABLE
  2
APPID
  5
9
100
AcDbSymbolTable
 70
1
  0
APPID
  5
201
100
AcDbSymbolTableRecord
100
AcDbRegAppTableRecord
  2
ACAD
 70
0
  0
ENDTAB
  0
TABLE
  2
BLOCK_RECORD
  5
1
100
AcDbSymbolTable
 70
0
  0
BLOCK_RECORD
  5
202
100
AcDbSymbolTableRecord
100
AcDbBlockTableRecord
  2
*Model_Space
  0
BLOCK_RECORD
  5
203
100
AcDbSymbolTableRecord
100
AcDbBlockTableRecord
  2
*Paper_Space
  0
BLOCK_RECORD
  5
204
100
AcDbSymbolTableRecord
100
AcDbBlockTableRecord
  2
_FILLED
  0
ENDTAB
  0
TABLE
  2
DIMSTYLE
  5
A
100
AcDbSymbolTable
 70
1
100
AcDbDimStyleTable
 71
0
  0
DIMSTYLE
105
205
100
AcDbSymbolTableRecord
100
AcDbDimStyleTableRecord
  2
STANDARD
 70
0
  3

  4

 40
1.0
 41
0.1
 42
0.0625
 43
0.38
 44
0.125
 45
0.0
 46
0.0
 47
0.001
 48
0.001
140
0.08
141
0.09
142
0.0
143
25.4
144
1.0
145
0.0
146
1.0
147
0.09
 71
1.0
 72
0.0
 73
1
 74
1
 75
0
 76
0
 77
0
 78
4
 79
1
170
1
171
2
172
0
173
0
174
0
175
0
176
0
177
0
178
0
270
2
179
3
271
3
272
3
273
2
274
2
275
0
280
0
281
0
282
0
283
1
284
4
285
0
286
0
287
3
288
0
340
11
278
46
341
204
342
204
343
204
344
204
  0
ENDTAB
  0
ENDSEC
  0
SECTION
  2
BLOCKS
  0
BLOCK
  5
20
100
AcDbEntity
  8
0
100
AcDbBlockBegin
  2
*Model_Space
 70
0
 10
0.0
 20
0.0
 30
0.0
  3
*Model_Space
  1

  0
ENDBLK
  5
21
100
AcDbEntity
  8
0
100
AcDbBlockEnd
  0
BLOCK
  5
1C
100
AcDbEntity
  8
0
100
AcDbBlockBegin
  2
*Paper_Space
 70
0
 10
0.0
 20
0.0
 30
0.0
  3
*Paper_Space
  1

  0
ENDBLK
  5
1D
100
AcDbEntity
  8
0
100
AcDbBlockEnd
  0
BLOCK
  5
206
100
AcDbEntity
  8
0
100
AcDbBlockBegin
  2
_FILLED
 70
64
 10
0.0
 20
0.0
  3
_FILLED
  1

  0
SOLID
  5
207
100
AcDbEntity
  8
0
  6
BYBLOCK
 62
0
100
AcDbTrace
 10
0.0
 20
0.0
 11
-1.0
 21
0.2
 12
-1.0
 22
-0.2
 13
-1.0
 23
-0.2
  0
ENDBLK
  5
208
100
AcDbEntity
  8
0
  6
BYBLOCK
 62
0
100
AcDbBlockEnd
  0
ENDSEC
  0
SECTION
  2
ENTITIES
  0
LINE
  5
209
100
AcDbEntity
  8
0
100
AcDbLine
 62
7
  6
CONTINUOUS
 10
4.0124933115
 20
10.2833726129
 11
4.0698741166
 21
10.943189618
  0
LINE
  5
20A
100
AcDbEntity
  8
0
100
AcDbLine
 62
7
  6
CONTINUOUS
 10
4.2291861673
 20
11.0909928999
 11
4.3081259761
 21
11.3856002769
  0
LINE
  5
20B
100
AcDbEntity
  8
0
100
AcDbLine
 62
7
  6
CONTINUOUS
 10
4.953630537
 20
10.896878616
 11
5.0325703458
 21
11.1914859931
  0
LINE
  5
20C
100
AcDbEntity
  8
0
100
AcDbLine
 62
7
  6
CONTINUOUS
 10
4.7374819115
 20
10.089112503
 11
5.0176971791
 21
10.6892211938
  0
LINE
  5
20D
100
AcDbEntity
  8
0
100
AcDbLine
 62
7
  6
CONTINUOUS
 10
14.4724764218
 20
4.1420859997
 11
17.3124709117
 21
4.1420859997
  0
LINE
  5
20E
100
AcDbEntity
  8
0
100
AcDbLine
 62
7
  6
CONTINUOUS
 10
14.8924736668
 20
4.3290859997
 11
16.8924736668
 21
4.3290859997
  0
LINE
  5
20F
100
AcDbEntity
  8
0
100
AcDbLine
 62
9
  6
CONTINUOUS
 10
17.3124736668
 20
4.3292367998
 11
16.8924736668
 21
4.3292367998
  0
LINE
  5
210
100
AcDbEntity
  8
0
100
AcDbLine
 62
9
  6
CONTINUOUS
 10
14.8924736668
 20
4.3292367998
 11
14.4724736668
 21
4.3292367998
  0
LINE
  5
211
100
AcDbEntity
  8
0
100
AcDbLine
 62
9
  6
CONTINUOUS
 10
17.2538300497
 20
4.3920859997
 11
16.8806497947
 21
4.3920859997
  0
LINE
  5
212
100
AcDbEntity
  8
0
100
AcDbLine
 62
9
  6
CONTINUOUS
 10
14.5311172838
 20
4.3920859997
 11
14.9042975388
 21
4.3920859997
  0
LINE
  5
213
100
AcDbEntity
  8
0
100
AcDbLine
 62
9
  6
CONTINUOUS
 10
14.5599736668
 20
4.4230117964
 11
14.9184342336
 21
4.4230117964
  0
LINE
  5
214
100
AcDbEntity
  8
0
100
AcDbLine
 62
9
  6
CONTINUOUS
 10
16.8665131
 20
4.4230117964
 11
17.2249736668
 21
4.4230117964
  0
LINE
  5
215
100
AcDbEntity
  8
0
100
AcDbLine
 62
7
  6
CONTINUOUS
 10
17.2249711146
 20
4.4670859997
 11
16.8312909385
 21
4.4670859997
  0
LINE
  5
216
100
AcDbEntity
  8
0
100
AcDbLine
 62
7
  6
CONTINUOUS
 10
14.9536563951
 20
4.4670859997
 11
14.5599762189
 21
4.4670859997
  0
LINE
  5
217
100
AcDbEntity
  8
0
100
AcDbLine
 62
7
  6
CONTINUOUS
 10
17.1524736668
 20
4.5140859997
 11
16.7320109759
 21
4.5140859997
  0
LINE
  5
218
100
AcDbEntity
  8
0
100
AcDbLine
 62
7
  6
CONTINUOUS
 10
15.0529363576
 20
4.5140859997
 11
14.6324736668
 21
4.5140859997
  0
LINE
  5
219
100
AcDbEntity
  8
0
100
AcDbLine
 62
7
  6
CONTINUOUS
 10
16.705475485
 20
4.5170859997
 11
15.0794718485
 21
4.5170859997
  0
LINE
  5
21A
100
AcDbEntity
  8
0
100
AcDbLine
 62
7
  6
CONTINUOUS
 10
15.1514741926
 20
4.5790859997
 11
16.6334731409
 21
4.5790859997
  0
LINE
  5
21B
100
AcDbEntity
  8
0
100
AcDbLine
 62
7
  6
CONTINUOUS
 10
14.6324736668
 20
4.7200859997
 11
15.2359736668
 21
4.7200859997
  0
LINE
  5
21C
100
AcDbEntity
  8
0
100
AcDbLine
 62
7
  6
CONTINUOUS
 10
16.5489730026
 20
4.7200859997
 11
17.1524736668
 21
4.7200859997
  0
LINE
  5
21D
100
AcDbEntity
  8
0
100
AcDbLine
 62
7
  6
CONTINUOUS
 10
14.5959761367
 20
4.7670859997
 11
15.2359736668
 21
4.7670859997
  0
LINE
  5
21E
100
AcDbEntity
  8
0
100
AcDbLine
 62
7
  6
CONTINUOUS
 10
16.5489727812
 20
4.7670859997
 11
17.1889711968
 21
4.7670859997
  0
LINE
  5
21F
100
AcDbEntity
  8
0
100
AcDbLine
 62
9
  6
CONTINUOUS
 10
16.5336371064
 20
4.9455859997
 11
15.2513102271
 21
4.9455859997
  0
LINE
  5
220
100
AcDbEntity
  8
0
100
AcDbLine
 62
9
  6
CONTINUOUS
 10
15.2739736668
 20
5.1605859997
 11
16.5109736668
 21
5.1605859997
  0
LINE
  5
221
100
AcDbEntity
  8
0
100
AcDbLine
 62
7
  6
CONTINUOUS
 10
15.0824736668
 20
5.1820472845
 11
15.2628595984
 21
5.1820472845
  0
LINE
  5
222
100
AcDbEntity
  8
0
100
AcDbLine
 62
7
  6
CONTINUOUS
 10
16.5220877351
 20
5.1820472845
 11
16.7024736668
 21
5.1820472845
  0
LINE
  5
223
100
AcDbEntity
  8
0
100
AcDbLine
 62
9
  6
CONTINUOUS
 10
16.2678627141
 20
6.5837840755
 11
16.6114807324
 21
6.6694700416
  0
LINE
  5
224
100
AcDbEntity
  8
0
100
AcDbLine
 62
7
  6
CONTINUOUS
 10
16.657995932
 20
6.7664987941
 11
16.3031032415
 21
6.6780013306
  0
LINE
  5
225
100
AcDbEntity
  8
0
100
AcDbLine
 62
9
  6
CONTINUOUS
 10
15.2778396726
 20
5.3887848112
 11
16.507107661
 21
5.3887848112
  0
LINE
  5
226
100
AcDbEntity
  8
0
100
AcDbLine
 62
7
  6
CONTINUOUS
 10
16.702471201
 20
5.4290859997
 11
16.4789000042
 21
5.4290859997
  0
LINE
  5
227
100
AcDbEntity
  8
0
100
AcDbLine
 62
7
  6
CONTINUOUS
 10
15.3060473293
 20
5.4290859997
 11
15.0824761325
 21
5.4290859997
  0
LINE
  5
228
100
AcDbEntity
  8
0
100
AcDbLine
 62
7
  6
CONTINUOUS
 10
16.6061400247
 20
5.4790859997
 11
16.4439039435
 21
5.4790859997
  0
LINE
  5
229
100
AcDbEntity
  8
0
100
AcDbLine
 62
7
  6
CONTINUOUS
 10
15.34104339
 20
5.4790859997
 11
15.1788073088
 21
5.4790859997
  0
LINE
  5
22A
100
AcDbEntity
  8
0
100
AcDbLine
 62
9
  6
CONTINUOUS
 10
16.4329736668
 20
5.4947024385
 11
15.3519736668
 21
5.4947024385
  0
LINE
  5
22B
100
AcDbEntity
  8
0
100
AcDbLine
 62
7
  6
CONTINUOUS
 10
16.6024283067
 20
5.7220859997
 11
16.3340753115
 21
5.7220859997
  0
LINE
  5
22C
100
AcDbEntity
  8
0
100
AcDbLine
 62
7
  6
CONTINUOUS
 10
15.1825190269
 20
5.7220859997
 11
15.450872022
 21
5.7220859997
  0
LINE
  5
22D
100
AcDbEntity
  8
0
100
AcDbLine
 62
9
  6
CONTINUOUS
 10
10.1063392018
 20
12.7365178179
 11
9.5422917436
 21
12.242199636
  0
LINE
  5
22E
100
AcDbEntity
  8
0
100
AcDbLine
 62
7
  6
CONTINUOUS
 10
15.4849736668
 20
7.0603359997
 11
15.4675036468
 21
7.0556549219
  0
LINE
  5
22F
100
AcDbEntity
  8
0
100
AcDbLine
 62
9
  6
CONTINUOUS
 10
16.3222133943
 20
5.8006852423
 11
15.4627339392
 21
5.8006852423
  0
LINE
  5
230
100
AcDbEntity
  8
0
100
AcDbLine
 62
7
  6
CONTINUOUS
 10
16.2913123193
 20
5.8290859997
 11
15.4936350142
 21
5.8290859997
  0
LINE
  5
231
100
AcDbEntity
  8
0
100
AcDbLine
 62
7
  6
CONTINUOUS
 10
15.59097408
 20
5.8603359997
 11
16.1939732535
 21
5.8603359997
  0
LINE
  5
232
100
AcDbEntity
  8
0
100
AcDbLine
 62
9
  6
CONTINUOUS
 10
16.1939736668
 20
6.1503359997
 11
15.5909736668
 21
6.1503359997
  0
LINE
  5
233
100
AcDbEntity
  8
0
100
AcDbLine
 62
7
  6
CONTINUOUS
 10
15.0957570181
 20
6.2103359997
 11
16.6891903154
 21
6.2103359997
  0
LINE
  5
234
100
AcDbEntity
  8
0
100
AcDbLine
 62
9
  6
CONTINUOUS
 10
15.5356100832
 20
6.2203359997
 11
16.2493368129
 21
6.2203359997
  0
LINE
  5
235
100
AcDbEntity
  8
0
100
AcDbLine
 62
9
  6
CONTINUOUS
 10
15.1664676962
 20
6.3103359997
 11
15.6528056178
 21
6.3103360231
  0
LINE
  5
236
100
AcDbEntity
  8
0
100
AcDbLine
 62
9
  6
CONTINUOUS
 10
16.1321164385
 20
6.3103359997
 11
16.6184796373
 21
6.3103359997
  0
LINE
  5
237
100
AcDbEntity
  8
0
100
AcDbLine
 62
9
  6
CONTINUOUS
 10
16.4424736668
 20
6.7653359997
 11
15.3424736668
 21
6.7653359997
  0
LINE
  5
238
100
AcDbEntity
  8
0
100
AcDbLine
 62
7
  6
CONTINUOUS
 10
16.4324520854
 20
6.7753359997
 11
15.3524952481
 21
6.7753359997
  0
LINE
  5
239
100
AcDbEntity
  8
0
100
AcDbLine
 62
7
  6
CONTINUOUS
 10
16.4349736668
 20
6.7903359997
 11
15.3499736668
 21
6.7903359997
  0
LINE
  5
23A
100
AcDbEntity
  8
0
100
AcDbLine
 62
9
  6
CONTINUOUS
 10
15.3349736668
 20
6.8053359997
 11
16.4499736668
 21
6.8053359997
  0
LINE
  5
23B
100
AcDbEntity
  8
0
100
AcDbLine
 62
9
  6
CONTINUOUS
 10
16.4499736668
 20
6.8913462048
 11
15.3349736668
 21
6.8913462048
  0
LINE
  5
23C
100
AcDbEntity
  8
0
100
AcDbLine
 62
7
  6
CONTINUOUS
 10
15.3749736668
 20
6.9403359997
 11
16.4099736668
 21
6.9403359997
  0
LINE
  5
23D
100
AcDbEntity
  8
0
100
AcDbLine
 62
9
  6
CONTINUOUS
 10
15.4675036468
 20
7.0556549219
 11
16.3174436867
 21
7.0556549219
  0
LINE
  5
23E
100
AcDbEntity
  8
0
100
AcDbLine
 62
7
  6
CONTINUOUS
 10
15.4849736668
 20
7.0603359997
 11
16.2999736668
 21
7.0603359997
  0
LINE
  5
23F
100
AcDbEntity
  8
0
100
AcDbLine
 62
7
  6
CONTINUOUS
 10
15.8974736668
 20
7.1943154175
 11
15.9174736668
 21
7.1938212371
  0
LINE
  5
240
100
AcDbEntity
  8
0
100
AcDbLine
 62
7
  6
CONTINUOUS
 10
16.5749715951
 20
7.7820859997
 11
15.2099757384
 21
7.7820859997
  0
LINE
  5
241
100
AcDbEntity
  8
0
100
AcDbLine
 62
9
  6
CONTINUOUS
 10
15.1734666011
 20
6.6694700416
 11
15.5166255818
 21
6.5838985429
  0
LINE
  5
242
100
AcDbEntity
  8
0
100
AcDbLine
 62
7
  6
CONTINUOUS
 10
15.4810965998
 20
6.6781877277
 11
15.1269514007
 21
6.7664987943
  0
LINE
  5
243
100
AcDbEntity
  8
0
100
AcDbLine
 62
7
  6
CONTINUOUS
 10
15.5416691448
 20
7.0827475626
 11
15.5416009936
 21
7.0827657326
  0
LINE
  5
244
100
AcDbEntity
  8
0
100
AcDbLine
 62
7
  6
CONTINUOUS
 10
4.0471520909
 20
10.2339021258
 11
4.6827312846
 21
10.0635991941
  0
LINE
  5
245
100
AcDbEntity
  8
0
100
AcDbLine
 62
9
  6
CONTINUOUS
 10
4.0124933115
 20
10.2833726129
 11
4.7374819115
 21
10.089112503
  0
LINE
  5
246
100
AcDbEntity
  8
0
100
AcDbLine
 62
7
  6
CONTINUOUS
 10
15.2099757384
 20
8.5570859997
 11
16.5749715951
 21
8.5570859997
  0
LINE
  5
247
100
AcDbEntity
  8
0
100
AcDbLine
 62
7
  6
CONTINUOUS
 10
16.2999736668
 20
7.0603359997
 11
16.3174436867
 21
7.0556549219
  0
LINE
  5
248
100
AcDbEntity
  8
0
100
AcDbLine
 62
7
  6
CONTINUOUS
 10
5.0176971791
 20
10.6892211938
 11
4.0698741166
 21
10.943189618
  0
LINE
  5
249
100
AcDbEntity
  8
0
100
AcDbLine
 62
7
  6
CONTINUOUS
 10
5.0391149727
 20
10.8739731306
 11
4.1437017317
 21
11.1138983854
  0
LINE
  5
24A
100
AcDbEntity
  8
0
100
AcDbLine
 62
9
  6
CONTINUOUS
 10
11.7044736668
 20
12.0120859997
 11
11.7044736668
 21
11.2620859997
  0
LINE
  5
24B
100
AcDbEntity
  8
0
100
AcDbLine
 62
9
  6
CONTINUOUS
 10
5.0325703458
 20
11.1914859931
 11
4.3081259761
 21
11.3856002769
  0
LINE
  5
24C
100
AcDbEntity
  8
0
100
AcDbLine
 62
7
  6
CONTINUOUS
 10
16.4742947364
 20
10.5610859997
 11
15.3106525972
 21
10.5610859997
  0
LINE
  5
24D
100
AcDbEntity
  8
0
100
AcDbLine
 62
7
  6
CONTINUOUS
 10
15.6083526602
 20
7.1103491671
 11
15.6085711085
 21
7.1101958692
  0
LINE
  5
24E
100
AcDbEntity
  8
0
100
AcDbLine
 62
7
  6
CONTINUOUS
 10
15.5846204866
 20
7.0940301896
 11
15.5847661187
 21
7.0939156489
  0
LINE
  5
24F
100
AcDbEntity
  8
0
100
AcDbLine
 62
7
  6
CONTINUOUS
 10
16.5336371064
 20
4.9455859997
 11
16.5489736668
 21
4.930293618
  0
LINE
  5
250
100
AcDbEntity
  8
0
100
AcDbLine
 62
7
  6
CONTINUOUS
 10
16.4742947364
 20
10.8124438605
 11
15.3106525972
 21
10.8124438605
  0
LINE
  5
251
100
AcDbEntity
  8
0
100
AcDbLine
 62
9
  6
CONTINUOUS
 10
15.3694365315
 20
10.9384716927
 11
16.4155156473
 21
10.9384753217
  0
LINE
  5
252
100
AcDbEntity
  8
0
100
AcDbLine
 62
7
  6
CONTINUOUS
 10
15.0235402915
 20
11.1420859997
 11
14.5563110741
 21
11.1420859997
  0
LINE
  5
253
100
AcDbEntity
  8
0
100
AcDbLine
 62
7
  6
CONTINUOUS
 10
15.1495402915
 20
11.1995859997
 11
15.1101644799
 21
11.1995859997
  0
LINE
  5
254
100
AcDbEntity
  8
0
100
AcDbLine
 62
7
  6
CONTINUOUS
 10
11.7044736668
 20
11.2620859997
 11
14.3245402915
 21
11.2620859997
  0
LINE
  5
255
100
AcDbEntity
  8
0
100
AcDbLine
 62
7
  6
CONTINUOUS
 10
17.2604736668
 20
11.3560859997
 11
17.2244736668
 21
11.3560859997
  0
LINE
  5
256
100
AcDbEntity
  8
0
100
AcDbLine
 62
7
  6
CONTINUOUS
 10
16.9114736668
 20
11.4345859997
 11
16.7574736668
 21
11.4345859997
  0
LINE
  5
257
100
AcDbEntity
  8
0
100
AcDbLine
 62
7
  6
CONTINUOUS
 10
17.1644736668
 20
11.4585859997
 11
17.1334736668
 21
11.4585859997
  0
LINE
  5
258
100
AcDbEntity
  8
0
100
AcDbLine
 62
7
  6
CONTINUOUS
 10
17.1644736668
 20
11.8155859997
 11
17.1334736668
 21
11.8155859997
  0
LINE
  5
259
100
AcDbEntity
  8
0
100
AcDbLine
 62
7
  6
CONTINUOUS
 10
16.9114736668
 20
11.8395859997
 11
16.7574736668
 21
11.8395859997
  0
LINE
  5
25A
100
AcDbEntity
  8
0
100
AcDbLine
 62
7
  6
CONTINUOUS
 10
16.4329736668
 20
5.4947024385
 11
16.507107661
 21
5.3887848112
  0
LINE
  5
25B
100
AcDbEntity
  8
0
100
AcDbLine
 62
7
  6
CONTINUOUS
 10
17.2604736668
 20
11.9180859997
 11
17.2244736668
 21
11.9180859997
  0
LINE
  5
25C
100
AcDbEntity
  8
0
100
AcDbLine
 62
7
  6
CONTINUOUS
 10
11.7044736668
 20
12.0120859997
 11
14.3245402915
 21
12.0120859997
  0
LINE
  5
25D
100
AcDbEntity
  8
0
100
AcDbLine
 62
7
  6
CONTINUOUS
 10
15.1101644799
 20
12.0745859997
 11
15.1495402915
 21
12.0745859997
  0
LINE
  5
25E
100
AcDbEntity
  8
0
100
AcDbLine
 62
7
  6
CONTINUOUS
 10
15.0235402915
 20
12.1320859997
 11
14.5563110741
 21
12.1320859997
  0
LINE
  5
25F
100
AcDbEntity
  8
0
100
AcDbLine
 62
7
  6
CONTINUOUS
 10
15.601234047
 20
7.0830313393
 11
15.6005592341
 21
7.0841402919
  0
LINE
  5
260
100
AcDbEntity
  8
0
100
AcDbLine
 62
7
  6
CONTINUOUS
 10
15.5508300978
 20
7.0816572877
 11
15.5507619466
 21
7.0817766509
  0
LINE
  5
261
100
AcDbEntity
  8
0
100
AcDbLine
 62
7
  6
CONTINUOUS
 10
14.3245402915
 20
12.0670859997
 11
14.3245402915
 21
11.2070859997
  0
LINE
  5
262
100
AcDbEntity
  8
0
100
AcDbLine
 62
7
  6
CONTINUOUS
 10
14.4724736668
 20
4.3292367998
 11
14.4724736668
 21
4.1420859997
  0
LINE
  5
263
100
AcDbEntity
  8
0
100
AcDbLine
 62
7
  6
CONTINUOUS
 10
14.5563110741
 20
12.1320859997
 11
14.5563110741
 21
11.1420859997
  0
LINE
  5
264
100
AcDbEntity
  8
0
100
AcDbLine
 62
7
  6
CONTINUOUS
 10
14.5599736668
 20
4.4670859997
 11
14.5599736668
 21
4.4230117964
  0
LINE
  5
265
100
AcDbEntity
  8
0
100
AcDbLine
 62
7
  6
CONTINUOUS
 10
14.6324736668
 20
4.7670859997
 11
14.6324736668
 21
4.7200859997
  0
LINE
  5
266
100
AcDbEntity
  8
0
100
AcDbLine
 62
7
  6
CONTINUOUS
 10
14.6324736668
 20
4.5140859997
 11
14.6324736668
 21
4.4670859997
  0
LINE
  5
267
100
AcDbEntity
  8
0
100
AcDbLine
 62
7
  6
CONTINUOUS
 10
15.5870144896
 20
12.4540859997
 11
16.1978212938
 21
12.4540859997
  0
LINE
  5
268
100
AcDbEntity
  8
0
100
AcDbLine
 62
7
  6
CONTINUOUS
 10
16.1424736668
 20
12.4690859997
 11
15.6424736668
 21
12.4690859997
  0
LINE
  5
269
100
AcDbEntity
  8
0
100
AcDbLine
 62
7
  6
CONTINUOUS
 10
15.6424736668
 20
12.8440859997
 11
16.1424736668
 21
12.8440859997
  0
LINE
  5
26A
100
AcDbEntity
  8
0
100
AcDbLine
 62
7
  6
CONTINUOUS
 10
15.5464736668
 20
12.9070859997
 11
16.2384716839
 21
12.9070859997
  0
LINE
  5
26B
100
AcDbEntity
  8
0
100
AcDbLine
 62
7
  6
CONTINUOUS
 10
15.6253332423
 20
7.08224548
 11
15.6246584297
 21
7.0836429663
  0
LINE
  5
26C
100
AcDbEntity
  8
0
100
AcDbLine
 62
9
  6
CONTINUOUS
 10
15.0235402915
 20
11.1420859997
 11
15.0235402915
 21
12.1320859997
  0
LINE
  5
26D
100
AcDbEntity
  8
0
100
AcDbLine
 62
9
  6
CONTINUOUS
 10
15.0668523857
 20
11.1708359997
 11
15.0668523857
 21
12.1033359997
  0
LINE
  5
26E
100
AcDbEntity
  8
0
100
AcDbLine
 62
7
  6
CONTINUOUS
 10
15.0824736668
 20
5.4290859997
 11
15.0824736668
 21
5.1820472845
  0
LINE
  5
26F
100
AcDbEntity
  8
0
100
AcDbLine
 62
9
  6
CONTINUOUS
 10
15.1101644799
 20
12.0745859997
 11
15.1101644799
 21
11.1995859997
  0
LINE
  5
270
100
AcDbEntity
  8
0
100
AcDbLine
 62
7
  6
CONTINUOUS
 10
15.1495402915
 20
12.0943186016
 11
15.1495402915
 21
11.1793186016
  0
LINE
  5
271
100
AcDbEntity
  8
0
100
AcDbLine
 62
7
  6
CONTINUOUS
 10
15.1514736668
 20
4.5790859997
 11
15.1514736668
 21
4.5170859997
  0
LINE
  5
272
100
AcDbEntity
  8
0
100
AcDbLine
 62
7
  6
CONTINUOUS
 10
15.1788073088
 20
5.4790859997
 11
15.1788073088
 21
5.4290859997
  0
LINE
  5
273
100
AcDbEntity
  8
0
100
AcDbLine
 62
7
  6
CONTINUOUS
 10
15.5928858608
 20
7.1164065239
 11
15.5931888139
 21
7.1166233049
  0
LINE
  5
274
100
AcDbEntity
  8
0
100
AcDbLine
 62
7
  6
CONTINUOUS
 10
16.1705253856
 20
7.1132483923
 11
16.1706982947
 21
7.1133518322
  0
LINE
  5
275
100
AcDbEntity
  8
0
100
AcDbLine
 62
7
  6
CONTINUOUS
 10
16.2159868214
 20
7.0970951729
 11
16.2162401101
 21
7.0972336679
  0
LINE
  5
276
100
AcDbEntity
  8
0
100
AcDbLine
 62
7
  6
CONTINUOUS
 10
16.2162401101
 20
7.0984140832
 11
16.2159868214
 21
7.0982853982
  0
LINE
  5
277
100
AcDbEntity
  8
0
100
AcDbLine
 62
7
  6
CONTINUOUS
 10
16.2384716839
 20
13.1420859997
 11
15.5464756496
 21
13.1420859997
  0
LINE
  5
278
100
AcDbEntity
  8
0
100
AcDbLine
 62
7
  6
CONTINUOUS
 10
16.0204042716
 20
13.2940859997
 11
15.7645430619
 21
13.2940859997
  0
LINE
  5
279
100
AcDbEntity
  8
0
100
AcDbLine
 62
7
  6
CONTINUOUS
 10
15.2359736668
 20
4.5790859997
 11
15.2359736668
 21
4.9302933946
  0
LINE
  5
27A
100
AcDbEntity
  8
0
100
AcDbLine
 62
7
  6
CONTINUOUS
 10
15.3349736668
 20
6.8913462048
 11
15.3349736668
 21
6.8053359997
  0
LINE
  5
27B
100
AcDbEntity
  8
0
100
AcDbLine
 62
7
  6
CONTINUOUS
 10
15.3424736668
 20
6.7653359997
 11
15.3424736668
 21
6.7127552984
  0
LINE
  5
27C
100
AcDbEntity
  8
0
100
AcDbLine
 62
7
  6
CONTINUOUS
 10
15.3974736668
 20
6.7903359997
 11
15.3974736668
 21
6.7753359997
  0
LINE
  5
27D
100
AcDbEntity
  8
0
100
AcDbLine
 62
7
  6
CONTINUOUS
 10
15.538784644
 20
7.0804269541
 11
15.538784644
 21
7.0816572877
  0
LINE
  5
27E
100
AcDbEntity
  8
0
100
AcDbLine
 62
7
  6
CONTINUOUS
 10
15.5467628017
 20
7.0817688008
 11
15.5467628017
 21
7.0829958059
  0
LINE
  5
27F
100
AcDbEntity
  8
0
100
AcDbLine
 62
9
  6
CONTINUOUS
 10
15.5550984787
 20
7.0881679698
 11
15.5550984787
 21
7.0869536587
  0
LINE
  5
280
100
AcDbEntity
  8
0
100
AcDbLine
 62
7
  6
CONTINUOUS
 10
15.5559012527
 20
7.0825810811
 11
15.5559012527
 21
7.0813530466
  0
LINE
  5
281
100
AcDbEntity
  8
0
100
AcDbLine
 62
9
  6
CONTINUOUS
 10
15.5626753093
 20
7.084366195
 11
15.5626753093
 21
7.0831425791
  0
LINE
  5
282
100
AcDbEntity
  8
0
100
AcDbLine
 62
7
  6
CONTINUOUS
 10
15.5707359478
 20
7.1021550878
 11
15.5707359478
 21
7.1009738238
  0
LINE
  5
283
100
AcDbEntity
  8
0
100
AcDbLine
 62
9
  6
CONTINUOUS
 10
15.571265306
 20
7.0832645862
 11
15.571265306
 21
7.0844879021
  0
LINE
  5
284
100
AcDbEntity
  8
0
100
AcDbLine
 62
7
  6
CONTINUOUS
 10
15.5747198732
 20
7.1023419457
 11
15.5747198732
 21
7.1011611109
  0
LINE
  5
285
100
AcDbEntity
  8
0
100
AcDbLine
 62
7
  6
CONTINUOUS
 10
15.5749371981
 20
7.0946044851
 11
15.5749371981
 21
7.0934056084
  0
LINE
  5
286
100
AcDbEntity
  8
0
100
AcDbLine
 62
9
  6
CONTINUOUS
 10
15.5751706774
 20
7.0865230447
 11
15.5751706774
 21
7.0853047251
  0
LINE
  5
287
100
AcDbEntity
  8
0
100
AcDbLine
 62
7
  6
CONTINUOUS
 10
15.5818484311
 20
7.0994420848
 11
15.5818484311
 21
7.0982545523
  0
LINE
  5
288
100
AcDbEntity
  8
0
100
AcDbLine
 62
9
  6
CONTINUOUS
 10
15.583515332
 20
7.0914528044
 11
15.583515332
 21
7.0926563111
  0
LINE
  5
289
100
AcDbEntity
  8
0
100
AcDbLine
 62
7
  6
CONTINUOUS
 10
15.5847661189
 20
7.0927180733
 11
15.5847661189
 21
7.0939185761
  0
LINE
  5
28A
100
AcDbEntity
  8
0
100
AcDbLine
 62
9
  6
CONTINUOUS
 10
15.5849204941
 20
7.0998403599
 11
15.5849204941
 21
7.1010242287
  0
LINE
  5
28B
100
AcDbEntity
  8
0
100
AcDbLine
 62
7
  6
CONTINUOUS
 10
15.585741884
 20
7.099230092
 11
15.585741884
 21
7.100415368
  0
LINE
  5
28C
100
AcDbEntity
  8
0
100
AcDbLine
 62
9
  6
CONTINUOUS
 10
15.5866433943
 20
7.0999263793
 11
15.5866433943
 21
7.0987399707
  0
LINE
  5
28D
100
AcDbEntity
  8
0
100
AcDbLine
 62
7
  6
CONTINUOUS
 10
15.5883027714
 20
7.0808252841
 11
15.5883027714
 21
7.0820546277
  0
LINE
  5
28E
100
AcDbEntity
  8
0
100
AcDbLine
 62
7
  6
CONTINUOUS
 10
15.5902521357
 20
7.1076361049
 11
15.5902521357
 21
7.1064673049
  0
LINE
  5
28F
100
AcDbEntity
  8
0
100
AcDbLine
 62
7
  6
CONTINUOUS
 10
15.5909736668
 20
6.1503359997
 11
15.5909736668
 21
5.8603359997
  0
LINE
  5
290
100
AcDbEntity
  8
0
100
AcDbLine
 62
9
  6
CONTINUOUS
 10
15.5925905347
 20
7.0987124407
 11
15.5925905347
 21
7.099898913
  0
LINE
  5
291
100
AcDbEntity
  8
0
100
AcDbLine
 62
9
  6
CONTINUOUS
 10
15.596495906
 20
7.101739112
 11
15.596495906
 21
7.1005568911
  0
LINE
  5
292
100
AcDbEntity
  8
0
100
AcDbLine
 62
7
  6
CONTINUOUS
 10
15.6005592338
 20
7.0829090042
 11
15.6005592338
 21
7.0841331951
  0
LINE
  5
293
100
AcDbEntity
  8
0
100
AcDbLine
 62
9
  6
CONTINUOUS
 10
15.6015668845
 20
7.0898733059
 11
15.6015668845
 21
7.0886631227
  0
LINE
  5
294
100
AcDbEntity
  8
0
100
AcDbLine
 62
7
  6
CONTINUOUS
 10
15.606255136
 20
7.1162402731
 11
15.606255136
 21
7.1150905168
  0
LINE
  5
295
100
AcDbEntity
  8
0
100
AcDbLine
 62
9
  6
CONTINUOUS
 10
15.6066949284
 20
7.1073342354
 11
15.6066949284
 21
7.1085010925
  0
LINE
  5
296
100
AcDbEntity
  8
0
100
AcDbLine
 62
7
  6
CONTINUOUS
 10
15.6085711086
 20
7.1090364856
 11
15.6085711086
 21
7.1101995463
  0
LINE
  5
297
100
AcDbEntity
  8
0
100
AcDbLine
 62
9
  6
CONTINUOUS
 10
15.6216580041
 20
7.1046936732
 11
15.6216580041
 21
7.1058664685
  0
LINE
  5
298
100
AcDbEntity
  8
0
100
AcDbLine
 62
7
  6
CONTINUOUS
 10
15.6246584292
 20
7.0824098506
 11
15.6246584292
 21
7.0836352719
  0
LINE
  5
299
100
AcDbEntity
  8
0
100
AcDbLine
 62
7
  6
CONTINUOUS
 10
15.6251847156
 20
7.1061208082
 11
15.6251847156
 21
7.1049485888
  0
LINE
  5
29A
100
AcDbEntity
  8
0
100
AcDbLine
 62
7
  6
CONTINUOUS
 10
15.6256660799
 20
7.0902400657
 11
15.6256660799
 21
7.0890307666
  0
LINE
  5
29B
100
AcDbEntity
  8
0
100
AcDbLine
 62
7
  6
CONTINUOUS
 10
15.6311806721
 20
7.1157553916
 11
15.6311806721
 21
7.1146045786
  0
LINE
  5
29C
100
AcDbEntity
  8
0
100
AcDbLine
 62
7
  6
CONTINUOUS
 10
15.6424736668
 20
12.9070859997
 11
15.6424736668
 21
12.8440859997
  0
LINE
  5
29D
100
AcDbEntity
  8
0
100
AcDbLine
 62
7
  6
CONTINUOUS
 10
15.6424736668
 20
12.4690859997
 11
15.6424736668
 21
12.4540859997
  0
LINE
  5
29E
100
AcDbEntity
  8
0
100
AcDbLine
 62
9
  6
CONTINUOUS
 10
15.6457571994
 20
7.1050499408
 11
15.6457571994
 21
7.1062219314
  0
LINE
  5
29F
100
AcDbEntity
  8
0
100
AcDbLine
 62
7
  6
CONTINUOUS
 10
15.6502915616
 20
7.1105033682
 11
15.6502915616
 21
7.1116631771
  0
LINE
  5
2A0
100
AcDbEntity
  8
0
100
AcDbLine
 62
7
  6
CONTINUOUS
 10
15.6552798675
 20
7.116723767
 11
15.6552798675
 21
7.1155750623
  0
LINE
  5
2A1
100
AcDbEntity
  8
0
100
AcDbLine
 62
7
  6
CONTINUOUS
 10
15.6924736668
 20
5.8290859997
 11
15.6924736668
 21
5.8603359997
  0
LINE
  5
2A2
100
AcDbEntity
  8
0
100
AcDbLine
 62
7
  6
CONTINUOUS
 10
15.5610733541
 20
7.0851884203
 11
15.5610963509
 21
7.0854240963
  0
LINE
  5
2A3
100
AcDbEntity
  8
0
100
AcDbLine
 62
7
  6
CONTINUOUS
 10
16.1933640221
 20
7.0979337105
 11
16.1935369311
 21
7.0980490874
  0
LINE
  5
2A4
100
AcDbEntity
  8
0
100
AcDbLine
 62
7
  6
CONTINUOUS
 10
15.8224736668
 20
7.1866229165
 11
15.8224736668
 21
7.1760225679
  0
LINE
  5
2A5
100
AcDbEntity
  8
0
100
AcDbLine
 62
7
  6
CONTINUOUS
 10
15.8224736668
 20
7.1912951775
 11
15.8224736668
 21
7.1911658847
  0
LINE
  5
2A6
100
AcDbEntity
  8
0
100
AcDbLine
 62
7
  6
CONTINUOUS
 10
15.8224736668
 20
7.1723824101
 11
15.8224736668
 21
7.1536325671
  0
LINE
  5
2A7
100
AcDbEntity
  8
0
100
AcDbLine
 62
7
  6
CONTINUOUS
 10
15.8224736668
 20
7.146632405
 11
15.8224736668
 21
7.14028419
  0
LINE
  5
2A8
100
AcDbEntity
  8
0
100
AcDbLine
 62
9
  6
CONTINUOUS
 10
15.8272355715
 20
7.1379572313
 11
15.8272355715
 21
7.1368528877
  0
LINE
  5
2A9
100
AcDbEntity
  8
0
100
AcDbLine
 62
7
  6
CONTINUOUS
 10
15.8274736668
 20
7.1375703532
 11
15.8274736668
 21
7.1386732605
  0
LINE
  5
2AA
100
AcDbEntity
  8
0
100
AcDbLine
 62
7
  6
CONTINUOUS
 10
15.8374736668
 20
7.1260768059
 11
15.8374736668
 21
7.1272031797
  0
LINE
  5
2AB
100
AcDbEntity
  8
0
100
AcDbLine
 62
7
  6
CONTINUOUS
 10
15.8374736668
 20
7.1871724571
 11
15.8374736668
 21
7.188184373
  0
LINE
  5
2AC
100
AcDbEntity
  8
0
100
AcDbLine
 62
7
  6
CONTINUOUS
 10
15.8431620551
 20
7.1734514218
 11
15.8431620551
 21
7.174486972
  0
LINE
  5
2AD
100
AcDbEntity
  8
0
100
AcDbLine
 62
9
  6
CONTINUOUS
 10
15.8617025513
 20
7.1879288955
 11
15.8617025513
 21
7.1869165487
  0
LINE
  5
2AE
100
AcDbEntity
  8
0
100
AcDbLine
 62
9
  6
CONTINUOUS
 10
15.8617025513
 20
7.1724224584
 11
15.8617025513
 21
7.1713832497
  0
LINE
  5
2AF
100
AcDbEntity
  8
0
100
AcDbLine
 62
9
  6
CONTINUOUS
 10
15.8647340181
 20
7.1067968967
 11
15.8647340181
 21
7.1056262054
  0
LINE
  5
2B0
100
AcDbEntity
  8
0
100
AcDbLine
 62
7
  6
CONTINUOUS
 10
15.8683871988
 20
7.1555660195
 11
15.8683871988
 21
7.1544959437
  0
LINE
  5
2B1
100
AcDbEntity
  8
0
100
AcDbLine
 62
9
  6
CONTINUOUS
 10
15.8817025513
 20
7.1720936942
 11
15.8817025513
 21
7.1731316432
  0
LINE
  5
2B2
100
AcDbEntity
  8
0
100
AcDbLine
 62
7
  6
CONTINUOUS
 10
15.8867025513
 20
7.1817966548
 11
15.8867025513
 21
7.1735299223
  0
LINE
  5
2B3
100
AcDbEntity
  8
0
100
AcDbLine
 62
7
  6
CONTINUOUS
 10
15.8924722194
 20
4.8290307584
 11
15.8924736668
 21
4.5790859997
  0
LINE
  5
2B4
100
AcDbEntity
  8
0
100
AcDbLine
 62
7
  6
CONTINUOUS
 10
15.8954736668
 20
7.173550642
 11
15.8954736668
 21
7.1818170865
  0
LINE
  5
2B5
100
AcDbEntity
  8
0
100
AcDbLine
 62
7
  6
CONTINUOUS
 10
15.8974736668
 20
7.1948483148
 11
15.8974736668
 21
7.1938475112
  0
LINE
  5
2B6
100
AcDbEntity
  8
0
100
AcDbLine
 62
9
  6
CONTINUOUS
 10
15.9004736668
 20
7.1731760148
 11
15.9004736668
 21
7.1721381445
  0
LINE
  5
2B7
100
AcDbEntity
  8
0
100
AcDbLine
 62
7
  6
CONTINUOUS
 10
15.9174736668
 20
7.1930230169
 11
15.9174736668
 21
7.1946841879
  0
LINE
  5
2B8
100
AcDbEntity
  8
0
100
AcDbLine
 62
9
  6
CONTINUOUS
 10
15.9175695262
 20
7.1069312459
 11
15.9175695262
 21
7.1057608578
  0
LINE
  5
2B9
100
AcDbEntity
  8
0
100
AcDbLine
 62
7
  6
CONTINUOUS
 10
15.9189501432
 20
7.1543894603
 11
15.9189501432
 21
7.1554597365
  0
LINE
  5
2BA
100
AcDbEntity
  8
0
100
AcDbLine
 62
9
  6
CONTINUOUS
 10
15.9232447822
 20
7.1713832497
 11
15.9232447822
 21
7.1724224584
  0
LINE
  5
2BB
100
AcDbEntity
  8
0
100
AcDbLine
 62
9
  6
CONTINUOUS
 10
15.9232447822
 20
7.1869165487
 11
15.9232447822
 21
7.1879288955
  0
LINE
  5
2BC
100
AcDbEntity
  8
0
100
AcDbLine
 62
9
  6
CONTINUOUS
 10
15.9235041901
 20
7.1926274395
 11
15.9235041901
 21
7.193630256
  0
LINE
  5
2BD
100
AcDbEntity
  8
0
100
AcDbLine
 62
7
  6
CONTINUOUS
 10
15.9417852785
 20
7.174486972
 11
15.9417852785
 21
7.1734514218
  0
LINE
  5
2BE
100
AcDbEntity
  8
0
100
AcDbLine
 62
9
  6
CONTINUOUS
 10
15.9422064535
 20
7.1235171829
 11
15.9422064535
 21
7.1223830543
  0
LINE
  5
2BF
100
AcDbEntity
  8
0
100
AcDbLine
 62
7
  6
CONTINUOUS
 10
15.9424736668
 20
7.1927620612
 11
15.9424736668
 21
7.191757805
  0
LINE
  5
2C0
100
AcDbEntity
  8
0
100
AcDbLine
 62
7
  6
CONTINUOUS
 10
15.9424736668
 20
7.1886208546
 11
15.9424736668
 21
7.1876096741
  0
LINE
  5
2C1
100
AcDbEntity
  8
0
100
AcDbLine
 62
7
  6
CONTINUOUS
 10
15.9425601589
 20
7.1255287457
 11
15.9425601589
 21
7.1266562634
  0
LINE
  5
2C2
100
AcDbEntity
  8
0
100
AcDbLine
 62
7
  6
CONTINUOUS
 10
15.9624736668
 20
7.1536325671
 11
15.9624736668
 21
7.1723824101
  0
LINE
  5
2C3
100
AcDbEntity
  8
0
100
AcDbLine
 62
7
  6
CONTINUOUS
 10
15.9624736668
 20
7.1760225679
 11
15.9624736668
 21
7.1866229165
  0
LINE
  5
2C4
100
AcDbEntity
  8
0
100
AcDbLine
 62
7
  6
CONTINUOUS
 10
15.9624736668
 20
7.1872271614
 11
15.9624736668
 21
7.1907778268
  0
LINE
  5
2C5
100
AcDbEntity
  8
0
100
AcDbLine
 62
7
  6
CONTINUOUS
 10
16.0924736668
 20
5.8290859997
 11
16.0924736668
 21
5.8603359997
  0
LINE
  5
2C6
100
AcDbEntity
  8
0
100
AcDbLine
 62
7
  6
CONTINUOUS
 10
16.1424736668
 20
12.9070859997
 11
16.1424736668
 21
12.8440859997
  0
LINE
  5
2C7
100
AcDbEntity
  8
0
100
AcDbLine
 62
7
  6
CONTINUOUS
 10
16.1424736668
 20
12.4690859997
 11
16.1424736668
 21
12.4540859997
  0
LINE
  5
2C8
100
AcDbEntity
  8
0
100
AcDbLine
 62
7
  6
CONTINUOUS
 10
16.1705253856
 20
7.1120931201
 11
16.1705253856
 21
7.1132494253
  0
LINE
  5
2C9
100
AcDbEntity
  8
0
100
AcDbLine
 62
9
  6
CONTINUOUS
 10
16.1716215121
 20
7.1149207734
 11
16.1716215121
 21
7.1160708987
  0
LINE
  5
2CA
100
AcDbEntity
  8
0
100
AcDbLine
 62
9
  6
CONTINUOUS
 10
16.1717119123
 20
7.1121802025
 11
16.1717119123
 21
7.1110215379
  0
LINE
  5
2CB
100
AcDbEntity
  8
0
100
AcDbLine
 62
9
  6
CONTINUOUS
 10
16.1854150942
 20
7.1019403109
 11
16.1854150942
 21
7.1031193629
  0
LINE
  5
2CC
100
AcDbEntity
  8
0
100
AcDbLine
 62
9
  6
CONTINUOUS
 10
16.1880556584
 20
7.1018739555
 11
16.1880556584
 21
7.100692045
  0
LINE
  5
2CD
100
AcDbEntity
  8
0
100
AcDbLine
 62
9
  6
CONTINUOUS
 10
16.1884128873
 20
7.1149323755
 11
16.1884128873
 21
7.1160824755
  0
LINE
  5
2CE
100
AcDbEntity
  8
0
100
AcDbLine
 62
9
  6
CONTINUOUS
 10
16.1906994466
 20
7.1006635737
 11
16.1906994466
 21
7.1018455496
  0
LINE
  5
2CF
100
AcDbEntity
  8
0
100
AcDbLine
 62
7
  6
CONTINUOUS
 10
16.1908355777
 20
7.111335561
 11
16.1908355777
 21
7.1124935331
  0
LINE
  5
2D0
100
AcDbEntity
  8
0
100
AcDbLine
 62
7
  6
CONTINUOUS
 10
16.1915207647
 20
7.1011248628
 11
16.1915207647
 21
7.1023057806
  0
LINE
  5
2D1
100
AcDbEntity
  8
0
100
AcDbLine
 62
9
  6
CONTINUOUS
 10
16.1916058136
 20
7.1118958296
 11
16.1916058136
 21
7.110736536
  0
LINE
  5
2D2
100
AcDbEntity
  8
0
100
AcDbLine
 62
7
  6
CONTINUOUS
 10
16.1924736668
 20
7.1162161184
 11
16.1924736668
 21
7.1161899625
  0
LINE
  5
2D3
100
AcDbEntity
  8
0
100
AcDbLine
 62
7
  6
CONTINUOUS
 10
16.1933640221
 20
7.0967441098
 11
16.1933640221
 21
7.0979351529
  0
LINE
  5
2D4
100
AcDbEntity
  8
0
100
AcDbLine
 62
7
  6
CONTINUOUS
 10
16.1939736668
 20
6.1503359997
 11
16.1939736668
 21
5.8603359997
  0
LINE
  5
2D5
100
AcDbEntity
  8
0
100
AcDbLine
 62
9
  6
CONTINUOUS
 10
16.1945505488
 20
7.0967442131
 11
16.1945505488
 21
7.0955503807
  0
LINE
  5
2D6
100
AcDbEntity
  8
0
100
AcDbLine
 62
7
  6
CONTINUOUS
 10
16.1989658948
 20
7.1001677474
 11
16.1989658948
 21
7.0989818981
  0
LINE
  5
2D7
100
AcDbEntity
  8
0
100
AcDbLine
 62
9
  6
CONTINUOUS
 10
16.2123247187
 20
7.0977134999
 11
16.2123247187
 21
7.0989022875
  0
LINE
  5
2D8
100
AcDbEntity
  8
0
100
AcDbLine
 62
9
  6
CONTINUOUS
 10
16.2128214579
 20
7.0819175861
 11
16.2128214579
 21
7.0831442232
  0
LINE
  5
2D9
100
AcDbEntity
  8
0
100
AcDbLine
 62
9
  6
CONTINUOUS
 10
16.2135107779
 20
7.0982726932
 11
16.2135107779
 21
7.0970824383
  0
LINE
  5
2DA
100
AcDbEntity
  8
0
100
AcDbLine
 62
9
  6
CONTINUOUS
 10
16.2154620221
 20
7.0817272811
 11
16.2154620221
 21
7.080497122
  0
LINE
  5
2DB
100
AcDbEntity
  8
0
100
AcDbLine
 62
9
  6
CONTINUOUS
 10
16.2159868214
 20
7.0970951729
 11
16.2159868214
 21
7.0982853982
  0
LINE
  5
2DC
100
AcDbEntity
  8
0
100
AcDbLine
 62
7
  6
CONTINUOUS
 10
16.2162401101
 20
7.0972275053
 11
16.2162401101
 21
7.0984174226
  0
LINE
  5
2DD
100
AcDbEntity
  8
0
100
AcDbLine
 62
9
  6
CONTINUOUS
 10
16.2191226519
 20
7.0804332874
 11
16.2191226519
 21
7.0816636052
  0
LINE
  5
2DE
100
AcDbEntity
  8
0
100
AcDbLine
 62
7
  6
CONTINUOUS
 10
16.2195918678
 20
7.0930111904
 11
16.2195918678
 21
7.0942109994
  0
LINE
  5
2DF
100
AcDbEntity
  8
0
100
AcDbLine
 62
7
  6
CONTINUOUS
 10
16.2201601064
 20
7.0810728063
 11
16.2201601064
 21
7.0823015356
  0
LINE
  5
2E0
100
AcDbEntity
  8
0
100
AcDbLine
 62
9
  6
CONTINUOUS
 10
16.2203621038
 20
7.0935336895
 11
16.2203621038
 21
7.0923322724
  0
LINE
  5
2E1
100
AcDbEntity
  8
0
100
AcDbLine
 62
7
  6
CONTINUOUS
 10
16.2229357774
 20
7.0941519528
 11
16.2229357774
 21
7.0929520039
  0
LINE
  5
2E2
100
AcDbEntity
  8
0
100
AcDbLine
 62
9
  6
CONTINUOUS
 10
16.2249260296
 20
7.089191103
 11
16.2249260296
 21
7.090400017
  0
LINE
  5
2E3
100
AcDbEntity
  8
0
100
AcDbLine
 62
7
  6
CONTINUOUS
 10
16.2353876512
 20
7.0838572169
 11
16.2353876512
 21
7.0826323444
  0
LINE
  5
2E4
100
AcDbEntity
  8
0
100
AcDbLine
 62
9
  6
CONTINUOUS
 10
16.239481915
 20
7.0833490316
 11
16.239481915
 21
7.0845721399
  0
LINE
  5
2E5
100
AcDbEntity
  8
0
100
AcDbLine
 62
7
  6
CONTINUOUS
 10
16.2428724721
 20
7.0826965683
 11
16.2428724721
 21
7.0814688207
  0
LINE
  5
2E6
100
AcDbEntity
  8
0
100
AcDbLine
 62
7
  6
CONTINUOUS
 10
16.2434736668
 20
7.0837394623
 11
16.2434736668
 21
7.0825142987
  0
LINE
  5
2E7
100
AcDbEntity
  8
0
100
AcDbLine
 62
7
  6
CONTINUOUS
 10
16.2524736668
 20
7.0764609837
 11
16.2524736668
 21
7.0772561155
  0
LINE
  5
2E8
100
AcDbEntity
  8
0
100
AcDbLine
 62
7
  6
CONTINUOUS
 10
15.9425601577
 20
7.1266776267
 11
15.9422064535
 21
7.1235171829
  0
LINE
  5
2E9
100
AcDbEntity
  8
0
100
AcDbLine
 62
7
  6
CONTINUOUS
 10
15.8272355715
 20
7.1368528877
 11
15.8274736648
 21
7.1375805054
  0
LINE
  5
2EA
100
AcDbEntity
  8
0
100
AcDbLine
 62
7
  6
CONTINUOUS
 10
15.827473665
 20
7.1386827102
 11
15.8272355715
 21
7.1379572313
  0
LINE
  5
2EB
100
AcDbEntity
  8
0
100
AcDbLine
 62
7
  6
CONTINUOUS
 10
15.5860837982
 20
7.1012372615
 11
15.5861390318
 21
7.1013695043
  0
LINE
  5
2EC
100
AcDbEntity
  8
0
100
AcDbLine
 62
7
  6
CONTINUOUS
 10
15.5736331848
 20
7.0931243321
 11
15.5734741945
 21
7.0928526732
  0
LINE
  5
2ED
100
AcDbEntity
  8
0
100
AcDbLine
 62
7
  6
CONTINUOUS
 10
16.3874736668
 20
6.7903359997
 11
16.3874736668
 21
6.7753359997
  0
LINE
  5
2EE
100
AcDbEntity
  8
0
100
AcDbLine
 62
7
  6
CONTINUOUS
 10
16.4424736668
 20
6.7653359997
 11
16.4424736668
 21
6.7127552984
  0
LINE
  5
2EF
100
AcDbEntity
  8
0
100
AcDbLine
 62
7
  6
CONTINUOUS
 10
16.4499736668
 20
6.8913462048
 11
16.4499736668
 21
6.8053359997
  0
LINE
  5
2F0
100
AcDbEntity
  8
0
100
AcDbLine
 62
7
  6
CONTINUOUS
 10
16.5489736668
 20
4.9302933946
 11
16.5489736668
 21
4.5790859997
  0
LINE
  5
2F1
100
AcDbEntity
  8
0
100
AcDbLine
 62
7
  6
CONTINUOUS
 10
16.6061400247
 20
5.4790859997
 11
16.6061400247
 21
5.4290859997
  0
LINE
  5
2F2
100
AcDbEntity
  8
0
100
AcDbLine
 62
7
  6
CONTINUOUS
 10
16.6334736668
 20
4.5790859997
 11
16.6334736668
 21
4.5170859997
  0
LINE
  5
2F3
100
AcDbEntity
  8
0
100
AcDbLine
 62
7
  6
CONTINUOUS
 10
16.7024736668
 20
5.4290859997
 11
16.7024736668
 21
5.1820472845
  0
LINE
  5
2F4
100
AcDbEntity
  8
0
100
AcDbLine
 62
7
  6
CONTINUOUS
 10
16.7574736668
 20
11.8395835796
 11
16.7574736668
 21
11.4345884198
  0
LINE
  5
2F5
100
AcDbEntity
  8
0
100
AcDbLine
 62
7
  6
CONTINUOUS
 10
16.2050516665
 20
7.0837216092
 11
16.2049933895
 21
7.08345855
  0
LINE
  5
2F6
100
AcDbEntity
  8
0
100
AcDbLine
 62
7
  6
CONTINUOUS
 10
15.3519736668
 20
5.4947024385
 11
15.2778396726
 21
5.3887848112
  0
LINE
  5
2F7
100
AcDbEntity
  8
0
100
AcDbLine
 62
7
  6
CONTINUOUS
 10
15.2513102271
 20
4.9455859997
 11
15.2359736668
 21
4.930293618
  0
LINE
  5
2F8
100
AcDbEntity
  8
0
100
AcDbLine
 62
9
  6
CONTINUOUS
 10
16.9114736668
 20
11.4345859997
 11
16.9114736668
 21
11.8395859997
  0
LINE
  5
2F9
100
AcDbEntity
  8
0
100
AcDbLine
 62
9
  6
CONTINUOUS
 10
16.9496773287
 20
11.4549641298
 11
16.9496773287
 21
11.8192078695
  0
LINE
  5
2FA
100
AcDbEntity
  8
0
100
AcDbLine
 62
9
  6
CONTINUOUS
 10
17.1183740454
 20
11.4654710679
 11
17.1183740454
 21
11.8087009314
  0
LINE
  5
2FB
100
AcDbEntity
  8
0
100
AcDbLine
 62
9
  6
CONTINUOUS
 10
17.1334736668
 20
11.8155859997
 11
17.1334736668
 21
11.4585859997
  0
LINE
  5
2FC
100
AcDbEntity
  8
0
100
AcDbLine
 62
7
  6
CONTINUOUS
 10
17.1524736668
 20
4.7670859997
 11
17.1524736668
 21
4.7200859997
  0
LINE
  5
2FD
100
AcDbEntity
  8
0
100
AcDbLine
 62
7
  6
CONTINUOUS
 10
17.1524736668
 20
4.5140859997
 11
17.1524736668
 21
4.4670859997
  0
LINE
  5
2FE
100
AcDbEntity
  8
0
100
AcDbLine
 62
7
  6
CONTINUOUS
 10
17.1644736668
 20
11.8580841998
 11
17.1644736668
 21
11.4160877995
  0
LINE
  5
2FF
100
AcDbEntity
  8
0
100
AcDbLine
 62
9
  6
CONTINUOUS
 10
17.2244736668
 20
11.9180859997
 11
17.2244736668
 21
11.3560859997
  0
LINE
  5
300
100
AcDbEntity
  8
0
100
AcDbLine
 62
7
  6
CONTINUOUS
 10
17.2249736668
 20
4.4670859997
 11
17.2249736668
 21
4.4230117964
  0
LINE
  5
301
100
AcDbEntity
  8
0
100
AcDbLine
 62
9
  6
CONTINUOUS
 10
17.2604736668
 20
11.3560859997
 11
17.2604736668
 21
11.9180859997
  0
LINE
  5
302
100
AcDbEntity
  8
0
100
AcDbLine
 62
7
  6
CONTINUOUS
 10
17.3124736668
 20
4.3292367998
 11
17.3124736668
 21
4.1420859997
  0
LINE
  5
303
100
AcDbEntity
  8
0
100
AcDbLine
 62
7
  6
CONTINUOUS
 10
17.3204736668
 20
11.4160877995
 11
17.3204736668
 21
11.8580841998
  0
LINE
  5
304
100
AcDbEntity
  8
0
100
AcDbLine
 62
7
  6
CONTINUOUS
 10
17.4074736668
 20
11.5240853084
 11
17.4074736668
 21
11.750086691
  0
ARC
  5
305
100
AcDbEntity
  8
0
100
AcDbCircle
 62
7
  6
CONTINUOUS
 10
7.5681256398
 20
10.5120859997
 40
3.375
100
AcDbArc
 50
41.2305771549
 51
165.0
  0
ARC
  5
306
100
AcDbEntity
  8
0
100
AcDbCircle
 62
7
  6
CONTINUOUS
 10
7.5681256398
 20
10.5120859997
 40
2.625
100
AcDbArc
 50
41.2305771549
 51
165.0
  0
ARC
  5
307
100
AcDbEntity
  8
0
100
AcDbCircle
 62
7
  6
CONTINUOUS
 10
5.0147859824
 20
10.7831761029
 40
0.094
100
AcDbArc
 50
271.7747442641
 51
75.0
  0
ARC
  5
308
100
AcDbEntity
  8
0
100
AcDbCircle
 62
7
  6
CONTINUOUS
 10
4.1193727415
 20
11.0231013577
 40
0.094
100
AcDbArc
 50
75.0
 51
238.2252557359
  0
ARC
  5
309
100
AcDbEntity
  8
0
100
AcDbCircle
 62
7
  6
CONTINUOUS
 10
4.6948957797
 20
10.108997708
 40
0.047
100
AcDbArc
 50
255.0
 51
334.9702072738
  0
ARC
  5
30A
100
AcDbEntity
  8
0
100
AcDbCircle
 62
7
  6
CONTINUOUS
 10
4.059316586
 20
10.2793006396
 40
0.047
100
AcDbArc
 50
175.0297927262
 51
255.0
  0
ARC
  5
30B
100
AcDbEntity
  8
0
100
AcDbCircle
 62
7
  6
CONTINUOUS
 10
14.8399347647
 20
5.8530893282
 40
0.625
100
AcDbArc
 50
325.0110095299
 51
355.1903004544
  0
ARC
  5
30C
100
AcDbEntity
  8
0
100
AcDbCircle
 62
7
  6
CONTINUOUS
 10
15.0886956979
 20
4.6820859997
 40
0.5
100
AcDbArc
 50
90.713010655
 51
170.2121809433
  0
ARC
  5
30D
100
AcDbEntity
  8
0
100
AcDbCircle
 62
7
  6
CONTINUOUS
 10
15.4449487878
 20
5.2718215965
 40
0.2039751211
100
AcDbArc
 50
145.0110095298
 51
213.0478355063
  0
ARC
  5
30E
100
AcDbEntity
  8
0
100
AcDbCircle
 62
7
  6
CONTINUOUS
 10
14.8994736208
 20
4.1422170599
 40
0.187
100
AcDbArc
 50
92.1452489224
 51
180.0401561489
  0
ARC
  5
30F
100
AcDbEntity
  8
0
100
AcDbCircle
 62
7
  6
CONTINUOUS
 10
15.0794709929
 20
4.3300859997
 40
0.187
100
AcDbArc
 50
90.0
 51
180.3063960032
  0
ARC
  5
310
100
AcDbEntity
  8
0
100
AcDbCircle
 62
7
  6
CONTINUOUS
 10
15.1301991331
 20
5.0670469751
 40
0.1715245336
100
AcDbArc
 50
314.9173576842
 51
33.0478355063
  0
ARC
  5
311
100
AcDbEntity
  8
0
100
AcDbCircle
 62
7
  6
CONTINUOUS
 10
15.2099736668
 20
5.6001382947
 40
0.125
100
AcDbArc
 50
102.6877201641
 51
255.5620803141
  0
ARC
  5
312
100
AcDbEntity
  8
0
100
AcDbCircle
 62
7
  6
CONTINUOUS
 10
15.6346940464
 20
6.1427523182
 40
0.1230085662
100
AcDbArc
 50
132.9132414326
 51
134.2196763908
  0
ARC
  5
313
100
AcDbEntity
  8
0
100
AcDbCircle
 62
7
  6
CONTINUOUS
 10
14.669389184
 20
4.6170859997
 40
0.1094155172
100
AcDbArc
 50
109.7178358941
 51
250.2821641059
  0
ARC
  5
314
100
AcDbEntity
  8
0
100
AcDbCircle
 62
7
  6
CONTINUOUS
 10
14.5354736668
 20
4.3292367998
 40
0.063
100
AcDbArc
 50
93.9651064013
 51
180.0
  0
ARC
  5
315
100
AcDbEntity
  8
0
100
AcDbCircle
 62
7
  6
CONTINUOUS
 10
15.5309736668
 20
6.1503359997
 40
0.06
100
AcDbArc
 50
0.0
 51
90.0
  0
ARC
  5
316
100
AcDbEntity
  8
0
100
AcDbCircle
 62
7
  6
CONTINUOUS
 10
15.4936247782
 20
5.7980859997
 40
0.031
100
AcDbArc
 50
90.0
 51
175.1903004544
  0
ARC
  5
317
100
AcDbEntity
  8
0
100
AcDbCircle
 62
7
  6
CONTINUOUS
 10
14.5289736668
 20
4.4230117964
 40
0.031
100
AcDbArc
 50
273.9651064011
 51
360.0
  0
ARC
  5
318
100
AcDbEntity
  8
0
100
AcDbCircle
 62
7
  6
CONTINUOUS
 10
12.6574736668
 20
6.7859214801
 40
2.74
100
AcDbArc
 50
337.1536553366
 51
347.8526510226
  0
ARC
  5
319
100
AcDbEntity
  8
0
100
AcDbCircle
 62
7
  6
CONTINUOUS
 10
12.6574736668
 20
6.7859214801
 40
2.74
100
AcDbArc
 50
4.242968636
 51
21.3192166349
  0
ARC
  5
31A
100
AcDbEntity
  8
0
100
AcDbCircle
 62
7
  6
CONTINUOUS
 10
15.0957367733
 20
6.6414561758
 40
0.1288798254
100
AcDbArc
 50
75.983607971
 51
89.990999812
  0
ARC
  5
31B
100
AcDbEntity
  8
0
100
AcDbCircle
 62
7
  6
CONTINUOUS
 10
15.3849736668
 20
6.8913462048
 40
0.05
100
AcDbArc
 50
101.5369590328
 51
180.0
  0
ARC
  5
31C
100
AcDbEntity
  8
0
100
AcDbCircle
 62
7
  6
CONTINUOUS
 10
15.3499736668
 20
6.8053359997
 40
0.015
100
AcDbArc
 50
180.0
 51
270.0
  0
ARC
  5
31D
100
AcDbEntity
  8
0
100
AcDbCircle
 62
7
  6
CONTINUOUS
 10
15.3524736668
 20
6.7653359997
 40
0.01
100
AcDbArc
 50
90.0
 51
180.0
  0
ARC
  5
31E
100
AcDbEntity
  8
0
100
AcDbCircle
 62
9
  6
CONTINUOUS
 10
15.6010424799
 20
6.2915679974
 40
0.079990305
100
AcDbArc
 50
228.6083571361
 51
229.3208397956
  0
ARC
  5
31F
100
AcDbEntity
  8
0
100
AcDbCircle
 62
9
  6
CONTINUOUS
 10
15.5782391519
 20
6.1698967694
 40
0.0686103913
100
AcDbArc
 50
113.4478018385
 51
116.0089640335
  0
ARC
  5
320
100
AcDbEntity
  8
0
100
AcDbCircle
 62
7
  6
CONTINUOUS
 10
15.8147042283
 20
6.6510778605
 40
0.5052249981
100
AcDbArc
 50
117.0530095647
 51
117.3142650995
  0
ARC
  5
321
100
AcDbEntity
  8
0
100
AcDbCircle
 62
7
  6
CONTINUOUS
 10
15.8147320515
 20
6.6508759317
 40
0.5043633707
100
AcDbArc
 50
117.1065583937
 51
117.3683667748
  0
ARC
  5
322
100
AcDbEntity
  8
0
100
AcDbCircle
 62
7
  6
CONTINUOUS
 10
15.8924281674
 20
6.5869239833
 40
0.6084241652
100
AcDbArc
 50
60.4520799341
 51
61.4130249702
  0
ARC
  5
323
100
AcDbEntity
  8
0
100
AcDbCircle
 62
7
  6
CONTINUOUS
 10
15.8924732702
 20
6.5870015013
 40
0.6083345363
100
AcDbArc
 50
61.9052230066
 51
83.333517812
  0
ARC
  5
324
100
AcDbEntity
  8
0
100
AcDbCircle
 62
7
  6
CONTINUOUS
 10
15.8924731645
 20
6.5870020086
 40
0.6083340261
100
AcDbArc
 50
83.5639684378
 51
87.2693804926
  0
ARC
  5
325
100
AcDbEntity
  8
0
100
AcDbCircle
 62
7
  6
CONTINUOUS
 10
15.8919229865
 20
6.5876794114
 40
0.6074605057
100
AcDbArc
 50
122.4918242961
 51
124.2694686369
  0
ARC
  5
326
100
AcDbEntity
  8
0
100
AcDbCircle
 62
7
  6
CONTINUOUS
 10
15.8919121504
 20
6.5876958215
 40
0.6074408436
100
AcDbArc
 50
121.705412294
 51
122.3206131857
  0
ARC
  5
327
100
AcDbEntity
  8
0
100
AcDbCircle
 62
7
  6
CONTINUOUS
 10
15.8918957095
 20
6.587722654
 40
0.6074093749
100
AcDbArc
 50
121.0245078513
 51
121.6469346059
  0
ARC
  5
328
100
AcDbEntity
  8
0
100
AcDbCircle
 62
7
  6
CONTINUOUS
 10
15.8917455356
 20
6.5877548505
 40
0.6072805752
100
AcDbArc
 50
119.4805342071
 51
120.4598096046
  0
ARC
  5
329
100
AcDbEntity
  8
0
100
AcDbCircle
 62
7
  6
CONTINUOUS
 10
15.892361011
 20
6.5949268917
 40
0.6007943024
100
AcDbArc
 50
125.9452057024
 51
126.411293524
  0
ARC
  5
32A
100
AcDbEntity
  8
0
100
AcDbCircle
 62
7
  6
CONTINUOUS
 10
15.8894082614
 20
6.5950031108
 40
0.5998076433
100
AcDbArc
 50
125.7719193432
 51
126.472631741
  0
ARC
  5
32B
100
AcDbEntity
  8
0
100
AcDbCircle
 62
7
  6
CONTINUOUS
 10
15.8866206363
 20
6.6009564397
 40
0.5956774311
100
AcDbArc
 50
53.1103955656
 51
53.8114603257
  0
ARC
  5
32C
100
AcDbEntity
  8
0
100
AcDbCircle
 62
7
  6
CONTINUOUS
 10
15.8868258687
 20
6.601236311
 40
0.5953303747
100
AcDbArc
 50
53.8114978788
 51
54.1621723231
  0
ARC
  5
32D
100
AcDbEntity
  8
0
100
AcDbCircle
 62
7
  6
CONTINUOUS
 10
15.8816563818
 20
6.6009714527
 40
0.5951017792
100
AcDbArc
 50
53.0718735414
 51
53.9665041173
  0
ARC
  5
32E
100
AcDbEntity
  8
0
100
AcDbCircle
 62
7
  6
CONTINUOUS
 10
15.8866402621
 20
6.6009481076
 40
0.5946801265
100
AcDbArc
 50
53.2257332805
 51
53.7434735127
  0
ARC
  5
32F
100
AcDbEntity
  8
0
100
AcDbCircle
 62
7
  6
CONTINUOUS
 10
15.8868086216
 20
6.6011774014
 40
0.5943956612
100
AcDbArc
 50
53.7434886049
 51
54.095020375
  0
ARC
  5
330
100
AcDbEntity
  8
0
100
AcDbCircle
 62
7
  6
CONTINUOUS
 10
15.8862224727
 20
6.6019978142
 40
0.5943541125
100
AcDbArc
 50
55.2589588505
 51
55.6147595119
  0
ARC
  5
331
100
AcDbEntity
  8
0
100
AcDbCircle
 62
7
  6
CONTINUOUS
 10
15.8863190044
 20
6.6021387079
 40
0.594183322
100
AcDbArc
 50
55.6147685115
 51
55.7927093562
  0
ARC
  5
332
100
AcDbEntity
  8
0
100
AcDbCircle
 62
7
  6
CONTINUOUS
 10
15.8835098924
 20
6.6019729141
 40
0.5940829513
100
AcDbArc
 50
55.2396786675
 51
55.5126204714
  0
ARC
  5
333
100
AcDbEntity
  8
0
100
AcDbCircle
 62
7
  6
CONTINUOUS
 10
15.8836480982
 20
6.6021747783
 40
0.5938383083
100
AcDbArc
 50
55.6760837972
 51
55.9533510204
  0
ARC
  5
334
100
AcDbEntity
  8
0
100
AcDbCircle
 62
7
  6
CONTINUOUS
 10
15.8837490661
 20
6.6023242022
 40
0.5936579698
100
AcDbArc
 50
55.9533512658
 51
56.216217212
  0
ARC
  5
335
100
AcDbEntity
  8
0
100
AcDbCircle
 62
7
  6
CONTINUOUS
 10
15.8862070203
 20
6.6019395756
 40
0.5934177434
100
AcDbArc
 50
55.1944203446
 51
55.5510600752
  0
ARC
  5
336
100
AcDbEntity
  8
0
100
AcDbCircle
 62
7
  6
CONTINUOUS
 10
15.8839115359
 20
6.6025675642
 40
0.5933653584
100
AcDbArc
 50
56.2161893535
 51
56.8684191566
  0
ARC
  5
337
100
AcDbEntity
  8
0
100
AcDbCircle
 62
7
  6
CONTINUOUS
 10
15.8868058916
 20
6.6028710782
 40
0.5933038575
100
AcDbArc
 50
56.7252455613
 51
57.5127539198
  0
ARC
  5
338
100
AcDbEntity
  8
0
100
AcDbCircle
 62
7
  6
CONTINUOUS
 10
15.8863038299
 20
6.6020805385
 40
0.5932467387
100
AcDbArc
 50
55.5510691013
 51
55.7294233239
  0
ARC
  5
339
100
AcDbEntity
  8
0
100
AcDbCircle
 62
7
  6
CONTINUOUS
 10
15.8840872796
 20
6.6028362528
 40
0.5930442987
100
AcDbArc
 50
56.8684496325
 51
57.193839946
  0
ARC
  5
33A
100
AcDbEntity
  8
0
100
AcDbCircle
 62
7
  6
CONTINUOUS
 10
15.8870839834
 20
6.6033078692
 40
0.5927860531
100
AcDbArc
 50
57.5127508143
 51
58.3954550327
  0
ARC
  5
33B
100
AcDbEntity
  8
0
100
AcDbCircle
 62
7
  6
CONTINUOUS
 10
15.8842904011
 20
6.6031525659
 40
0.592668384
100
AcDbArc
 50
57.1937768552
 51
58.172433482
  0
ARC
  5
33C
100
AcDbEntity
  8
0
100
AcDbCircle
 62
7
  6
CONTINUOUS
 10
15.887259271
 20
6.6035913646
 40
0.5924527442
100
AcDbArc
 50
58.3955249691
 51
58.6141963993
  0
ARC
  5
33D
100
AcDbEntity
  8
0
100
AcDbCircle
 62
7
  6
CONTINUOUS
 10
15.8867923921
 20
6.6028137083
 40
0.5923656804
100
AcDbArc
 50
56.6641119696
 51
57.4533859638
  0
ARC
  5
33E
100
AcDbEntity
  8
0
100
AcDbCircle
 62
7
  6
CONTINUOUS
 10
15.8873506705
 20
6.6037413389
 40
0.5922771135
100
AcDbArc
 50
58.6141886149
 51
58.9788160587
  0
ARC
  5
33F
100
AcDbEntity
  8
0
100
AcDbCircle
 62
7
  6
CONTINUOUS
 10
15.8870799548
 20
6.6032644838
 40
0.5918309928
100
AcDbArc
 50
57.4533754557
 51
58.3967563738
  0
ARC
  5
340
100
AcDbEntity
  8
0
100
AcDbCircle
 62
7
  6
CONTINUOUS
 10
15.8872643962
 20
6.6035626661
 40
0.5914803782
100
AcDbArc
 50
58.3968368203
 51
58.6152386443
  0
ARC
  5
341
100
AcDbEntity
  8
0
100
AcDbCircle
 62
7
  6
CONTINUOUS
 10
15.8836729839
 20
6.6040037073
 40
0.591458637
100
AcDbArc
 50
59.2162421088
 51
59.4360648952
  0
ARC
  5
342
100
AcDbEntity
  8
0
100
AcDbCircle
 62
7
  6
CONTINUOUS
 10
15.8873588591
 20
6.6037176751
 40
0.591298854
100
AcDbArc
 50
58.6152305112
 51
58.9813775633
  0
ARC
  5
343
100
AcDbEntity
  8
0
100
AcDbCircle
 62
7
  6
CONTINUOUS
 10
15.8837716167
 20
6.6041709566
 40
0.5912644702
100
AcDbArc
 50
59.4360535333
 51
59.8758990045
  0
ARC
  5
344
100
AcDbEntity
  8
0
100
AcDbCircle
 62
7
  6
CONTINUOUS
 10
15.8765590489
 20
6.5943159184
 40
0.5877663254
100
AcDbArc
 50
118.0836575463
 51
119.1506768302
  0
ARC
  5
345
100
AcDbEntity
  8
0
100
AcDbCircle
 62
7
  6
CONTINUOUS
 10
15.8764845232
 20
6.5944553136
 40
0.5876082587
100
AcDbArc
 50
117.3793755093
 51
117.9635058386
  0
ARC
  5
346
100
AcDbEntity
  8
0
100
AcDbCircle
 62
7
  6
CONTINUOUS
 10
15.876555597
 20
6.5943057465
 40
0.5867530367
100
AcDbArc
 50
118.0827797325
 51
119.2054994659
  0
ARC
  5
347
100
AcDbEntity
  8
0
100
AcDbCircle
 62
7
  6
CONTINUOUS
 10
15.8764942417
 20
6.5944207943
 40
0.5866226507
100
AcDbArc
 50
117.5051791363
 51
118.0221220742
  0
ARC
  5
348
100
AcDbEntity
  8
0
100
AcDbCircle
 62
7
  6
CONTINUOUS
 10
15.8747468105
 20
6.6052996733
 40
0.5828026958
100
AcDbArc
 50
123.8431202746
 51
124.0701651855
  0
ARC
  5
349
100
AcDbEntity
  8
0
100
AcDbCircle
 62
7
  6
CONTINUOUS
 10
15.874490895
 20
6.6056838597
 40
0.5823410791
100
AcDbArc
 50
122.6150748674
 51
123.8432586895
  0
ARC
  5
34A
100
AcDbEntity
  8
0
100
AcDbCircle
 62
7
  6
CONTINUOUS
 10
15.8732790315
 20
6.6053999079
 40
0.5816344696
100
AcDbArc
 50
123.7274764917
 51
123.9562533209
  0
ARC
  5
34B
100
AcDbEntity
  8
0
100
AcDbCircle
 62
7
  6
CONTINUOUS
 10
15.8740872144
 20
6.6063121476
 40
0.5815942847
100
AcDbArc
 50
121.9890720688
 51
122.61493872
  0
ARC
  5
34C
100
AcDbEntity
  8
0
100
AcDbCircle
 62
7
  6
CONTINUOUS
 10
15.8731386436
 20
6.6056107702
 40
0.5813811486
100
AcDbArc
 50
123.0859486683
 51
123.7275081182
  0
ARC
  5
34D
100
AcDbEntity
  8
0
100
AcDbCircle
 62
7
  6
CONTINUOUS
 10
15.8738387466
 20
6.6067098242
 40
0.5811253677
100
AcDbArc
 50
121.5182535595
 51
121.9276137791
  0
ARC
  5
34E
100
AcDbEntity
  8
0
100
AcDbCircle
 62
7
  6
CONTINUOUS
 10
15.8728203715
 20
6.6061001354
 40
0.580797389
100
AcDbArc
 50
122.2136667608
 51
123.085995789
  0
ARC
  5
34F
100
AcDbEntity
  8
0
100
AcDbCircle
 62
7
  6
CONTINUOUS
 10
15.8736571749
 20
6.6070060009
 40
0.5807779644
100
AcDbArc
 50
121.173774352
 51
121.4572076999
  0
ARC
  5
350
100
AcDbEntity
  8
0
100
AcDbCircle
 62
7
  6
CONTINUOUS
 10
15.8733133082
 20
6.6075780073
 40
0.5801105556
100
AcDbArc
 50
119.6547710272
 51
121.1128733418
  0
ARC
  5
351
100
AcDbEntity
  8
0
100
AcDbCircle
 62
7
  6
CONTINUOUS
 10
15.8736715605
 20
6.6069341656
 40
0.5798399152
100
AcDbArc
 50
121.1709620203
 51
121.4543701567
  0
ARC
  5
352
100
AcDbEntity
  8
0
100
AcDbCircle
 62
7
  6
CONTINUOUS
 10
15.8735352258
 20
6.6071598073
 40
0.579576284
100
AcDbArc
 50
120.828561584
 51
121.1096768403
  0
ARC
  5
353
100
AcDbEntity
  8
0
100
AcDbCircle
 62
7
  6
CONTINUOUS
 10
15.8729421727
 20
6.6082281216
 40
0.579361964
100
AcDbArc
 50
118.538713179
 51
119.6546853625
  0
ARC
  5
354
100
AcDbEntity
  8
0
100
AcDbCircle
 62
7
  6
CONTINUOUS
 10
15.8679796531
 20
6.6050632452
 40
0.5773121625
100
AcDbArc
 50
123.9720257558
 51
124.3871583349
  0
ARC
  5
355
100
AcDbEntity
  8
0
100
AcDbCircle
 62
7
  6
CONTINUOUS
 10
15.8678738782
 20
6.6052202187
 40
0.5771228768
100
AcDbArc
 50
123.7094170774
 51
123.9043732579
  0
ARC
  5
356
100
AcDbEntity
  8
0
100
AcDbCircle
 62
7
  6
CONTINUOUS
 10
15.8677544965
 20
6.6053996264
 40
0.5769073794
100
AcDbArc
 50
123.2731255186
 51
123.6423242278
  0
ARC
  5
357
100
AcDbEntity
  8
0
100
AcDbCircle
 62
7
  6
CONTINUOUS
 10
15.8681062517
 20
6.6070723227
 40
0.5762244645
100
AcDbArc
 50
120.1861581554
 51
121.4639793414
  0
ARC
  5
358
100
AcDbEntity
  8
0
100
AcDbCircle
 62
7
  6
CONTINUOUS
 10
15.8673071584
 20
6.6060885485
 40
0.576085962
100
AcDbArc
 50
121.785216972
 51
123.0739547502
  0
ARC
  5
359
100
AcDbEntity
  8
0
100
AcDbCircle
 62
7
  6
CONTINUOUS
 10
15.8676962207
 20
6.6077766658
 40
0.5754094648
100
AcDbArc
 50
119.1790170627
 51
120.1861304939
  0
ARC
  5
35A
100
AcDbEntity
  8
0
100
AcDbCircle
 62
7
  6
CONTINUOUS
 10
15.8669455572
 20
6.6066678016
 40
0.5754031119
100
AcDbArc
 50
121.3803460402
 51
121.7849921701
  0
ARC
  5
35B
100
AcDbEntity
  8
0
100
AcDbCircle
 62
7
  6
CONTINUOUS
 10
15.8679565097
 20
6.6072806523
 40
0.5749542281
100
AcDbArc
 50
120.2696764999
 51
120.6666775348
  0
ARC
  5
35C
100
AcDbEntity
  8
0
100
AcDbCircle
 62
7
  6
CONTINUOUS
 10
15.8674190339
 20
6.608270403
 40
0.5748432429
100
AcDbArc
 50
118.9338003306
 51
119.178887953
  0
ARC
  5
35D
100
AcDbEntity
  8
0
100
AcDbCircle
 62
7
  6
CONTINUOUS
 10
15.8677950158
 20
6.607557402
 40
0.5746338055
100
AcDbArc
 50
119.7799679313
 51
120.2696790061
  0
ARC
  5
35E
100
AcDbEntity
  8
0
100
AcDbCircle
 62
7
  6
CONTINUOUS
 10
15.8672756165
 20
6.6085307857
 40
0.5745459761
100
AcDbArc
 50
117.9359934902
 51
118.9338458952
  0
ARC
  5
35F
100
AcDbEntity
  8
0
100
AcDbCircle
 62
7
  6
CONTINUOUS
 10
15.867600168
 20
6.6078984841
 40
0.5742409913
100
AcDbArc
 50
119.1764360328
 51
119.7097792614
  0
ARC
  5
360
100
AcDbEntity
  8
0
100
AcDbCircle
 62
7
  6
CONTINUOUS
 10
15.8671245139
 20
6.6088142792
 40
0.5742247285
100
AcDbArc
 50
117.7074620584
 51
117.9359253933
  0
ARC
  5
361
100
AcDbEntity
  8
0
100
AcDbCircle
 62
7
  6
CONTINUOUS
 10
15.8620447851
 20
6.6403438435
 40
0.5603252876
100
AcDbArc
 50
51.1910048471
 51
51.9051046347
  0
ARC
  5
362
100
AcDbEntity
  8
0
100
AcDbCircle
 62
7
  6
CONTINUOUS
 10
15.8628800098
 20
6.6414069014
 40
0.5589733667
100
AcDbArc
 50
51.9052525525
 51
52.2629332172
  0
ARC
  5
363
100
AcDbEntity
  8
0
100
AcDbCircle
 62
7
  6
CONTINUOUS
 10
15.8702092416
 20
6.641985276
 40
0.5585734934
100
AcDbArc
 50
52.1664241149
 51
52.5575586188
  0
ARC
  5
364
100
AcDbEntity
  8
0
100
AcDbCircle
 62
7
  6
CONTINUOUS
 10
15.870652598
 20
6.6425636179
 40
0.5578447656
100
AcDbArc
 50
52.5575995092
 51
52.7586709444
  0
ARC
  5
365
100
AcDbEntity
  8
0
100
AcDbCircle
 62
7
  6
CONTINUOUS
 10
15.8701971647
 20
6.6418342109
 40
0.5577318204
100
AcDbArc
 50
52.0976708382
 51
52.566773991
  0
ARC
  5
366
100
AcDbEntity
  8
0
100
AcDbCircle
 62
7
  6
CONTINUOUS
 10
15.8707872391
 20
6.6426043633
 40
0.5567616027
100
AcDbArc
 50
52.5668181485
 51
52.879842796
  0
ARC
  5
367
100
AcDbEntity
  8
0
100
AcDbCircle
 62
7
  6
CONTINUOUS
 10
15.8714744174
 20
6.6436507582
 40
0.5564819495
100
AcDbArc
 50
52.9467874101
 51
53.4665141133
  0
ARC
  5
368
100
AcDbEntity
  8
0
100
AcDbCircle
 62
7
  6
CONTINUOUS
 10
15.8720476849
 20
6.6444233182
 40
0.5555199286
100
AcDbArc
 50
53.4665890489
 51
53.7290758693
  0
ARC
  5
369
100
AcDbEntity
  8
0
100
AcDbCircle
 62
7
  6
CONTINUOUS
 10
15.8716007603
 20
6.6436822011
 40
0.5554112146
100
AcDbArc
 50
52.8796587665
 51
53.6635999743
  0
ARC
  5
36A
100
AcDbEntity
  8
0
100
AcDbCircle
 62
7
  6
CONTINUOUS
 10
15.867416656
 20
6.6447342497
 40
0.5549491227
100
AcDbArc
 50
53.063907247
 51
54.2797421854
  0
ARC
  5
36B
100
AcDbEntity
  8
0
100
AcDbCircle
 62
7
  6
CONTINUOUS
 10
15.8726863537
 20
6.6452956361
 40
0.5544388019
100
AcDbArc
 50
53.7289566338
 51
54.3664253572
  0
ARC
  5
36C
100
AcDbEntity
  8
0
100
AcDbCircle
 62
7
  6
CONTINUOUS
 10
15.8726770743
 20
6.6451446705
 40
0.5535953764
100
AcDbArc
 50
53.6636493501
 51
54.3755577315
  0
ARC
  5
36D
100
AcDbEntity
  8
0
100
AcDbCircle
 62
7
  6
CONTINUOUS
 10
15.8684136629
 20
6.6461170207
 40
0.5532444017
100
AcDbArc
 50
54.2799644664
 51
54.6609210669
  0
ARC
  5
36E
100
AcDbEntity
  8
0
100
AcDbCircle
 62
7
  6
CONTINUOUS
 10
15.8694564836
 20
6.6475975839
 40
0.5514334429
100
AcDbArc
 50
54.9574257364
 51
55.4998949997
  0
ARC
  5
36F
100
AcDbEntity
  8
0
100
AcDbCircle
 62
7
  6
CONTINUOUS
 10
15.8750589097
 20
6.6486733017
 40
0.5503109882
100
AcDbArc
 50
55.6695440506
 51
55.8853566416
  0
ARC
  5
370
100
AcDbEntity
  8
0
100
AcDbCircle
 62
7
  6
CONTINUOUS
 10
15.8754290666
 20
6.649220204
 40
0.5496505958
100
AcDbArc
 50
55.8853283614
 51
56.2405520133
  0
ARC
  5
371
100
AcDbEntity
  8
0
100
AcDbCircle
 62
7
  6
CONTINUOUS
 10
15.8750500775
 20
6.6485197186
 40
0.5494694506
100
AcDbArc
 50
55.6084784329
 51
55.8939933567
  0
ARC
  5
372
100
AcDbEntity
  8
0
100
AcDbCircle
 62
7
  6
CONTINUOUS
 10
15.8707465433
 20
6.6494861307
 40
0.5491463442
100
AcDbArc
 50
55.499215056
 51
56.7242940956
  0
ARC
  5
373
100
AcDbEntity
  8
0
100
AcDbCircle
 62
7
  6
CONTINUOUS
 10
15.8754223188
 20
6.6490694038
 40
0.5488055851
100
AcDbArc
 50
55.8939927071
 51
56.1807010605
  0
ARC
  5
374
100
AcDbEntity
  8
0
100
AcDbCircle
 62
7
  6
CONTINUOUS
 10
15.8760254622
 20
6.6501136143
 40
0.5485764127
100
AcDbArc
 50
56.2404847068
 51
56.8124393841
  0
ARC
  5
375
100
AcDbEntity
  8
0
100
AcDbCircle
 62
7
  6
CONTINUOUS
 10
15.8759752514
 20
6.6498961993
 40
0.547810937
100
AcDbArc
 50
56.1806174549
 51
56.7537637856
  0
ARC
  5
376
100
AcDbEntity
  8
0
100
AcDbCircle
 62
7
  6
CONTINUOUS
 10
15.8767408986
 20
6.6512073653
 40
0.5472694543
100
AcDbArc
 50
56.8124433141
 51
57.3853072306
  0
ARC
  5
377
100
AcDbEntity
  8
0
100
AcDbCircle
 62
7
  6
CONTINUOUS
 10
15.8765890363
 20
6.6508314575
 40
0.5466922595
100
AcDbArc
 50
56.7538243195
 51
57.1599870209
  0
ARC
  5
378
100
AcDbEntity
  8
0
100
AcDbCircle
 62
7
  6
CONTINUOUS
 10
15.8769466791
 20
6.6513847243
 40
0.5460334634
100
AcDbArc
 50
57.1600345846
 51
57.3279344476
  0
ARC
  5
379
100
AcDbEntity
  8
0
100
AcDbCircle
 62
7
  6
CONTINUOUS
 10
15.8704391795
 20
6.6521184998
 40
0.5458580599
100
AcDbArc
 50
57.4806646875
 51
57.707300333
  0
ARC
  5
37A
100
AcDbEntity
  8
0
100
AcDbCircle
 62
7
  6
CONTINUOUS
 10
15.8708445504
 20
6.6527608344
 40
0.545098508
100
AcDbArc
 50
57.7072486534
 51
58.1610089057
  0
ARC
  5
37B
100
AcDbEntity
  8
0
100
AcDbCircle
 62
7
  6
CONTINUOUS
 10
15.8854264137
 20
6.656457721
 40
0.5385262214
100
AcDbArc
 50
90.0938779593
 51
91.9709776616
  0
ARC
  5
37C
100
AcDbEntity
  8
0
100
AcDbCircle
 62
7
  6
CONTINUOUS
 10
15.8804195543
 20
6.6560836103
 40
0.538210708
100
AcDbArc
 50
93.5522450988
 51
96.1806696121
  0
ARC
  5
37D
100
AcDbEntity
  8
0
100
AcDbCircle
 62
7
  6
CONTINUOUS
 10
15.885383458
 20
6.6577661782
 40
0.5372182968
100
AcDbArc
 50
85.930951762
 51
86.5754541134
  0
ARC
  5
37E
100
AcDbEntity
  8
0
100
AcDbCircle
 62
7
  6
CONTINUOUS
 10
15.8854219951
 20
6.6578395359
 40
0.5371457889
100
AcDbArc
 50
93.0059246117
 51
94.0968280928
  0
ARC
  5
37F
100
AcDbEntity
  8
0
100
AcDbCircle
 62
7
  6
CONTINUOUS
 10
15.8802470423
 20
6.65758692
 40
0.5367019059
100
AcDbArc
 50
85.6083317644
 51
86.0301029908
  0
ARC
  5
380
100
AcDbEntity
  8
0
100
AcDbCircle
 62
7
  6
CONTINUOUS
 10
15.8802649282
 20
6.6576129827
 40
0.5366752881
100
AcDbArc
 50
89.8049522082
 51
92.1894281682
  0
ARC
  5
381
100
AcDbEntity
  8
0
100
AcDbCircle
 62
7
  6
CONTINUOUS
 10
15.8802570411
 20
6.657739713
 40
0.5365487873
100
AcDbArc
 50
86.0300385582
 51
88.161128986
  0
ARC
  5
382
100
AcDbEntity
  8
0
100
AcDbCircle
 62
7
  6
CONTINUOUS
 10
15.8853833259
 20
6.6576473126
 40
0.5363365872
100
AcDbArc
 50
85.9242369314
 51
86.569803471
  0
ARC
  5
383
100
AcDbEntity
  8
0
100
AcDbCircle
 62
7
  6
CONTINUOUS
 10
15.8802702603
 20
6.6580739323
 40
0.5362143231
100
AcDbArc
 50
88.1613781225
 51
89.8053542749
  0
ARC
  5
384
100
AcDbEntity
  8
0
100
AcDbCircle
 62
7
  6
CONTINUOUS
 10
15.8853099559
 20
6.6595028592
 40
0.5354788795
100
AcDbArc
 50
91.9697304088
 51
93.0032858254
  0
ARC
  5
385
100
AcDbEntity
  8
0
100
AcDbCircle
 62
7
  6
CONTINUOUS
 10
15.885422744
 20
6.6595943581
 40
0.5353895825
100
AcDbArc
 50
89.2454096794
 51
90.0940352322
  0
ARC
  5
386
100
AcDbEntity
  8
0
100
AcDbCircle
 62
7
  6
CONTINUOUS
 10
15.8801964911
 20
6.659472921
 40
0.5348140931
100
AcDbArc
 50
92.1897140888
 51
93.4701230752
  0
ARC
  5
387
100
AcDbEntity
  8
0
100
AcDbCircle
 62
7
  6
CONTINUOUS
 10
15.6019436129
 20
6.9069541684
 40
0.1711611588
100
AcDbArc
 50
84.0554346439
 51
85.1762366224
  0
ARC
  5
388
100
AcDbEntity
  8
0
100
AcDbCircle
 62
7
  6
CONTINUOUS
 10
15.6021247467
 20
6.9069724413
 40
0.1711424948
100
AcDbArc
 50
93.6408993271
 51
96.5374749132
  0
ARC
  5
389
100
AcDbEntity
  8
0
100
AcDbCircle
 62
7
  6
CONTINUOUS
 10
15.6020025828
 20
6.9076590309
 40
0.1704538341
100
AcDbArc
 50
85.1760646264
 51
87.4242545063
  0
ARC
  5
38A
100
AcDbEntity
  8
0
100
AcDbCircle
 62
7
  6
CONTINUOUS
 10
15.6020515041
 20
6.9079917022
 40
0.1701206402
100
AcDbArc
 50
92.1831538005
 51
93.6380807672
  0
ARC
  5
38B
100
AcDbEntity
  8
0
100
AcDbCircle
 62
7
  6
CONTINUOUS
 10
15.4998560275
 20
6.9349141937
 40
0.125
100
AcDbArc
 50
105.0
 51
177.5140472804
  0
ARC
  5
38C
100
AcDbEntity
  8
0
100
AcDbCircle
 62
7
  6
CONTINUOUS
 10
15.5808690217
 20
7.0190494188
 40
0.0750754485
100
AcDbArc
 50
87.9436467633
 51
89.0428220776
  0
ARC
  5
38D
100
AcDbEntity
  8
0
100
AcDbCircle
 62
7
  6
CONTINUOUS
 10
15.5679579586
 20
7.0146580438
 40
0.0699081373
100
AcDbArc
 50
87.2883298373
 51
94.3315086793
  0
ARC
  5
38E
100
AcDbEntity
  8
0
100
AcDbCircle
 62
7
  6
CONTINUOUS
 10
15.5679579467
 20
7.0136062647
 40
0.0697367936
100
AcDbArc
 50
87.2816524803
 51
94.3421636032
  0
ARC
  5
38F
100
AcDbEntity
  8
0
100
AcDbCircle
 62
7
  6
CONTINUOUS
 10
15.5596047929
 20
7.0087243493
 40
0.0693877503
100
AcDbArc
 50
81.2973213559
 51
89.7885813601
  0
ARC
  5
390
100
AcDbEntity
  8
0
100
AcDbCircle
 62
7
  6
CONTINUOUS
 10
15.5596176782
 20
7.0090300303
 40
0.0690820248
100
AcDbArc
 50
89.7983326692
 51
94.0522609146
  0
ARC
  5
391
100
AcDbEntity
  8
0
100
AcDbCircle
 62
7
  6
CONTINUOUS
 10
15.5808744038
 20
7.0256052174
 40
0.0685205539
100
AcDbArc
 50
88.9557468275
 51
93.1339482029
  0
ARC
  5
392
100
AcDbEntity
  8
0
100
AcDbCircle
 62
7
  6
CONTINUOUS
 10
15.5811210979
 20
7.0262440298
 40
0.0678764258
100
AcDbArc
 50
87.0447894596
 51
87.9383741824
  0
ARC
  5
393
100
AcDbEntity
  8
0
100
AcDbCircle
 62
7
  6
CONTINUOUS
 10
15.5088847111
 20
7.1496936205
 40
0.0769525609
100
AcDbArc
 50
304.3360331491
 51
305.0665710072
  0
ARC
  5
394
100
AcDbEntity
  8
0
100
AcDbCircle
 62
7
  6
CONTINUOUS
 10
15.5102553495
 20
7.146375306
 40
0.074445953
100
AcDbArc
 50
305.1319275956
 51
305.8052612952
  0
ARC
  5
395
100
AcDbEntity
  8
0
100
AcDbCircle
 62
7
  6
CONTINUOUS
 10
15.5108209886
 20
7.1454965709
 40
0.0734018071
100
AcDbArc
 50
302.9855239819
 51
305.1655561444
  0
ARC
  5
396
100
AcDbEntity
  8
0
100
AcDbCircle
 62
7
  6
CONTINUOUS
 10
15.5119892856
 20
7.1450901174
 40
0.0714001335
100
AcDbArc
 50
302.9141262964
 51
304.362516066
  0
ARC
  5
397
100
AcDbEntity
  8
0
100
AcDbCircle
 62
7
  6
CONTINUOUS
 10
15.5139561145
 20
7.1412364674
 40
0.0681132366
100
AcDbArc
 50
305.809490721
 51
306.5076824621
  0
ARC
  5
398
100
AcDbEntity
  8
0
100
AcDbCircle
 62
7
  6
CONTINUOUS
 10
15.5175285745
 20
7.1351943742
 40
0.0611084514
100
AcDbArc
 50
302.41994733
 51
302.9690385682
  0
ARC
  5
399
100
AcDbEntity
  8
0
100
AcDbCircle
 62
7
  6
CONTINUOUS
 10
15.5191702864
 20
7.1341854333
 40
0.0593437068
100
AcDbArc
 50
306.5113936082
 51
307.2594654989
  0
ARC
  5
39A
100
AcDbEntity
  8
0
100
AcDbCircle
 62
7
  6
CONTINUOUS
 10
15.5673605172
 20
7.1303555429
 40
0.0539449978
100
AcDbArc
 50
303.2882465197
 51
304.9216349544
  0
ARC
  5
39B
100
AcDbEntity
  8
0
100
AcDbCircle
 62
7
  6
CONTINUOUS
 10
15.5683200268
 20
7.1289753241
 40
0.0522640306
100
AcDbArc
 50
304.9253377443
 51
305.7547066832
  0
ARC
  5
39C
100
AcDbEntity
  8
0
100
AcDbCircle
 62
7
  6
CONTINUOUS
 10
15.5640722003
 20
7.1001108111
 40
0.0185039556
100
AcDbArc
 50
301.8077905833
 51
306.8548182925
  0
ARC
  5
39D
100
AcDbEntity
  8
0
100
AcDbCircle
 62
7
  6
CONTINUOUS
 10
15.5376356797
 20
7.0628618406
 40
0.0161932965
100
AcDbArc
 50
63.7141791448
 51
65.4993769045
  0
ARC
  5
39E
100
AcDbEntity
  8
0
100
AcDbCircle
 62
7
  6
CONTINUOUS
 10
15.5380395489
 20
7.0637621937
 40
0.0152065295
100
AcDbArc
 50
65.4772382008
 51
68.7540452377
  0
ARC
  5
39F
100
AcDbEntity
  8
0
100
AcDbCircle
 62
7
  6
CONTINUOUS
 10
15.5392403858
 20
7.0650768382
 40
0.0138058192
100
AcDbArc
 50
105.3774505528
 51
108.8468231247
  0
ARC
  5
3A0
100
AcDbEntity
  8
0
100
AcDbCircle
 62
7
  6
CONTINUOUS
 10
15.6506873416
 20
6.9312999351
 40
0.1843396389
100
AcDbArc
 50
95.0331863569
 51
96.0743650952
  0
ARC
  5
3A1
100
AcDbEntity
  8
0
100
AcDbCircle
 62
7
  6
CONTINUOUS
 10
15.6505116289
 20
6.9325296269
 40
0.1842565267
100
AcDbArc
 50
84.4877200645
 51
86.1697778696
  0
ARC
  5
3A2
100
AcDbEntity
  8
0
100
AcDbCircle
 62
7
  6
CONTINUOUS
 10
15.6506244046
 20
6.9327389837
 40
0.1840463645
100
AcDbArc
 50
92.9389512657
 51
96.0643773495
  0
ARC
  5
3A3
100
AcDbEntity
  8
0
100
AcDbCircle
 62
7
  6
CONTINUOUS
 10
15.6506226754
 20
6.9320460971
 40
0.1835906807
100
AcDbArc
 50
93.1871085392
 51
95.0335127721
  0
ARC
  5
3A4
100
AcDbEntity
  8
0
100
AcDbCircle
 62
7
  6
CONTINUOUS
 10
15.6505333977
 20
6.932049879
 40
0.1835868351
100
AcDbArc
 50
84.9323066835
 51
87.1716486495
  0
ARC
  5
3A5
100
AcDbEntity
  8
0
100
AcDbCircle
 62
7
  6
CONTINUOUS
 10
15.6505635267
 20
6.9332918995
 40
0.18349249
100
AcDbArc
 50
86.1700469985
 51
88.5271539848
  0
ARC
  5
3A6
100
AcDbEntity
  8
0
100
AcDbCircle
 62
7
  6
CONTINUOUS
 10
15.6505709949
 20
6.9327293375
 40
0.1829063492
100
AcDbArc
 50
87.1729092327
 51
88.5247732525
  0
ARC
  5
3A7
100
AcDbEntity
  8
0
100
AcDbCircle
 62
7
  6
CONTINUOUS
 10
15.6230509047
 20
6.9770684185
 40
0.1335814474
100
AcDbArc
 50
124.7055998943
 51
125.0844402557
  0
ARC
  5
3A8
100
AcDbEntity
  8
0
100
AcDbCircle
 62
7
  6
CONTINUOUS
 10
15.6227088494
 20
6.9775744757
 40
0.1329706712
100
AcDbArc
 50
124.3353223229
 51
124.7085855211
  0
ARC
  5
3A9
100
AcDbEntity
  8
0
100
AcDbCircle
 62
7
  6
CONTINUOUS
 10
15.619690256
 20
6.9819894909
 40
0.1276223762
100
AcDbArc
 50
123.9584758504
 51
124.3342531027
  0
ARC
  5
3AA
100
AcDbEntity
  8
0
100
AcDbCircle
 62
7
  6
CONTINUOUS
 10
15.6087050474
 20
6.9972865949
 40
0.1087911042
100
AcDbArc
 50
125.0221713912
 51
126.4229906583
  0
ARC
  5
3AB
100
AcDbEntity
  8
0
100
AcDbCircle
 62
7
  6
CONTINUOUS
 10
15.6630883668
 20
7.0677439197
 40
0.0830451866
100
AcDbArc
 50
151.2906116718
 51
152.4668283398
  0
ARC
  5
3AC
100
AcDbEntity
  8
0
100
AcDbCircle
 62
7
  6
CONTINUOUS
 10
15.6151967644
 20
7.0406145897
 40
0.0750224958
100
AcDbArc
 50
83.1700628644
 51
86.9079661231
  0
ARC
  5
3AD
100
AcDbEntity
  8
0
100
AcDbCircle
 62
7
  6
CONTINUOUS
 10
15.6152654923
 20
7.0409445192
 40
0.0746914686
100
AcDbArc
 50
91.9315691674
 51
96.9287137375
  0
ARC
  5
3AE
100
AcDbEntity
  8
0
100
AcDbCircle
 62
7
  6
CONTINUOUS
 10
15.6152483919
 20
7.0421551906
 40
0.0746289361
100
AcDbArc
 50
81.9225053885
 51
96.9213226761
  0
ARC
  5
3AF
100
AcDbEntity
  8
0
100
AcDbCircle
 62
7
  6
CONTINUOUS
 10
15.6152457501
 20
7.0414037556
 40
0.0742318278
100
AcDbArc
 50
86.9142882767
 51
91.9282873003
  0
ARC
  5
3B0
100
AcDbEntity
  8
0
100
AcDbCircle
 62
7
  6
CONTINUOUS
 10
15.6054195768
 20
7.0436764107
 40
0.0667372416
100
AcDbArc
 50
87.4810548683
 51
88.8609039945
  0
ARC
  5
3B1
100
AcDbEntity
  8
0
100
AcDbCircle
 62
7
  6
CONTINUOUS
 10
15.608379724
 20
7.12453752
 40
0.0228841871
100
AcDbArc
 50
310.9657162592
 51
312.9085656546
  0
ARC
  5
3B2
100
AcDbEntity
  8
0
100
AcDbCircle
 62
7
  6
CONTINUOUS
 10
15.6165009102
 20
7.0751953654
 40
0.0187415761
100
AcDbArc
 50
136.038672161
 51
138.5669521097
  0
ARC
  5
3B3
100
AcDbEntity
  8
0
100
AcDbCircle
 62
7
  6
CONTINUOUS
 10
15.6406967151
 20
7.0753996506
 40
0.0185655969
100
AcDbArc
 50
135.7534391995
 51
138.4266330219
  0
ARC
  5
3B4
100
AcDbEntity
  8
0
100
AcDbCircle
 62
7
  6
CONTINUOUS
 10
15.8724956278
 20
6.6796114357
 40
0.5154664507
100
AcDbArc
 50
127.9260982104
 51
128.1203141034
  0
ARC
  5
3B5
100
AcDbEntity
  8
0
100
AcDbCircle
 62
7
  6
CONTINUOUS
 10
15.8718250979
 20
6.6804735524
 40
0.5143742709
100
AcDbArc
 50
127.5962434235
 51
127.8443562963
  0
ARC
  5
3B6
100
AcDbEntity
  8
0
100
AcDbCircle
 62
7
  6
CONTINUOUS
 10
15.870059727
 20
6.6827796601
 40
0.5114700228
100
AcDbArc
 50
126.1308765699
 51
127.5143993302
  0
ARC
  5
3B7
100
AcDbEntity
  8
0
100
AcDbCircle
 62
7
  6
CONTINUOUS
 10
15.8634746191
 20
6.6820629784
 40
0.5099187269
100
AcDbArc
 50
126.9555698807
 51
127.2112478878
  0
ARC
  5
3B8
100
AcDbEntity
  8
0
100
AcDbCircle
 62
7
  6
CONTINUOUS
 10
15.8635029945
 20
6.6817958184
 40
0.5091819133
100
AcDbArc
 50
126.9412532488
 51
127.2782446305
  0
ARC
  5
3B9
100
AcDbEntity
  8
0
100
AcDbCircle
 62
7
  6
CONTINUOUS
 10
15.8623697876
 20
6.6835369041
 40
0.5080766864
100
AcDbArc
 50
126.2887326987
 51
126.8734629332
  0
ARC
  5
3BA
100
AcDbEntity
  8
0
100
AcDbCircle
 62
7
  6
CONTINUOUS
 10
15.8678571658
 20
6.6857711718
 40
0.5077551616
100
AcDbArc
 50
125.862964196
 51
126.068631902
  0
ARC
  5
3BB
100
AcDbEntity
  8
0
100
AcDbCircle
 62
7
  6
CONTINUOUS
 10
15.8623765703
 20
6.6832976418
 40
0.5073045985
100
AcDbArc
 50
126.3656049799
 51
126.8587923569
  0
ARC
  5
3BC
100
AcDbEntity
  8
0
100
AcDbCircle
 62
7
  6
CONTINUOUS
 10
15.8672202993
 20
6.6866535735
 40
0.5066669369
100
AcDbArc
 50
125.5896146888
 51
125.763647131
  0
ARC
  5
3BD
100
AcDbEntity
  8
0
100
AcDbCircle
 62
7
  6
CONTINUOUS
 10
15.8514769379
 20
6.6806500671
 40
0.5064495158
100
AcDbArc
 50
126.9513457773
 51
127.6148294244
  0
ARC
  5
3BE
100
AcDbEntity
  8
0
100
AcDbCircle
 62
7
  6
CONTINUOUS
 10
15.8664578879
 20
6.6877222195
 40
0.5053541998
100
AcDbArc
 50
125.2071940826
 51
125.4477790175
  0
ARC
  5
3BF
100
AcDbEntity
  8
0
100
AcDbCircle
 62
7
  6
CONTINUOUS
 10
15.8606574462
 20
6.685875019
 40
0.505178604
100
AcDbArc
 50
125.4805885937
 51
126.2891410546
  0
ARC
  5
3C0
100
AcDbEntity
  8
0
100
AcDbCircle
 62
7
  6
CONTINUOUS
 10
15.8606428035
 20
6.6856614126
 40
0.5043731604
100
AcDbArc
 50
125.4488402132
 51
126.366223905
  0
ARC
  5
3C1
100
AcDbEntity
  8
0
100
AcDbCircle
 62
7
  6
CONTINUOUS
 10
15.8500810314
 20
6.6825060583
 40
0.5041271741
100
AcDbArc
 50
126.4331369255
 51
126.8603685503
  0
ARC
  5
3C2
100
AcDbEntity
  8
0
100
AcDbCircle
 62
7
  6
CONTINUOUS
 10
15.8652897758
 20
6.689383686
 40
0.5033232
100
AcDbArc
 50
124.306135995
 51
125.1304611875
  0
ARC
  5
3C3
100
AcDbEntity
  8
0
100
AcDbCircle
 62
7
  6
CONTINUOUS
 10
15.8595488984
 20
6.6871946075
 40
0.5024897296
100
AcDbArc
 50
125.1892551163
 51
125.4486217389
  0
ARC
  5
3C4
100
AcDbEntity
  8
0
100
AcDbCircle
 62
7
  6
CONTINUOUS
 10
15.8586269851
 20
6.688736986
 40
0.5016695236
100
AcDbArc
 50
124.4665201088
 51
125.4020163205
  0
ARC
  5
3C5
100
AcDbEntity
  8
0
100
AcDbCircle
 62
7
  6
CONTINUOUS
 10
15.858737415
 20
6.6883480485
 40
0.5010794336
100
AcDbArc
 50
124.7703559543
 51
125.0890678908
  0
ARC
  5
3C6
100
AcDbEntity
  8
0
100
AcDbCircle
 62
7
  6
CONTINUOUS
 10
15.858149003
 20
6.6891952017
 40
0.5000479797
100
AcDbArc
 50
124.5276492143
 51
124.770330064
  0
ARC
  5
3C7
100
AcDbEntity
  8
0
100
AcDbCircle
 62
7
  6
CONTINUOUS
 10
15.8633471682
 20
6.6922306577
 40
0.4998766017
100
AcDbArc
 50
123.5620104028
 51
124.1423958046
  0
ARC
  5
3C8
100
AcDbEntity
  8
0
100
AcDbCircle
 62
7
  6
CONTINUOUS
 10
15.852539715
 20
6.6891265831
 40
0.4989854535
100
AcDbArc
 50
124.3811624532
 51
124.8592008793
  0
ARC
  5
3C9
100
AcDbEntity
  8
0
100
AcDbCircle
 62
7
  6
CONTINUOUS
 10
15.8471630932
 20
6.6862862534
 40
0.4983759152
100
AcDbArc
 50
125.0428571132
 51
125.6459737247
  0
ARC
  5
3CA
100
AcDbEntity
  8
0
100
AcDbCircle
 62
7
  6
CONTINUOUS
 10
15.8466814787
 20
6.6871853928
 40
0.4983433851
100
AcDbArc
 50
124.2542152828
 51
126.3084750175
  0
ARC
  5
3CB
100
AcDbEntity
  8
0
100
AcDbCircle
 62
7
  6
CONTINUOUS
 10
15.8513005445
 20
6.6909414197
 40
0.4967879129
100
AcDbArc
 50
123.5098614901
 51
124.3048287119
  0
ARC
  5
3CC
100
AcDbEntity
  8
0
100
AcDbCircle
 62
7
  6
CONTINUOUS
 10
15.8614766533
 20
6.695068742
 40
0.4964775347
100
AcDbArc
 50
122.1475602518
 51
123.3174914065
  0
ARC
  5
3CD
100
AcDbEntity
  8
0
100
AcDbCircle
 62
7
  6
CONTINUOUS
 10
15.8455857937
 20
6.6885405429
 40
0.495624609
100
AcDbArc
 50
124.2377915813
 51
125.0432059105
  0
ARC
  5
3CE
100
AcDbEntity
  8
0
100
AcDbCircle
 62
7
  6
CONTINUOUS
 10
15.8443019627
 20
6.6906659181
 40
0.4941272117
100
AcDbArc
 50
123.6167338846
 51
124.1756309133
  0
ARC
  5
3CF
100
AcDbEntity
  8
0
100
AcDbCircle
 62
7
  6
CONTINUOUS
 10
15.8598792541
 20
6.6975932917
 40
0.4934900685
100
AcDbArc
 50
121.8307271888
 51
122.0830622343
  0
ARC
  5
3D0
100
AcDbEntity
  8
0
100
AcDbCircle
 62
7
  6
CONTINUOUS
 10
15.8493594107
 20
6.6938721035
 40
0.4932726735
100
AcDbArc
 50
122.2368077652
 51
123.5098003704
  0
ARC
  5
3D1
100
AcDbEntity
  8
0
100
AcDbCircle
 62
7
  6
CONTINUOUS
 10
15.8469775358
 20
6.6976333533
 40
0.4888206787
100
AcDbArc
 50
120.8723251293
 51
122.2358248936
  0
ARC
  5
3D2
100
AcDbEntity
  8
0
100
AcDbCircle
 62
7
  6
CONTINUOUS
 10
15.7752072713
 20
6.6880119316
 40
0.4514199193
100
AcDbArc
 50
118.8145024042
 51
119.065803015
  0
ARC
  5
3D3
100
AcDbEntity
  8
0
100
AcDbCircle
 62
7
  6
CONTINUOUS
 10
15.7752583363
 20
6.6876700233
 40
0.4506704483
100
AcDbArc
 50
118.8749699223
 51
119.12620799
  0
ARC
  5
3D4
100
AcDbEntity
  8
0
100
AcDbCircle
 62
7
  6
CONTINUOUS
 10
15.7747275096
 20
6.6888856027
 40
0.4504231887
100
AcDbArc
 50
118.3131240481
 51
118.8145950223
  0
ARC
  5
3D5
100
AcDbEntity
  8
0
100
AcDbCircle
 62
7
  6
CONTINUOUS
 10
15.7747781367
 20
6.6885422808
 40
0.4496747454
100
AcDbArc
 50
118.3718437793
 51
118.8750608879
  0
ARC
  5
3D6
100
AcDbEntity
  8
0
100
AcDbCircle
 62
7
  6
CONTINUOUS
 10
15.7091252608
 20
6.8928464657
 40
0.2516490887
100
AcDbArc
 50
120.4522958926
 51
121.0190333607
  0
ARC
  5
3D7
100
AcDbEntity
  8
0
100
AcDbCircle
 62
7
  6
CONTINUOUS
 10
15.8641906734
 20
6.9677274933
 40
0.2681186534
100
AcDbArc
 50
147.783314196
 51
150.4574316651
  0
ARC
  5
3D8
100
AcDbEntity
  8
0
100
AcDbCircle
 62
7
  6
CONTINUOUS
 10
15.8434966596
 20
6.9681286847
 40
0.2576427586
100
AcDbArc
 50
147.9239101144
 51
150.2035750096
  0
ARC
  5
3D9
100
AcDbEntity
  8
0
100
AcDbCircle
 62
7
  6
CONTINUOUS
 10
15.8425215
 20
6.9695982229
 40
0.2566587115
100
AcDbArc
 50
147.8645462883
 51
150.0705338636
  0
ARC
  5
3DA
100
AcDbEntity
  8
0
100
AcDbCircle
 62
7
  6
CONTINUOUS
 10
15.8341957567
 20
6.9863653304
 40
0.2328056684
100
AcDbArc
 50
146.2340577007
 51
147.7285170396
  0
ARC
  5
3DB
100
AcDbEntity
  8
0
100
AcDbCircle
 62
7
  6
CONTINUOUS
 10
15.7418365911
 20
6.9462531046
 40
0.2233014542
100
AcDbArc
 50
138.3671578577
 51
138.7560003904
  0
ARC
  5
3DC
100
AcDbEntity
  8
0
100
AcDbCircle
 62
7
  6
CONTINUOUS
 10
15.8226769692
 20
6.9939881571
 40
0.2189931584
100
AcDbArc
 50
145.9697928024
 51
146.2170018831
  0
ARC
  5
3DD
100
AcDbEntity
  8
0
100
AcDbCircle
 62
7
  6
CONTINUOUS
 10
15.7272769663
 20
7.0457934578
 40
0.1781256027
100
AcDbArc
 50
35.7681329336
 51
36.882587359
  0
ARC
  5
3DE
100
AcDbEntity
  8
0
100
AcDbCircle
 62
7
  6
CONTINUOUS
 10
15.7283860024
 20
7.0474472635
 40
0.1768897973
100
AcDbArc
 50
35.455947415
 51
37.6778405177
  0
ARC
  5
3DF
100
AcDbEntity
  8
0
100
AcDbCircle
 62
7
  6
CONTINUOUS
 10
15.7350570983
 20
7.0516027925
 40
0.1684159027
100
AcDbArc
 50
36.8903310609
 51
37.6579918755
  0
ARC
  5
3E0
100
AcDbEntity
  8
0
100
AcDbCircle
 62
7
  6
CONTINUOUS
 10
15.8855964882
 20
7.0630157167
 40
0.0880248982
100
AcDbArc
 50
98.5736608273
 51
100.5896366232
  0
ARC
  5
3E1
100
AcDbEntity
  8
0
100
AcDbCircle
 62
7
  6
CONTINUOUS
 10
15.8500035789
 20
7.1225068964
 40
0.0275299803
100
AcDbArc
 50
180.007868689
 51
182.2860154244
  0
ARC
  5
3E2
100
AcDbEntity
  8
0
100
AcDbCircle
 62
7
  6
CONTINUOUS
 10
15.8488137478
 20
7.1271988292
 40
0.0113409981
100
AcDbArc
 50
169.9946395398
 51
179.9783156897
  0
ARC
  5
3E3
100
AcDbEntity
  8
0
100
AcDbCircle
 62
7
  6
CONTINUOUS
 10
15.8805562648
 20
8.1695859997
 40
0.738
100
AcDbArc
 50
148.3271956925
 51
211.6728043075
  0
ARC
  5
3E4
100
AcDbEntity
  8
0
100
AcDbCircle
 62
7
  6
CONTINUOUS
 10
15.3909966352
 20
7.3038871949
 40
0.2669259359
100
AcDbArc
 50
304.1796434918
 51
304.7091283527
  0
ARC
  5
3E5
100
AcDbEntity
  8
0
100
AcDbCircle
 62
7
  6
CONTINUOUS
 10
15.8487860903
 20
7.4353303746
 40
0.2487494211
100
AcDbArc
 50
270.7473689171
 51
272.9764558435
  0
ARC
  5
3E6
100
AcDbEntity
  8
0
100
AcDbCircle
 62
7
  6
CONTINUOUS
 10
16.9450125688
 20
5.8530893282
 40
0.625
100
AcDbArc
 50
184.8096995456
 51
214.9889904701
  0
ARC
  5
3E7
100
AcDbEntity
  8
0
100
AcDbCircle
 62
7
  6
CONTINUOUS
 10
16.6962516356
 20
4.6820859997
 40
0.5
100
AcDbArc
 50
9.7878190567
 51
89.286989345
  0
ARC
  5
3E8
100
AcDbEntity
  8
0
100
AcDbCircle
 62
7
  6
CONTINUOUS
 10
16.3399985457
 20
5.2718215965
 40
0.2039751211
100
AcDbArc
 50
326.9521644937
 51
34.9889904702
  0
ARC
  5
3E9
100
AcDbEntity
  8
0
100
AcDbCircle
 62
7
  6
CONTINUOUS
 10
16.8854737127
 20
4.1422170599
 40
0.187
100
AcDbArc
 50
359.9598438511
 51
87.8547510776
  0
ARC
  5
3EA
100
AcDbEntity
  8
0
100
AcDbCircle
 62
7
  6
CONTINUOUS
 10
16.7054763406
 20
4.3300859997
 40
0.187
100
AcDbArc
 50
359.6936039968
 51
90.0
  0
ARC
  5
3EB
100
AcDbEntity
  8
0
100
AcDbCircle
 62
7
  6
CONTINUOUS
 10
16.6547482004
 20
5.0670469751
 40
0.1715245336
100
AcDbArc
 50
146.9521644937
 51
225.0826423158
  0
ARC
  5
3EC
100
AcDbEntity
  8
0
100
AcDbCircle
 62
7
  6
CONTINUOUS
 10
16.5749736668
 20
5.6001382947
 40
0.125
100
AcDbArc
 50
284.4379196859
 51
77.3122798359
  0
ARC
  5
3ED
100
AcDbEntity
  8
0
100
AcDbCircle
 62
7
  6
CONTINUOUS
 10
17.1155581495
 20
4.6170859997
 40
0.1094155172
100
AcDbArc
 50
289.7178358941
 51
70.2821641059
  0
ARC
  5
3EE
100
AcDbEntity
  8
0
100
AcDbCircle
 62
7
  6
CONTINUOUS
 10
17.2494736668
 20
4.3292367998
 40
0.063
100
AcDbArc
 50
0.0
 51
86.0348935987
  0
ARC
  5
3EF
100
AcDbEntity
  8
0
100
AcDbCircle
 62
7
  6
CONTINUOUS
 10
16.2539736668
 20
6.1503359997
 40
0.06
100
AcDbArc
 50
90.0
 51
180.0
  0
ARC
  5
3F0
100
AcDbEntity
  8
0
100
AcDbCircle
 62
7
  6
CONTINUOUS
 10
16.2913225553
 20
5.7980859997
 40
0.031
100
AcDbArc
 50
4.8096995456
 51
90.0
  0
ARC
  5
3F1
100
AcDbEntity
  8
0
100
AcDbCircle
 62
7
  6
CONTINUOUS
 10
17.2559736668
 20
4.4230117964
 40
0.031
100
AcDbArc
 50
180.0
 51
266.0348935989
  0
ARC
  5
3F2
100
AcDbEntity
  8
0
100
AcDbCircle
 62
7
  6
CONTINUOUS
 10
15.8924736668
 20
6.5870026663
 40
0.6083333333
100
AcDbArc
 50
126.2803388543
 51
128.8233111217
  0
ARC
  5
3F3
100
AcDbEntity
  8
0
100
AcDbCircle
 62
7
  6
CONTINUOUS
 10
15.8924736668
 20
6.5870026663
 40
0.6083333333
100
AcDbArc
 50
96.6075756431
 51
119.4704820753
  0
ARC
  5
3F4
100
AcDbEntity
  8
0
100
AcDbCircle
 62
7
  6
CONTINUOUS
 10
15.8924836568
 20
6.5870257304
 40
0.6083082706
100
AcDbArc
 50
61.4130286971
 51
61.9050113202
  0
ARC
  5
3F5
100
AcDbEntity
  8
0
100
AcDbCircle
 62
7
  6
CONTINUOUS
 10
15.8924954933
 20
6.5870250932
 40
0.608302223
100
AcDbArc
 50
51.1335879475
 51
53.6661189523
  0
ARC
  5
3F6
100
AcDbEntity
  8
0
100
AcDbCircle
 62
7
  6
CONTINUOUS
 10
15.8924754979
 20
6.5870406663
 40
0.6082952924
100
AcDbArc
 50
87.2694045014
 51
87.6447411717
  0
ARC
  5
3F7
100
AcDbEntity
  8
0
100
AcDbCircle
 62
7
  6
CONTINUOUS
 10
15.8924820664
 20
6.5870765367
 40
0.608258987
100
AcDbArc
 50
83.385948684
 51
83.5638928042
  0
ARC
  5
3F8
100
AcDbEntity
  8
0
100
AcDbCircle
 62
7
  6
CONTINUOUS
 10
15.8924736668
 20
6.5870026663
 40
0.6082338731
100
AcDbArc
 50
53.7096386881
 51
54.7545278885
  0
ARC
  5
3F9
100
AcDbEntity
  8
0
100
AcDbCircle
 62
7
  6
CONTINUOUS
 10
15.8924736668
 20
6.5870026663
 40
0.6078194176
100
AcDbArc
 50
83.3868126724
 51
85.2814442317
  0
ARC
  5
3FA
100
AcDbEntity
  8
0
100
AcDbCircle
 62
7
  6
CONTINUOUS
 10
15.8925064379
 20
6.5877227663
 40
0.6076394332
100
AcDbArc
 50
121.0738303161
 51
122.429448935
  0
ARC
  5
3FB
100
AcDbEntity
  8
0
100
AcDbCircle
 62
7
  6
CONTINUOUS
 10
15.8926147731
 20
6.5877609053
 40
0.6076025344
100
AcDbArc
 50
119.5707683761
 51
120.4416049135
  0
ARC
  5
3FC
100
AcDbEntity
  8
0
100
AcDbCircle
 62
7
  6
CONTINUOUS
 10
15.8924736668
 20
6.5870026663
 40
0.607593157
100
AcDbArc
 50
53.6652593487
 51
54.7118236851
  0
ARC
  5
3FD
100
AcDbEntity
  8
0
100
AcDbCircle
 62
7
  6
CONTINUOUS
 10
15.8924736668
 20
6.5870026663
 40
0.6068185707
100
AcDbArc
 50
83.3758564956
 51
85.2736440682
  0
ARC
  5
3FE
100
AcDbEntity
  8
0
100
AcDbCircle
 62
7
  6
CONTINUOUS
 10
15.8924736668
 20
6.5870026663
 40
0.6042925156
100
AcDbArc
 50
83.348041523
 51
85.2538418024
  0
ARC
  5
3FF
100
AcDbEntity
  8
0
100
AcDbCircle
 62
7
  6
CONTINUOUS
 10
15.8924736668
 20
6.5870026663
 40
0.6036923425
100
AcDbArc
 50
83.3413984237
 51
85.2491124738
  0
ARC
  5
400
100
AcDbEntity
  8
0
100
AcDbCircle
 62
7
  6
CONTINUOUS
 10
15.8924736668
 20
6.5870026663
 40
0.6036923425
100
AcDbArc
 50
95.2272381622
 51
96.6586015763
  0
ARC
  5
401
100
AcDbEntity
  8
0
100
AcDbCircle
 62
7
  6
CONTINUOUS
 10
15.8924736668
 20
6.5870026663
 40
0.6026846421
100
AcDbArc
 50
95.2360025976
 51
96.6697854093
  0
ARC
  5
402
100
AcDbEntity
  8
0
100
AcDbCircle
 62
7
  6
CONTINUOUS
 10
15.8924736668
 20
6.5870026663
 40
0.6026846421
100
AcDbArc
 50
83.384582913
 51
85.2411505956
  0
ARC
  5
403
100
AcDbEntity
  8
0
100
AcDbCircle
 62
7
  6
CONTINUOUS
 10
15.8924736668
 20
6.5870026663
 40
0.6017135485
100
AcDbArc
 50
87.0686642866
 51
92.9313357134
  0
ARC
  5
404
100
AcDbEntity
  8
0
100
AcDbCircle
 62
7
  6
CONTINUOUS
 10
15.8973758856
 20
6.5950394211
 40
0.6008585258
100
AcDbArc
 50
125.6985171989
 51
126.3973509189
  0
ARC
  5
405
100
AcDbEntity
  8
0
100
AcDbCircle
 62
7
  6
CONTINUOUS
 10
15.8924736668
 20
6.5870026663
 40
0.6007025285
100
AcDbArc
 50
87.063726345
 51
92.936273655
  0
ARC
  5
406
100
AcDbEntity
  8
0
100
AcDbCircle
 62
7
  6
CONTINUOUS
 10
15.8974117926
 20
6.594969855
 40
0.5999399373
100
AcDbArc
 50
125.7658034289
 51
126.2328607035
  0
ARC
  5
407
100
AcDbEntity
  8
0
100
AcDbCircle
 62
7
  6
CONTINUOUS
 10
15.9015139489
 20
6.594920139
 40
0.5999101732
100
AcDbArc
 50
125.8396487619
 51
126.4726473638
  0
ARC
  5
408
100
AcDbEntity
  8
0
100
AcDbCircle
 62
7
  6
CONTINUOUS
 10
15.8924736668
 20
6.5870026663
 40
0.5958717936
100
AcDbArc
 50
91.0357480878
 51
92.9600991527
  0
ARC
  5
409
100
AcDbEntity
  8
0
100
AcDbCircle
 62
7
  6
CONTINUOUS
 10
15.8924736668
 20
6.5870026663
 40
0.5958717936
100
AcDbArc
 50
87.0399008473
 51
89.2307405516
  0
ARC
  5
40A
100
AcDbEntity
  8
0
100
AcDbCircle
 62
7
  6
CONTINUOUS
 10
15.8940885318
 20
6.6009004811
 40
0.5947921631
100
AcDbArc
 50
53.0443247996
 51
53.7470602429
  0
ARC
  5
40B
100
AcDbEntity
  8
0
100
AcDbCircle
 62
7
  6
CONTINUOUS
 10
15.8942834386
 20
6.6011655567
 40
0.594463144
100
AcDbArc
 50
53.747101002
 51
54.0436074334
  0
ARC
  5
40C
100
AcDbEntity
  8
0
100
AcDbCircle
 62
7
  6
CONTINUOUS
 10
15.8941371399
 20
6.6009312431
 40
0.5937446427
100
AcDbArc
 50
53.2874204746
 51
53.6951546396
  0
ARC
  5
40D
100
AcDbEntity
  8
0
100
AcDbCircle
 62
7
  6
CONTINUOUS
 10
15.894280173
 20
6.601125823
 40
0.5935031477
100
AcDbArc
 50
53.6951604438
 51
54.0310308853
  0
ARC
  5
40E
100
AcDbEntity
  8
0
100
AcDbCircle
 62
7
  6
CONTINUOUS
 10
15.8924736668
 20
6.5870026663
 40
0.5931647701
100
AcDbArc
 50
94.7686779743
 51
96.7773287462
  0
ARC
  5
40F
100
AcDbEntity
  8
0
100
AcDbCircle
 62
7
  6
CONTINUOUS
 10
15.8924736668
 20
6.5870026663
 40
0.5931647701
100
AcDbArc
 50
83.2226712538
 51
85.2313220257
  0
ARC
  5
410
100
AcDbEntity
  8
0
100
AcDbCircle
 62
7
  6
CONTINUOUS
 10
15.8924736668
 20
6.5870026663
 40
0.5895502052
100
AcDbArc
 50
94.7979833256
 51
96.819077621
  0
ARC
  5
411
100
AcDbEntity
  8
0
100
AcDbCircle
 62
7
  6
CONTINUOUS
 10
15.8924736668
 20
6.5870026663
 40
0.5895502052
100
AcDbArc
 50
83.180922379
 51
85.2020166744
  0
ARC
  5
412
100
AcDbEntity
  8
0
100
AcDbCircle
 62
7
  6
CONTINUOUS
 10
15.8924736668
 20
6.5870026663
 40
0.5885182901
100
AcDbArc
 50
94.8064159401
 51
96.8310912006
  0
ARC
  5
413
100
AcDbEntity
  8
0
100
AcDbCircle
 62
7
  6
CONTINUOUS
 10
15.8924736668
 20
6.5870026663
 40
0.5885182901
100
AcDbArc
 50
83.1689087994
 51
85.1935840599
  0
ARC
  5
414
100
AcDbEntity
  8
0
100
AcDbCircle
 62
7
  6
CONTINUOUS
 10
15.8924736668
 20
6.5870026663
 40
0.5862279373
100
AcDbArc
 50
91.0527887649
 51
93.0088392867
  0
ARC
  5
415
100
AcDbEntity
  8
0
100
AcDbCircle
 62
7
  6
CONTINUOUS
 10
15.8924736668
 20
6.5870026663
 40
0.5862279373
100
AcDbArc
 50
86.9911607133
 51
89.2180849206
  0
ARC
  5
416
100
AcDbEntity
  8
0
100
AcDbCircle
 62
7
  6
CONTINUOUS
 10
15.8924736668
 20
6.5870026663
 40
0.5851901638
100
AcDbArc
 50
91.0546559862
 51
93.0141800717
  0
ARC
  5
417
100
AcDbEntity
  8
0
100
AcDbCircle
 62
7
  6
CONTINUOUS
 10
15.8924736668
 20
6.5870026663
 40
0.5851901638
100
AcDbArc
 50
86.9858199283
 51
89.2166981897
  0
ARC
  5
418
100
AcDbEntity
  8
0
100
AcDbCircle
 62
7
  6
CONTINUOUS
 10
15.8924736668
 20
6.5870026663
 40
0.5760635333
100
AcDbArc
 50
86.9380208232
 51
93.0619791768
  0
ARC
  5
419
100
AcDbEntity
  8
0
100
AcDbCircle
 62
7
  6
CONTINUOUS
 10
15.8924736668
 20
6.5870026663
 40
0.5709373385
100
AcDbArc
 50
95.5280362558
 51
97.0424915098
  0
ARC
  5
41A
100
AcDbEntity
  8
0
100
AcDbCircle
 62
7
  6
CONTINUOUS
 10
15.8924736668
 20
6.5870026663
 40
0.5709373385
100
AcDbArc
 50
82.9575084902
 51
84.9758697464
  0
ARC
  5
41B
100
AcDbEntity
  8
0
100
AcDbCircle
 62
7
  6
CONTINUOUS
 10
15.9214581679
 20
6.6323892863
 40
0.566927959
100
AcDbArc
 50
127.5850853647
 51
128.2979986341
  0
ARC
  5
41C
100
AcDbEntity
  8
0
100
AcDbCircle
 62
7
  6
CONTINUOUS
 10
15.9138244808
 20
6.6345160204
 40
0.5647979716
100
AcDbArc
 50
126.5637613947
 51
126.841374237
  0
ARC
  5
41D
100
AcDbEntity
  8
0
100
AcDbCircle
 62
7
  6
CONTINUOUS
 10
15.9188519556
 20
6.6343463456
 40
0.5646002196
100
AcDbArc
 50
126.6316643354
 51
126.9626948583
  0
ARC
  5
41E
100
AcDbEntity
  8
0
100
AcDbCircle
 62
7
  6
CONTINUOUS
 10
15.9134442608
 20
6.6350288301
 40
0.5641595822
100
AcDbArc
 50
126.2303561181
 51
126.5637714418
  0
ARC
  5
41F
100
AcDbEntity
  8
0
100
AcDbCircle
 62
7
  6
CONTINUOUS
 10
15.9138348208
 20
6.6343866013
 40
0.5639331134
100
AcDbArc
 50
126.557366363
 51
126.908550516
  0
ARC
  5
420
100
AcDbEntity
  8
0
100
AcDbCircle
 62
7
  6
CONTINUOUS
 10
15.9184418676
 20
6.6348980324
 40
0.5639128112
100
AcDbArc
 50
126.2631883257
 51
126.6316728153
  0
ARC
  5
421
100
AcDbEntity
  8
0
100
AcDbCircle
 62
7
  6
CONTINUOUS
 10
15.9129152032
 20
6.6357521458
 40
0.5632634298
100
AcDbArc
 50
125.7892907284
 51
126.1402957938
  0
ARC
  5
422
100
AcDbEntity
  8
0
100
AcDbCircle
 62
7
  6
CONTINUOUS
 10
15.9133979255
 20
6.6349757831
 40
0.56319962
100
AcDbArc
 50
126.2058762986
 51
126.5573655374
  0
ARC
  5
423
100
AcDbEntity
  8
0
100
AcDbCircle
 62
7
  6
CONTINUOUS
 10
15.9129680013
 20
6.6355630598
 40
0.5624717953
100
AcDbArc
 50
125.8540833178
 51
126.2058754645
  0
ARC
  5
424
100
AcDbEntity
  8
0
100
AcDbCircle
 62
7
  6
CONTINUOUS
 10
15.9171566079
 20
6.6366664055
 40
0.5617267035
100
AcDbArc
 50
124.5429981547
 51
126.0124978269
  0
ARC
  5
425
100
AcDbEntity
  8
0
100
AcDbCircle
 62
7
  6
CONTINUOUS
 10
15.9141162182
 20
6.6290099008
 40
0.5611021413
100
AcDbArc
 50
55.3208052275
 51
56.2429525903
  0
ARC
  5
426
100
AcDbEntity
  8
0
100
AcDbCircle
 62
7
  6
CONTINUOUS
 10
15.9005654473
 20
6.6366402319
 40
0.560953087
100
AcDbArc
 50
125.2660220374
 51
125.4850882338
  0
ARC
  5
427
100
AcDbEntity
  8
0
100
AcDbCircle
 62
7
  6
CONTINUOUS
 10
15.9000569625
 20
6.6374796485
 40
0.5609509475
100
AcDbArc
 50
124.7058085923
 51
125.134169498
  0
ARC
  5
428
100
AcDbEntity
  8
0
100
AcDbCircle
 62
7
  6
CONTINUOUS
 10
15.9158471811
 20
6.6284444601
 40
0.5607646515
100
AcDbArc
 50
55.3153439078
 51
55.4992698141
  0
ARC
  5
429
100
AcDbEntity
  8
0
100
AcDbCircle
 62
7
  6
CONTINUOUS
 10
15.9000663479
 20
6.6373482039
 40
0.5600868739
100
AcDbArc
 50
124.6996413615
 51
125.1975661622
  0
ARC
  5
42A
100
AcDbEntity
  8
0
100
AcDbCircle
 62
7
  6
CONTINUOUS
 10
15.9147774179
 20
6.62999749
 40
0.5599136465
100
AcDbArc
 50
56.4176981894
 51
56.604233175
  0
ARC
  5
42B
100
AcDbEntity
  8
0
100
AcDbCircle
 62
7
  6
CONTINUOUS
 10
15.9160146062
 20
6.6383087627
 40
0.5597263495
100
AcDbArc
 50
124.300029957
 51
124.5420348072
  0
ARC
  5
42C
100
AcDbEntity
  8
0
100
AcDbCircle
 62
7
  6
CONTINUOUS
 10
15.9150514584
 20
6.6304139425
 40
0.5594151175
100
AcDbArc
 50
56.7047821333
 51
56.8830146624
  0
ARC
  5
42D
100
AcDbEntity
  8
0
100
AcDbCircle
 62
7
  6
CONTINUOUS
 10
15.9103575469
 20
6.6394211976
 40
0.5587906438
100
AcDbArc
 50
123.3353759801
 51
124.1720746338
  0
ARC
  5
42E
100
AcDbEntity
  8
0
100
AcDbCircle
 62
7
  6
CONTINUOUS
 10
15.9170631895
 20
6.630251541
 40
0.5585864825
100
AcDbArc
 50
56.6099051111
 51
56.7932252161
  0
ARC
  5
42F
100
AcDbEntity
  8
0
100
AcDbCircle
 62
7
  6
CONTINUOUS
 10
15.9152747182
 20
6.6393975306
 40
0.5584099741
100
AcDbArc
 50
122.9626240277
 51
124.3002689851
  0
ARC
  5
430
100
AcDbEntity
  8
0
100
AcDbCircle
 62
7
  6
CONTINUOUS
 10
15.9104205126
 20
6.6392071179
 40
0.5580253326
100
AcDbArc
 50
123.276997628
 51
124.2332572522
  0
ARC
  5
431
100
AcDbEntity
  8
0
100
AcDbCircle
 62
7
  6
CONTINUOUS
 10
15.917437721
 20
6.6308263832
 40
0.5579003937
100
AcDbArc
 50
56.8947772557
 51
57.4471619357
  0
ARC
  5
432
100
AcDbEntity
  8
0
100
AcDbCircle
 62
7
  6
CONTINUOUS
 10
15.9159693197
 20
6.6318401308
 40
0.5577191068
100
AcDbArc
 50
57.0387067233
 51
58.4152741323
  0
ARC
  5
433
100
AcDbEntity
  8
0
100
AcDbCircle
 62
7
  6
CONTINUOUS
 10
15.9096734095
 20
6.6404584289
 40
0.55754811
100
AcDbArc
 50
122.91623
 51
123.3352139988
  0
ARC
  5
434
100
AcDbEntity
  8
0
100
AcDbCircle
 62
7
  6
CONTINUOUS
 10
15.9178184939
 20
6.6314222484
 40
0.5571932561
100
AcDbArc
 50
57.5140433806
 51
57.7155172797
  0
ARC
  5
435
100
AcDbEntity
  8
0
100
AcDbCircle
 62
7
  6
CONTINUOUS
 10
15.9165364325
 20
6.632758336
 40
0.5566398881
100
AcDbArc
 50
58.4154991746
 51
58.581495886
  0
ARC
  5
436
100
AcDbEntity
  8
0
100
AcDbCircle
 62
7
  6
CONTINUOUS
 10
15.9096520099
 20
6.6403713595
 40
0.5566303268
100
AcDbArc
 50
122.9747790292
 51
123.2766183155
  0
ARC
  5
437
100
AcDbEntity
  8
0
100
AcDbCircle
 62
7
  6
CONTINUOUS
 10
15.9182231406
 20
6.6320647209
 40
0.5564339744
100
AcDbArc
 50
57.7154072391
 51
58.4079688903
  0
ARC
  5
438
100
AcDbEntity
  8
0
100
AcDbCircle
 62
7
  6
CONTINUOUS
 10
15.9167909506
 20
6.633175881
 40
0.556150886
100
AcDbArc
 50
58.5814486298
 51
59.0978221975
  0
ARC
  5
439
100
AcDbEntity
  8
0
100
AcDbCircle
 62
7
  6
CONTINUOUS
 10
15.916417566
 20
6.6336543631
 40
0.5558992305
100
AcDbArc
 50
59.0377414104
 51
59.3415250806
  0
ARC
  5
43A
100
AcDbEntity
  8
0
100
AcDbCircle
 62
7
  6
CONTINUOUS
 10
15.9186089791
 20
6.6326898857
 40
0.5556993308
100
AcDbArc
 50
58.4080878384
 51
58.6050610869
  0
ARC
  5
43B
100
AcDbEntity
  8
0
100
AcDbCircle
 62
7
  6
CONTINUOUS
 10
15.9170941888
 20
6.6336818208
 40
0.5555610315
100
AcDbArc
 50
59.0978587694
 51
59.4004826678
  0
ARC
  5
43C
100
AcDbEntity
  8
0
100
AcDbCircle
 62
7
  6
CONTINUOUS
 10
15.9167472544
 20
6.6342117305
 40
0.5552516561
100
AcDbArc
 50
59.3414624069
 51
59.9595992537
  0
ARC
  5
43D
100
AcDbEntity
  8
0
100
AcDbCircle
 62
7
  6
CONTINUOUS
 10
15.918931315
 20
6.6332197788
 40
0.5550791
100
AcDbArc
 50
58.6049687537
 51
59.2918141559
  0
ARC
  5
43E
100
AcDbEntity
  8
0
100
AcDbCircle
 62
7
  6
CONTINUOUS
 10
15.9145740219
 20
6.6422067341
 40
0.5549321435
100
AcDbArc
 50
121.6625816572
 51
122.3800069597
  0
ARC
  5
43F
100
AcDbEntity
  8
0
100
AcDbCircle
 62
7
  6
CONTINUOUS
 10
15.9174567448
 20
6.6342961989
 40
0.5548476544
100
AcDbArc
 50
59.4004134061
 51
60.0188024536
  0
ARC
  5
440
100
AcDbEntity
  8
0
100
AcDbCircle
 62
7
  6
CONTINUOUS
 10
15.9170611976
 20
6.6347531441
 40
0.554625806
100
AcDbArc
 50
59.9596751506
 51
60.1688186755
  0
ARC
  5
441
100
AcDbEntity
  8
0
100
AcDbCircle
 62
7
  6
CONTINUOUS
 10
15.9178002606
 20
6.6348900236
 40
0.5541616294
100
AcDbArc
 50
60.0188858157
 51
60.2280959161
  0
ARC
  5
442
100
AcDbEntity
  8
0
100
AcDbCircle
 62
7
  6
CONTINUOUS
 10
15.914064928
 20
6.643030062
 40
0.5539641329
100
AcDbArc
 50
121.4270256196
 51
121.5996334556
  0
ARC
  5
443
100
AcDbEntity
  8
0
100
AcDbCircle
 62
7
  6
CONTINUOUS
 10
15.9248218957
 20
6.699167642
 40
0.5097524545
100
AcDbArc
 50
131.312217697
 51
132.1652679809
  0
ARC
  5
444
100
AcDbEntity
  8
0
100
AcDbCircle
 62
7
  6
CONTINUOUS
 10
15.9373666146
 20
6.6998291528
 40
0.509734263
100
AcDbArc
 50
131.256191949
 51
131.8241262756
  0
ARC
  5
445
100
AcDbEntity
  8
0
100
AcDbCircle
 62
7
  6
CONTINUOUS
 10
15.9246429889
 20
6.6990901269
 40
0.5087695668
100
AcDbArc
 50
131.3827169278
 51
132.003186988
  0
ARC
  5
446
100
AcDbEntity
  8
0
100
AcDbCircle
 62
7
  6
CONTINUOUS
 10
15.9232252967
 20
6.7065879043
 40
0.5003716951
100
AcDbArc
 50
129.6727919124
 51
130.0038396398
  0
ARC
  5
447
100
AcDbEntity
  8
0
100
AcDbCircle
 62
7
  6
CONTINUOUS
 10
15.9232324474
 20
6.706292382
 40
0.4996760127
100
AcDbArc
 50
129.6522019043
 51
130.0718889228
  0
ARC
  5
448
100
AcDbEntity
  8
0
100
AcDbCircle
 62
7
  6
CONTINUOUS
 10
15.9259157473
 20
6.7076516621
 40
0.4992203073
100
AcDbArc
 50
129.0038925774
 51
129.9894418167
  0
ARC
  5
449
100
AcDbEntity
  8
0
100
AcDbCircle
 62
7
  6
CONTINUOUS
 10
15.9216155214
 20
6.7082450252
 40
0.4971408078
100
AcDbArc
 50
129.0832819377
 51
129.6523296649
  0
ARC
  5
44A
100
AcDbEntity
  8
0
100
AcDbCircle
 62
7
  6
CONTINUOUS
 10
15.9195753236
 20
6.7110344558
 40
0.4946190213
100
AcDbArc
 50
128.0245864925
 51
129.6761853374
  0
ARC
  5
44B
100
AcDbEntity
  8
0
100
AcDbCircle
 62
7
  6
CONTINUOUS
 10
15.9227322593
 20
6.7115709217
 40
0.4941710362
100
AcDbArc
 50
128.0106975508
 51
129.0030552578
  0
ARC
  5
44C
100
AcDbEntity
  8
0
100
AcDbCircle
 62
7
  6
CONTINUOUS
 10
15.91885189
 20
6.7116610574
 40
0.4927468503
100
AcDbArc
 50
128.0879359708
 51
129.0842610714
  0
ARC
  5
44D
100
AcDbEntity
  8
0
100
AcDbCircle
 62
7
  6
CONTINUOUS
 10
15.9170487778
 20
6.7142500321
 40
0.4905296113
100
AcDbArc
 50
127.7668701977
 51
128.0234787337
  0
ARC
  5
44E
100
AcDbEntity
  8
0
100
AcDbCircle
 62
7
  6
CONTINUOUS
 10
15.9200802608
 20
6.7149502845
 40
0.4898753271
100
AcDbArc
 50
127.4403342662
 51
128.0097083349
  0
ARC
  5
44F
100
AcDbEntity
  8
0
100
AcDbCircle
 62
7
  6
CONTINUOUS
 10
15.917056175
 20
6.7139476853
 40
0.4898394026
100
AcDbArc
 50
127.7480957197
 51
128.0876094179
  0
ARC
  5
450
100
AcDbEntity
  8
0
100
AcDbCircle
 62
7
  6
CONTINUOUS
 10
15.915367155
 20
6.7164294665
 40
0.4877768382
100
AcDbArc
 50
127.0232012076
 51
127.767511105
  0
ARC
  5
451
100
AcDbEntity
  8
0
100
AcDbCircle
 62
7
  6
CONTINUOUS
 10
15.9184611776
 20
6.717065045
 40
0.4872119354
100
AcDbArc
 50
127.0095718381
 51
127.3563957086
  0
ARC
  5
452
100
AcDbEntity
  8
0
100
AcDbCircle
 62
7
  6
CONTINUOUS
 10
15.9153879056
 20
6.7161087955
 40
0.4871092918
100
AcDbArc
 50
127.0855024462
 51
127.7485538709
  0
ARC
  5
453
100
AcDbEntity
  8
0
100
AcDbCircle
 62
7
  6
CONTINUOUS
 10
15.9058625765
 20
6.7228100588
 40
0.4794332646
100
AcDbArc
 50
125.5079299068
 51
125.7848035055
  0
ARC
  5
454
100
AcDbEntity
  8
0
100
AcDbCircle
 62
7
  6
CONTINUOUS
 10
15.9294982567
 20
6.7237094699
 40
0.4792243644
100
AcDbArc
 50
125.1810492609
 51
125.7345086018
  0
ARC
  5
455
100
AcDbEntity
  8
0
100
AcDbCircle
 62
7
  6
CONTINUOUS
 10
15.9058458542
 20
6.7225343608
 40
0.4787066721
100
AcDbArc
 50
125.5675157192
 51
125.752821632
  0
ARC
  5
456
100
AcDbEntity
  8
0
100
AcDbCircle
 62
7
  6
CONTINUOUS
 10
15.9289639767
 20
6.7241606824
 40
0.4776067509
100
AcDbArc
 50
124.9619511971
 51
125.7217334176
  0
ARC
  5
457
100
AcDbEntity
  8
0
100
AcDbCircle
 62
7
  6
CONTINUOUS
 10
15.9047474653
 20
6.724375568
 40
0.477511211
100
AcDbArc
 50
124.9527909933
 51
125.5081137901
  0
ARC
  5
458
100
AcDbEntity
  8
0
100
AcDbCircle
 62
7
  6
CONTINUOUS
 10
15.9283921441
 20
6.7252758802
 40
0.4773067815
100
AcDbArc
 50
124.9033914731
 51
125.1808621207
  0
ARC
  5
459
100
AcDbEntity
  8
0
100
AcDbCircle
 62
7
  6
CONTINUOUS
 10
15.9048521642
 20
6.7239271321
 40
0.4769957576
100
AcDbArc
 50
125.0114333979
 51
125.5677348208
  0
ARC
  5
45A
100
AcDbEntity
  8
0
100
AcDbCircle
 62
7
  6
CONTINUOUS
 10
15.9474698387
 20
6.6267650386
 40
0.5346831965
100
AcDbArc
 50
101.835568747
 51
103.3548405958
  0
ARC
  5
45B
100
AcDbEntity
  8
0
100
AcDbCircle
 62
7
  6
CONTINUOUS
 10
15.9474676079
 20
6.6267016573
 40
0.5336872885
100
AcDbArc
 50
101.7634713847
 51
103.5449537008
  0
ARC
  5
45C
100
AcDbEntity
  8
0
100
AcDbCircle
 62
7
  6
CONTINUOUS
 10
15.9472313632
 20
6.6279519879
 40
0.5334725565
100
AcDbArc
 50
98.499120385
 51
101.7648717811
  0
ARC
  5
45D
100
AcDbEntity
  8
0
100
AcDbCircle
 62
7
  6
CONTINUOUS
 10
15.9472421732
 20
6.6278115123
 40
0.5325547833
100
AcDbArc
 50
98.5150518952
 51
101.7640704464
  0
ARC
  5
45E
100
AcDbEntity
  8
0
100
AcDbCircle
 62
7
  6
CONTINUOUS
 10
15.9389015411
 20
6.6981110496
 40
0.5120381454
100
AcDbArc
 50
131.8239146948
 51
132.1070297279
  0
ARC
  5
45F
100
AcDbEntity
  8
0
100
AcDbCircle
 62
7
  6
CONTINUOUS
 10
15.9624759243
 20
6.6985135754
 40
0.5107987637
100
AcDbArc
 50
131.3933911791
 51
132.1533441758
  0
ARC
  5
460
100
AcDbEntity
  8
0
100
AcDbCircle
 62
7
  6
CONTINUOUS
 10
15.9473376604
 20
6.7066591626
 40
0.5006065471
100
AcDbArc
 50
129.687893836
 51
129.9832526995
  0
ARC
  5
461
100
AcDbEntity
  8
0
100
AcDbCircle
 62
7
  6
CONTINUOUS
 10
15.9473444213
 20
6.7063642708
 40
0.4999105944
100
AcDbArc
 50
129.6674238293
 51
130.0511884746
  0
ARC
  5
462
100
AcDbEntity
  8
0
100
AcDbCircle
 62
7
  6
CONTINUOUS
 10
15.9503724831
 20
6.7071936938
 40
0.4997072985
100
AcDbArc
 50
129.2610496464
 51
129.9961132791
  0
ARC
  5
463
100
AcDbEntity
  8
0
100
AcDbCircle
 62
7
  6
CONTINUOUS
 10
15.9455389153
 20
6.7088340602
 40
0.4977842003
100
AcDbArc
 50
128.9971255106
 51
129.688435344
  0
ARC
  5
464
100
AcDbEntity
  8
0
100
AcDbCircle
 62
7
  6
CONTINUOUS
 10
15.9455631748
 20
6.7085169918
 40
0.4971164867
100
AcDbArc
 50
129.063045448
 51
129.6677707504
  0
ARC
  5
465
100
AcDbEntity
  8
0
100
AcDbCircle
 62
7
  6
CONTINUOUS
 10
15.9468454223
 20
6.7115240619
 40
0.4941222648
100
AcDbArc
 50
128.0172118157
 51
129.0097582535
  0
ARC
  5
466
100
AcDbEntity
  8
0
100
AcDbCircle
 62
7
  6
CONTINUOUS
 10
15.9427748363
 20
6.7122620903
 40
0.4933806289
100
AcDbArc
 50
128.0043024815
 51
128.998172458
  0
ARC
  5
467
100
AcDbEntity
  8
0
100
AcDbCircle
 62
7
  6
CONTINUOUS
 10
15.9429099181
 20
6.7118011516
 40
0.4928944745
100
AcDbArc
 50
128.0683942315
 51
129.0641458931
  0
ARC
  5
468
100
AcDbEntity
  8
0
100
AcDbCircle
 62
7
  6
CONTINUOUS
 10
15.9441414873
 20
6.7149695156
 40
0.4897424991
100
AcDbArc
 50
127.412772989
 51
128.0162546955
  0
ARC
  5
469
100
AcDbEntity
  8
0
100
AcDbCircle
 62
7
  6
CONTINUOUS
 10
15.9779840721
 20
6.6690502155
 40
0.4893639816
100
AcDbArc
 50
56.4916947635
 51
56.8989752434
  0
ARC
  5
46A
100
AcDbEntity
  8
0
100
AcDbCircle
 62
7
  6
CONTINUOUS
 10
15.9397461861
 20
6.7161495004
 40
0.4884526853
100
AcDbArc
 50
127.0045272433
 51
128.0051341239
  0
ARC
  5
46B
100
AcDbEntity
  8
0
100
AcDbCircle
 62
7
  6
CONTINUOUS
 10
15.978585773
 20
6.669973442
 40
0.4882619875
100
AcDbArc
 50
56.8989588845
 51
57.3471293696
  0
ARC
  5
46C
100
AcDbEntity
  8
0
100
AcDbCircle
 62
7
  6
CONTINUOUS
 10
15.9398709132
 20
6.7156928985
 40
0.487956743
100
AcDbArc
 50
127.0667811625
 51
128.0692307655
  0
ARC
  5
46D
100
AcDbEntity
  8
0
100
AcDbCircle
 62
7
  6
CONTINUOUS
 10
15.9792102068
 20
6.6709477315
 40
0.4871047677
100
AcDbArc
 50
57.3471375139
 51
57.7721058879
  0
ARC
  5
46E
100
AcDbEntity
  8
0
100
AcDbCircle
 62
7
  6
CONTINUOUS
 10
15.9425223037
 20
6.7170855823
 40
0.4870780096
100
AcDbArc
 50
127.0158397
 51
127.3287997352
  0
ARC
  5
46F
100
AcDbEntity
  8
0
100
AcDbCircle
 62
7
  6
CONTINUOUS
 10
15.9802902597
 20
6.6726685675
 40
0.4850730752
100
AcDbArc
 50
57.7716276999
 51
58.6459888263
  0
ARC
  5
470
100
AcDbEntity
  8
0
100
AcDbCircle
 62
7
  6
CONTINUOUS
 10
15.9811289039
 20
6.6740431825
 40
0.48346283
100
AcDbArc
 50
58.6460990733
 51
59.0446241529
  0
ARC
  5
471
100
AcDbEntity
  8
0
100
AcDbCircle
 62
7
  6
CONTINUOUS
 10
15.9817470731
 20
6.675074415
 40
0.48226051
100
AcDbArc
 50
59.0445869445
 51
59.578311032
  0
ARC
  5
472
100
AcDbEntity
  8
0
100
AcDbCircle
 62
7
  6
CONTINUOUS
 10
15.9823236568
 20
6.6760558528
 40
0.4811222348
100
AcDbArc
 50
59.654100326
 51
59.9070968897
  0
ARC
  5
473
100
AcDbEntity
  8
0
100
AcDbCircle
 62
7
  6
CONTINUOUS
 10
15.9424030906
 20
6.7235389927
 40
0.4787015158
100
AcDbArc
 50
125.0236168959
 51
125.7756456887
  0
ARC
  5
474
100
AcDbEntity
  8
0
100
AcDbCircle
 62
7
  6
CONTINUOUS
 10
16.0481757925
 20
6.7733662881
 40
0.3653041399
100
AcDbArc
 50
58.4199039776
 51
59.4265992977
  0
ARC
  5
475
100
AcDbEntity
  8
0
100
AcDbCircle
 62
7
  6
CONTINUOUS
 10
16.0482803305
 20
6.7730807907
 40
0.3644508571
100
AcDbArc
 50
58.3567112332
 51
59.5790858233
  0
ARC
  5
476
100
AcDbEntity
  8
0
100
AcDbCircle
 62
7
  6
CONTINUOUS
 10
16.0503538288
 20
6.7770410615
 40
0.3610323998
100
AcDbArc
 50
59.4275671494
 51
60.4390523449
  0
ARC
  5
477
100
AcDbEntity
  8
0
100
AcDbCircle
 62
7
  6
CONTINUOUS
 10
16.0505311265
 20
6.7768903359
 40
0.360026089
100
AcDbArc
 50
59.58099056
 51
60.3774678885
  0
ARC
  5
478
100
AcDbEntity
  8
0
100
AcDbCircle
 62
7
  6
CONTINUOUS
 10
16.0520518649
 20
6.7800185571
 40
0.3576047561
100
AcDbArc
 50
60.4403437789
 51
60.9217991508
  0
ARC
  5
479
100
AcDbEntity
  8
0
100
AcDbCircle
 62
7
  6
CONTINUOUS
 10
16.0520501003
 20
6.7795541742
 40
0.3569596087
100
AcDbArc
 50
60.3780702582
 51
60.9559183029
  0
ARC
  5
47A
100
AcDbEntity
  8
0
100
AcDbCircle
 62
7
  6
CONTINUOUS
 10
16.0528087001
 20
6.7813779724
 40
0.3560488612
100
AcDbArc
 50
60.9219217385
 51
61.2360348206
  0
ARC
  5
47B
100
AcDbEntity
  8
0
100
AcDbCircle
 62
7
  6
CONTINUOUS
 10
16.0529173268
 20
6.7811130477
 40
0.3551757459
100
AcDbArc
 50
60.9561383593
 51
61.272212638
  0
ARC
  5
47C
100
AcDbEntity
  8
0
100
AcDbCircle
 62
7
  6
CONTINUOUS
 10
16.0533118543
 20
6.7822939836
 40
0.3550037582
100
AcDbArc
 50
61.236080479
 51
61.4576105415
  0
ARC
  5
47D
100
AcDbEntity
  8
0
100
AcDbCircle
 62
7
  6
CONTINUOUS
 10
15.9279131931
 20
6.9221201312
 40
0.3538056931
100
AcDbArc
 50
153.2803719936
 51
153.9104940963
  0
ARC
  5
47E
100
AcDbEntity
  8
0
100
AcDbCircle
 62
7
  6
CONTINUOUS
 10
15.9167648276
 20
6.9385877674
 40
0.3282329973
100
AcDbArc
 50
152.2177106172
 51
152.4820574356
  0
ARC
  5
47F
100
AcDbEntity
  8
0
100
AcDbCircle
 62
7
  6
CONTINUOUS
 10
15.9002312603
 20
6.947349167
 40
0.3095215347
100
AcDbArc
 50
150.465132707
 51
152.2260251265
  0
ARC
  5
480
100
AcDbEntity
  8
0
100
AcDbCircle
 62
7
  6
CONTINUOUS
 10
16.0804745408
 20
6.8987865864
 40
0.2431654851
100
AcDbArc
 50
58.4921706061
 51
59.9327073775
  0
ARC
  5
481
100
AcDbEntity
  8
0
100
AcDbCircle
 62
7
  6
CONTINUOUS
 10
16.0827620029
 20
6.9024724765
 40
0.2388275493
100
AcDbArc
 50
57.8752645265
 51
58.4979084049
  0
ARC
  5
482
100
AcDbEntity
  8
0
100
AcDbCircle
 62
7
  6
CONTINUOUS
 10
16.0976821485
 20
6.8929177371
 40
0.2396308658
100
AcDbArc
 50
54.00653682
 51
55.2086135398
  0
ARC
  5
483
100
AcDbEntity
  8
0
100
AcDbCircle
 62
7
  6
CONTINUOUS
 10
16.285091306
 20
6.9349141937
 40
0.125
100
AcDbArc
 50
2.4859527196
 51
75.0
  0
ARC
  5
484
100
AcDbEntity
  8
0
100
AcDbCircle
 62
7
  6
CONTINUOUS
 10
15.9064165144
 20
6.9974644921
 40
0.1958183583
100
AcDbArc
 50
83.7363320231
 51
85.6278881425
  0
ARC
  5
485
100
AcDbEntity
  8
0
100
AcDbCircle
 62
7
  6
CONTINUOUS
 10
16.0332811409
 20
7.0017362398
 40
0.1915789406
100
AcDbArc
 50
126.6398214556
 51
129.0935533396
  0
ARC
  5
486
100
AcDbEntity
  8
0
100
AcDbCircle
 62
7
  6
CONTINUOUS
 10
16.0328770217
 20
7.0014864286
 40
0.1906794975
100
AcDbArc
 50
126.6895130619
 51
128.7805703192
  0
ARC
  5
487
100
AcDbEntity
  8
0
100
AcDbCircle
 62
7
  6
CONTINUOUS
 10
15.9405603225
 20
7.1203578121
 40
0.0219120379
100
AcDbArc
 50
357.0161554926
 51
359.9907734032
  0
ARC
  5
488
100
AcDbEntity
  8
0
100
AcDbCircle
 62
7
  6
CONTINUOUS
 10
15.9317130258
 20
7.3513905325
 40
0.1636808416
100
AcDbArc
 50
267.0344035122
 51
269.2564227292
  0
ARC
  5
489
100
AcDbEntity
  8
0
100
AcDbCircle
 62
7
  6
CONTINUOUS
 10
16.1301702714
 20
6.9827612711
 40
0.1446837321
100
AcDbArc
 50
57.8980826768
 51
60.1886010238
  0
ARC
  5
48A
100
AcDbEntity
  8
0
100
AcDbCircle
 62
7
  6
CONTINUOUS
 10
16.152862652
 20
7.0003346307
 40
0.1090599556
100
AcDbArc
 50
55.5285352921
 51
59.9124649925
  0
ARC
  5
48B
100
AcDbEntity
  8
0
100
AcDbCircle
 62
7
  6
CONTINUOUS
 10
16.1531953145
 20
7.0017356487
 40
0.1087124448
100
AcDbArc
 50
53.3000239405
 51
57.8613976101
  0
ARC
  5
48C
100
AcDbEntity
  8
0
100
AcDbCircle
 62
7
  6
CONTINUOUS
 10
16.1537097109
 20
7.0027619366
 40
0.107569835
100
AcDbArc
 50
57.802604262
 51
59.9585857878
  0
ARC
  5
48D
100
AcDbEntity
  8
0
100
AcDbCircle
 62
7
  6
CONTINUOUS
 10
16.1539855767
 20
7.0017959377
 40
0.107219717
100
AcDbArc
 50
53.2321257355
 51
55.581254198
  0
ARC
  5
48E
100
AcDbEntity
  8
0
100
AcDbCircle
 62
7
  6
CONTINUOUS
 10
16.1384152669
 20
7.0264727144
 40
0.0950986265
100
AcDbArc
 50
59.6139255442
 51
60.8982209324
  0
ARC
  5
48F
100
AcDbEntity
  8
0
100
AcDbCircle
 62
7
  6
CONTINUOUS
 10
16.1614487718
 20
7.0160982608
 40
0.0921506913
100
AcDbArc
 50
59.972834151
 51
62.2661992845
  0
ARC
  5
490
100
AcDbEntity
  8
0
100
AcDbCircle
 62
7
  6
CONTINUOUS
 10
16.1400091874
 20
7.0291449091
 40
0.091987253
100
AcDbArc
 50
56.511018201
 51
59.6284468374
  0
ARC
  5
491
100
AcDbEntity
  8
0
100
AcDbCircle
 62
7
  6
CONTINUOUS
 10
16.1615212091
 20
7.015257975
 40
0.0918066462
100
AcDbArc
 50
59.919017431
 51
61.6280886598
  0
ARC
  5
492
100
AcDbEntity
  8
0
100
AcDbCircle
 62
7
  6
CONTINUOUS
 10
16.1404701259
 20
7.0309237076
 40
0.0912253322
100
AcDbArc
 50
56.5415343016
 51
60.8468669656
  0
ARC
  5
493
100
AcDbEntity
  8
0
100
AcDbCircle
 62
7
  6
CONTINUOUS
 10
16.1499455723
 20
7.0311318941
 40
0.0889432856
100
AcDbArc
 50
58.1787760658
 51
60.013810989
  0
ARC
  5
494
100
AcDbEntity
  8
0
100
AcDbCircle
 62
7
  6
CONTINUOUS
 10
16.1665554009
 20
7.0282093786
 40
0.0880095474
100
AcDbArc
 50
92.4418541903
 51
95.3152576409
  0
ARC
  5
495
100
AcDbEntity
  8
0
100
AcDbCircle
 62
7
  6
CONTINUOUS
 10
16.1665522463
 20
7.0273194349
 40
0.0877496183
100
AcDbArc
 50
92.4455786881
 51
94.2391317149
  0
ARC
  5
496
100
AcDbEntity
  8
0
100
AcDbCircle
 62
7
  6
CONTINUOUS
 10
16.1665379826
 20
7.0285982397
 40
0.0876202973
100
AcDbArc
 50
86.6747701238
 51
92.4413082764
  0
ARC
  5
497
100
AcDbEntity
  8
0
100
AcDbCircle
 62
7
  6
CONTINUOUS
 10
16.1665379145
 20
7.027639029
 40
0.0874297038
100
AcDbArc
 50
86.6675616109
 51
92.445132055
  0
ARC
  5
498
100
AcDbEntity
  8
0
100
AcDbCircle
 62
7
  6
CONTINUOUS
 10
16.1884623948
 20
7.0157092449
 40
0.0849837734
100
AcDbArc
 50
88.4919962142
 51
90.2742213792
  0
ARC
  5
499
100
AcDbEntity
  8
0
100
AcDbCircle
 62
7
  6
CONTINUOUS
 10
16.1748068338
 20
7.0216898241
 40
0.0831855142
100
AcDbArc
 50
53.1956586682
 51
55.249270701
  0
ARC
  5
49A
100
AcDbEntity
  8
0
100
AcDbCircle
 62
7
  6
CONTINUOUS
 10
16.166078171
 20
7.0236775289
 40
0.0822329998
100
AcDbArc
 50
61.6341327469
 51
62.2928639757
  0
ARC
  5
49B
100
AcDbEntity
  8
0
100
AcDbCircle
 62
7
  6
CONTINUOUS
 10
16.1736030754
 20
7.0355966355
 40
0.077624455
100
AcDbArc
 50
52.8792936236
 51
53.8849889263
  0
ARC
  5
49C
100
AcDbEntity
  8
0
100
AcDbCircle
 62
7
  6
CONTINUOUS
 10
16.1696356319
 20
7.031252475
 40
0.0728026894
100
AcDbArc
 50
53.4014314066
 51
58.8884009724
  0
ARC
  5
49D
100
AcDbEntity
  8
0
100
AcDbCircle
 62
7
  6
CONTINUOUS
 10
16.1739801298
 20
7.0385644751
 40
0.0642976248
100
AcDbArc
 50
58.836215332
 51
61.4257783791
  0
ARC
  5
49E
100
AcDbEntity
  8
0
100
AcDbCircle
 62
7
  6
CONTINUOUS
 10
16.1592091131
 20
7.058195038
 40
0.0581296039
100
AcDbArc
 50
53.1091332712
 51
53.7551736074
  0
ARC
  5
49F
100
AcDbEntity
  8
0
100
AcDbCircle
 62
7
  6
CONTINUOUS
 10
16.195297949
 20
7.0628379368
 40
0.0320759706
100
AcDbArc
 50
46.3870651908
 51
47.176395122
  0
ARC
  5
4A0
100
AcDbEntity
  8
0
100
AcDbCircle
 62
7
  6
CONTINUOUS
 10
16.1522822988
 20
7.0782994181
 40
0.0361728823
100
AcDbArc
 50
59.2269875784
 51
62.5058919818
  0
ARC
  5
4A1
100
AcDbEntity
  8
0
100
AcDbCircle
 62
7
  6
CONTINUOUS
 10
16.1532301856
 20
7.0798748815
 40
0.0343342685
100
AcDbArc
 50
56.769266178
 51
59.2409350766
  0
ARC
  5
4A2
100
AcDbEntity
  8
0
100
AcDbCircle
 62
7
  6
CONTINUOUS
 10
16.1860206755
 20
7.0923813995
 40
0.0238431041
100
AcDbArc
 50
96.9310182443
 51
103.3576212683
  0
ARC
  5
4A3
100
AcDbEntity
  8
0
100
AcDbCircle
 62
7
  6
CONTINUOUS
 10
16.1859865613
 20
7.0915328763
 40
0.0235395492
100
AcDbArc
 50
96.9340704303
 51
99.6947366356
  0
ARC
  5
4A4
100
AcDbEntity
  8
0
100
AcDbCircle
 62
7
  6
CONTINUOUS
 10
16.18591759
 20
7.0932579878
 40
0.0229604823
100
AcDbArc
 50
83.7608914381
 51
96.9396261693
  0
ARC
  5
4A5
100
AcDbEntity
  8
0
100
AcDbCircle
 62
7
  6
CONTINUOUS
 10
16.1859175745
 20
7.0921572146
 40
0.0229114499
100
AcDbArc
 50
83.747446924
 51
96.9513064451
  0
ARC
  5
4A6
100
AcDbEntity
  8
0
100
AcDbCircle
 62
7
  6
CONTINUOUS
 10
16.1816313657
 20
7.0854604264
 40
0.0228105855
100
AcDbArc
 50
46.3614036261
 51
47.3824940795
  0
ARC
  5
4A7
100
AcDbEntity
  8
0
100
AcDbCircle
 62
7
  6
CONTINUOUS
 10
16.1835398809
 20
7.0863108533
 40
0.0200228613
100
AcDbArc
 50
45.0257259707
 51
46.2591736918
  0
ARC
  5
4A8
100
AcDbEntity
  8
0
100
AcDbCircle
 62
7
  6
CONTINUOUS
 10
16.2213792222
 20
6.995644923
 40
0.0817353017
100
AcDbArc
 50
92.4692596635
 51
95.73240243
  0
ARC
  5
4A9
100
AcDbEntity
  8
0
100
AcDbCircle
 62
7
  6
CONTINUOUS
 10
16.2158687547
 20
6.9988531367
 40
0.0816449985
100
AcDbArc
 50
87.7171105261
 51
90.285432767
  0
ARC
  5
4AA
100
AcDbEntity
  8
0
100
AcDbCircle
 62
7
  6
CONTINUOUS
 10
16.2213432771
 20
6.996006904
 40
0.0813726738
100
AcDbArc
 50
85.9061957445
 51
89.1824350536
  0
ARC
  5
4AB
100
AcDbEntity
  8
0
100
AcDbCircle
 62
7
  6
CONTINUOUS
 10
16.2213505027
 20
6.9961897775
 40
0.0811897159
100
AcDbArc
 50
89.1856922289
 51
92.4655768598
  0
ARC
  5
4AC
100
AcDbEntity
  8
0
100
AcDbCircle
 62
7
  6
CONTINUOUS
 10
16.2291227393
 20
7.0666928887
 40
0.0216886245
100
AcDbArc
 50
48.571880529
 51
49.6310253447
  0
ARC
  5
4AD
100
AcDbEntity
  8
0
100
AcDbCircle
 62
7
  6
CONTINUOUS
 10
16.2800534799
 20
7.1651358441
 40
0.0927627513
100
AcDbArc
 50
238.8340767984
 51
239.1763602389
  0
ARC
  5
4AE
100
AcDbEntity
  8
0
100
AcDbCircle
 62
7
  6
CONTINUOUS
 10
16.2148622165
 20
7.0750662853
 40
0.0220575657
100
AcDbArc
 50
87.0797339368
 51
93.5080450057
  0
ARC
  5
4AF
100
AcDbEntity
  8
0
100
AcDbCircle
 62
7
  6
CONTINUOUS
 10
16.6892105602
 20
6.6414561758
 40
0.1288798255
100
AcDbArc
 50
90.0090001893
 51
104.0163925977
  0
ARC
  5
4B0
100
AcDbEntity
  8
0
100
AcDbCircle
 62
7
  6
CONTINUOUS
 10
16.3999736668
 20
6.8913462048
 40
0.05
100
AcDbArc
 50
0.0
 51
78.4630409672
  0
ARC
  5
4B1
100
AcDbEntity
  8
0
100
AcDbCircle
 62
7
  6
CONTINUOUS
 10
16.4349736668
 20
6.8053359997
 40
0.015
100
AcDbArc
 50
270.0
 51
360.0
  0
ARC
  5
4B2
100
AcDbEntity
  8
0
100
AcDbCircle
 62
7
  6
CONTINUOUS
 10
16.4324736668
 20
6.7653359997
 40
0.01
100
AcDbArc
 50
0.0
 51
90.0
  0
ARC
  5
4B3
100
AcDbEntity
  8
0
100
AcDbCircle
 62
7
  6
CONTINUOUS
 10
16.3114636922
 20
7.2151772872
 40
0.1518490508
100
AcDbArc
 50
235.2572575863
 51
237.0518974681
  0
ARC
  5
4B4
100
AcDbEntity
  8
0
100
AcDbCircle
 62
7
  6
CONTINUOUS
 10
16.6921398102
 20
7.7465040167
 40
0.8003699569
100
AcDbArc
 50
235.2294199143
 51
235.4080640315
  0
ARC
  5
4B5
100
AcDbEntity
  8
0
100
AcDbCircle
 62
7
  6
CONTINUOUS
 10
15.9043910687
 20
8.1695859997
 40
0.738
100
AcDbArc
 50
328.3271956925
 51
31.6728043075
  0
ARC
  5
4B6
100
AcDbEntity
  8
0
100
AcDbCircle
 62
7
  6
CONTINUOUS
 10
16.6445168353
 20
7.6771804133
 40
0.7162647633
100
AcDbArc
 50
235.3958304142
 51
235.6431937686
  0
ARC
  5
4B7
100
AcDbEntity
  8
0
100
AcDbCircle
 62
7
  6
CONTINUOUS
 10
15.9567389793
 20
7.6627693356
 40
0.471315758
100
AcDbArc
 50
266.3732470709
 51
266.5814333883
  0
ARC
  5
4B8
100
AcDbEntity
  8
0
100
AcDbCircle
 62
7
  6
CONTINUOUS
 10
15.956043821
 20
7.6529002148
 40
0.4604212264
100
AcDbArc
 50
265.9473218555
 51
266.587107959
  0
ARC
  5
4B9
100
AcDbEntity
  8
0
100
AcDbCircle
 62
7
  6
CONTINUOUS
 10
15.9556908977
 20
7.6448261286
 40
0.4533419836
100
AcDbArc
 50
266.5784337499
 51
267.3066766266
  0
ARC
  5
4BA
100
AcDbEntity
  8
0
100
AcDbCircle
 62
7
  6
CONTINUOUS
 10
15.9552760063
 20
7.6398923509
 40
0.4483920466
100
AcDbArc
 50
266.1548480967
 51
266.3748986023
  0
ARC
  5
4BB
100
AcDbEntity
  8
0
100
AcDbCircle
 62
7
  6
CONTINUOUS
 10
15.9547844379
 20
7.6296735509
 40
0.4371608017
100
AcDbArc
 50
266.5706520772
 51
267.3214684078
  0
ARC
  5
4BC
100
AcDbEntity
  8
0
100
AcDbCircle
 62
7
  6
CONTINUOUS
 10
15.9536521389
 20
7.6157830749
 40
0.4242281454
100
AcDbArc
 50
265.9248166414
 51
266.1553125928
  0
ARC
  5
4BD
100
AcDbEntity
  8
0
100
AcDbCircle
 62
7
  6
CONTINUOUS
 10
19.1274736668
 20
6.7859214801
 40
2.74
100
AcDbArc
 50
192.1473489774
 51
202.8463446634
  0
ARC
  5
4BE
100
AcDbEntity
  8
0
100
AcDbCircle
 62
7
  6
CONTINUOUS
 10
19.1274736668
 20
6.7859214801
 40
2.74
100
AcDbArc
 50
158.6807833651
 51
175.757031364
  0
ARC
  5
4BF
100
AcDbEntity
  8
0
100
AcDbCircle
 62
7
  6
CONTINUOUS
 10
13.0039736668
 20
9.6923943278
 40
2.481
100
AcDbArc
 50
332.7675811476
 51
20.4957386309
  0
ARC
  5
4C0
100
AcDbEntity
  8
0
100
AcDbCircle
 62
7
  6
CONTINUOUS
 10
14.4495402915
 20
11.2070859997
 40
0.125
100
AcDbArc
 50
180.0
 51
328.6677485023
  0
ARC
  5
4C1
100
AcDbEntity
  8
0
100
AcDbCircle
 62
7
  6
CONTINUOUS
 10
15.0235402915
 20
11.1890859997
 40
0.047
100
AcDbArc
 50
270.0
 51
337.1513705671
  0
ARC
  5
4C2
100
AcDbEntity
  8
0
100
AcDbCircle
 62
7
  6
CONTINUOUS
 10
15.1101644799
 20
11.1525859997
 40
0.047
100
AcDbArc
 50
90.0
 51
157.151370567
  0
ARC
  5
4C3
100
AcDbEntity
  8
0
100
AcDbCircle
 62
7
  6
CONTINUOUS
 10
11.7044736668
 20
14.1370859997
 40
2.875
100
AcDbArc
 50
221.2305771549
 51
270.0
  0
ARC
  5
4C4
100
AcDbEntity
  8
0
100
AcDbCircle
 62
7
  6
CONTINUOUS
 10
11.7044736668
 20
14.1370859997
 40
2.125
100
AcDbArc
 50
221.2305771549
 51
270.0
  0
ARC
  5
4C5
100
AcDbEntity
  8
0
100
AcDbCircle
 62
7
  6
CONTINUOUS
 10
14.4495402915
 20
12.0670859997
 40
0.125
100
AcDbArc
 50
31.3322514977
 51
180.0
  0
ARC
  5
4C6
100
AcDbEntity
  8
0
100
AcDbCircle
 62
7
  6
CONTINUOUS
 10
15.0235402915
 20
12.0850859997
 40
0.047
100
AcDbArc
 50
22.8486294329
 51
90.0
  0
ARC
  5
4C7
100
AcDbEntity
  8
0
100
AcDbCircle
 62
7
  6
CONTINUOUS
 10
15.1101644799
 20
12.1215859997
 40
0.047
100
AcDbArc
 50
202.848629433
 51
270.0
  0
ARC
  5
4C8
100
AcDbEntity
  8
0
100
AcDbCircle
 62
7
  6
CONTINUOUS
 10
18.7809736668
 20
9.6923943278
 40
2.481
100
AcDbArc
 50
159.5042613691
 51
207.2324188524
  0
ARC
  5
4C9
100
AcDbEntity
  8
0
100
AcDbCircle
 62
7
  6
CONTINUOUS
 10
15.8911972976
 20
11.63703806
 40
0.8737906844
100
AcDbArc
 50
346.8183473333
 51
352.4787737051
  0
ARC
  5
4CA
100
AcDbEntity
  8
0
100
AcDbCircle
 62
7
  6
CONTINUOUS
 10
15.8921151695
 20
11.6367144026
 40
0.872869037
100
AcDbArc
 50
7.5216121823
 51
13.1906029583
  0
ARC
  5
4CB
100
AcDbEntity
  8
0
100
AcDbCircle
 62
7
  6
CONTINUOUS
 10
15.8924389905
 20
11.6368392678
 40
0.8725362134
100
AcDbArc
 50
306.8329195513
 51
346.812463671
  0
ARC
  5
4CC
100
AcDbEntity
  8
0
100
AcDbCircle
 62
7
  6
CONTINUOUS
 10
15.8924736668
 20
11.6368186016
 40
0.8725
100
AcDbArc
 50
110.4960781802
 51
148.3751474419
  0
ARC
  5
4CD
100
AcDbEntity
  8
0
100
AcDbCircle
 62
7
  6
CONTINUOUS
 10
15.8924736668
 20
11.6368186016
 40
0.8725
100
AcDbArc
 50
211.6248525581
 51
233.1680874621
  0
ARC
  5
4CE
100
AcDbEntity
  8
0
100
AcDbCircle
 62
7
  6
CONTINUOUS
 10
15.8924812314
 20
11.6368291437
 40
0.8724864507
100
AcDbArc
 50
13.1887522774
 51
69.5041472067
  0
ARC
  5
4CF
100
AcDbEntity
  8
0
100
AcDbCircle
 62
7
  6
CONTINUOUS
 10
16.4742947364
 20
10.6867649301
 40
0.1256789304
100
AcDbArc
 50
270.0
 51
90.0
  0
ARC
  5
4D0
100
AcDbEntity
  8
0
100
AcDbCircle
 62
7
  6
CONTINUOUS
 10
15.3106525972
 20
10.6867649301
 40
0.1256789304
100
AcDbArc
 50
90.0
 51
270.0
  0
ARC
  5
4D1
100
AcDbEntity
  8
0
100
AcDbCircle
 62
7
  6
CONTINUOUS
 10
17.0380440598
 20
11.3956996309
 40
0.1064
100
AcDbArc
 50
40.9762844862
 51
146.1516146285
  0
ARC
  5
4D2
100
AcDbEntity
  8
0
100
AcDbCircle
 62
7
  6
CONTINUOUS
 10
17.0380440598
 20
11.8784723684
 40
0.1064
100
AcDbArc
 50
213.8483853716
 51
319.0237155138
  0
ARC
  5
4D3
100
AcDbEntity
  8
0
100
AcDbCircle
 62
7
  6
CONTINUOUS
 10
17.3204736668
 20
11.5470859997
 40
0.09
100
AcDbArc
 50
270.0000000001
 51
345.1648884179
  0
ARC
  5
4D4
100
AcDbEntity
  8
0
100
AcDbCircle
 62
7
  6
CONTINUOUS
 10
17.3204736668
 20
11.7270859997
 40
0.09
100
AcDbArc
 50
14.8351115821
 51
89.9999999999
  0
ARC
  5
4D5
100
AcDbEntity
  8
0
100
AcDbCircle
 62
7
  6
CONTINUOUS
 10
16.4574736668
 20
10.8824438605
 40
0.07
100
AcDbArc
 50
126.8319125382
 51
270.0
  0
ARC
  5
4D6
100
AcDbEntity
  8
0
100
AcDbCircle
 62
7
  6
CONTINUOUS
 10
15.3274736668
 20
10.8824438605
 40
0.07
100
AcDbArc
 50
270.0
 51
53.1680874618
  0
ARC
  5
4D7
100
AcDbEntity
  8
0
100
AcDbCircle
 62
7
  6
CONTINUOUS
 10
17.2604736668
 20
11.4160859997
 40
0.06
100
AcDbArc
 50
270.0
 51
360.0
  0
ARC
  5
4D8
100
AcDbEntity
  8
0
100
AcDbCircle
 62
7
  6
CONTINUOUS
 10
17.2604736668
 20
11.8580859997
 40
0.06
100
AcDbArc
 50
0.0
 51
90.0
  0
ARC
  5
4D9
100
AcDbEntity
  8
0
100
AcDbCircle
 62
7
  6
CONTINUOUS
 10
17.2244736668
 20
11.4160859997
 40
0.06
100
AcDbArc
 50
180.0
 51
270.0
  0
ARC
  5
4DA
100
AcDbEntity
  8
0
100
AcDbCircle
 62
7
  6
CONTINUOUS
 10
17.2244736668
 20
11.8580859997
 40
0.06
100
AcDbArc
 50
90.0
 51
180.0
  0
ARC
  5
4DB
100
AcDbEntity
  8
0
100
AcDbCircle
 62
7
  6
CONTINUOUS
 10
16.9114736668
 20
11.7935859997
 40
0.046
100
AcDbArc
 50
33.8483853714
 51
90.0
  0
ARC
  5
4DC
100
AcDbEntity
  8
0
100
AcDbCircle
 62
7
  6
CONTINUOUS
 10
16.9114736668
 20
11.4805859997
 40
0.046
100
AcDbArc
 50
270.0
 51
326.1516146286
  0
ARC
  5
4DD
100
AcDbEntity
  8
0
100
AcDbCircle
 62
7
  6
CONTINUOUS
 10
17.1334736668
 20
11.7955859997
 40
0.02
100
AcDbArc
 50
90.0
 51
139.0237155138
  0
ARC
  5
4DE
100
AcDbEntity
  8
0
100
AcDbCircle
 62
7
  6
CONTINUOUS
 10
17.1334736668
 20
11.4785859997
 40
0.02
100
AcDbArc
 50
220.9762844862
 51
270.0
  0
ARC
  5
4DF
100
AcDbEntity
  8
0
100
AcDbCircle
 62
7
  6
CONTINUOUS
 10
15.4323757647
 20
12.6565859997
 40
0.2815979021
100
AcDbArc
 50
318.2529672045
 51
41.7470327955
  0
ARC
  5
4E0
100
AcDbEntity
  8
0
100
AcDbCircle
 62
7
  6
CONTINUOUS
 10
16.3525715689
 20
12.6565859997
 40
0.2815979021
100
AcDbArc
 50
138.2529672045
 51
221.7470327955
  0
ARC
  5
4E1
100
AcDbEntity
  8
0
100
AcDbCircle
 62
7
  6
CONTINUOUS
 10
16.0204526652
 20
13.1060859997
 40
0.188
100
AcDbArc
 50
11.0397144141
 51
90.0
  0
ARC
  5
4E2
100
AcDbEntity
  8
0
100
AcDbCircle
 62
7
  6
CONTINUOUS
 10
15.7644946683
 20
13.1060859997
 40
0.188
100
AcDbArc
 50
90.0
 51
168.9602855859
  0
ARC
  5
4E3
100
AcDbEntity
  8
0
100
AcDbCircle
 62
7
  6
CONTINUOUS
 10
16.2384736668
 20
13.0245859997
 40
0.1175
100
AcDbArc
 50
270.0
 51
90.0
  0
ARC
  5
4E4
100
AcDbEntity
  8
0
100
AcDbCircle
 62
7
  6
CONTINUOUS
 10
15.5464736668
 20
13.0245859997
 40
0.1175
100
AcDbArc
 50
90.0
 51
270.0
  0
SPLINE
  5
4E5
100
AcDbEntity
  8
0
100
AcDbSpline
 62
7
  6
CONTINUOUS
 70
0
 71
3
 72
11
 73
7
 74
0
 42
0.0000001
 43
0.0000001
 44
0.0000000001
 40
0.0
 40
0.0
 40
0.0
 40
0.0
 40
0.1944510216
 40
0.4250848113
 40
0.6941547686
 40
1.0
 40
1.0
 40
1.0
 40
1.0
 10
15.6005613836
 20
7.0841342297
 30
0.0
 10
15.6005599857
 20
7.0843325526
 30
0.0
 10
15.6006328969
 20
7.0847664689
 30
0.0
 10
15.6008973892
 20
7.0854260965
 30
0.0
 10
15.6013079754
 20
7.0861400898
 30
0.0
 10
15.6016505039
 20
7.0866170027
 30
0.0
 10
15.6018414039
 20
7.0868637122
 30
0.0
  0
LINE
  5
4E6
100
AcDbEntity
  8
0
100
AcDbLine
 62
7
  6
CONTINUOUS
 10
15.6018414039
 20
7.0868637122
 11
15.6024497977
 21
7.0875974987
  0
LINE
  5
4E7
100
AcDbEntity
  8
0
100
AcDbLine
 62
7
  6
CONTINUOUS
 10
15.6030105645
 20
7.0882052557
 11
15.605093596
 21
7.0901357304
  0
SPLINE
  5
4E8
100
AcDbEntity
  8
0
100
AcDbSpline
 62
7
  6
CONTINUOUS
 70
0
 71
3
 72
10
 73
6
 74
0
 42
0.0000001
 43
0.0000001
 44
0.0000000001
 40
0.0
 40
0.0
 40
0.0
 40
0.0
 40
0.4380483874
 40
0.7036325752
 40
1.0
 40
1.0
 40
1.0
 40
1.0
 10
15.624660216
 20
7.0836360271
 30
0.0
 10
15.6246578368
 20
7.084116319
 30
0.0
 10
15.6248843344
 20
7.0848837118
 30
0.0
 10
15.6253917519
 20
7.0858524578
 30
0.0
 10
15.6257352585
 20
7.0863665415
 30
0.0
 10
15.6259263862
 20
7.0866293416
 30
0.0
  0
LINE
  5
4E9
100
AcDbEntity
  8
0
100
AcDbLine
 62
7
  6
CONTINUOUS
 10
15.6259263862
 20
7.0866293416
 11
15.626807669
 21
7.0877193823
  0
LINE
  5
4EA
100
AcDbEntity
  8
0
100
AcDbLine
 62
7
  6
CONTINUOUS
 10
15.6273973643
 20
7.0883537488
 11
15.6291927914
 21
7.0900134815
  0
LINE
  5
4EB
100
AcDbEntity
  8
0
100
AcDbLine
 62
7
  6
CONTINUOUS
 10
15.5857418693
 20
7.1004153254
 11
15.5857678359
 21
7.1006036085
  0
LINE
  5
4EC
100
AcDbEntity
  8
0
100
AcDbLine
 62
7
  6
CONTINUOUS
 10
15.5857678359
 20
7.1006036085
 11
15.5860837982
 21
7.1012372615
  0
LINE
  5
4ED
100
AcDbEntity
  8
0
100
AcDbLine
 62
7
  6
CONTINUOUS
 10
15.5734743127
 20
7.09285264
 11
15.5737703269
 21
7.092807345
  0
LINE
  5
4EE
100
AcDbEntity
  8
0
100
AcDbLine
 62
7
  6
CONTINUOUS
 10
15.5737703269
 20
7.092807345
 11
15.5743994996
 21
7.0930607129
  0
LINE
  5
4EF
100
AcDbEntity
  8
0
100
AcDbLine
 62
7
  6
CONTINUOUS
 10
15.5533524572
 20
7.0787081231
 11
15.553365014
 21
7.0785539505
  0
LINE
  5
4F0
100
AcDbEntity
  8
0
100
AcDbLine
 62
7
  6
CONTINUOUS
 10
15.553365014
 20
7.0785539505
 11
15.553775179
 21
7.0780483254
  0
LINE
  5
4F1
100
AcDbEntity
  8
0
100
AcDbLine
 62
7
  6
CONTINUOUS
 10
15.553775179
 20
7.0780483254
 11
15.5547359038
 21
7.0779393507
  0
LINE
  5
4F2
100
AcDbEntity
  8
0
100
AcDbLine
 62
7
  6
CONTINUOUS
 10
15.8470727388
 20
7.193260263
 11
15.8478252353
 21
7.1933064306
  0
SPLINE
  5
4F3
100
AcDbEntity
  8
0
100
AcDbSpline
 62
7
  6
CONTINUOUS
 70
0
 71
3
 72
14
 73
10
 74
0
 42
0.0000001
 43
0.0000001
 44
0.0000000001
 40
0.0
 40
0.0
 40
0.0
 40
0.0
 40
0.0769039513
 40
0.1709924108
 40
0.2811848308
 40
0.4057779195
 40
0.5427250428
 40
0.6894978952
 40
1.0
 40
1.0
 40
1.0
 40
1.0
 10
15.8431620551
 20
7.1781141697
 30
0.0
 10
15.8435730783
 20
7.178380513
 30
0.0
 10
15.8445427504
 20
7.1788857171
 30
0.0
 10
15.8462115467
 20
7.1795398806
 30
0.0
 10
15.8482172669
 20
7.1801495532
 30
0.0
 10
15.8505204032
 20
7.1807019784
 30
0.0
 10
15.8530767844
 20
7.1811836723
 30
0.0
 10
15.8568227814
 20
7.1817265253
 30
0.0
 10
15.8597277108
 20
7.1819772937
 30
0.0
 10
15.8617025513
 20
7.1820794117
 30
0.0
  0
SPLINE
  5
4F4
100
AcDbEntity
  8
0
100
AcDbSpline
 62
7
  6
CONTINUOUS
 70
0
 71
3
 72
17
 73
13
 74
0
 42
0.0000001
 43
0.0000001
 44
0.0000000001
 40
0.0
 40
0.0
 40
0.0
 40
0.0
 40
0.1862422225
 40
0.3667269547
 40
0.5329938995
 40
0.6784337472
 40
0.7990309586
 40
0.8916597381
 40
0.9273848431
 40
0.9564995378
 40
0.9799996722
 40
1.0
 40
1.0
 40
1.0
 40
1.0
 10
15.8817025513
 20
7.1827771014
 30
0.0
 10
15.8820292257
 20
7.1827830074
 30
0.0
 10
15.8826728037
 20
7.1827805923
 30
0.0
 10
15.883607157
 20
7.1827376731
 30
0.0
 10
15.8844672011
 20
7.1826570055
 30
0.0
 10
15.8852174113
 20
7.1825410655
 30
0.0
 10
15.8858303239
 20
7.1823968717
 30
0.0
 10
15.8862434508
 20
7.1822477542
 30
0.0
 10
15.8864838458
 20
7.1821100192
 30
0.0
 10
15.8866048466
 20
7.1820117208
 30
0.0
 10
15.8866827742
 20
7.1819085046
 30
0.0
 10
15.8867025513
 20
7.1818317417
 30
0.0
 10
15.8867025513
 20
7.1817966548
 30
0.0
  0
SPLINE
  5
4F5
100
AcDbEntity
  8
0
100
AcDbSpline
 62
7
  6
CONTINUOUS
 70
0
 71
3
 72
14
 73
10
 74
0
 42
0.0000001
 43
0.0000001
 44
0.0000000001
 40
0.0
 40
0.0
 40
0.0
 40
0.0
 40
0.0900830387
 40
0.1921383643
 40
0.3056921851
 40
0.4298229665
 40
0.5633119382
 40
0.7044146988
 40
1.0
 40
1.0
 40
1.0
 40
1.0
 10
15.8374736668
 20
7.1552846777
 30
0.0
 10
15.8380764021
 20
7.1557583634
 30
0.0
 10
15.8394386367
 20
7.1566720554
 30
0.0
 10
15.8417474808
 20
7.1578785456
 30
0.0
 10
15.844423212
 20
7.1589826234
 30
0.0
 10
15.8474280745
 20
7.1599642969
 30
0.0
 10
15.8507184696
 20
7.160802411
 30
0.0
 10
15.8554854879
 20
7.1617174831
 30
0.0
 10
15.8591907494
 20
7.1621094121
 30
0.0
 10
15.8617025513
 20
7.1622437748
 30
0.0
  0
SPLINE
  5
4F6
100
AcDbEntity
  8
0
100
AcDbSpline
 62
7
  6
CONTINUOUS
 70
0
 71
3
 72
11
 73
7
 74
0
 42
0.0000001
 43
0.0000001
 44
0.0000000001
 40
0.0
 40
0.0
 40
0.0
 40
0.0
 40
0.2096792637
 40
0.4458542005
 40
0.7094358669
 40
1.0
 40
1.0
 40
1.0
 40
1.0
 10
15.8413088318
 20
7.1363047726
 30
0.0
 10
15.8423193409
 20
7.1374502302
 30
0.0
 10
15.8447178833
 20
7.1396692002
 30
0.0
 10
15.8490183427
 20
7.142562833
 30
0.0
 10
15.854180278
 20
7.1451429368
 30
0.0
 10
15.8579735772
 20
7.1465471315
 30
0.0
 10
15.8599902345
 20
7.1471902344
 30
0.0
  0
SPLINE
  5
4F7
100
AcDbEntity
  8
0
100
AcDbSpline
 62
7
  6
CONTINUOUS
 70
0
 71
3
 72
9
 73
5
 74
0
 42
0.0000001
 43
0.0000001
 44
0.0000000001
 40
0.0
 40
0.0
 40
0.0
 40
0.0
 40
0.2412141045
 40
1.0
 40
1.0
 40
1.0
 40
1.0
 10
15.8599902345
 20
7.1471902344
 30
0.0
 10
15.8607349644
 20
7.1474277254
 30
0.0
 10
15.8638391258
 20
7.1483593956
 30
0.0
 10
15.8670028119
 20
7.1490894244
 30
0.0
 10
15.8694198394
 20
7.1495414281
 30
0.0
  0
SPLINE
  5
4F8
100
AcDbEntity
  8
0
100
AcDbSpline
 62
7
  6
CONTINUOUS
 70
0
 71
3
 72
15
 73
11
 74
0
 42
0.0000001
 43
0.0000001
 44
0.0000000001
 40
0.0
 40
0.0
 40
0.0
 40
0.0
 40
0.1757266304
 40
0.345449666
 40
0.50075261
 40
0.6371329688
 40
0.7525162867
 40
0.8477307524
 40
0.9274986657
 40
1.0
 40
1.0
 40
1.0
 40
1.0
 10
15.8224736668
 20
7.14028419
 30
0.0
 10
15.8228062969
 20
7.1403262737
 30
0.0
 10
15.8234643351
 20
7.1403789188
 30
0.0
 10
15.8244211289
 20
7.1403698735
 30
0.0
 10
15.8252975659
 20
7.1402677189
 30
0.0
 10
15.8260538291
 20
7.1400802944
 30
0.0
 10
15.8266666337
 20
7.1398199479
 30
0.0
 10
15.827121612
 20
7.1394933859
 30
0.0
 10
15.8274095862
 20
7.1391059074
 30
0.0
 10
15.8274730327
 20
7.1388115248
 30
0.0
 10
15.827472873
 20
7.1386731942
 30
0.0
  0
SPLINE
  5
4F9
100
AcDbEntity
  8
0
100
AcDbSpline
 62
7
  6
CONTINUOUS
 70
0
 71
3
 72
17
 73
13
 74
0
 42
0.0000001
 43
0.0000001
 44
0.0000000001
 40
0.0
 40
0.0
 40
0.0
 40
0.0
 40
0.0837290083
 40
0.177552121
 40
0.2837467139
 40
0.4036179231
 40
0.5371812297
 40
0.6832009111
 40
0.7600986207
 40
0.8390090402
 40
0.919251306
 40
1.0
 40
1.0
 40
1.0
 40
1.0
 10
15.823998136
 20
7.1132419133
 30
0.0
 10
15.8246882054
 20
7.1111237995
 30
0.0
 10
15.8268164899
 20
7.1068369101
 30
0.0
 10
15.8316786492
 20
7.1009958391
 30
0.0
 10
15.8382912362
 20
7.0955695229
 30
0.0
 10
15.8465778061
 20
7.0907201323
 30
0.0
 10
15.8564122535
 20
7.086617398
 30
0.0
 10
15.8655649402
 20
7.0840443862
 30
0.0
 10
15.8734513032
 20
7.082513794
 30
0.0
 10
15.8796771957
 20
7.0816627437
 30
0.0
 10
15.8860413131
 20
7.0811395617
 30
0.0
 10
15.8903252747
 20
7.0810153281
 30
0.0
 10
15.8924736668
 20
7.0810113773
 30
0.0
  0
LINE
  5
4FA
100
AcDbEntity
  8
0
100
AcDbLine
 62
7
  6
CONTINUOUS
 10
15.5534291249
 20
7.0844598396
 11
15.5542905369
 21
7.0851372449
  0
LINE
  5
4FB
100
AcDbEntity
  8
0
100
AcDbLine
 62
7
  6
CONTINUOUS
 10
15.5556669759
 20
7.0862135351
 11
15.5562469262
 21
7.0866647735
  0
LINE
  5
4FC
100
AcDbEntity
  8
0
100
AcDbLine
 62
7
  6
CONTINUOUS
 10
15.5580088445
 20
7.0880275362
 11
15.5585945368
 21
7.0884778479
  0
LINE
  5
4FD
100
AcDbEntity
  8
0
100
AcDbLine
 62
7
  6
CONTINUOUS
 10
15.5684807901
 20
7.0958798042
 11
15.5689143272
 21
7.0961959316
  0
LINE
  5
4FE
100
AcDbEntity
  8
0
100
AcDbLine
 62
7
  6
CONTINUOUS
 10
15.570389502
 20
7.0972663639
 11
15.5711023772
 21
7.0977807571
  0
LINE
  5
4FF
100
AcDbEntity
  8
0
100
AcDbLine
 62
7
  6
CONTINUOUS
 10
15.572352515
 20
7.0986782994
 11
15.5729044242
 21
7.0990727171
  0
LINE
  5
500
100
AcDbEntity
  8
0
100
AcDbLine
 62
7
  6
CONTINUOUS
 10
15.5729044242
 20
7.0990727171
 11
15.573372309
 21
7.0994062131
  0
LINE
  5
501
100
AcDbEntity
  8
0
100
AcDbLine
 62
7
  6
CONTINUOUS
 10
15.5751035485
 20
7.1006332463
 11
15.5756574039
 21
7.1010234955
  0
LINE
  5
502
100
AcDbEntity
  8
0
100
AcDbLine
 62
7
  6
CONTINUOUS
 10
15.5816095144
 20
7.1051477452
 11
15.5821702434
 21
7.1055297718
  0
LINE
  5
503
100
AcDbEntity
  8
0
100
AcDbLine
 62
7
  6
CONTINUOUS
 10
15.5821702434
 20
7.1055297718
 11
15.5827906451
 21
7.1059511603
  0
LINE
  5
504
100
AcDbEntity
  8
0
100
AcDbLine
 62
7
  6
CONTINUOUS
 10
15.5869958053
 20
7.1087718216
 11
15.5875265306
 21
7.1091234375
  0
LINE
  5
505
100
AcDbEntity
  8
0
100
AcDbLine
 62
7
  6
CONTINUOUS
 10
15.5875265306
 20
7.1091234375
 11
15.5882424382
 21
7.1095961981
  0
LINE
  5
506
100
AcDbEntity
  8
0
100
AcDbLine
 62
7
  6
CONTINUOUS
 10
15.5882424382
 20
7.1095961981
 11
15.5887724909
 21
7.1099450878
  0
LINE
  5
507
100
AcDbEntity
  8
0
100
AcDbLine
 62
7
  6
CONTINUOUS
 10
15.5973001737
 20
7.1154266016
 11
15.5977629269
 21
7.1157170517
  0
LINE
  5
508
100
AcDbEntity
  8
0
100
AcDbLine
 62
7
  6
CONTINUOUS
 10
15.5996069123
 20
7.1168673737
 11
15.600134504
 21
7.1171944257
  0
LINE
  5
509
100
AcDbEntity
  8
0
100
AcDbLine
 62
7
  6
CONTINUOUS
 10
15.5328585139
 20
7.0773323457
 11
15.5347805649
 21
7.0781424665
  0
LINE
  5
50A
100
AcDbEntity
  8
0
100
AcDbLine
 62
7
  6
CONTINUOUS
 10
15.5355794047
 20
7.0783884069
 11
15.5357430147
 21
7.0784322159
  0
LINE
  5
50B
100
AcDbEntity
  8
0
100
AcDbLine
 62
7
  6
CONTINUOUS
 10
15.539687974
 20
7.0813171905
 11
15.540652416
 21
7.0820150331
  0
LINE
  5
50C
100
AcDbEntity
  8
0
100
AcDbLine
 62
7
  6
CONTINUOUS
 10
15.540652416
 20
7.0820150331
 11
15.5412250205
 21
7.0824279776
  0
LINE
  5
50D
100
AcDbEntity
  8
0
100
AcDbLine
 62
7
  6
CONTINUOUS
 10
15.5412250205
 20
7.0824279776
 11
15.5416691448
 21
7.0827475626
  0
LINE
  5
50E
100
AcDbEntity
  8
0
100
AcDbLine
 62
7
  6
CONTINUOUS
 10
15.5453845068
 20
7.0838342807
 11
15.5459498549
 21
7.0842147262
  0
LINE
  5
50F
100
AcDbEntity
  8
0
100
AcDbLine
 62
7
  6
CONTINUOUS
 10
15.5475815551
 20
7.0853073386
 11
15.5481439576
 21
7.0856820723
  0
LINE
  5
510
100
AcDbEntity
  8
0
100
AcDbLine
 62
7
  6
CONTINUOUS
 10
15.5512453835
 20
7.087731572
 11
15.5520583218
 21
7.0882640475
  0
LINE
  5
511
100
AcDbEntity
  8
0
100
AcDbLine
 62
7
  6
CONTINUOUS
 10
15.5520583218
 20
7.0882640475
 11
15.5529248944
 21
7.0888295016
  0
LINE
  5
512
100
AcDbEntity
  8
0
100
AcDbLine
 62
7
  6
CONTINUOUS
 10
15.5741939558
 20
7.1020315197
 11
15.5747198732
 21
7.1023419457
  0
LINE
  5
513
100
AcDbEntity
  8
0
100
AcDbLine
 62
7
  6
CONTINUOUS
 10
15.5408366716
 20
7.0786826379
 11
15.543549973
 21
7.0779351879
  0
LINE
  5
514
100
AcDbEntity
  8
0
100
AcDbLine
 62
7
  6
CONTINUOUS
 10
15.5502552689
 20
7.08124262
 11
15.5508300978
 21
7.0816572877
  0
SPLINE
  5
515
100
AcDbEntity
  8
0
100
AcDbSpline
 62
7
  6
CONTINUOUS
 70
0
 71
3
 72
10
 73
6
 74
0
 42
0.0000001
 43
0.0000001
 44
0.0000000001
 40
0.0
 40
0.0
 40
0.0
 40
0.0
 40
0.5162412425
 40
0.7705145679
 40
1.0
 40
1.0
 40
1.0
 40
1.0
 10
15.6114484158
 20
7.1079178365
 30
0.0
 10
15.6124075466
 20
7.108539795
 30
0.0
 10
15.6138932165
 20
7.1093885448
 30
0.0
 10
15.6159022445
 20
7.1103213081
 30
0.0
 10
15.6169052467
 20
7.1107027942
 30
0.0
 10
15.6173900242
 20
7.1108551689
 30
0.0
  0
LINE
  5
516
100
AcDbEntity
  8
0
100
AcDbLine
 62
7
  6
CONTINUOUS
 10
15.623281318
 20
7.114539503
 11
15.6237985484
 21
7.1148580915
  0
LINE
  5
517
100
AcDbEntity
  8
0
100
AcDbLine
 62
7
  6
CONTINUOUS
 10
15.6252212808
 20
7.1157303984
 11
15.6257346789
 21
7.1160437276
  0
LINE
  5
518
100
AcDbEntity
  8
0
100
AcDbLine
 62
7
  6
CONTINUOUS
 10
15.5894485997
 20
7.1061325599
 11
15.5944932063
 21
7.1083969715
  0
LINE
  5
519
100
AcDbEntity
  8
0
100
AcDbLine
 62
7
  6
CONTINUOUS
 10
15.5944932063
 20
7.1083969715
 11
15.5984392737
 21
7.1097865138
  0
LINE
  5
51A
100
AcDbEntity
  8
0
100
AcDbLine
 62
7
  6
CONTINUOUS
 10
15.5984392737
 20
7.1097865138
 11
15.6012351349
 21
7.110324669
  0
LINE
  5
51B
100
AcDbEntity
  8
0
100
AcDbLine
 62
7
  6
CONTINUOUS
 10
15.6012351349
 20
7.110324669
 11
15.6067462908
 21
7.1104004637
  0
LINE
  5
51C
100
AcDbEntity
  8
0
100
AcDbLine
 62
7
  6
CONTINUOUS
 10
15.5743994996
 20
7.0930607129
 11
15.576480941
 21
7.0939015371
  0
LINE
  5
51D
100
AcDbEntity
  8
0
100
AcDbLine
 62
7
  6
CONTINUOUS
 10
15.576480941
 20
7.0939015371
 11
15.5771283547
 21
7.0940232956
  0
SPLINE
  5
51E
100
AcDbEntity
  8
0
100
AcDbSpline
 62
7
  6
CONTINUOUS
 70
0
 71
3
 72
12
 73
8
 74
0
 42
0.0000001
 43
0.0000001
 44
0.0000000001
 40
0.0
 40
0.0
 40
0.0
 40
0.0
 40
0.0769417719
 40
0.1714344135
 40
0.4049687473
 40
0.6860205599
 40
1.0
 40
1.0
 40
1.0
 40
1.0
 10
15.5756667507
 20
7.0816504647
 30
0.0
 10
15.5757114012
 20
7.0817806697
 30
0.0
 10
15.575848993
 20
7.0820572656
 30
0.0
 10
15.5762558319
 20
7.0826576851
 30
0.0
 10
15.5769878101
 20
7.0834706515
 30
0.0
 10
15.5780791732
 20
7.0844747065
 30
0.0
 10
15.5789119007
 20
7.0851395166
 30
0.0
 10
15.5793607196
 20
7.0854772676
 30
0.0
  0
LINE
  5
51F
100
AcDbEntity
  8
0
100
AcDbLine
 62
7
  6
CONTINUOUS
 10
15.5848901128
 20
7.0895857114
 11
15.585464835
 21
7.0900067594
  0
LINE
  5
520
100
AcDbEntity
  8
0
100
AcDbLine
 62
7
  6
CONTINUOUS
 10
15.585464835
 20
7.0900067594
 11
15.5863083572
 21
7.0906227144
  0
LINE
  5
521
100
AcDbEntity
  8
0
100
AcDbLine
 62
7
  6
CONTINUOUS
 10
15.5863083572
 20
7.0906227144
 11
15.586882816
 21
7.0910408236
  0
LINE
  5
522
100
AcDbEntity
  8
0
100
AcDbLine
 62
7
  6
CONTINUOUS
 10
15.541602552
 20
7.0827612288
 11
15.5417396814
 21
7.0829420966
  0
LINE
  5
523
100
AcDbEntity
  8
0
100
AcDbLine
 62
7
  6
CONTINUOUS
 10
15.5417396814
 20
7.0829420966
 11
15.54411122
 21
7.0848259678
  0
LINE
  5
524
100
AcDbEntity
  8
0
100
AcDbLine
 62
7
  6
CONTINUOUS
 10
15.5507634194
 20
7.0817733886
 11
15.5509045667
 21
7.0821019565
  0
LINE
  5
525
100
AcDbEntity
  8
0
100
AcDbLine
 62
7
  6
CONTINUOUS
 10
15.5509045667
 20
7.0821019565
 11
15.551790108
 21
7.0830683207
  0
LINE
  5
526
100
AcDbEntity
  8
0
100
AcDbLine
 62
7
  6
CONTINUOUS
 10
15.551790108
 20
7.0830683207
 11
15.5534291249
 21
7.0844598396
  0
SPLINE
  5
527
100
AcDbEntity
  8
0
100
AcDbSpline
 62
7
  6
CONTINUOUS
 70
0
 71
3
 72
9
 73
5
 74
0
 42
0.0000001
 43
0.0000001
 44
0.0000000001
 40
0.0
 40
0.0
 40
0.0
 40
0.0
 40
0.482542341
 40
1.0
 40
1.0
 40
1.0
 40
1.0
 10
15.6492839109
 20
7.1060023246
 30
0.0
 10
15.6499721292
 20
7.1065212311
 30
0.0
 10
15.6514489156
 20
7.1075302268
 30
0.0
 10
15.6529986522
 20
7.1084221725
 30
0.0
 10
15.6538164332
 20
7.1088529176
 30
0.0
  0
LINE
  5
528
100
AcDbEntity
  8
0
100
AcDbLine
 62
7
  6
CONTINUOUS
 10
15.6538164332
 20
7.1088529176
 11
15.6585599244
 21
7.1109216405
  0
LINE
  5
529
100
AcDbEntity
  8
0
100
AcDbLine
 62
7
  6
CONTINUOUS
 10
15.6585599244
 20
7.1109216405
 11
15.662548024
 21
7.1119154633
  0
LINE
  5
52A
100
AcDbEntity
  8
0
100
AcDbLine
 62
7
  6
CONTINUOUS
 10
15.6676695716
 20
7.1155551081
 11
15.668211143
 21
7.1159340839
  0
SPLINE
  5
52B
100
AcDbEntity
  8
0
100
AcDbSpline
 62
7
  6
CONTINUOUS
 70
0
 71
3
 72
9
 73
5
 74
0
 42
0.0000001
 43
0.0000001
 44
0.0000000001
 40
0.0
 40
0.0
 40
0.0
 40
0.0
 40
0.5233162254
 40
1.0
 40
1.0
 40
1.0
 40
1.0
 10
15.6496167485
 20
7.112711183
 30
0.0
 10
15.6497761815
 20
7.1126310243
 30
0.0
 10
15.6500627885
 20
7.1124248189
 30
0.0
 10
15.6502196861
 20
7.1121053834
 30
0.0
 10
15.6502569876
 20
7.1119471731
 30
0.0
  0
LINE
  5
52C
100
AcDbEntity
  8
0
100
AcDbLine
 62
7
  6
CONTINUOUS
 10
15.6502569876
 20
7.1119471731
 11
15.6502898212
 21
7.1116624675
  0
SPLINE
  5
52D
100
AcDbEntity
  8
0
100
AcDbSpline
 62
7
  6
CONTINUOUS
 70
0
 71
3
 72
10
 73
6
 74
0
 42
0.0000001
 43
0.0000001
 44
0.0000000001
 40
0.0
 40
0.0
 40
0.0
 40
0.0
 40
0.5384371694
 40
0.7693682421
 40
1.0
 40
1.0
 40
1.0
 40
1.0
 10
15.6255175532
 20
7.1117354025
 30
0.0
 10
15.6256811194
 20
7.111688667
 30
0.0
 10
15.6259145851
 20
7.1115811497
 30
0.0
 10
15.6261120049
 20
7.111327935
 30
0.0
 10
15.6261606806
 20
7.1111875094
 30
0.0
 10
15.626174668
 20
7.1111159995
 30
0.0
  0
LINE
  5
52E
100
AcDbEntity
  8
0
100
AcDbLine
 62
7
  6
CONTINUOUS
 10
15.626174668
 20
7.1111159995
 11
15.6261904013
 21
7.1109558043
  0
LINE
  5
52F
100
AcDbEntity
  8
0
100
AcDbLine
 62
7
  6
CONTINUOUS
 10
15.6222679382
 20
7.1039048533
 11
15.6228350635
 21
7.1043384248
  0
LINE
  5
530
100
AcDbEntity
  8
0
100
AcDbLine
 62
7
  6
CONTINUOUS
 10
15.6247228386
 20
7.0817083434
 11
15.6253332423
 21
7.08224548
  0
LINE
  5
531
100
AcDbEntity
  8
0
100
AcDbLine
 62
7
  6
CONTINUOUS
 10
15.6341303903
 20
7.094102369
 11
15.6347075446
 21
7.0945733772
  0
LINE
  5
532
100
AcDbEntity
  8
0
100
AcDbLine
 62
7
  6
CONTINUOUS
 10
15.6347075446
 20
7.0945733772
 11
15.6358188086
 21
7.095476218
  0
LINE
  5
533
100
AcDbEntity
  8
0
100
AcDbLine
 62
7
  6
CONTINUOUS
 10
15.6465969999
 20
7.103961795
 11
15.6471639615
 21
7.104394809
  0
SPLINE
  5
534
100
AcDbEntity
  8
0
100
AcDbSpline
 62
7
  6
CONTINUOUS
 70
0
 71
3
 72
19
 73
15
 74
0
 42
0.0000001
 43
0.0000001
 44
0.0000000001
 40
0.0
 40
0.0
 40
0.0
 40
0.0
 40
0.1266125537
 40
0.2525288689
 40
0.3152133759
 40
0.3777388896
 40
0.5023528848
 40
0.5646097768
 40
0.6268335714
 40
0.689036419
 40
0.7512472027
 40
0.8134594387
 40
0.8756706712
 40
1.0
 40
1.0
 40
1.0
 40
1.0
 10
14.9586038288
 20
6.6468651431
 30
0.0
 10
14.9601843235
 20
6.6551647987
 30
0.0
 10
14.9645332563
 20
6.6715162298
 30
0.0
 10
14.9729366034
 20
6.6908928218
 30
0.0
 10
14.9813799087
 20
6.7053874414
 30
0.0
 10
14.9909142528
 20
6.719079237
 30
0.0
 10
15.0021120021
 20
6.7315211504
 30
0.0
 10
15.0147711393
 20
6.7423199002
 30
0.0
 10
15.0249486405
 20
6.7495342952
 30
0.0
 10
15.0357388616
 20
6.7557889443
 30
0.0
 10
15.0470663343
 20
6.7610066654
 30
0.0
 10
15.0588367676
 20
6.7651378686
 30
0.0
 10
15.0749693296
 20
6.7691179932
 30
0.0
 10
15.0874605753
 20
6.7703359997
 30
0.0
 10
15.0957570181
 20
6.7703359997
 30
0.0
  0
LINE
  5
535
100
AcDbEntity
  8
0
100
AcDbLine
 62
7
  6
CONTINUOUS
 10
15.5788340781
 20
7.1082402461
 11
15.5838944268
 21
7.1112215562
  0
LINE
  5
536
100
AcDbEntity
  8
0
100
AcDbLine
 62
7
  6
CONTINUOUS
 10
15.5847668145
 20
7.1116029374
 11
15.5815842683
 21
7.1097809237
  0
LINE
  5
537
100
AcDbEntity
  8
0
100
AcDbLine
 62
7
  6
CONTINUOUS
 10
15.5666530884
 20
7.1006021644
 11
15.5658055847
 21
7.1000513572
  0
LINE
  5
538
100
AcDbEntity
  8
0
100
AcDbLine
 62
7
  6
CONTINUOUS
 10
15.5656078035
 20
7.1000529736
 11
15.5661539792
 21
7.1004004072
  0
LINE
  5
539
100
AcDbEntity
  8
0
100
AcDbLine
 62
7
  6
CONTINUOUS
 10
15.5661539792
 20
7.1004004072
 11
15.5671400079
 21
7.1010255731
  0
LINE
  5
53A
100
AcDbEntity
  8
0
100
AcDbLine
 62
7
  6
CONTINUOUS
 10
15.572670389
 20
7.1044830855
 11
15.573198073
 21
7.1048086867
  0
SPLINE
  5
53B
100
AcDbEntity
  8
0
100
AcDbSpline
 62
7
  6
CONTINUOUS
 70
0
 71
3
 72
19
 73
15
 74
0
 42
0.0000001
 43
0.0000001
 44
0.0000000001
 40
0.0
 40
0.0
 40
0.0
 40
0.0
 40
0.12431479
 40
0.1865185126
 40
0.2487320208
 40
0.3109465328
 40
0.3731539928
 40
0.4353835487
 40
0.4976457441
 40
0.622269883
 40
0.6847993042
 40
0.747484799
 40
0.8733995772
 40
1.0
 40
1.0
 40
1.0
 40
1.0
 10
15.0957570181
 20
6.2103359997
 30
0.0
 10
15.0874615451
 20
6.2103359997
 30
0.0
 10
15.0749716227
 20
6.2115528436
 30
0.0
 10
15.0588406447
 20
6.2155336095
 30
0.0
 10
15.0470700934
 20
6.2196638542
 30
0.0
 10
15.0357417816
 20
6.2248813717
 30
0.0
 10
15.0249507697
 20
6.2311365278
 30
0.0
 10
15.0147721795
 20
6.2383511934
 30
0.0
 10
15.0021119492
 20
6.2491508747
 30
0.0
 10
14.9909135198
 20
6.2615939109
 30
0.0
 10
14.9813785533
 20
6.2752865004
 30
0.0
 10
14.97293542
 20
6.2897814867
 30
0.0
 10
14.9645326775
 20
6.3091574122
 30
0.0
 10
14.9601841719
 20
6.3255079967
 30
0.0
 10
14.9586038286
 20
6.3338068575
 30
0.0
  0
SPLINE
  5
53C
100
AcDbEntity
  8
0
100
AcDbSpline
 62
7
  6
CONTINUOUS
 70
0
 71
3
 72
18
 73
14
 74
0
 42
0.0000001
 43
0.0000001
 44
0.0000000001
 40
0.0
 40
0.0
 40
0.0
 40
0.0
 40
0.0806920153
 40
0.1609298596
 40
0.2398700254
 40
0.3167837475
 40
0.4628089278
 40
0.5963880525
 40
0.7162529199
 40
0.8224285282
 40
0.8708150892
 40
0.9163441431
 40
1.0
 40
1.0
 40
1.0
 40
1.0
 10
15.8924736668
 20
7.0810113773
 30
0.0
 10
15.8946299952
 20
7.0810074119
 30
0.0
 10
15.8989316075
 20
7.08111712
 30
0.0
 10
15.9053245844
 20
7.0816214268
 30
0.0
 10
15.9115818191
 20
7.0824552064
 30
0.0
 10
15.9195090731
 20
7.0839679559
 30
0.0
 10
15.9287099652
 20
7.086527533
 30
0.0
 10
15.938599273
 20
7.090622952
 30
0.0
 10
15.9469319762
 20
7.0954737731
 30
0.0
 10
15.9526428916
 20
7.1001400804
 30
0.0
 10
15.9562471459
 20
7.1041033132
 30
0.0
 10
15.9590543122
 20
7.1079344679
 30
0.0
 10
15.9606134285
 20
7.1110698149
 30
0.0
 10
15.961306011
 20
7.1131953609
 30
0.0
  0
SPLINE
  5
53D
100
AcDbEntity
  8
0
100
AcDbSpline
 62
7
  6
CONTINUOUS
 70
0
 71
3
 72
9
 73
5
 74
0
 42
0.0000001
 43
0.0000001
 44
0.0000000001
 40
0.0
 40
0.0
 40
0.0
 40
0.0
 40
0.5058022084
 40
1.0
 40
1.0
 40
1.0
 40
1.0
 10
15.961306011
 20
7.1131953609
 30
0.0
 10
15.961626803
 20
7.1141798761
 30
0.0
 10
15.9621419512
 20
7.1161676462
 30
0.0
 10
15.9623900342
 20
7.11820686
 30
0.0
 10
15.9624426533
 20
7.1192171947
 30
0.0
  0
SPLINE
  5
53E
100
AcDbEntity
  8
0
100
AcDbSpline
 62
7
  6
CONTINUOUS
 70
0
 71
3
 72
9
 73
5
 74
0
 42
0.0000001
 43
0.0000001
 44
0.0000000001
 40
0.0
 40
0.0
 40
0.0
 40
0.0
 40
0.515565369
 40
1.0
 40
1.0
 40
1.0
 40
1.0
 10
15.9124736668
 20
7.150423982
 30
0.0
 10
15.9143286162
 20
7.1499979812
 30
0.0
 10
15.9178998507
 20
7.1490497668
 30
0.0
 10
15.9213916371
 20
7.1478381797
 30
0.0
 10
15.9230540662
 20
7.1471790839
 30
0.0
  0
SPLINE
  5
53F
100
AcDbEntity
  8
0
100
AcDbSpline
 62
7
  6
CONTINUOUS
 70
0
 71
3
 72
15
 73
11
 74
0
 42
0.0000001
 43
0.0000001
 44
0.0000000001
 40
0.0
 40
0.0
 40
0.0
 40
0.0
 40
0.1641556875
 40
0.315215563
 40
0.4534239453
 40
0.5795758501
 40
0.6949565402
 40
0.8016130616
 40
0.9022543518
 40
1.0
 40
1.0
 40
1.0
 40
1.0
 10
15.9230540662
 20
7.1471790839
 30
0.0
 10
15.924579061
 20
7.146574476
 30
0.0
 10
15.927462953
 20
7.1452953758
 30
0.0
 10
15.9314216088
 20
7.1430755324
 30
0.0
 10
15.9348105067
 20
7.1406615403
 30
0.0
 10
15.9376114561
 20
7.1380840495
 30
0.0
 10
15.9398096969
 20
7.1353682213
 30
0.0
 10
15.9413924593
 20
7.1325379362
 30
0.0
 10
15.9423468074
 20
7.1296217572
 30
0.0
 10
15.9425590825
 20
7.1276330106
 30
0.0
 10
15.9425592885
 20
7.126656198
 30
0.0
  0
SPLINE
  5
540
100
AcDbEntity
  8
0
100
AcDbSpline
 62
7
  6
CONTINUOUS
 70
0
 71
3
 72
15
 73
11
 74
0
 42
0.0000001
 43
0.0000001
 44
0.0000000001
 40
0.0
 40
0.0
 40
0.0
 40
0.0
 40
0.1601027165
 40
0.3163514363
 40
0.4641604288
 40
0.6005552533
 40
0.7232618445
 40
0.8309489314
 40
0.9230021333
 40
1.0
 40
1.0
 40
1.0
 40
1.0
 10
15.9232447822
 20
7.1622437748
 30
0.0
 10
15.9243517861
 20
7.1621845584
 30
0.0
 10
15.9265360395
 20
7.1619988689
 30
0.0
 10
15.9297176806
 20
7.1615296843
 30
0.0
 10
15.9327006737
 20
7.1608830676
 30
0.0
 10
15.935406038
 20
7.1600854855
 30
0.0
 10
15.9377749047
 20
7.1591599279
 30
0.0
 10
15.9397632654
 20
7.1581319554
 30
0.0
 10
15.9413350748
 20
7.1570250212
 30
0.0
 10
15.9421606515
 20
7.1561779995
 30
0.0
 10
15.9424736668
 20
7.1557464087
 30
0.0
  0
SPLINE
  5
541
100
AcDbEntity
  8
0
100
AcDbSpline
 62
7
  6
CONTINUOUS
 70
0
 71
3
 72
17
 73
13
 74
0
 42
0.0000001
 43
0.0000001
 44
0.0000000001
 40
0.0
 40
0.0
 40
0.0
 40
0.0
 40
0.0200095728
 40
0.0435432276
 40
0.0727014722
 40
0.1084733163
 40
0.2011975662
 40
0.3218678956
 40
0.467311094
 40
0.6334867946
 40
0.8138568049
 40
1.0
 40
1.0
 40
1.0
 40
1.0
 10
15.8954736668
 20
7.1818170865
 30
0.0
 10
15.8954736668
 20
7.181852215
 30
0.0
 10
15.8954934651
 20
7.1819290968
 30
0.0
 10
15.8955713451
 20
7.1820326317
 30
0.0
 10
15.895692316
 20
7.1821314811
 30
0.0
 10
15.895932685
 20
7.1822703065
 30
0.0
 10
15.8963458528
 20
7.1824213103
 30
0.0
 10
15.8969588659
 20
7.182568343
 30
0.0
 10
15.8977090493
 20
7.1826877956
 30
0.0
 10
15.8985689727
 20
7.1827725157
 30
0.0
 10
15.899503258
 20
7.1828197507
 30
0.0
 10
15.9001469065
 20
7.1828251421
 30
0.0
 10
15.9004736668
 20
7.1828207547
 30
0.0
  0
SPLINE
  5
542
100
AcDbEntity
  8
0
100
AcDbSpline
 62
7
  6
CONTINUOUS
 70
0
 71
3
 72
13
 73
9
 74
0
 42
0.0000001
 43
0.0000001
 44
0.0000000001
 40
0.0
 40
0.0
 40
0.0
 40
0.0
 40
0.3106282456
 40
0.5943019368
 40
0.7188689294
 40
0.8290340482
 40
0.9231025187
 40
1.0
 40
1.0
 40
1.0
 40
1.0
 10
15.9232447822
 20
7.1820794117
 30
0.0
 10
15.9252202962
 20
7.1819772589
 30
0.0
 10
15.9289941445
 20
7.1816500003
 30
0.0
 10
15.9335196609
 20
7.1809190863
 30
0.0
 10
15.9367314126
 20
7.1801492538
 30
0.0
 10
15.9387365221
 20
7.179539619
 30
0.0
 10
15.9404048995
 20
7.1788856451
 30
0.0
 10
15.9413743166
 20
7.1783804732
 30
0.0
 10
15.9417852785
 20
7.1781141697
 30
0.0
  0
LINE
  5
543
100
AcDbEntity
  8
0
100
AcDbLine
 62
7
  6
CONTINUOUS
 10
15.9277810815
 20
7.1921138813
 11
15.9341290561
 21
7.1912600326
  0
SPLINE
  5
544
100
AcDbEntity
  8
0
100
AcDbSpline
 62
7
  6
CONTINUOUS
 70
0
 71
3
 72
11
 73
7
 74
0
 42
0.0000001
 43
0.0000001
 44
0.0000000001
 40
0.0
 40
0.0
 40
0.0
 40
0.0
 40
0.3123542772
 40
0.5849341717
 40
0.8148640708
 40
1.0
 40
1.0
 40
1.0
 40
1.0
 10
15.9341290561
 20
7.1912600326
 30
0.0
 10
15.9350133725
 20
7.1911161642
 30
0.0
 10
15.9366657939
 20
7.1908236892
 30
0.0
 10
15.9389514647
 20
7.1903310788
 30
0.0
 10
15.9408569911
 20
7.1898190711
 30
0.0
 10
15.9419842806
 20
7.1894292499
 30
0.0
 10
15.9424736668
 20
7.1892230948
 30
0.0
  0
SPLINE
  5
545
100
AcDbEntity
  8
0
100
AcDbSpline
 62
7
  6
CONTINUOUS
 70
0
 71
3
 72
13
 73
9
 74
0
 42
0.0000001
 43
0.0000001
 44
0.0000000001
 40
0.0
 40
0.0
 40
0.0
 40
0.0
 40
0.1242280934
 40
0.249172427
 40
0.5000002825
 40
0.7508277624
 40
0.8757718932
 40
1.0
 40
1.0
 40
1.0
 40
1.0
 10
14.9586038286
 20
6.3338068575
 30
0.0
 10
14.9561651367
 20
6.3466131661
 30
0.0
 10
14.951894108
 20
6.3724224452
 30
0.0
 10
14.945779637
 20
6.4245501571
 30
0.0
 10
14.9427194436
 20
6.4903360502
 30
0.0
 10
14.9457796369
 20
6.5561219219
 30
0.0
 10
14.9518941064
 20
6.6082495743
 30
0.0
 10
14.9561651367
 20
6.634058833
 30
0.0
 10
14.9586038288
 20
6.646865143
 30
0.0
  0
LINE
  5
546
100
AcDbEntity
  8
0
100
AcDbLine
 62
7
  6
CONTINUOUS
 10
16.1929576639
 20
7.1158881819
 11
16.1924736668
 21
7.116165396
  0
LINE
  5
547
100
AcDbEntity
  8
0
100
AcDbLine
 62
7
  6
CONTINUOUS
 10
16.1924736668
 20
7.1161899625
 11
16.1929683191
 21
7.1159073321
  0
LINE
  5
548
100
AcDbEntity
  8
0
100
AcDbLine
 62
7
  6
CONTINUOUS
 10
16.2194088585
 20
7.0997878291
 11
16.2206880638
 21
7.0989558713
  0
LINE
  5
549
100
AcDbEntity
  8
0
100
AcDbLine
 62
7
  6
CONTINUOUS
 10
16.2221440969
 20
7.0980028485
 11
16.2229645596
 21
7.0974629724
  0
LINE
  5
54A
100
AcDbEntity
  8
0
100
AcDbLine
 62
7
  6
CONTINUOUS
 10
16.2244848274
 20
7.0964571474
 11
16.2252382541
 21
7.0959560302
  0
LINE
  5
54B
100
AcDbEntity
  8
0
100
AcDbLine
 62
7
  6
CONTINUOUS
 10
16.2252382541
 20
7.0959560302
 11
16.2259052478
 21
7.0955109341
  0
LINE
  5
54C
100
AcDbEntity
  8
0
100
AcDbLine
 62
7
  6
CONTINUOUS
 10
16.2333726472
 20
7.0904326415
 11
16.233837908
 21
7.0901103851
  0
LINE
  5
54D
100
AcDbEntity
  8
0
100
AcDbLine
 62
7
  6
CONTINUOUS
 10
16.233837908
 20
7.0901103851
 11
16.2344131515
 21
7.0897109907
  0
LINE
  5
54E
100
AcDbEntity
  8
0
100
AcDbLine
 62
7
  6
CONTINUOUS
 10
16.2385115186
 20
7.0867992483
 11
16.2415739232
 21
7.0845052262
  0
LINE
  5
54F
100
AcDbEntity
  8
0
100
AcDbLine
 62
7
  6
CONTINUOUS
 10
16.2415739232
 20
7.0845052262
 11
16.2431706228
 21
7.0832172165
  0
SPLINE
  5
550
100
AcDbEntity
  8
0
100
AcDbSpline
 62
7
  6
CONTINUOUS
 70
0
 71
3
 72
12
 73
8
 74
0
 42
0.0000001
 43
0.0000001
 44
0.0000000001
 40
0.0
 40
0.0
 40
0.0
 40
0.0
 40
0.3025430071
 40
0.5770246836
 40
0.8137119231
 40
0.9140778321
 40
1.0
 40
1.0
 40
1.0
 40
1.0
 10
16.2246419667
 20
7.0882952991
 30
0.0
 10
16.2252647249
 20
7.0878286426
 30
0.0
 10
16.2264391022
 20
7.0869204018
 30
0.0
 10
16.2280450132
 20
7.0855774042
 30
0.0
 10
16.2292006295
 20
7.0845082093
 30
0.0
 10
16.2299514769
 20
7.0837204504
 30
0.0
 10
16.2302624616
 20
7.0833552484
 30
0.0
 10
16.2303977707
 20
7.0831805018
 30
0.0
  0
LINE
  5
551
100
AcDbEntity
  8
0
100
AcDbLine
 62
7
  6
CONTINUOUS
 10
16.2303977707
 20
7.0831805018
 11
16.2311364556
 21
7.0826454132
  0
LINE
  5
552
100
AcDbEntity
  8
0
100
AcDbLine
 62
7
  6
CONTINUOUS
 10
16.2311364556
 20
7.0826454132
 11
16.2317298321
 21
7.0822143301
  0
SPLINE
  5
553
100
AcDbEntity
  8
0
100
AcDbSpline
 62
7
  6
CONTINUOUS
 70
0
 71
3
 72
9
 73
5
 74
0
 42
0.0000001
 43
0.0000001
 44
0.0000000001
 40
0.0
 40
0.0
 40
0.0
 40
0.0
 40
0.2534436263
 40
1.0
 40
1.0
 40
1.0
 40
1.0
 10
16.2392010991
 20
7.0766897546
 30
0.0
 10
16.2396138928
 20
7.0767951712
 30
0.0
 10
16.2412536579
 20
7.0771663886
 30
0.0
 10
16.2429362517
 20
7.0773508135
 30
0.0
 10
16.2441909796
 20
7.077375427
 30
0.0
  0
LINE
  5
554
100
AcDbEntity
  8
0
100
AcDbLine
 62
7
  6
CONTINUOUS
 10
16.2201340349
 20
7.0942377134
 11
16.2206399733
 21
7.094007909
  0
LINE
  5
555
100
AcDbEntity
  8
0
100
AcDbLine
 62
7
  6
CONTINUOUS
 10
16.2206399733
 20
7.094007909
 11
16.2211657732
 21
7.0937076668
  0
LINE
  5
556
100
AcDbEntity
  8
0
100
AcDbLine
 62
7
  6
CONTINUOUS
 10
16.2211657732
 20
7.0937076668
 11
16.2222948685
 21
7.0930599531
  0
LINE
  5
557
100
AcDbEntity
  8
0
100
AcDbLine
 62
7
  6
CONTINUOUS
 10
16.2222948685
 20
7.0930599531
 11
16.2231096099
 21
7.0925900401
  0
LINE
  5
558
100
AcDbEntity
  8
0
100
AcDbLine
 62
7
  6
CONTINUOUS
 10
16.2231096099
 20
7.0925900401
 11
16.2235600639
 21
7.0923293215
  0
LINE
  5
559
100
AcDbEntity
  8
0
100
AcDbLine
 62
7
  6
CONTINUOUS
 10
16.2253958129
 20
7.0912600577
 11
16.2259446145
 21
7.0909382873
  0
LINE
  5
55A
100
AcDbEntity
  8
0
100
AcDbLine
 62
7
  6
CONTINUOUS
 10
16.2481413018
 20
7.0770847456
 11
16.2516758005
 21
7.0761994002
  0
LINE
  5
55B
100
AcDbEntity
  8
0
100
AcDbLine
 62
7
  6
CONTINUOUS
 10
16.1863811286
 20
7.1121287888
 11
16.1879694365
 21
7.1114808947
  0
LINE
  5
55C
100
AcDbEntity
  8
0
100
AcDbLine
 62
7
  6
CONTINUOUS
 10
16.1879694365
 20
7.1114808947
 11
16.1898788011
 21
7.1105910667
  0
LINE
  5
55D
100
AcDbEntity
  8
0
100
AcDbLine
 62
7
  6
CONTINUOUS
 10
16.1898788011
 20
7.1105910667
 11
16.1943986466
 21
7.1081697565
  0
LINE
  5
55E
100
AcDbEntity
  8
0
100
AcDbLine
 62
7
  6
CONTINUOUS
 10
16.2184961962
 20
7.0926038637
 11
16.2193364166
 21
7.0920291339
  0
LINE
  5
55F
100
AcDbEntity
  8
0
100
AcDbLine
 62
7
  6
CONTINUOUS
 10
16.2193364166
 20
7.0920291339
 11
16.2198943297
 21
7.0916463394
  0
SPLINE
  5
560
100
AcDbEntity
  8
0
100
AcDbSpline
 62
7
  6
CONTINUOUS
 70
0
 71
3
 72
13
 73
9
 74
0
 42
0.0000001
 43
0.0000001
 44
0.0000000001
 40
0.0
 40
0.0
 40
0.0
 40
0.0
 40
0.3312127025
 40
0.6206458281
 40
0.7436097076
 40
0.8487808115
 40
0.9344384463
 40
1.0
 40
1.0
 40
1.0
 40
1.0
 10
16.2008988235
 20
7.0883085646
 30
0.0
 10
16.2014549744
 20
7.0878904586
 30
0.0
 10
16.2024719811
 20
7.0870731209
 30
0.0
 10
16.2036107275
 20
7.0859989638
 30
0.0
 10
16.20432509
 20
7.085178352
 30
0.0
 10
16.2047120353
 20
7.0846423501
 30
0.0
 10
16.2049656674
 20
7.0841663098
 30
0.0
 10
16.2050497771
 20
7.0838517357
 30
0.0
 10
16.2050504919
 20
7.0837140112
 30
0.0
  0
SPLINE
  5
561
100
AcDbEntity
  8
0
100
AcDbSpline
 62
7
  6
CONTINUOUS
 70
0
 71
3
 72
11
 73
7
 74
0
 42
0.0000001
 43
0.0000001
 44
0.0000000001
 40
0.0
 40
0.0
 40
0.0
 40
0.0
 40
0.3337141393
 40
0.5968826172
 40
0.8070578524
 40
1.0
 40
1.0
 40
1.0
 40
1.0
 10
16.2271524385
 20
7.077171956
 30
0.0
 10
16.2273449837
 20
7.0771581786
 30
0.0
 10
16.2276918618
 20
7.0771541169
 30
0.0
 10
16.2281551766
 20
7.0772431478
 30
0.0
 10
16.2284971816
 20
7.0774461782
 30
0.0
 10
16.2286184407
 20
7.0776588697
 30
0.0
 10
16.22864995
 20
7.0777659372
 30
0.0
  0
LINE
  5
562
100
AcDbEntity
  8
0
100
AcDbLine
 62
7
  6
CONTINUOUS
 10
16.22864995
 20
7.0777659372
 11
16.2286855452
 21
7.0780319089
  0
SPLINE
  5
563
100
AcDbEntity
  8
0
100
AcDbSpline
 62
7
  6
CONTINUOUS
 70
0
 71
3
 72
10
 73
6
 74
0
 42
0.0000001
 43
0.0000001
 44
0.0000000001
 40
0.0
 40
0.0
 40
0.0
 40
0.0
 40
0.2078493452
 40
0.4532041249
 40
1.0
 40
1.0
 40
1.0
 40
1.0
 10
16.1638838439
 20
7.112391517
 30
0.0
 10
16.1642569324
 20
7.1123170322
 30
0.0
 10
16.165058061
 20
7.1120941796
 30
0.0
 10
16.1667789704
 20
7.1114685327
 30
0.0
 10
16.1680938847
 20
7.1108488009
 30
0.0
 10
16.1689817774
 20
7.110386874
 30
0.0
  0
LINE
  5
564
100
AcDbEntity
  8
0
100
AcDbLine
 62
7
  6
CONTINUOUS
 10
16.1860812718
 20
7.0990702691
 11
16.1866375904
 21
7.0986796046
  0
LINE
  5
565
100
AcDbEntity
  8
0
100
AcDbLine
 62
7
  6
CONTINUOUS
 10
16.1866375904
 20
7.0986796046
 11
16.1878630702
 21
7.0978154191
  0
LINE
  5
566
100
AcDbEntity
  8
0
100
AcDbLine
 62
7
  6
CONTINUOUS
 10
16.1878630702
 20
7.0978154191
 11
16.1884180486
 21
7.0974224175
  0
SPLINE
  5
567
100
AcDbEntity
  8
0
100
AcDbSpline
 62
7
  6
CONTINUOUS
 70
0
 71
3
 72
19
 73
15
 74
0
 42
0.0000001
 43
0.0000001
 44
0.0000000001
 40
0.0
 40
0.0
 40
0.0
 40
0.0
 40
0.1266125538
 40
0.2525288689
 40
0.315213376
 40
0.3777388896
 40
0.5023528849
 40
0.5646097768
 40
0.6268335715
 40
0.689036419
 40
0.7512472027
 40
0.8134594387
 40
0.8756706712
 40
1.0
 40
1.0
 40
1.0
 40
1.0
 10
16.8263435049
 20
6.6468651419
 30
0.0
 10
16.8247630103
 20
6.6551647975
 30
0.0
 10
16.8204140776
 20
6.6715162288
 30
0.0
 10
16.8120107305
 20
6.6908928209
 30
0.0
 10
16.8035674253
 20
6.7053874407
 30
0.0
 10
16.7940330812
 20
6.7190792364
 30
0.0
 10
16.7828353319
 20
6.73152115
 30
0.0
 10
16.7701761947
 20
6.7423198999
 30
0.0
 10
16.7599986935
 20
6.749534295
 30
0.0
 10
16.7492084722
 20
6.7557889442
 30
0.0
 10
16.7378809995
 20
6.7610066652
 30
0.0
 10
16.7261105661
 20
6.7651378685
 30
0.0
 10
16.7099780041
 20
6.7691179931
 30
0.0
 10
16.6974867583
 20
6.7703359997
 30
0.0
 10
16.6891903154
 20
6.7703359997
 30
0.0
  0
SPLINE
  5
568
100
AcDbEntity
  8
0
100
AcDbSpline
 62
7
  6
CONTINUOUS
 70
0
 71
3
 72
13
 73
9
 74
0
 42
0.0000001
 43
0.0000001
 44
0.0000000001
 40
0.0
 40
0.0
 40
0.0
 40
0.0
 40
0.1242280933
 40
0.2491724269
 40
0.5000002825
 40
0.7508277623
 40
0.8757718931
 40
1.0
 40
1.0
 40
1.0
 40
1.0
 10
16.8263435047
 20
6.3338068561
 30
0.0
 10
16.8287821965
 20
6.3466131648
 30
0.0
 10
16.8330532253
 20
6.3724224439
 30
0.0
 10
16.8391676964
 20
6.4245501558
 30
0.0
 10
16.8422278899
 20
6.4903360489
 30
0.0
 10
16.8391676967
 20
6.5561219206
 30
0.0
 10
16.8330532273
 20
6.6082495731
 30
0.0
 10
16.828782197
 20
6.6340588318
 30
0.0
 10
16.8263435049
 20
6.6468651419
 30
0.0
  0
SPLINE
  5
569
100
AcDbEntity
  8
0
100
AcDbSpline
 62
7
  6
CONTINUOUS
 70
0
 71
3
 72
19
 73
15
 74
0
 42
0.0000001
 43
0.0000001
 44
0.0000000001
 40
0.0
 40
0.0
 40
0.0
 40
0.0
 40
0.1243147901
 40
0.1865185126
 40
0.2487320208
 40
0.3109465328
 40
0.3731539928
 40
0.4353835487
 40
0.4976457442
 40
0.6222698831
 40
0.6847993042
 40
0.7474847991
 40
0.8733995772
 40
1.0
 40
1.0
 40
1.0
 40
1.0
 10
16.6891903154
 20
6.2103359997
 30
0.0
 10
16.6974857884
 20
6.2103359997
 30
0.0
 10
16.7099757107
 20
6.2115528436
 30
0.0
 10
16.7261066886
 20
6.2155336094
 30
0.0
 10
16.7378772398
 20
6.2196638541
 30
0.0
 10
16.7492055516
 20
6.2248813715
 30
0.0
 10
16.7599965634
 20
6.2311365275
 30
0.0
 10
16.7701751536
 20
6.238351193
 30
0.0
 10
16.7828353838
 20
6.2491508742
 30
0.0
 10
16.7940338132
 20
6.2615939103
 30
0.0
 10
16.8035687797
 20
6.2752864996
 30
0.0
 10
16.812011913
 20
6.2897814857
 30
0.0
 10
16.8204146556
 20
6.309157411
 30
0.0
 10
16.8247631613
 20
6.3255079953
 30
0.0
 10
16.8263435047
 20
6.333806856
 30
0.0
  0
SPLINE
  5
56A
100
AcDbEntity
  8
0
100
AcDbSpline
 62
7
  6
CONTINUOUS
 70
0
 71
3
 72
10
 73
6
 74
0
 42
0.0000001
 43
0.0000001
 44
0.0000000001
 40
0.0
 40
0.0
 40
0.0
 40
0.0
 40
0.2327808988
 40
0.4749475654
 40
1.0
 40
1.0
 40
1.0
 40
1.0
 10
15.8376452292
 20
7.1291692178
 30
0.0
 10
15.8377540494
 20
7.1297889064
 30
0.0
 10
15.838079858
 20
7.1310372132
 30
0.0
 10
15.8391505794
 20
7.1335269929
 30
0.0
 10
15.8403699997
 20
7.1352405641
 30
0.0
 10
15.8413088318
 20
7.1363047726
 30
0.0
  0
SPLINE
  5
56B
100
AcDbEntity
  8
0
100
AcDbSpline
 62
7
  6
CONTINUOUS
 70
0
 71
3
 72
9
 73
5
 74
0
 42
0.0000001
 43
0.0000001
 44
0.0000000001
 40
0.0
 40
0.0
 40
0.0
 40
0.0
 40
0.4921888999
 40
1.0
 40
1.0
 40
1.0
 40
1.0
 10
15.822495508
 20
7.121408783
 30
0.0
 10
15.8225499145
 20
7.1200442547
 30
0.0
 10
15.8228664084
 20
7.117276931
 30
0.0
 10
15.8235616846
 20
7.1145815667
 30
0.0
 10
15.823998136
 20
7.1132419133
 30
0.0
  0
LINE
  5
56C
100
AcDbEntity
  8
0
100
AcDbLine
 62
7
  6
CONTINUOUS
 10
15.9625418009
 20
7.1912872854
 11
15.9630946538
 21
7.1912229244
  0
LINE
  5
56D
100
AcDbEntity
  8
0
100
AcDbLine
 62
7
  6
CONTINUOUS
 10
16.2023912053
 20
7.1104653108
 11
16.2029064353
 21
7.1101608679
  0
LINE
  5
56E
100
AcDbEntity
  8
0
100
AcDbLine
 62
7
  6
CONTINUOUS
 10
15.5927640183
 20
7.1162212771
 11
15.5932581689
 21
7.1165013551
  0
LINE
  5
56F
100
AcDbEntity
  8
0
100
AcDbLine
 62
7
  6
CONTINUOUS
 10
15.5932581689
 20
7.1165013551
 11
15.5937582485
 21
7.1167841727
  0
LINE
  5
570
100
AcDbEntity
  8
0
100
AcDbLine
 62
7
  6
CONTINUOUS
 10
15.5788780977
 20
7.1081677154
 11
15.5794447495
 21
7.1085087685
  0
LINE
  5
571
100
AcDbEntity
  8
0
100
AcDbLine
 62
7
  6
CONTINUOUS
 10
16.1908355777
 20
7.1124935331
 11
16.1924862709
 21
7.1125297006
  0
LINE
  5
572
100
AcDbEntity
  8
0
100
AcDbLine
 62
7
  6
CONTINUOUS
 10
16.1924862709
 20
7.1125297006
 11
16.1933116211
 21
7.1125058943
  0
LINE
  5
573
100
AcDbEntity
  8
0
100
AcDbLine
 62
7
  6
CONTINUOUS
 10
16.1933116211
 20
7.1125058943
 11
16.1949753553
 21
7.1119774118
  0
LINE
  5
574
100
AcDbEntity
  8
0
100
AcDbLine
 62
7
  6
CONTINUOUS
 10
16.1949753553
 20
7.1119774118
 11
16.1957937016
 21
7.1116174658
  0
LINE
  5
575
100
AcDbEntity
  8
0
100
AcDbLine
 62
7
  6
CONTINUOUS
 10
16.1957937016
 20
7.1116174658
 11
16.1986665266
 21
7.1101898524
  0
LINE
  5
576
100
AcDbEntity
  8
0
100
AcDbLine
 62
7
  6
CONTINUOUS
 10
16.1986665266
 20
7.1101898524
 11
16.2020992959
 21
7.1082985077
  0
LINE
  5
577
100
AcDbEntity
  8
0
100
AcDbLine
 62
7
  6
CONTINUOUS
 10
16.2070591025
 20
7.1053234593
 11
16.211454784
 21
7.1024385802
  0
SPLINE
  5
578
100
AcDbEntity
  8
0
100
AcDbSpline
 62
7
  6
CONTINUOUS
 70
0
 71
3
 72
13
 73
9
 74
0
 42
0.0000001
 43
0.0000001
 44
0.0000000001
 40
0.0
 40
0.0
 40
0.0
 40
0.0
 40
0.3375386221
 40
0.6260993928
 40
0.7478043625
 40
0.8519656248
 40
0.9366092362
 40
1.0
 40
1.0
 40
1.0
 40
1.0
 10
16.211454784
 20
7.1024385802
 30
0.0
 10
16.2120081697
 20
7.1020560813
 30
0.0
 10
16.2130267524
 20
7.1013351191
 30
0.0
 10
16.2142170127
 20
7.1004373633
 30
0.0
 10
16.2150109759
 20
7.0997885681
 30
0.0
 10
16.2154768007
 20
7.0993807387
 30
0.0
 10
16.2158378305
 20
7.0990310494
 30
0.0
 10
16.2160337517
 20
7.0988090435
 30
0.0
 10
16.2161073635
 20
7.0987063673
 30
0.0
  0
LINE
  5
579
100
AcDbEntity
  8
0
100
AcDbLine
 62
7
  6
CONTINUOUS
 10
16.2161073635
 20
7.0987063673
 11
16.2162377238
 21
7.0984188516
  0
LINE
  5
57A
100
AcDbEntity
  8
0
100
AcDbLine
 62
7
  6
CONTINUOUS
 10
16.1935369311
 20
7.0980490874
 11
16.194757208
 21
7.098035878
  0
LINE
  5
57B
100
AcDbEntity
  8
0
100
AcDbLine
 62
7
  6
CONTINUOUS
 10
16.194757208
 20
7.098035878
 11
16.1959774324
 21
7.098035878
  0
LINE
  5
57C
100
AcDbEntity
  8
0
100
AcDbLine
 62
7
  6
CONTINUOUS
 10
16.1959774324
 20
7.098035878
 11
16.1971975609
 21
7.0979874454
  0
LINE
  5
57D
100
AcDbEntity
  8
0
100
AcDbLine
 62
7
  6
CONTINUOUS
 10
16.1971975609
 20
7.0979874454
 11
16.1984063906
 21
7.0977846854
  0
LINE
  5
57E
100
AcDbEntity
  8
0
100
AcDbLine
 62
7
  6
CONTINUOUS
 10
16.1984063906
 20
7.0977846854
 11
16.2020842371
 21
7.0963760649
  0
LINE
  5
57F
100
AcDbEntity
  8
0
100
AcDbLine
 62
7
  6
CONTINUOUS
 10
16.2020842371
 20
7.0963760649
 11
16.2047334773
 21
7.0950305372
  0
LINE
  5
580
100
AcDbEntity
  8
0
100
AcDbLine
 62
7
  6
CONTINUOUS
 10
16.2130409461
 20
7.0897008307
 11
16.2171013825
 21
7.0863640537
  0
LINE
  5
581
100
AcDbEntity
  8
0
100
AcDbLine
 62
7
  6
CONTINUOUS
 10
16.2174234086
 20
7.0860614578
 11
16.2195421424
 21
7.0837048897
  0
LINE
  5
582
100
AcDbEntity
  8
0
100
AcDbLine
 62
7
  6
CONTINUOUS
 10
16.2195421424
 20
7.0837048897
 11
16.2201444837
 21
7.0824763741
  0
LINE
  5
583
100
AcDbEntity
  8
0
100
AcDbLine
 62
7
  6
CONTINUOUS
 10
16.2201444837
 20
7.0824763741
 11
16.2201606335
 21
7.0823011471
  0
LINE
  5
584
100
AcDbEntity
  8
0
100
AcDbLine
 62
7
  6
CONTINUOUS
 10
16.1706982947
 20
7.1133518322
 11
16.1724608481
 21
7.113346858
  0
LINE
  5
585
100
AcDbEntity
  8
0
100
AcDbLine
 62
7
  6
CONTINUOUS
 10
16.1724608481
 20
7.113346858
 11
16.1733420829
 21
7.1133240458
  0
LINE
  5
586
100
AcDbEntity
  8
0
100
AcDbLine
 62
7
  6
CONTINUOUS
 10
16.1733420829
 20
7.1133240458
 11
16.1753448365
 21
7.1128979945
  0
SPLINE
  5
587
100
AcDbEntity
  8
0
100
AcDbSpline
 62
7
  6
CONTINUOUS
 70
0
 71
3
 72
10
 73
6
 74
0
 42
0.0000001
 43
0.0000001
 44
0.0000000001
 40
0.0
 40
0.0
 40
0.0
 40
0.0
 40
0.2177157728
 40
0.4640860695
 40
1.0
 40
1.0
 40
1.0
 40
1.0
 10
16.1753448365
 20
7.1128979945
 30
0.0
 10
16.1758468896
 20
7.1127377677
 30
0.0
 10
16.176901567
 20
7.1123476954
 30
0.0
 10
16.1791233999
 20
7.1113857711
 30
0.0
 10
16.1808112491
 20
7.1105218729
 30
0.0
 10
16.1819469514
 20
7.1098949902
 30
0.0
  0
LINE
  5
588
100
AcDbEntity
  8
0
100
AcDbLine
 62
7
  6
CONTINUOUS
 10
16.1819469514
 20
7.1098949902
 11
16.1858847628
 21
7.1075160601
  0
LINE
  5
589
100
AcDbEntity
  8
0
100
AcDbLine
 62
7
  6
CONTINUOUS
 10
16.1858847628
 20
7.1075160601
 11
16.1890643379
 21
7.1051982148
  0
LINE
  5
58A
100
AcDbEntity
  8
0
100
AcDbLine
 62
7
  6
CONTINUOUS
 10
16.1890643379
 20
7.1051982148
 11
16.1910121536
 21
7.1033219802
  0
LINE
  5
58B
100
AcDbEntity
  8
0
100
AcDbLine
 62
7
  6
CONTINUOUS
 10
16.1910121536
 20
7.1033219802
 11
16.1915210618
 21
7.1023056562
  0
LINE
  5
58C
100
AcDbEntity
  8
0
100
AcDbLine
 62
7
  6
CONTINUOUS
 10
15.8974736668
 20
7.1948483148
 11
15.8924736668
 21
7.1949375092
  0
LINE
  5
58D
100
AcDbEntity
  8
0
100
AcDbLine
 62
7
  6
CONTINUOUS
 10
15.553568062
 20
7.0782814762
 11
15.5543707055
 21
7.079572989
  0
LINE
  5
58E
100
AcDbEntity
  8
0
100
AcDbLine
 62
7
  6
CONTINUOUS
 10
15.5543707055
 20
7.079572989
 11
15.5559012527
 21
7.0813530466
  0
SPLINE
  5
58F
100
AcDbEntity
  8
0
100
AcDbSpline
 62
7
  6
CONTINUOUS
 70
0
 71
3
 72
12
 73
8
 74
0
 42
0.0000001
 43
0.0000001
 44
0.0000000001
 40
0.0
 40
0.0
 40
0.0
 40
0.0
 40
0.0578126951
 40
0.1388975496
 40
0.3668812777
 40
0.6618414915
 40
1.0
 40
1.0
 40
1.0
 40
1.0
 10
15.5847645314
 20
7.0939176572
 30
0.0
 10
15.584765144
 20
7.0938829293
 30
0.0
 10
15.5847390741
 20
7.0938004462
 30
0.0
 10
15.5846217505
 20
7.093613932
 30
0.0
 10
15.5843713821
 20
7.093347268
 30
0.0
 10
15.5839831515
 20
7.0930059114
 30
0.0
 10
15.5836801319
 20
7.0927751215
 30
0.0
 10
15.583515332
 20
7.0926563111
 30
0.0
  0
SPLINE
  5
590
100
AcDbEntity
  8
0
100
AcDbSpline
 62
7
  6
CONTINUOUS
 70
0
 71
3
 72
14
 73
10
 74
0
 42
0.0000001
 43
0.0000001
 44
0.0000000001
 40
0.0
 40
0.0
 40
0.0
 40
0.0
 40
0.1170304711
 40
0.1610975743
 40
0.21169182
 40
0.3319842942
 40
0.4756495507
 40
0.6393231401
 40
1.0
 40
1.0
 40
1.0
 40
1.0
 10
15.8867025513
 20
7.1745653342
 30
0.0
 10
15.8867025513
 20
7.1743547889
 30
0.0
 10
15.8864417018
 20
7.1741103328
 30
0.0
 10
15.8861212126
 20
7.1739231338
 30
0.0
 10
15.8857684718
 20
7.1737571167
 30
0.0
 10
15.8852321516
 20
7.1735766908
 30
0.0
 10
15.8844823537
 20
7.1733986287
 30
0.0
 10
15.8832950233
 20
7.1732094219
 30
0.0
 10
15.8823513226
 20
7.1731435655
 30
0.0
 10
15.8817025513
 20
7.1731316432
 30
0.0
  0
LINE
  5
591
100
AcDbEntity
  8
0
100
AcDbLine
 62
7
  6
CONTINUOUS
 10
15.6009496752
 20
7.1134582165
 11
15.5998620246
 21
7.1128793283
  0
SPLINE
  5
592
100
AcDbEntity
  8
0
100
AcDbSpline
 62
7
  6
CONTINUOUS
 70
0
 71
3
 72
13
 73
9
 74
0
 42
0.0000001
 43
0.0000001
 44
0.0000000001
 40
0.0
 40
0.0
 40
0.0
 40
0.0
 40
0.3125128826
 40
0.5979335449
 40
0.722603073
 40
0.8321687855
 40
0.924990676
 40
1.0
 40
1.0
 40
1.0
 40
1.0
 10
15.8617025513
 20
7.1724224584
 30
0.0
 10
15.8597457102
 20
7.1723196019
 30
0.0
 10
15.8559936863
 20
7.1722553811
 30
0.0
 10
15.8514637054
 20
7.1725169861
 30
0.0
 10
15.8482339668
 20
7.172959639
 30
0.0
 10
15.846222111
 20
7.1733676666
 30
0.0
 10
15.844550132
 20
7.1738531624
 30
0.0
 10
15.843574644
 20
7.1742611845
 30
0.0
 10
15.8431620551
 20
7.174486972
 30
0.0
  0
SPLINE
  5
593
100
AcDbEntity
  8
0
100
AcDbSpline
 62
7
  6
CONTINUOUS
 70
0
 71
3
 72
13
 73
9
 74
0
 42
0.0000001
 43
0.0000001
 44
0.0000000001
 40
0.0
 40
0.0
 40
0.0
 40
0.0
 40
0.2884439292
 40
0.5791925972
 40
0.7134441434
 40
0.83249884
 40
0.9301517685
 40
1.0
 40
1.0
 40
1.0
 40
1.0
 10
15.596495906
 20
7.101739112
 30
0.0
 10
15.5961497117
 20
7.1015040869
 30
0.0
 10
15.5954373772
 20
7.101057321
 30
0.0
 10
15.5945260119
 20
7.1005644155
 30
0.0
 10
15.5938085431
 20
7.1002353201
 30
0.0
 10
15.5933332794
 20
7.1000502526
 30
0.0
 10
15.5929347648
 20
7.0999339567
 30
0.0
 10
15.592691754
 20
7.0998942637
 30
0.0
 10
15.5925905347
 20
7.099898913
 30
0.0
  0
LINE
  5
594
100
AcDbEntity
  8
0
100
AcDbLine
 62
7
  6
CONTINUOUS
 10
15.5925905347
 20
7.099898913
 11
15.5866433943
 21
7.0999263793
  0
SPLINE
  5
595
100
AcDbEntity
  8
0
100
AcDbSpline
 62
9
  6
CONTINUOUS
 70
0
 71
3
 72
20
 73
16
 74
0
 42
0.0000001
 43
0.0000001
 44
0.0000000001
 40
0.0
 40
0.0
 40
0.0
 40
0.0
 40
0.0520780918
 40
0.1045386443
 40
0.1577845751
 40
0.2121889155
 40
0.2680683596
 40
0.325647768
 40
0.3850865556
 40
0.4464848314
 40
0.5750582002
 40
0.6422244428
 40
0.7111323418
 40
0.8534525887
 40
1.0
 40
1.0
 40
1.0
 40
1.0
 10
15.1269507752
 20
6.7664962842
 30
0.0
 10
15.1289229541
 20
6.766005051
 30
0.0
 10
15.1328244835
 20
6.7647693982
 30
0.0
 10
15.1384289562
 20
6.7621820133
 30
0.0
 10
15.1437544477
 20
6.7588846061
 30
0.0
 10
15.1487610556
 20
6.7549042982
 30
0.0
 10
15.1534101863
 20
6.7502704445
 30
0.0
 10
15.1576708831
 20
6.7450232617
 30
0.0
 10
15.1615102827
 20
6.739201064
 30
0.0
 10
15.1660929247
 20
6.7306010493
 30
0.0
 10
15.1696278386
 20
6.7211514988
 30
0.0
 10
15.1721227726
 20
6.7111226889
 30
0.0
 10
15.1739727938
 20
6.7004071354
 30
0.0
 10
15.1748839642
 20
6.6864301144
 30
0.0
 10
15.1741742107
 20
6.675145363
 30
0.0
 10
15.1734666003
 20
6.6694700418
 30
0.0
  0
SPLINE
  5
596
100
AcDbEntity
  8
0
100
AcDbSpline
 62
7
  6
CONTINUOUS
 70
0
 71
3
 72
11
 73
7
 74
0
 42
0.0000001
 43
0.0000001
 44
0.0000000001
 40
0.0
 40
0.0
 40
0.0
 40
0.0
 40
0.3421657047
 40
0.5998880733
 40
0.8006552934
 40
1.0
 40
1.0
 40
1.0
 40
1.0
 10
15.5866433943
 20
7.0999263793
 30
0.0
 10
15.5865121244
 20
7.0999215626
 30
0.0
 10
15.5862809591
 20
7.0999278035
 30
0.0
 10
15.5859780308
 20
7.100005209
 30
0.0
 10
15.5857756493
 20
7.1001783888
 30
0.0
 10
15.5857418672
 20
7.1003387965
 30
0.0
 10
15.5857418693
 20
7.1004153254
 30
0.0
  0
LINE
  5
597
100
AcDbEntity
  8
0
100
AcDbLine
 62
7
  6
CONTINUOUS
 10
15.6085690846
 20
7.1101984451
 11
15.607973037
 21
7.1094400941
  0
LINE
  5
598
100
AcDbEntity
  8
0
100
AcDbLine
 62
7
  6
CONTINUOUS
 10
15.607973037
 20
7.1094400941
 11
15.6066949284
 21
7.1085010925
  0
LINE
  5
599
100
AcDbEntity
  8
0
100
AcDbLine
 62
7
  6
CONTINUOUS
 10
15.5828712384
 20
7.099971794
 11
15.5818484311
 21
7.0994420848
  0
LINE
  5
59A
100
AcDbEntity
  8
0
100
AcDbLine
 62
7
  6
CONTINUOUS
 10
15.5818484311
 20
7.0994420848
 11
15.5812344172
 21
7.0990185407
  0
LINE
  5
59B
100
AcDbEntity
  8
0
100
AcDbLine
 62
7
  6
CONTINUOUS
 10
15.5812344172
 20
7.0990185407
 11
15.5806723218
 21
7.0986297507
  0
LINE
  5
59C
100
AcDbEntity
  8
0
100
AcDbLine
 62
7
  6
CONTINUOUS
 10
15.5772335796
 20
7.096229067
 11
15.5761225563
 21
7.0954452249
  0
LINE
  5
59D
100
AcDbEntity
  8
0
100
AcDbLine
 62
7
  6
CONTINUOUS
 10
15.5761225563
 20
7.0954452249
 11
15.5749371981
 21
7.0946044851
  0
LINE
  5
59E
100
AcDbEntity
  8
0
100
AcDbLine
 62
7
  6
CONTINUOUS
 10
15.5739342505
 20
7.0934684009
 11
15.5736331848
 21
7.0931243321
  0
SPLINE
  5
59F
100
AcDbEntity
  8
0
100
AcDbSpline
 62
9
  6
CONTINUOUS
 70
0
 71
3
 72
21
 73
17
 74
0
 42
0.0000001
 43
0.0000001
 44
0.0000000001
 40
0.0
 40
0.0
 40
0.0
 40
0.0
 40
0.0287918509
 40
0.0566438402
 40
0.1106778844
 40
0.1643756716
 40
0.219356983
 40
0.2476528436
 40
0.2765718478
 40
0.3363393233
 40
0.3984741853
 40
0.4625298017
 40
0.59482862
 40
0.7300157989
 40
0.8653044444
 40
1.0
 40
1.0
 40
1.0
 40
1.0
 10
15.4811549623
 20
6.6781698223
 30
0.0
 10
15.4821589343
 20
6.6779201937
 30
0.0
 10
15.4841140805
 20
6.6773418585
 30
0.0
 10
15.48780832
 20
6.6758564708
 30
0.0
 10
15.4920484794
 20
6.6733926001
 30
0.0
 10
15.4965013834
 20
6.6695613107
 30
0.0
 10
15.4996928097
 20
6.6657910936
 30
0.0
 10
15.5019903736
 20
6.66247638
 30
0.0
 10
15.5041817602
 20
6.6588869511
 30
0.0
 10
15.5066415496
 20
6.6540482678
 30
0.0
 10
15.5091589776
 20
6.6478520601
 30
0.0
 10
15.5120407241
 20
6.6390159047
 30
0.0
 10
15.5146767582
 20
6.6273709204
 30
0.0
 10
15.5164948365
 20
6.6129952126
 30
0.0
 10
15.5171242128
 20
6.5984364793
 30
0.0
 10
15.5168802122
 20
6.5887316831
 30
0.0
 10
15.5166255678
 20
6.5838985444
 30
0.0
  0
SPLINE
  5
5A0
100
AcDbEntity
  8
0
100
AcDbSpline
 62
7
  6
CONTINUOUS
 70
0
 71
3
 72
11
 73
7
 74
0
 42
0.0000001
 43
0.0000001
 44
0.0000000001
 40
0.0
 40
0.0
 40
0.0
 40
0.0
 40
0.188785508
 40
0.3997408955
 40
0.6646730994
 40
1.0
 40
1.0
 40
1.0
 40
1.0
 10
16.1915058278
 20
7.102187194
 30
0.0
 10
16.1914900431
 20
7.1021303703
 30
0.0
 10
16.191424343
 20
7.1020166744
 30
0.0
 10
16.1912415865
 20
7.1019063113
 30
0.0
 10
16.1909925026
 20
7.1018487906
 30
0.0
 10
16.1908041643
 20
7.1018427992
 30
0.0
 10
16.1906994466
 20
7.1018455496
 30
0.0
  0
LINE
  5
5A1
100
AcDbEntity
  8
0
100
AcDbLine
 62
7
  6
CONTINUOUS
 10
16.2353876512
 20
7.0838572169
 11
16.232522104
 21
7.0854759651
  0
LINE
  5
5A2
100
AcDbEntity
  8
0
100
AcDbLine
 62
7
  6
CONTINUOUS
 10
16.232047069
 20
7.085761336
 11
16.2288761581
 21
7.087751099
  0
LINE
  5
5A3
100
AcDbEntity
  8
0
100
AcDbLine
 62
7
  6
CONTINUOUS
 10
16.2203621038
 20
7.0935336895
 11
16.2196162509
 21
7.0941186011
  0
LINE
  5
5A4
100
AcDbEntity
  8
0
100
AcDbLine
 62
7
  6
CONTINUOUS
 10
16.1705263878
 20
7.11209258
 11
16.1708851373
 21
7.1116268851
  0
LINE
  5
5A5
100
AcDbEntity
  8
0
100
AcDbLine
 62
7
  6
CONTINUOUS
 10
16.1708851373
 20
7.1116268851
 11
16.1717119123
 21
7.1110215379
  0
LINE
  5
5A6
100
AcDbEntity
  8
0
100
AcDbLine
 62
7
  6
CONTINUOUS
 10
15.5807224472
 20
7.0906297823
 11
15.5800072607
 21
7.0901066268
  0
SPLINE
  5
5A7
100
AcDbEntity
  8
0
100
AcDbSpline
 62
7
  6
CONTINUOUS
 70
0
 71
3
 72
11
 73
7
 74
0
 42
0.0000001
 43
0.0000001
 44
0.0000000001
 40
0.0
 40
0.0
 40
0.0
 40
0.0
 40
0.2140825337
 40
0.4204561079
 40
0.6718300874
 40
1.0
 40
1.0
 40
1.0
 40
1.0
 10
16.2201606335
 20
7.0823011471
 30
0.0
 10
16.2201605815
 20
7.0822029171
 30
0.0
 10
16.220123942
 20
7.0820024531
 30
0.0
 10
16.2198930873
 20
7.0817746517
 30
0.0
 10
16.219540545
 20
7.0816665423
 30
0.0
 10
16.2192731111
 20
7.0816576226
 30
0.0
 10
16.2191226519
 20
7.0816636052
 30
0.0
  0
LINE
  5
5A8
100
AcDbEntity
  8
0
100
AcDbLine
 62
7
  6
CONTINUOUS
 10
15.5751706774
 20
7.0865230447
 11
15.5721593067
 21
7.0847245835
  0
LINE
  5
5A9
100
AcDbEntity
  8
0
100
AcDbLine
 62
7
  6
CONTINUOUS
 10
15.5721593067
 20
7.0847245835
 11
15.571265306
 21
7.0844879021
  0
LINE
  5
5AA
100
AcDbEntity
  8
0
100
AcDbLine
 62
7
  6
CONTINUOUS
 10
16.2433339733
 20
7.0823621421
 11
16.2428724721
 21
7.0826965683
  0
LINE
  5
5AB
100
AcDbEntity
  8
0
100
AcDbLine
 62
7
  6
CONTINUOUS
 10
16.1933652111
 20
7.0967434159
 11
16.1937281733
 21
7.0962205435
  0
LINE
  5
5AC
100
AcDbEntity
  8
0
100
AcDbLine
 62
7
  6
CONTINUOUS
 10
16.1937281733
 20
7.0962205435
 11
16.1945505488
 21
7.0955503807
  0
LINE
  5
5AD
100
AcDbEntity
  8
0
100
AcDbLine
 62
7
  6
CONTINUOUS
 10
16.2428724721
 20
7.0826965683
 11
16.239481915
 21
7.0845721399
  0
SPLINE
  5
5AE
100
AcDbEntity
  8
0
100
AcDbSpline
 62
7
  6
CONTINUOUS
 70
0
 71
3
 72
11
 73
7
 74
0
 42
0.0000001
 43
0.0000001
 44
0.0000000001
 40
0.0
 40
0.0
 40
0.0
 40
0.0
 40
0.1637988886
 40
0.3861850566
 40
0.6666731481
 40
1.0
 40
1.0
 40
1.0
 40
1.0
 10
16.2286855452
 20
7.0780319089
 30
0.0
 10
16.2286854622
 20
7.0782719461
 30
0.0
 10
16.2285263417
 20
7.0788313348
 30
0.0
 10
16.2280541979
 20
7.079686932
 30
0.0
 10
16.2273310661
 20
7.0806803364
 30
0.0
 10
16.2267430441
 20
7.0813615963
 30
0.0
 10
16.2264141254
 20
7.081722727
 30
0.0
  0
SPLINE
  5
5AF
100
AcDbEntity
  8
0
100
AcDbSpline
 62
7
  6
CONTINUOUS
 70
0
 71
3
 72
9
 73
5
 74
0
 42
0.0000001
 43
0.0000001
 44
0.0000000001
 40
0.0
 40
0.0
 40
0.0
 40
0.0
 40
0.4628163088
 40
1.0
 40
1.0
 40
1.0
 40
1.0
 10
16.2264141254
 20
7.081722727
 30
0.0
 10
16.2257142871
 20
7.0824911024
 30
0.0
 10
16.2241099685
 20
7.0840669748
 30
0.0
 10
16.2224103298
 20
7.0855360191
 30
0.0
 10
16.2214794671
 20
7.0863032823
 30
0.0
  0
LINE
  5
5B0
100
AcDbEntity
  8
0
100
AcDbLine
 62
7
  6
CONTINUOUS
 10
16.2214794671
 20
7.0863032823
 11
16.2181645689
 21
7.0888986663
  0
SPLINE
  5
5B1
100
AcDbEntity
  8
0
100
AcDbSpline
 62
7
  6
CONTINUOUS
 70
0
 71
3
 72
10
 73
6
 74
0
 42
0.0000001
 43
0.0000001
 44
0.0000000001
 40
0.0
 40
0.0
 40
0.0
 40
0.0
 40
0.1953984637
 40
0.4287812942
 40
1.0
 40
1.0
 40
1.0
 40
1.0
 10
16.2285035044
 20
7.077563363
 30
0.0
 10
16.2284146084
 20
7.0777793693
 30
0.0
 10
16.2281762482
 20
7.0782354087
 30
0.0
 10
16.2275131365
 20
7.0792312313
 30
0.0
 10
16.2268898165
 20
7.0799679781
 30
0.0
 10
16.2264311259
 20
7.0804738268
 30
0.0
  0
SPLINE
  5
5B2
100
AcDbEntity
  8
0
100
AcDbSpline
 62
7
  6
CONTINUOUS
 70
0
 71
3
 72
9
 73
5
 74
0
 42
0.0000001
 43
0.0000001
 44
0.0000000001
 40
0.0
 40
0.0
 40
0.0
 40
0.0
 40
0.462734064
 40
1.0
 40
1.0
 40
1.0
 40
1.0
 10
16.2264311259
 20
7.0804738268
 30
0.0
 10
16.2257332149
 20
7.0812434903
 30
0.0
 10
16.2241321549
 20
7.0828222263
 30
0.0
 10
16.2224352858
 20
7.084293951
 30
0.0
 10
16.2215056886
 20
7.0850627486
 30
0.0
  0
LINE
  5
5B3
100
AcDbEntity
  8
0
100
AcDbLine
 62
7
  6
CONTINUOUS
 10
16.2215056886
 20
7.0850627486
 11
16.2181645689
 21
7.0876861273
  0
LINE
  5
5B4
100
AcDbEntity
  8
0
100
AcDbLine
 62
7
  6
CONTINUOUS
 10
16.2023045297
 20
7.1092311324
 11
16.1956394747
 21
7.1129171193
  0
LINE
  5
5B5
100
AcDbEntity
  8
0
100
AcDbLine
 62
7
  6
CONTINUOUS
 10
16.1956394747
 20
7.1129171193
 11
16.1908451619
 21
7.1152508546
  0
LINE
  5
5B6
100
AcDbEntity
  8
0
100
AcDbLine
 62
7
  6
CONTINUOUS
 10
16.1908451619
 20
7.1152508546
 11
16.1886341772
 21
7.1160457232
  0
LINE
  5
5B7
100
AcDbEntity
  8
0
100
AcDbLine
 62
7
  6
CONTINUOUS
 10
16.1886341772
 20
7.1160457232
 11
16.1884128873
 21
7.1160824755
  0
LINE
  5
5B8
100
AcDbEntity
  8
0
100
AcDbLine
 62
7
  6
CONTINUOUS
 10
16.2240197302
 20
7.0941413382
 11
16.2231981771
 21
7.0952245712
  0
LINE
  5
5B9
100
AcDbEntity
  8
0
100
AcDbLine
 62
7
  6
CONTINUOUS
 10
16.2231981771
 20
7.0952245712
 11
16.2204491383
 21
7.0974917274
  0
LINE
  5
5BA
100
AcDbEntity
  8
0
100
AcDbLine
 62
7
  6
CONTINUOUS
 10
16.2193555521
 20
7.0983044252
 11
16.2159772922
 21
7.1006794163
  0
LINE
  5
5BB
100
AcDbEntity
  8
0
100
AcDbLine
 62
7
  6
CONTINUOUS
 10
16.2159772922
 20
7.1006794163
 11
16.2097619545
 21
7.10473372
  0
SPLINE
  5
5BC
100
AcDbEntity
  8
0
100
AcDbSpline
 62
7
  6
CONTINUOUS
 70
0
 71
3
 72
13
 73
9
 74
0
 42
0.0000001
 43
0.0000001
 44
0.0000000001
 40
0.0
 40
0.0
 40
0.0
 40
0.0
 40
0.3422643875
 40
0.4800305767
 40
0.5986082581
 40
0.7027411728
 40
0.7992543349
 40
1.0
 40
1.0
 40
1.0
 40
1.0
 10
15.5626753093
 20
7.084366195
 30
0.0
 10
15.5624426244
 20
7.0843485791
 30
0.0
 10
15.5621122614
 20
7.0843430398
 30
0.0
 10
15.5617095504
 20
7.0844172624
 30
0.0
 10
15.5614776741
 20
7.0845035912
 30
0.0
 10
15.5612946266
 20
7.0846258987
 30
0.0
 10
15.5611172181
 20
7.0848397256
 30
0.0
 10
15.5610734744
 20
7.0850514137
 30
0.0
 10
15.5610734247
 20
7.0851882792
 30
0.0
  0
SPLINE
  5
5BD
100
AcDbEntity
  8
0
100
AcDbSpline
 62
7
  6
CONTINUOUS
 70
0
 71
3
 72
13
 73
9
 74
0
 42
0.0000001
 43
0.0000001
 44
0.0000000001
 40
0.0
 40
0.0
 40
0.0
 40
0.0
 40
0.3392093473
 40
0.6221880835
 40
0.7404828717
 40
0.8426144536
 40
0.928715439
 40
1.0
 40
1.0
 40
1.0
 40
1.0
 10
15.5559012527
 20
7.0825810811
 30
0.0
 10
15.5555339386
 20
7.0821959263
 30
0.0
 10
15.55487818
 20
7.0814720795
 30
0.0
 10
15.5541648145
 20
7.080551929
 30
0.0
 10
15.5537462141
 20
7.0798813075
 30
0.0
 10
15.5535286383
 20
7.0794512877
 30
0.0
 10
15.5533913168
 20
7.0790667308
 30
0.0
 10
15.5533525142
 20
7.0788199698
 30
0.0
 10
15.5533524572
 20
7.0787081231
 30
0.0
  0
SPLINE
  5
5BE
100
AcDbEntity
  8
0
100
AcDbSpline
 62
7
  6
CONTINUOUS
 70
0
 71
3
 72
9
 73
5
 74
0
 42
0.0000001
 43
0.0000001
 44
0.0000000001
 40
0.0
 40
0.0
 40
0.0
 40
0.0
 40
0.4907326169
 40
1.0
 40
1.0
 40
1.0
 40
1.0
 10
15.9175695262
 20
7.1069312459
 30
0.0
 10
15.9135179423
 20
7.1061270121
 30
0.0
 10
15.9051766513
 20
7.1048984219
 30
0.0
 10
15.896760019
 20
7.1044282622
 30
0.0
 10
15.8924736668
 20
7.1043781906
 30
0.0
  0
LINE
  5
5BF
100
AcDbEntity
  8
0
100
AcDbLine
 62
7
  6
CONTINUOUS
 10
16.2043324127
 20
7.0976626111
 11
16.2014321415
 21
7.0991012301
  0
LINE
  5
5C0
100
AcDbEntity
  8
0
100
AcDbLine
 62
7
  6
CONTINUOUS
 10
16.2014321415
 20
7.0991012301
 11
16.1989658948
 21
7.1001677474
  0
LINE
  5
5C1
100
AcDbEntity
  8
0
100
AcDbLine
 62
7
  6
CONTINUOUS
 10
16.1989658948
 20
7.1001677474
 11
16.1973731154
 21
7.1019686102
  0
LINE
  5
5C2
100
AcDbEntity
  8
0
100
AcDbLine
 62
7
  6
CONTINUOUS
 10
16.1970764324
 20
7.1022465137
 11
16.1941038925
 21
7.1046859535
  0
LINE
  5
5C3
100
AcDbEntity
  8
0
100
AcDbLine
 62
7
  6
CONTINUOUS
 10
16.1935774757
 20
7.105076447
 11
16.1907656025
 21
7.1070316985
  0
LINE
  5
5C4
100
AcDbEntity
  8
0
100
AcDbLine
 62
7
  6
CONTINUOUS
 10
16.1849101324
 20
7.110592692
 11
16.1791509046
 21
7.1135391281
  0
SPLINE
  5
5C5
100
AcDbEntity
  8
0
100
AcDbSpline
 62
7
  6
CONTINUOUS
 70
0
 71
3
 72
9
 73
5
 74
0
 42
0.0000001
 43
0.0000001
 44
0.0000000001
 40
0.0
 40
0.0
 40
0.0
 40
0.0
 40
0.5458315902
 40
1.0
 40
1.0
 40
1.0
 40
1.0
 10
16.1791509046
 20
7.1135391281
 30
0.0
 10
16.1781519933
 20
7.1139988962
 30
0.0
 10
16.1763016659
 20
7.1147972196
 30
0.0
 10
16.1743977758
 20
7.1154684104
 30
0.0
 10
16.1735155448
 20
7.1157109957
 30
0.0
  0
LINE
  5
5C6
100
AcDbEntity
  8
0
100
AcDbLine
 62
7
  6
CONTINUOUS
 10
16.1735155448
 20
7.1157109957
 11
16.1716215121
 21
7.1160708987
  0
LINE
  5
5C7
100
AcDbEntity
  8
0
100
AcDbLine
 62
7
  6
CONTINUOUS
 10
15.8924736668
 20
7.1043781906
 11
15.8911517722
 21
7.104368789
  0
SPLINE
  5
5C8
100
AcDbEntity
  8
0
100
AcDbSpline
 62
7
  6
CONTINUOUS
 70
0
 71
3
 72
9
 73
5
 74
0
 42
0.0000001
 43
0.0000001
 44
0.0000000001
 40
0.0
 40
0.0
 40
0.0
 40
0.0
 40
0.5093073384
 40
1.0
 40
1.0
 40
1.0
 40
1.0
 10
15.8911517722
 20
7.104368789
 30
0.0
 10
15.8866427557
 20
7.1043572683
 30
0.0
 10
15.8777835639
 20
7.1047456378
 30
0.0
 10
15.8689991635
 20
7.1059717459
 30
0.0
 10
15.8647340181
 20
7.1067968967
 30
0.0
  0
SPLINE
  5
5C9
100
AcDbEntity
  8
0
100
AcDbSpline
 62
7
  6
CONTINUOUS
 70
0
 71
3
 72
15
 73
11
 74
0
 42
0.0000001
 43
0.0000001
 44
0.0000000001
 40
0.0
 40
0.0
 40
0.0
 40
0.0
 40
0.171733648
 40
0.3308066678
 40
0.474864386
 40
0.6037581599
 40
0.7182376041
 40
0.8202150574
 40
0.9126932735
 40
1.0
 40
1.0
 40
1.0
 40
1.0
 10
15.8647340181
 20
7.1067968967
 30
0.0
 10
15.8626827782
 20
7.1071937371
 30
0.0
 10
15.8587632786
 20
7.1081380958
 30
0.0
 10
15.8532978498
 20
7.1100415315
 30
0.0
 10
15.8485503772
 20
7.112326881
 30
0.0
 10
15.8445932469
 20
7.1149166058
 30
0.0
 10
15.8414629749
 20
7.1177495004
 30
0.0
 10
15.8391856186
 20
7.1207742252
 30
0.0
 10
15.8377902442
 20
7.1239428519
 30
0.0
 10
15.8374725033
 20
7.1261409666
 30
0.0
 10
15.8374727505
 20
7.1272031214
 30
0.0
  0
SPLINE
  5
5CA
100
AcDbEntity
  8
0
100
AcDbSpline
 62
7
  6
CONTINUOUS
 70
0
 71
3
 72
13
 73
9
 74
0
 42
0.0000001
 43
0.0000001
 44
0.0000000001
 40
0.0
 40
0.0
 40
0.0
 40
0.0
 40
0.0750082338
 40
0.1678307002
 40
0.2774049027
 40
0.4020904623
 40
0.6875071904
 40
1.0
 40
1.0
 40
1.0
 40
1.0
 10
15.9417852785
 20
7.174486972
 30
0.0
 10
15.9413726955
 20
7.1742611877
 30
0.0
 10
15.9403972169
 20
7.1738531526
 30
0.0
 10
15.9387251887
 20
7.1733676417
 30
0.0
 10
15.9367131716
 20
7.1729596117
 30
0.0
 10
15.9334832955
 20
7.1725170194
 30
0.0
 10
15.9289533731
 20
7.1722552905
 30
0.0
 10
15.9252014979
 20
7.1723196085
 30
0.0
 10
15.9232447822
 20
7.1724224584
 30
0.0
  0
SPLINE
  5
5CB
100
AcDbEntity
  8
0
100
AcDbSpline
 62
7
  6
CONTINUOUS
 70
0
 71
3
 72
14
 73
10
 74
0
 42
0.0000001
 43
0.0000001
 44
0.0000000001
 40
0.0
 40
0.0
 40
0.0
 40
0.0
 40
0.3609023657
 40
0.5246472144
 40
0.6683134667
 40
0.7885440909
 40
0.8390913883
 40
0.8831116328
 40
1.0
 40
1.0
 40
1.0
 40
1.0
 10
15.9004736668
 20
7.1731760148
 30
0.0
 10
15.8998251085
 20
7.1731848662
 30
0.0
 10
15.898881545
 20
7.1732462607
 30
0.0
 10
15.8976940327
 20
7.1734297989
 30
0.0
 10
15.8969441858
 20
7.1736042827
 30
0.0
 10
15.8964078234
 20
7.1737821627
 30
0.0
 10
15.8960550824
 20
7.1739466009
 30
0.0
 10
15.8957346443
 20
7.1741322288
 30
0.0
 10
15.8954736668
 20
7.174375944
 30
0.0
 10
15.8954736668
 20
7.1745860174
 30
0.0
  0
SPLINE
  5
5CC
100
AcDbEntity
  8
0
100
AcDbSpline
 62
7
  6
CONTINUOUS
 70
0
 71
3
 72
10
 73
6
 74
0
 42
0.0000001
 43
0.0000001
 44
0.0000000001
 40
0.0
 40
0.0
 40
0.0
 40
0.0
 40
0.2504400038
 40
0.4813209329
 40
1.0
 40
1.0
 40
1.0
 40
1.0
 10
15.5610734248
 20
7.0839666874
 30
0.0
 10
15.5610734576
 20
7.0838766817
 30
0.0
 10
15.5610952285
 20
7.0837015895
 30
0.0
 10
15.5612706899
 20
7.0833771382
 30
0.0
 10
15.5615362226
 20
7.0832487386
 30
0.0
 10
15.561716126
 20
7.0831999245
 30
0.0
  0
LINE
  5
5CD
100
AcDbEntity
  8
0
100
AcDbLine
 62
7
  6
CONTINUOUS
 10
15.561716126
 20
7.0831999245
 11
15.5626753093
 21
7.0831425791
  0
SPLINE
  5
5CE
100
AcDbEntity
  8
0
100
AcDbSpline
 62
7
  6
CONTINUOUS
 70
0
 71
3
 72
15
 73
11
 74
0
 42
0.0000001
 43
0.0000001
 44
0.0000000001
 40
0.0
 40
0.0
 40
0.0
 40
0.0
 40
0.1661182203
 40
0.3213790687
 40
0.4639279504
 40
0.593488107
 40
0.7104222305
 40
0.8158535216
 40
0.9115405974
 40
1.0
 40
1.0
 40
1.0
 40
1.0
 10
15.9175695262
 20
7.1057608578
 30
0.0
 10
15.9192633391
 20
7.1060978358
 30
0.0
 10
15.9225153051
 20
7.1068857172
 30
0.0
 10
15.9270890883
 20
7.1084380723
 30
0.0
 10
15.9311393789
 20
7.1102848799
 30
0.0
 10
15.9346153493
 20
7.1123720349
 30
0.0
 10
15.9374888871
 20
7.1146562472
 30
0.0
 10
15.9397402169
 20
7.1170997752
 30
0.0
 10
15.9413505234
 20
7.1196654554
 30
0.0
 10
15.9420047147
 20
7.1214858076
 30
0.0
 10
15.9422064535
 20
7.1223830543
 30
0.0
  0
SPLINE
  5
5CF
100
AcDbEntity
  8
0
100
AcDbSpline
 62
7
  6
CONTINUOUS
 70
0
 71
3
 72
9
 73
5
 74
0
 42
0.0000001
 43
0.0000001
 44
0.0000000001
 40
0.0
 40
0.0
 40
0.0
 40
0.0
 40
0.2607811842
 40
1.0
 40
1.0
 40
1.0
 40
1.0
 10
15.9189501432
 20
7.1543894603
 30
0.0
 10
15.9202122122
 20
7.1541016439
 30
0.0
 10
15.9250331679
 20
7.1529195084
 30
0.0
 10
15.9297791409
 20
7.1514195022
 30
0.0
 10
15.9332037806
 20
7.1501019363
 30
0.0
  0
SPLINE
  5
5D0
100
AcDbEntity
  8
0
100
AcDbSpline
 62
7
  6
CONTINUOUS
 70
0
 71
3
 72
15
 73
11
 74
0
 42
0.0000001
 43
0.0000001
 44
0.0000000001
 40
0.0
 40
0.0
 40
0.0
 40
0.0
 40
0.162315289
 40
0.3122229657
 40
0.4498901762
 40
0.5760501964
 40
0.6920050792
 40
0.7996327697
 40
0.9013501932
 40
1.0
 40
1.0
 40
1.0
 40
1.0
 10
15.9332037806
 20
7.1501019363
 30
0.0
 10
15.935424663
 20
7.1492474934
 30
0.0
 10
15.9396341451
 20
7.147432472
 30
0.0
 10
15.945430487
 20
7.1442637091
 30
0.0
 10
15.9504240302
 20
7.1407974624
 30
0.0
 10
15.9545859807
 20
7.1370748831
 30
0.0
 10
15.9578972269
 20
7.1331343431
 30
0.0
 10
15.9603428076
 20
7.1290119065
 30
0.0
 10
15.9619095472
 20
7.1247492137
 30
0.0
 10
15.9623649503
 20
7.1218238957
 30
0.0
 10
15.9624424731
 20
7.120379747
 30
0.0
  0
LINE
  5
5D1
100
AcDbEntity
  8
0
100
AcDbLine
 62
7
  6
CONTINUOUS
 10
15.8384585139
 20
7.1502176634
 11
15.8378043447
 21
7.1500810044
  0
LINE
  5
5D2
100
AcDbEntity
  8
0
100
AcDbLine
 62
7
  6
CONTINUOUS
 10
15.8239681211
 20
7.1469894579
 11
15.8224736668
 21
7.146632405
  0
LINE
  5
5D3
100
AcDbEntity
  8
0
100
AcDbLine
 62
7
  6
CONTINUOUS
 10
15.6005609925
 20
7.0829098194
 11
15.6005859195
 21
7.0826429314
  0
LINE
  5
5D4
100
AcDbEntity
  8
0
100
AcDbLine
 62
7
  6
CONTINUOUS
 10
15.5857418733
 20
7.099230184
 11
15.5859474544
 21
7.0988599002
  0
LINE
  5
5D5
100
AcDbEntity
  8
0
100
AcDbLine
 62
7
  6
CONTINUOUS
 10
15.5859474544
 20
7.0988599002
 11
15.5866433943
 21
7.0987399707
  0
SPLINE
  5
5D6
100
AcDbEntity
  8
0
100
AcDbSpline
 62
7
  6
CONTINUOUS
 70
0
 71
3
 72
11
 73
7
 74
0
 42
0.0000001
 43
0.0000001
 44
0.0000000001
 40
0.0
 40
0.0
 40
0.0
 40
0.0
 40
0.2605036024
 40
0.5112657395
 40
0.7562858482
 40
1.0
 40
1.0
 40
1.0
 40
1.0
 10
15.8272355715
 20
7.1379572313
 30
0.0
 10
15.8264580144
 20
7.1367652241
 30
0.0
 10
15.8250800925
 20
7.1343239746
 30
0.0
 10
15.8235710811
 20
7.1304624193
 30
0.0
 10
15.8226698628
 20
7.1265091232
 30
0.0
 10
15.8224734845
 20
7.1238345831
 30
0.0
 10
15.8224735988
 20
7.1225031156
 30
0.0
  0
SPLINE
  5
5D7
100
AcDbEntity
  8
0
100
AcDbSpline
 62
7
  6
CONTINUOUS
 70
0
 71
3
 72
9
 73
5
 74
0
 42
0.0000001
 43
0.0000001
 44
0.0000000001
 40
0.0
 40
0.0
 40
0.0
 40
0.0
 40
0.4907318546
 40
1.0
 40
1.0
 40
1.0
 40
1.0
 10
15.9175695262
 20
7.1057608578
 30
0.0
 10
15.9135181826
 20
7.1049548574
 30
0.0
 10
15.9051770059
 20
7.1037234816
 30
0.0
 10
15.8967601434
 20
7.1032522003
 30
0.0
 10
15.8924736667
 20
7.1032020132
 30
0.0
  0
SPLINE
  5
5D8
100
AcDbEntity
  8
0
100
AcDbSpline
 62
7
  6
CONTINUOUS
 70
0
 71
3
 72
9
 73
5
 74
0
 42
0.0000001
 43
0.0000001
 44
0.0000000001
 40
0.0
 40
0.0
 40
0.0
 40
0.0
 40
0.5092882145
 40
1.0
 40
1.0
 40
1.0
 40
1.0
 10
15.8924736667
 20
7.1032020132
 30
0.0
 10
15.8877408715
 20
7.1031466005
 30
0.0
 10
15.8784369947
 20
7.1034916022
 30
0.0
 10
15.8692111089
 20
7.1047580957
 30
0.0
 10
15.8647340181
 20
7.1056262054
 30
0.0
  0
SPLINE
  5
5D9
100
AcDbEntity
  8
0
100
AcDbSpline
 62
7
  6
CONTINUOUS
 70
0
 71
3
 72
15
 73
11
 74
0
 42
0.0000001
 43
0.0000001
 44
0.0000000001
 40
0.0
 40
0.0
 40
0.0
 40
0.0
 40
0.1661927284
 40
0.321533106
 40
0.4641325187
 40
0.593711277
 40
0.7106331762
 40
0.816020009
 40
0.9116337726
 40
1.0
 40
1.0
 40
1.0
 40
1.0
 10
15.9175695262
 20
7.1069312459
 30
0.0
 10
15.9192630061
 20
7.1072673993
 30
0.0
 10
15.9225145213
 20
7.1080534763
 30
0.0
 10
15.9270880579
 20
7.1096021023
 30
0.0
 10
15.9311384121
 20
7.1114446119
 30
0.0
 10
15.9346143969
 20
7.1135271008
 30
0.0
 10
15.9374880585
 20
7.1158061751
 30
0.0
 10
15.9397396715
 20
7.1182443045
 30
0.0
 10
15.9413502718
 20
7.1208046352
 30
0.0
 10
15.9420046684
 20
7.1226216273
 30
0.0
 10
15.9422064535
 20
7.1235171829
 30
0.0
  0
SPLINE
  5
5DA
100
AcDbEntity
  8
0
100
AcDbSpline
 62
7
  6
CONTINUOUS
 70
0
 71
3
 72
15
 73
11
 74
0
 42
0.0000001
 43
0.0000001
 44
0.0000000001
 40
0.0
 40
0.0
 40
0.0
 40
0.0
 40
0.0991523947
 40
0.2006972218
 40
0.3077746245
 40
0.4231617534
 40
0.5489454849
 40
0.6865269442
 40
0.836801904
 40
1.0
 40
1.0
 40
1.0
 40
1.0
 10
15.9624723602
 20
7.1203542835
 30
0.0
 10
15.9624725205
 20
7.1218372181
 30
0.0
 10
15.9621620023
 20
7.1248482229
 30
0.0
 10
15.9607506485
 20
7.1292607134
 30
0.0
 10
15.9584035609
 20
7.1335316716
 30
0.0
 10
15.9551342061
 20
7.1376148239
 30
0.0
 10
15.9509621461
 20
7.1414731075
 30
0.0
 10
15.9459075837
 20
7.1450656253
 30
0.0
 10
15.9399989557
 20
7.1483448347
 30
0.0
 10
15.9356928709
 20
7.1502179193
 30
0.0
 10
15.9334164041
 20
7.151098402
 30
0.0
  0
SPLINE
  5
5DB
100
AcDbEntity
  8
0
100
AcDbSpline
 62
7
  6
CONTINUOUS
 70
0
 71
3
 72
9
 73
5
 74
0
 42
0.0000001
 43
0.0000001
 44
0.0000000001
 40
0.0
 40
0.0
 40
0.0
 40
0.0
 40
0.4855532473
 40
1.0
 40
1.0
 40
1.0
 40
1.0
 10
15.9334164041
 20
7.151098402
 30
0.0
 10
15.9311341013
 20
7.1519811419
 30
0.0
 10
15.9263574274
 20
7.1536054718
 30
0.0
 10
15.9214781625
 20
7.1548843041
 30
0.0
 10
15.9189501432
 20
7.1554597365
 30
0.0
  0
LINE
  5
5DC
100
AcDbEntity
  8
0
100
AcDbLine
 62
7
  6
CONTINUOUS
 10
15.9424736668
 20
7.1886208546
 11
15.9397096431
 21
7.1880857603
  0
LINE
  5
5DD
100
AcDbEntity
  8
0
100
AcDbLine
 62
7
  6
CONTINUOUS
 10
15.9397096431
 20
7.1880857603
 11
15.9352613609
 21
7.1877776157
  0
LINE
  5
5DE
100
AcDbEntity
  8
0
100
AcDbLine
 62
7
  6
CONTINUOUS
 10
15.9352613609
 20
7.1877776157
 11
15.9295888565
 21
7.1877234747
  0
SPLINE
  5
5DF
100
AcDbEntity
  8
0
100
AcDbSpline
 62
7
  6
CONTINUOUS
 70
0
 71
3
 72
15
 73
11
 74
0
 42
0.0000001
 43
0.0000001
 44
0.0000000001
 40
0.0
 40
0.0
 40
0.0
 40
0.0
 40
0.0873766994
 40
0.1799290128
 40
0.2819438682
 40
0.3964422934
 40
0.5253263228
 40
0.6693534391
 40
0.8283694892
 40
1.0
 40
1.0
 40
1.0
 40
1.0
 10
15.8374728743
 20
7.126076726
 30
0.0
 10
15.8374727549
 20
7.1250128607
 30
0.0
 10
15.8377901822
 20
7.1228112841
 30
0.0
 10
15.8391843905
 20
7.119636778
 30
0.0
 10
15.8414606275
 20
7.1166054026
 30
0.0
 10
15.8445905554
 20
7.1137661568
 30
0.0
 10
15.848547656
 20
7.1111698483
 30
0.0
 10
15.853295922
 20
7.1088789229
 30
0.0
 10
15.8587622405
 20
7.1069708232
 30
0.0
 10
15.8626825202
 20
7.1060239916
 30
0.0
 10
15.8647340181
 20
7.1056262054
 30
0.0
  0
SPLINE
  5
5E0
100
AcDbEntity
  8
0
100
AcDbSpline
 62
7
  6
CONTINUOUS
 70
0
 71
3
 72
12
 73
8
 74
0
 42
0.0000001
 43
0.0000001
 44
0.0000000001
 40
0.0
 40
0.0
 40
0.0
 40
0.0
 40
0.1645126178
 40
0.2683710378
 40
0.387171186
 40
0.667671644
 40
1.0
 40
1.0
 40
1.0
 40
1.0
 10
15.6261904013
 20
7.1109558043
 30
0.0
 10
15.626192417
 20
7.1107388531
 30
0.0
 10
15.6260842981
 20
7.1103875329
 30
0.0
 10
15.6258472971
 20
7.1099371386
 30
0.0
 10
15.6254797166
 20
7.1093825765
 30
0.0
 10
15.6248560688
 20
7.1086436018
 30
0.0
 10
15.6242808936
 20
7.1080746923
 30
0.0
 10
15.6239599737
 20
7.1077762004
 30
0.0
  0
LINE
  5
5E1
100
AcDbEntity
  8
0
100
AcDbLine
 62
7
  6
CONTINUOUS
 10
15.6233827645
 20
7.1072576245
 11
15.6216580041
 21
7.1058664685
  0
SPLINE
  5
5E2
100
AcDbEntity
  8
0
100
AcDbSpline
 62
7
  6
CONTINUOUS
 70
0
 71
3
 72
13
 73
9
 74
0
 42
0.0000001
 43
0.0000001
 44
0.0000000001
 40
0.0
 40
0.0
 40
0.0
 40
0.0
 40
0.0750224369
 40
0.1678503256
 40
0.2774249025
 40
0.402108285
 40
0.6875163259
 40
1.0
 40
1.0
 40
1.0
 40
1.0
 10
15.8431620551
 20
7.1734514218
 30
0.0
 10
15.8435745686
 20
7.1732252768
 30
0.0
 10
15.8445499548
 20
7.1728165361
 30
0.0
 10
15.8462219585
 20
7.1723301566
 30
0.0
 10
15.8482339598
 20
7.1719213919
 30
0.0
 10
15.8514638286
 20
7.1714779997
 30
0.0
 10
15.8559938456
 20
7.1712157794
 30
0.0
 10
15.8597458054
 20
7.1712802154
 30
0.0
 10
15.8617025513
 20
7.1713832497
 30
0.0
  0
SPLINE
  5
5E3
100
AcDbEntity
  8
0
100
AcDbSpline
 62
7
  6
CONTINUOUS
 70
0
 71
3
 72
14
 73
10
 74
0
 42
0.0000001
 43
0.0000001
 44
0.0000000001
 40
0.0
 40
0.0
 40
0.0
 40
0.0
 40
0.360633912
 40
0.5242805467
 40
0.667904028
 40
0.7881610809
 40
0.8387502504
 40
0.8828298435
 40
1.0
 40
1.0
 40
1.0
 40
1.0
 10
15.8817025513
 20
7.1720936942
 30
0.0
 10
15.8823513836
 20
7.1721056387
 30
0.0
 10
15.8832951567
 20
7.1721716625
 30
0.0
 10
15.8844824972
 20
7.1723611726
 30
0.0
 10
15.8852322101
 20
7.1725394945
 30
0.0
 10
15.8857684141
 20
7.1727202193
 30
0.0
 10
15.8861210393
 20
7.1728865449
 30
0.0
 10
15.8864416754
 20
7.1730742085
 30
0.0
 10
15.8867025513
 20
7.1733190806
 30
0.0
 10
15.8867025513
 20
7.1735299223
 30
0.0
  0
SPLINE
  5
5E4
100
AcDbEntity
  8
0
100
AcDbSpline
 62
7
  6
CONTINUOUS
 70
0
 71
3
 72
11
 73
7
 74
0
 42
0.0000001
 43
0.0000001
 44
0.0000000001
 40
0.0
 40
0.0
 40
0.0
 40
0.0
 40
0.1867781055
 40
0.4209512702
 40
0.6948299583
 40
1.0
 40
1.0
 40
1.0
 40
1.0
 10
15.8374736668
 20
7.187172598
 30
0.0
 10
15.8383723964
 20
7.1870455214
 30
0.0
 10
15.8404099738
 20
7.1868469373
 30
0.0
 10
15.8437820249
 20
7.1866639717
 30
0.0
 10
15.8477336213
 20
7.1865768088
 30
0.0
 10
15.8505478062
 20
7.1865835193
 30
0.0
 10
15.8520306978
 20
7.1866021152
 30
0.0
  0
SPLINE
  5
5E5
100
AcDbEntity
  8
0
100
AcDbSpline
 62
7
  6
CONTINUOUS
 70
0
 71
3
 72
9
 73
5
 74
0
 42
0.0000001
 43
0.0000001
 44
0.0000000001
 40
0.0
 40
0.0
 40
0.0
 40
0.0
 40
0.527195253
 40
1.0
 40
1.0
 40
1.0
 40
1.0
 10
15.9232447822
 20
7.1869165487
 30
0.0
 10
15.9253560943
 20
7.1868082541
 30
0.0
 10
15.9293648115
 20
7.1866746627
 30
0.0
 10
15.9333766235
 20
7.186697339
 30
0.0
 10
15.9352713807
 20
7.1867653708
 30
0.0
  0
SPLINE
  5
5E6
100
AcDbEntity
  8
0
100
AcDbSpline
 62
7
  6
CONTINUOUS
 70
0
 71
3
 72
12
 73
8
 74
0
 42
0.0000001
 43
0.0000001
 44
0.0000000001
 40
0.0
 40
0.0
 40
0.0
 40
0.0
 40
0.3332064386
 40
0.6151626437
 40
0.8388941458
 40
0.927476049
 40
1.0
 40
1.0
 40
1.0
 40
1.0
 10
15.9352713807
 20
7.1867653708
 30
0.0
 10
15.9360782884
 20
7.186794343
 30
0.0
 10
15.9375675268
 20
7.1868677346
 30
0.0
 10
15.9395930319
 20
7.1870438818
 30
0.0
 10
15.9410206429
 20
7.1872448149
 30
0.0
 10
15.9419322889
 20
7.1874427124
 30
0.0
 10
15.9423079654
 20
7.187551127
 30
0.0
 10
15.9424736668
 20
7.1876096741
 30
0.0
  0
SPLINE
  5
5E7
100
AcDbEntity
  8
0
100
AcDbSpline
 62
7
  6
CONTINUOUS
 70
0
 71
3
 72
14
 73
10
 74
0
 42
0.0000001
 43
0.0000001
 44
0.0000000001
 40
0.0
 40
0.0
 40
0.0
 40
0.0
 40
0.0611714597
 40
0.1346180817
 40
0.2265684928
 40
0.3396798755
 40
0.4747578417
 40
0.6309482606
 40
1.0
 40
1.0
 40
1.0
 40
1.0
 10
15.8954736668
 20
7.173550642
 30
0.0
 10
15.8954736668
 20
7.1734908186
 30
0.0
 10
15.8955104974
 20
7.1733586572
 30
0.0
 10
15.8956504741
 20
7.1731826896
 30
0.0
 10
15.8958667525
 20
7.1730145573
 30
0.0
 10
15.8961595339
 20
7.1728545737
 30
0.0
 10
15.8965263143
 20
7.172705112
 30
0.0
 10
15.8971428465
 20
7.1725113795
 30
0.0
 10
15.8976471903
 20
7.1724066157
 30
0.0
 10
15.8980032564
 20
7.1723476288
 30
0.0
  0
LINE
  5
5E8
100
AcDbEntity
  8
0
100
AcDbLine
 62
7
  6
CONTINUOUS
 10
15.8980032564
 20
7.1723476288
 11
15.9004736668
 21
7.1721381445
  0
SPLINE
  5
5E9
100
AcDbEntity
  8
0
100
AcDbSpline
 62
7
  6
CONTINUOUS
 70
0
 71
3
 72
13
 73
9
 74
0
 42
0.0000001
 43
0.0000001
 44
0.0000000001
 40
0.0
 40
0.0
 40
0.0
 40
0.0
 40
0.3125043948
 40
0.5979164259
 40
0.7225832313
 40
0.8321490596
 40
0.9249764069
 40
1.0
 40
1.0
 40
1.0
 40
1.0
 10
15.9232447822
 20
7.1713832497
 30
0.0
 10
15.9252016576
 20
7.1712802086
 30
0.0
 10
15.9289537705
 20
7.1712158735
 30
0.0
 10
15.9334838473
 20
7.1714779652
 30
0.0
 10
15.9367135736
 20
7.1719214196
 30
0.0
 10
15.9387254087
 20
7.1723301821
 30
0.0
 10
15.940397362
 20
7.1728165461
 30
0.0
 10
15.9413727586
 20
7.1732252734
 30
0.0
 10
15.9417852785
 20
7.1734514218
 30
0.0
  0
LINE
  5
5EA
100
AcDbEntity
  8
0
100
AcDbLine
 62
7
  6
CONTINUOUS
 10
15.9424736668
 20
7.1927618741
 11
15.9391986352
 21
7.1928034569
  0
LINE
  5
5EB
100
AcDbEntity
  8
0
100
AcDbLine
 62
7
  6
CONTINUOUS
 10
15.9391986352
 20
7.1928034569
 11
15.9343549655
 21
7.1929903669
  0
LINE
  5
5EC
100
AcDbEntity
  8
0
100
AcDbLine
 62
7
  6
CONTINUOUS
 10
16.2349555388
 20
7.089559251
 11
16.2356953441
 21
7.0890464004
  0
SPLINE
  5
5ED
100
AcDbEntity
  8
0
100
AcDbSpline
 62
9
  6
CONTINUOUS
 70
0
 71
3
 72
19
 73
15
 74
0
 42
0.0000001
 43
0.0000001
 44
0.0000000001
 40
0.0
 40
0.0
 40
0.0
 40
0.0
 40
0.0276818284
 40
0.057100768
 40
0.0896886878
 40
0.1264883959
 40
0.1682098354
 40
0.21530938
 40
0.2680449219
 40
0.3265593751
 40
0.461129679
 40
0.6190467358
 40
0.7992064393
 40
1.0
 40
1.0
 40
1.0
 40
1.0
 10
14.9586041321
 20
6.3338069153
 30
0.0
 10
14.9586598579
 20
6.3335156324
 30
0.0
 10
14.9588567939
 20
6.3329278886
 30
0.0
 10
14.9593818859
 20
6.3321137365
 30
0.0
 10
14.9601298543
 20
6.331356232
 30
0.0
 10
14.9610954959
 20
6.3306534131
 30
0.0
 10
14.9622771529
 20
6.330003517
 30
0.0
 10
14.9636733313
 20
6.3294065472
 30
0.0
 10
14.9652815574
 20
6.3288623012
 30
0.0
 10
14.9678256054
 20
6.3281762723
 30
0.0
 10
14.9715279796
 20
6.3274875417
 30
0.0
 10
14.9765622254
 20
6.3269184872
 30
0.0
 10
14.9823274919
 20
6.3265778057
 30
0.0
 10
14.9864093291
 20
6.3265093612
 30
0.0
 10
14.9885605033
 20
6.3265093612
 30
0.0
  0
LINE
  5
5EE
100
AcDbEntity
  8
0
100
AcDbLine
 62
7
  6
CONTINUOUS
 10
16.2229798694
 20
7.0976206065
 11
16.2221508208
 21
7.0981622111
  0
LINE
  5
5EF
100
AcDbEntity
  8
0
100
AcDbLine
 62
7
  6
CONTINUOUS
 10
16.2176311769
 20
7.101078165
 11
16.2170830213
 21
7.101427639
  0
LINE
  5
5F0
100
AcDbEntity
  8
0
100
AcDbLine
 62
7
  6
CONTINUOUS
 10
15.5735552731
 20
7.1042402438
 11
15.573025921
 21
7.1039203729
  0
LINE
  5
5F1
100
AcDbEntity
  8
0
100
AcDbLine
 62
7
  6
CONTINUOUS
 10
15.5665120857
 20
7.0999207491
 11
15.5659832756
 21
7.0995908467
  0
LINE
  5
5F2
100
AcDbEntity
  8
0
100
AcDbLine
 62
7
  6
CONTINUOUS
 10
15.5409528207
 20
7.0830646469
 11
15.5394973039
 21
7.0820944645
  0
LINE
  5
5F3
100
AcDbEntity
  8
0
100
AcDbLine
 62
7
  6
CONTINUOUS
 10
15.5394973039
 20
7.0820944645
 11
15.5388832921
 21
7.0817110481
  0
SPLINE
  5
5F4
100
AcDbEntity
  8
0
100
AcDbSpline
 62
7
  6
CONTINUOUS
 70
0
 71
3
 72
12
 73
8
 74
0
 42
0.0000001
 43
0.0000001
 44
0.0000000001
 40
0.0
 40
0.0
 40
0.0
 40
0.0
 40
0.3019497154
 40
0.5824232334
 40
0.8206533029
 40
0.918650927
 40
1.0
 40
1.0
 40
1.0
 40
1.0
 10
15.8617025513
 20
7.1879288444
 30
0.0
 10
15.8592644037
 20
7.1878039845
 30
0.0
 10
15.8545578993
 20
7.1876268268
 30
0.0
 10
15.8479222327
 20
7.1875682482
 30
0.0
 10
15.8429356333
 20
7.187699991
 30
0.0
 10
15.8395673057
 20
7.1879365883
 30
0.0
 10
15.8381249389
 20
7.1880925327
 30
0.0
 10
15.8374736668
 20
7.1881844647
 30
0.0
  0
SPLINE
  5
5F5
100
AcDbEntity
  8
0
100
AcDbSpline
 62
7
  6
CONTINUOUS
 70
0
 71
3
 72
9
 73
5
 74
0
 42
0.0000001
 43
0.0000001
 44
0.0000000001
 40
0.0
 40
0.0
 40
0.0
 40
0.0
 40
0.2433177437
 40
1.0
 40
1.0
 40
1.0
 40
1.0
 10
15.6199151856
 20
7.0961564767
 30
0.0
 10
15.6192301647
 20
7.0949621519
 30
0.0
 10
15.6164510409
 20
7.0900329263
 30
0.0
 10
15.6138130457
 20
7.0850245101
 30
0.0
 10
15.6118877879
 20
7.0812000222
 30
0.0
  0
SPLINE
  5
5F6
100
AcDbEntity
  8
0
100
AcDbSpline
 62
7
  6
CONTINUOUS
 70
0
 71
3
 72
13
 73
9
 74
0
 42
0.0000001
 43
0.0000001
 44
0.0000000001
 40
0.0
 40
0.0
 40
0.0
 40
0.0
 40
0.3215986859
 40
0.6013464415
 40
0.7223261817
 40
0.8292525585
 40
0.9216161767
 40
1.0
 40
1.0
 40
1.0
 40
1.0
 10
15.6457571994
 20
7.1050499408
 30
0.0
 10
15.6463580485
 20
7.105503805
 30
0.0
 10
15.6474520217
 20
7.1063924539
 30
0.0
 10
15.6486644082
 20
7.1075779577
 30
0.0
 10
15.6494196146
 20
7.1084973767
 30
0.0
 10
15.649840628
 20
7.1091198216
 30
0.0
 10
15.6501353232
 20
7.1097014506
 30
0.0
 10
15.6502491101
 20
7.1100892191
 30
0.0
 10
15.6502742597
 20
7.1102710183
 30
0.0
  0
LINE
  5
5F7
100
AcDbEntity
  8
0
100
AcDbLine
 62
7
  6
CONTINUOUS
 10
15.6502742597
 20
7.1102710183
 11
15.6502900827
 21
7.1105027798
  0
SPLINE
  5
5F8
100
AcDbEntity
  8
0
100
AcDbSpline
 62
7
  6
CONTINUOUS
 70
0
 71
3
 72
13
 73
9
 74
0
 42
0.0000001
 43
0.0000001
 44
0.0000000001
 40
0.0
 40
0.0
 40
0.0
 40
0.0
 40
0.3294205177
 40
0.6137465023
 40
0.7349565316
 40
0.8402001371
 40
0.9284842947
 40
1.0
 40
1.0
 40
1.0
 40
1.0
 10
15.6216580041
 20
7.1046936732
 30
0.0
 10
15.6222507095
 20
7.105141694
 30
0.0
 10
15.6233313184
 20
7.1060081885
 30
0.0
 10
15.6245441564
 20
7.1071428661
 30
0.0
 10
15.6253071123
 20
7.1080071661
 30
0.0
 10
15.6257313559
 20
7.1085780218
 30
0.0
 10
15.6260293061
 20
7.1090977478
 30
0.0
 10
15.626149279
 20
7.1094426277
 30
0.0
 10
15.626175205
 20
7.1096018286
 30
0.0
  0
LINE
  5
5F9
100
AcDbEntity
  8
0
100
AcDbLine
 62
7
  6
CONTINUOUS
 10
15.626175205
 20
7.1096018286
 11
15.6261907601
 21
7.1097945883
  0
LINE
  5
5FA
100
AcDbEntity
  8
0
100
AcDbLine
 62
7
  6
CONTINUOUS
 10
15.5883027714
 20
7.0808252841
 11
15.5923815269
 21
7.0825796919
  0
LINE
  5
5FB
100
AcDbEntity
  8
0
100
AcDbLine
 62
7
  6
CONTINUOUS
 10
15.5923815269
 20
7.0825796919
 11
15.5969683022
 21
7.085261842
  0
LINE
  5
5FC
100
AcDbEntity
  8
0
100
AcDbLine
 62
7
  6
CONTINUOUS
 10
15.5988587535
 20
7.0865617052
 11
15.6015668845
 21
7.0886631227
  0
SPLINE
  5
5FD
100
AcDbEntity
  8
0
100
AcDbSpline
 62
9
  6
CONTINUOUS
 70
0
 71
3
 72
19
 73
15
 74
0
 42
0.0000001
 43
0.0000001
 44
0.0000000001
 40
0.0
 40
0.0
 40
0.0
 40
0.0
 40
0.0276818284
 40
0.057100768
 40
0.0896886877
 40
0.1264883959
 40
0.1682098354
 40
0.21530938
 40
0.268044922
 40
0.3265593752
 40
0.461129679
 40
0.6190467358
 40
0.7992064393
 40
1.0
 40
1.0
 40
1.0
 40
1.0
 10
16.8263432014
 20
6.6468650841
 30
0.0
 10
16.8262874756
 20
6.6471563669
 30
0.0
 10
16.8260905396
 20
6.6477441107
 30
0.0
 10
16.8255654476
 20
6.6485582628
 30
0.0
 10
16.8248174792
 20
6.6493157673
 30
0.0
 10
16.8238518377
 20
6.6500185862
 30
0.0
 10
16.8226701806
 20
6.6506684823
 30
0.0
 10
16.8212740022
 20
6.6512654521
 30
0.0
 10
16.8196657761
 20
6.6518096981
 30
0.0
 10
16.8171217281
 20
6.652495727
 30
0.0
 10
16.8134193539
 20
6.6531844577
 30
0.0
 10
16.8083851082
 20
6.6537535121
 30
0.0
 10
16.8026198416
 20
6.6540941937
 30
0.0
 10
16.7985380045
 20
6.6541626381
 30
0.0
 10
16.7963868303
 20
6.6541626381
 30
0.0
  0
LINE
  5
5FE
100
AcDbEntity
  8
0
100
AcDbLine
 62
7
  6
CONTINUOUS
 10
16.1884128873
 20
7.1149323755
 11
16.190305105
 21
7.1143269239
  0
LINE
  5
5FF
100
AcDbEntity
  8
0
100
AcDbLine
 62
7
  6
CONTINUOUS
 10
16.190305105
 20
7.1143269239
 11
16.1936075524
 21
7.1128001892
  0
LINE
  5
600
100
AcDbEntity
  8
0
100
AcDbLine
 62
7
  6
CONTINUOUS
 10
16.215877951
 20
7.0995624672
 11
16.2204526024
 21
7.0962970342
  0
LINE
  5
601
100
AcDbEntity
  8
0
100
AcDbLine
 62
7
  6
CONTINUOUS
 10
16.2204526024
 20
7.0962970342
 11
16.2232567426
 21
7.0939704306
  0
LINE
  5
602
100
AcDbEntity
  8
0
100
AcDbLine
 62
7
  6
CONTINUOUS
 10
16.239481915
 20
7.0833490316
 11
16.2428724721
 21
7.0814688207
  0
LINE
  5
603
100
AcDbEntity
  8
0
100
AcDbLine
 62
7
  6
CONTINUOUS
 10
16.2195918678
 20
7.0930111904
 11
16.2198935041
 21
7.0926729129
  0
LINE
  5
604
100
AcDbEntity
  8
0
100
AcDbLine
 62
7
  6
CONTINUOUS
 10
16.2198935041
 20
7.0926729129
 11
16.2203621038
 21
7.0923322724
  0
LINE
  5
605
100
AcDbEntity
  8
0
100
AcDbLine
 62
7
  6
CONTINUOUS
 10
16.2249260296
 20
7.089191103
 11
16.232561225
 21
7.0842315776
  0
LINE
  5
606
100
AcDbEntity
  8
0
100
AcDbLine
 62
7
  6
CONTINUOUS
 10
16.232561225
 20
7.0842315776
 11
16.2353876512
 21
7.0826323444
  0
LINE
  5
607
100
AcDbEntity
  8
0
100
AcDbLine
 62
7
  6
CONTINUOUS
 10
16.2123247187
 20
7.0977134999
 11
16.2135107779
 21
7.0970824383
  0
LINE
  5
608
100
AcDbEntity
  8
0
100
AcDbLine
 62
7
  6
CONTINUOUS
 10
16.1908592557
 20
7.1112541646
 11
16.1911342994
 21
7.1110387189
  0
LINE
  5
609
100
AcDbEntity
  8
0
100
AcDbLine
 62
7
  6
CONTINUOUS
 10
16.1911342994
 20
7.1110387189
 11
16.1916058136
 21
7.110736536
  0
LINE
  5
60A
100
AcDbEntity
  8
0
100
AcDbLine
 62
7
  6
CONTINUOUS
 10
15.606255136
 20
7.1150905168
 11
15.6055750121
 21
7.1147369534
  0
LINE
  5
60B
100
AcDbEntity
  8
0
100
AcDbLine
 62
7
  6
CONTINUOUS
 10
15.6008916248
 20
7.1122714793
 11
15.6003435199
 21
7.1119794029
  0
LINE
  5
60C
100
AcDbEntity
  8
0
100
AcDbLine
 62
7
  6
CONTINUOUS
 10
16.2236321371
 20
7.0925713338
 11
16.2229357774
 21
7.0929520039
  0
LINE
  5
60D
100
AcDbEntity
  8
0
100
AcDbLine
 62
7
  6
CONTINUOUS
 10
15.5828713942
 20
7.0987855713
 11
15.5823736284
 21
7.0985275521
  0
LINE
  5
60E
100
AcDbEntity
  8
0
100
AcDbLine
 62
7
  6
CONTINUOUS
 10
15.5823736284
 20
7.0985275521
 11
15.5818484311
 21
7.0982545523
  0
LINE
  5
60F
100
AcDbEntity
  8
0
100
AcDbLine
 62
7
  6
CONTINUOUS
 10
15.5818484311
 20
7.0982545523
 11
15.5812232415
 21
7.0978222855
  0
LINE
  5
610
100
AcDbEntity
  8
0
100
AcDbLine
 62
7
  6
CONTINUOUS
 10
15.5772336154
 20
7.0950340494
 11
15.5766859828
 21
7.0946472824
  0
LINE
  5
611
100
AcDbEntity
  8
0
100
AcDbLine
 62
7
  6
CONTINUOUS
 10
16.1920650018
 20
7.110460708
 11
16.1916058136
 21
7.110736536
  0
LINE
  5
612
100
AcDbEntity
  8
0
100
AcDbLine
 62
7
  6
CONTINUOUS
 10
16.1925836185
 20
7.1113090946
 11
16.1916058136
 21
7.1118958296
  0
LINE
  5
613
100
AcDbEntity
  8
0
100
AcDbLine
 62
7
  6
CONTINUOUS
 10
16.1916058136
 20
7.1118958296
 11
16.1908355777
 21
7.1124935331
  0
LINE
  5
614
100
AcDbEntity
  8
0
100
AcDbLine
 62
7
  6
CONTINUOUS
 10
16.2159868214
 20
7.0982853982
 11
16.2151614718
 21
7.0983098666
  0
LINE
  5
615
100
AcDbEntity
  8
0
100
AcDbLine
 62
7
  6
CONTINUOUS
 10
16.2151614718
 20
7.0983098666
 11
16.2143361068
 21
7.0983098666
  0
LINE
  5
616
100
AcDbEntity
  8
0
100
AcDbLine
 62
7
  6
CONTINUOUS
 10
16.2143361068
 20
7.0983098666
 11
16.2135107779
 21
7.0982726932
  0
LINE
  5
617
100
AcDbEntity
  8
0
100
AcDbLine
 62
7
  6
CONTINUOUS
 10
16.2135107779
 20
7.0982726932
 11
16.2123247187
 21
7.0989022875
  0
LINE
  5
618
100
AcDbEntity
  8
0
100
AcDbLine
 62
7
  6
CONTINUOUS
 10
16.1716215121
 20
7.1149207734
 11
16.1746963493
 21
7.1141961928
  0
LINE
  5
619
100
AcDbEntity
  8
0
100
AcDbLine
 62
7
  6
CONTINUOUS
 10
16.1746963493
 20
7.1141961928
 11
16.1791180442
 21
7.1123987522
  0
LINE
  5
61A
100
AcDbEntity
  8
0
100
AcDbLine
 62
7
  6
CONTINUOUS
 10
16.1791180442
 20
7.1123987522
 11
16.1846676738
 21
7.1095658165
  0
LINE
  5
61B
100
AcDbEntity
  8
0
100
AcDbLine
 62
7
  6
CONTINUOUS
 10
16.1907656025
 20
7.1058615373
 11
16.1945878851
 21
7.1031421018
  0
LINE
  5
61C
100
AcDbEntity
  8
0
100
AcDbLine
 62
7
  6
CONTINUOUS
 10
16.1945878851
 20
7.1031421018
 11
16.1973836349
 21
7.1007768635
  0
LINE
  5
61D
100
AcDbEntity
  8
0
100
AcDbLine
 62
7
  6
CONTINUOUS
 10
16.1976918234
 20
7.1004755101
 11
16.1987684083
 21
7.0992618338
  0
LINE
  5
61E
100
AcDbEntity
  8
0
100
AcDbLine
 62
7
  6
CONTINUOUS
 10
16.1987684083
 20
7.0992618338
 11
16.1989658948
 21
7.0989818981
  0
LINE
  5
61F
100
AcDbEntity
  8
0
100
AcDbLine
 62
7
  6
CONTINUOUS
 10
16.1989658948
 20
7.0989818981
 11
16.2014215469
 21
7.0979178436
  0
LINE
  5
620
100
AcDbEntity
  8
0
100
AcDbLine
 62
7
  6
CONTINUOUS
 10
16.2014215469
 20
7.0979178436
 11
16.2043125946
 21
7.0964813413
  0
LINE
  5
621
100
AcDbEntity
  8
0
100
AcDbLine
 62
7
  6
CONTINUOUS
 10
16.2128214579
 20
7.0819175861
 11
16.2148287714
 21
7.0806781989
  0
LINE
  5
622
100
AcDbEntity
  8
0
100
AcDbLine
 62
7
  6
CONTINUOUS
 10
16.2148287714
 20
7.0806781989
 11
16.2154620221
 21
7.080497122
  0
SPLINE
  5
623
100
AcDbEntity
  8
0
100
AcDbSpline
 62
7
  6
CONTINUOUS
 70
0
 71
3
 72
12
 73
8
 74
0
 42
0.0000001
 43
0.0000001
 44
0.0000000001
 40
0.0
 40
0.0
 40
0.0
 40
0.0
 40
0.328707648
 40
0.5794234651
 40
0.6852716043
 40
0.7861658136
 40
1.0
 40
1.0
 40
1.0
 40
1.0
 10
16.2191226519
 20
7.0804332874
 30
0.0
 10
16.2192740607
 20
7.080427252
 30
0.0
 10
16.2195423009
 20
7.0804348118
 30
0.0
 10
16.2198524875
 20
7.080530469
 30
0.0
 10
16.2200192109
 20
7.0806637293
 30
0.0
 10
16.2201327226
 20
7.0808239444
 30
0.0
 10
16.2201601229
 20
7.0809742341
 30
0.0
 10
16.2201601029
 20
7.0810728083
 30
0.0
  0
SPLINE
  5
624
100
AcDbEntity
  8
0
100
AcDbSpline
 62
7
  6
CONTINUOUS
 70
0
 71
3
 72
13
 73
9
 74
0
 42
0.0000001
 43
0.0000001
 44
0.0000000001
 40
0.0
 40
0.0
 40
0.0
 40
0.0
 40
0.2831550256
 40
0.5713087609
 40
0.7056737133
 40
0.8261287968
 40
0.9264823169
 40
1.0
 40
1.0
 40
1.0
 40
1.0
 10
16.1854150942
 20
7.1019403109
 30
0.0
 10
16.1856443266
 20
7.1017834022
 30
0.0
 10
16.1861189758
 20
7.1014844398
 30
0.0
 10
16.1867284197
 20
7.1011544302
 30
0.0
 10
16.1872124858
 20
7.1009318381
 30
0.0
 10
16.1875373971
 20
7.1008045483
 30
0.0
 10
16.1878138309
 20
7.1007218506
 30
0.0
 10
16.1879835342
 20
7.1006916998
 30
0.0
 10
16.1880556584
 20
7.100692045
 30
0.0
  0
SPLINE
  5
625
100
AcDbEntity
  8
0
100
AcDbSpline
 62
7
  6
CONTINUOUS
 70
0
 71
3
 72
11
 73
7
 74
0
 42
0.0000001
 43
0.0000001
 44
0.0000000001
 40
0.0
 40
0.0
 40
0.0
 40
0.0
 40
0.3385819439
 40
0.5958445217
 40
0.7991387446
 40
1.0
 40
1.0
 40
1.0
 40
1.0
 10
16.1906994466
 20
7.1006635737
 30
0.0
 10
16.1908184334
 20
7.1006604414
 30
0.0
 10
16.1910288713
 20
7.1006688757
 30
0.0
 10
16.1913038082
 20
7.1007459908
 30
0.0
 10
16.1914885747
 20
7.1009061321
 30
0.0
 10
16.1915210325
 20
7.1010540744
 30
0.0
 10
16.1915211526
 20
7.1011246868
 30
0.0
  0
SPLINE
  5
626
100
AcDbEntity
  8
0
100
AcDbSpline
 62
7
  6
CONTINUOUS
 70
0
 71
3
 72
12
 73
8
 74
0
 42
0.0000001
 43
0.0000001
 44
0.0000000001
 40
0.0
 40
0.0
 40
0.0
 40
0.0
 40
0.3454744347
 40
0.6431746746
 40
0.8680243857
 40
0.9459101881
 40
1.0
 40
1.0
 40
1.0
 40
1.0
 10
15.6066949284
 20
7.1073342354
 30
0.0
 10
15.6069432706
 20
7.1074953552
 30
0.0
 10
15.6073985074
 20
7.1078073868
 30
0.0
 10
15.6079812796
 20
7.1082683604
 30
0.0
 10
15.6083556286
 20
7.1086277717
 30
0.0
 10
15.6085306234
 20
7.1088779624
 30
0.0
 10
15.6085701789
 20
7.1089891575
 30
0.0
 10
15.608569346
 20
7.1090354984
 30
0.0
  0
SPLINE
  5
627
100
AcDbEntity
  8
0
100
AcDbSpline
 62
7
  6
CONTINUOUS
 70
0
 71
3
 72
13
 73
9
 74
0
 42
0.0000001
 43
0.0000001
 44
0.0000000001
 40
0.0
 40
0.0
 40
0.0
 40
0.0
 40
0.0698930874
 40
0.1676485341
 40
0.2867594699
 40
0.4209670737
 40
0.7115987499
 40
1.0
 40
1.0
 40
1.0
 40
1.0
 10
15.5925905347
 20
7.0987124407
 30
0.0
 10
15.5926918633
 20
7.0987077756
 30
0.0
 10
15.592935183
 20
7.0987477554
 30
0.0
 10
15.5933340506
 20
7.098864485
 30
0.0
 10
15.5938095753
 20
7.0990499834
 30
0.0
 10
15.5945268959
 20
7.0993798803
 30
0.0
 10
15.5954378546
 20
7.0998738762
 30
0.0
 10
15.5961498613
 20
7.1003214268
 30
0.0
 10
15.596495906
 20
7.1005568911
 30
0.0
  0
LINE
  5
628
100
AcDbEntity
  8
0
100
AcDbLine
 62
7
  6
CONTINUOUS
 10
15.5866433943
 20
7.0987399707
 11
15.588625792
 21
7.0987809275
  0
LINE
  5
629
100
AcDbEntity
  8
0
100
AcDbLine
 62
7
  6
CONTINUOUS
 10
15.588625792
 20
7.0987809275
 11
15.5906082452
 21
7.0987809275
  0
LINE
  5
62A
100
AcDbEntity
  8
0
100
AcDbLine
 62
7
  6
CONTINUOUS
 10
15.5906082452
 20
7.0987809275
 11
15.5925905347
 21
7.0987124407
  0
SPLINE
  5
62B
100
AcDbEntity
  8
0
100
AcDbSpline
 62
7
  6
CONTINUOUS
 70
0
 71
3
 72
12
 73
8
 74
0
 42
0.0000001
 43
0.0000001
 44
0.0000000001
 40
0.0
 40
0.0
 40
0.0
 40
0.0
 40
0.3379734806
 40
0.6328645237
 40
0.860942316
 40
0.9421130573
 40
1.0
 40
1.0
 40
1.0
 40
1.0
 10
15.583515332
 20
7.0914528044
 30
0.0
 10
15.5836801091
 20
7.0915718818
 30
0.0
 10
15.583983118
 20
7.0918032026
 30
0.0
 10
15.5843713566
 20
7.0921453686
 30
0.0
 10
15.584621733
 20
7.0924127298
 30
0.0
 10
15.5847391066
 20
7.0925997011
 30
0.0
 10
15.5847652295
 20
7.0926823779
 30
0.0
 10
15.5847646137
 20
7.092717193
 30
0.0
  0
SPLINE
  5
62C
100
AcDbEntity
  8
0
100
AcDbSpline
 62
7
  6
CONTINUOUS
 70
0
 71
3
 72
12
 73
8
 74
0
 42
0.0000001
 43
0.0000001
 44
0.0000000001
 40
0.0
 40
0.0
 40
0.0
 40
0.0
 40
0.0702251331
 40
0.1627891674
 40
0.4014867407
 40
0.6885531684
 40
1.0
 40
1.0
 40
1.0
 40
1.0
 10
15.571265306
 20
7.0832645862
 30
0.0
 10
15.5713311727
 20
7.0832614594
 30
0.0
 10
15.5714844529
 20
7.0832797093
 30
0.0
 10
15.5718497489
 20
7.083373215
 30
0.0
 10
15.5723906402
 20
7.0835905166
 30
0.0
 10
15.573091524
 20
7.083946938
 30
0.0
 10
15.5735765354
 20
7.0842316898
 30
0.0
 10
15.5738251052
 20
7.0843857604
 30
0.0
  0
LINE
  5
62D
100
AcDbEntity
  8
0
100
AcDbLine
 62
7
  6
CONTINUOUS
 10
15.5830023592
 20
7.106653738
 11
15.5823913347
 21
7.1063045816
  0
LINE
  5
62E
100
AcDbEntity
  8
0
100
AcDbLine
 62
7
  6
CONTINUOUS
 10
15.5740809461
 20
7.1033813338
 11
15.5735502259
 21
7.1030606734
  0
LINE
  5
62F
100
AcDbEntity
  8
0
100
AcDbLine
 62
7
  6
CONTINUOUS
 10
16.1951296538
 20
7.0951359757
 11
16.1945505488
 21
7.0955503807
  0
LINE
  5
630
100
AcDbEntity
  8
0
100
AcDbLine
 62
7
  6
CONTINUOUS
 10
16.1945505488
 20
7.0967442131
 11
16.1957020324
 21
7.0959210419
  0
LINE
  5
631
100
AcDbEntity
  8
0
100
AcDbLine
 62
7
  6
CONTINUOUS
 10
16.2067862243
 20
7.0877657796
 11
16.2077389042
 21
7.0870448934
  0
LINE
  5
632
100
AcDbEntity
  8
0
100
AcDbLine
 62
7
  6
CONTINUOUS
 10
16.2077389042
 20
7.0870448934
 11
16.2082454767
 21
7.0866602636
  0
SPLINE
  5
633
100
AcDbEntity
  8
0
100
AcDbSpline
 62
7
  6
CONTINUOUS
 70
0
 71
3
 72
12
 73
8
 74
0
 42
0.0000001
 43
0.0000001
 44
0.0000000001
 40
0.0
 40
0.0
 40
0.0
 40
0.0
 40
0.3398174836
 40
0.6344918141
 40
0.8612706666
 40
0.942041489
 40
1.0
 40
1.0
 40
1.0
 40
1.0
 10
16.1945505488
 20
7.0967442131
 30
0.0
 10
16.1943931592
 20
7.0968564236
 30
0.0
 10
16.1941044786
 20
7.0970738792
 30
0.0
 10
16.1937354546
 20
7.0973955772
 30
0.0
 10
16.1934988823
 20
7.097647196
 30
0.0
 10
16.1933886834
 20
7.0978234476
 30
0.0
 10
16.19336437
 20
7.097901568
 30
0.0
 10
16.1933650934
 20
7.0979345279
 30
0.0
  0
SPLINE
  5
634
100
AcDbEntity
  8
0
100
AcDbSpline
 62
7
  6
CONTINUOUS
 70
0
 71
3
 72
12
 73
8
 74
0
 42
0.0000001
 43
0.0000001
 44
0.0000000001
 40
0.0
 40
0.0
 40
0.0
 40
0.0
 40
0.1757467801
 40
0.282043426
 40
0.4013180395
 40
0.6775984273
 40
1.0
 40
1.0
 40
1.0
 40
1.0
 10
15.6502898212
 20
7.1116624675
 30
0.0
 10
15.6502916381
 20
7.1113927735
 30
0.0
 10
15.6501761192
 20
7.1109610665
 30
0.0
 10
15.6499064926
 20
7.1104085493
 30
0.0
 10
15.6494973264
 20
7.1097539069
 30
0.0
 10
15.6487997675
 20
7.1088969771
 30
0.0
 10
15.6481492369
 20
7.108246566
 30
0.0
 10
15.6477869364
 20
7.1079096362
 30
0.0
  0
LINE
  5
635
100
AcDbEntity
  8
0
100
AcDbLine
 62
7
  6
CONTINUOUS
 10
15.6477869364
 20
7.1079096362
 11
15.6457571994
 21
7.1062219314
  0
LINE
  5
636
100
AcDbEntity
  8
0
100
AcDbLine
 62
7
  6
CONTINUOUS
 10
16.2191226519
 20
7.0816636052
 11
16.2166822986
 21
7.0817136359
  0
LINE
  5
637
100
AcDbEntity
  8
0
100
AcDbLine
 62
7
  6
CONTINUOUS
 10
16.2166822986
 20
7.0817136359
 11
16.2154620221
 21
7.0817272811
  0
SPLINE
  5
638
100
AcDbEntity
  8
0
100
AcDbSpline
 62
7
  6
CONTINUOUS
 70
0
 71
3
 72
13
 73
9
 74
0
 42
0.0000001
 43
0.0000001
 44
0.0000000001
 40
0.0
 40
0.0
 40
0.0
 40
0.0
 40
0.0737131383
 40
0.1750722787
 40
0.2963775464
 40
0.430996929
 40
0.7180584017
 40
1.0
 40
1.0
 40
1.0
 40
1.0
 10
16.2154620221
 20
7.0817272811
 30
0.0
 10
16.2153877271
 20
7.0817269119
 30
0.0
 10
16.2152125888
 20
7.0817633937
 30
0.0
 10
16.2149304618
 20
7.0818603881
 30
0.0
 10
16.2146012495
 20
7.0820079762
 30
0.0
 10
16.2141167655
 20
7.082262735
 30
0.0
 10
16.2135125888
 20
7.0826357469
 30
0.0
 10
16.2130458949
 20
7.0829699217
 30
0.0
 10
16.2128214579
 20
7.0831442232
 30
0.0
  0
LINE
  5
639
100
AcDbEntity
  8
0
100
AcDbLine
 62
7
  6
CONTINUOUS
 10
16.1717119123
 20
7.1121802025
 11
16.170881763
 21
7.1127871733
  0
LINE
  5
63A
100
AcDbEntity
  8
0
100
AcDbLine
 62
7
  6
CONTINUOUS
 10
16.170881763
 20
7.1127871733
 11
16.170526249
 21
7.1132489596
  0
LINE
  5
63B
100
AcDbEntity
  8
0
100
AcDbLine
 62
7
  6
CONTINUOUS
 10
16.1906994466
 20
7.1018455496
 11
16.1898182115
 21
7.1018688704
  0
LINE
  5
63C
100
AcDbEntity
  8
0
100
AcDbLine
 62
7
  6
CONTINUOUS
 10
16.1898182115
 20
7.1018688704
 11
16.1889369434
 21
7.1018688704
  0
LINE
  5
63D
100
AcDbEntity
  8
0
100
AcDbLine
 62
7
  6
CONTINUOUS
 10
16.1889369434
 20
7.1018688704
 11
16.1880556584
 21
7.1018739555
  0
SPLINE
  5
63E
100
AcDbEntity
  8
0
100
AcDbSpline
 62
7
  6
CONTINUOUS
 70
0
 71
3
 72
13
 73
9
 74
0
 42
0.0000001
 43
0.0000001
 44
0.0000000001
 40
0.0
 40
0.0
 40
0.0
 40
0.0
 40
0.0735437745
 40
0.1739417517
 40
0.2944141034
 40
0.4287360369
 40
0.7168305185
 40
1.0
 40
1.0
 40
1.0
 40
1.0
 10
16.1880556584
 20
7.1018739555
 30
0.0
 10
16.1879835406
 20
7.1018736112
 30
0.0
 10
16.1878138432
 20
7.1019037252
 30
0.0
 10
16.1875373998
 20
7.1019862356
 30
0.0
 10
16.187212492
 20
7.1021131575
 30
0.0
 10
16.1867285227
 20
7.1023351994
 30
0.0
 10
16.1861191313
 20
7.1026644727
 30
0.0
 10
16.1856444038
 20
7.1029627599
 30
0.0
 10
16.1854150942
 20
7.1031193629
 30
0.0
  0
LINE
  5
63F
100
AcDbEntity
  8
0
100
AcDbLine
 62
7
  6
CONTINUOUS
 10
15.5706923348
 20
7.0983610124
 11
15.5699745874
 21
7.0978558387
  0
LINE
  5
640
100
AcDbEntity
  8
0
100
AcDbLine
 62
7
  6
CONTINUOUS
 10
15.5580724791
 20
7.0892003096
 11
15.5574867794
 21
7.0887605552
  0
LINE
  5
641
100
AcDbEntity
  8
0
100
AcDbLine
 62
7
  6
CONTINUOUS
 10
16.2434736668
 20
7.0837394623
 11
16.2402965323
 21
7.0858757898
  0
SPLINE
  5
642
100
AcDbEntity
  8
0
100
AcDbSpline
 62
7
  6
CONTINUOUS
 70
0
 71
3
 72
15
 73
11
 74
0
 42
0.0000001
 43
0.0000001
 44
0.0000000001
 40
0.0
 40
0.0
 40
0.0
 40
0.0
 40
0.0180944368
 40
0.0437712416
 40
0.1177337079
 40
0.2197536025
 40
0.3458751378
 40
0.4911997502
 40
0.6509474863
 40
1.0
 40
1.0
 40
1.0
 40
1.0
 10
15.5467628017
 20
7.0829958059
 30
0.0
 10
15.546790122
 20
7.0829914045
 30
0.0
 10
15.5468580421
 20
7.0829959195
 30
0.0
 10
15.5470334166
 20
7.0830361596
 30
0.0
 10
15.5473225347
 20
7.08314744
 30
0.0
 10
15.5477406857
 20
7.083343412
 30
0.0
 10
15.5482461236
 20
7.0836100514
 30
0.0
 10
15.548820267
 20
7.0839344424
 30
0.0
 10
15.5496802498
 20
7.0844456633
 30
0.0
 10
15.550338594
 20
7.0848607429
 30
0.0
 10
15.5507867931
 20
7.0851507107
 30
0.0
  0
LINE
  5
643
100
AcDbEntity
  8
0
100
AcDbLine
 62
7
  6
CONTINUOUS
 10
15.5428062631
 20
7.0788942777
 11
15.5421322824
 21
7.0783996827
  0
LINE
  5
644
100
AcDbEntity
  8
0
100
AcDbLine
 62
7
  6
CONTINUOUS
 10
15.566735117
 20
7.099467028
 11
15.566181061
 21
7.099090291
  0
LINE
  5
645
100
AcDbEntity
  8
0
100
AcDbLine
 62
7
  6
CONTINUOUS
 10
15.5515962226
 20
7.0887707774
 11
15.5506878193
 21
7.0881018081
  0
LINE
  5
646
100
AcDbEntity
  8
0
100
AcDbLine
 62
7
  6
CONTINUOUS
 10
15.5476718059
 20
7.0858580981
 11
15.5470315858
 21
7.0853773082
  0
LINE
  5
647
100
AcDbEntity
  8
0
100
AcDbLine
 62
7
  6
CONTINUOUS
 10
15.5423653718
 20
7.0818247818
 11
15.5419241024
 21
7.0814843937
  0
LINE
  5
648
100
AcDbEntity
  8
0
100
AcDbLine
 62
7
  6
CONTINUOUS
 10
15.5467628017
 20
7.0817688008
 11
15.5488378376
 21
7.0827230061
  0
LINE
  5
649
100
AcDbEntity
  8
0
100
AcDbLine
 62
7
  6
CONTINUOUS
 10
15.5488378376
 20
7.0827230061
 11
15.5502900811
 21
7.0836102049
  0
SPLINE
  5
64A
100
AcDbEntity
  8
0
100
AcDbSpline
 62
9
  6
CONTINUOUS
 70
0
 71
3
 72
17
 73
13
 74
0
 42
0.0000001
 43
0.0000001
 44
0.0000000001
 40
0.0
 40
0.0
 40
0.0
 40
0.0
 40
0.0621149135
 40
0.1247020033
 40
0.1872558206
 40
0.2497446379
 40
0.3747871983
 40
0.4998297585
 40
0.6248706812
 40
0.7499148792
 40
0.874957767
 40
1.0
 40
1.0
 40
1.0
 40
1.0
 10
16.1335751667
 20
6.5837840756
 30
0.0
 10
16.1329266576
 20
6.5781586746
 30
0.0
 10
16.1322224888
 20
6.5667966965
 30
0.0
 10
16.1320985914
 20
6.5497262886
 30
0.0
 10
16.1320890319
 20
6.5326210182
 30
0.0
 10
16.1321336874
 20
6.509822268
 30
0.0
 10
16.1321118789
 20
6.4813266678
 30
0.0
 10
16.1321183071
 20
6.4471286014
 30
0.0
 10
16.1321187281
 20
6.4129303708
 30
0.0
 10
16.1321170209
 20
6.3787321144
 30
0.0
 10
16.1321170205
 20
6.3445337373
 30
0.0
 10
16.1321173054
 20
6.3217349191
 30
0.0
 10
16.1321173054
 20
6.3103355398
 30
0.0
  0
SPLINE
  5
64B
100
AcDbEntity
  8
0
100
AcDbSpline
 62
7
  6
CONTINUOUS
 70
0
 71
3
 72
9
 73
5
 74
0
 42
0.0000001
 43
0.0000001
 44
0.0000000001
 40
0.0
 40
0.0
 40
0.0
 40
0.0
 40
0.2561317665
 40
1.0
 40
1.0
 40
1.0
 40
1.0
 10
16.2366155868
 20
6.2303544419
 30
0.0
 10
16.2376156167
 20
6.2293980781
 30
0.0
 10
16.2416059227
 20
6.2257557472
 30
0.0
 10
16.2459435459
 20
6.2224890022
 30
0.0
 10
16.2493368129
 20
6.2203359997
 30
0.0
  0
SPLINE
  5
64C
100
AcDbEntity
  8
0
100
AcDbSpline
 62
7
  6
CONTINUOUS
 70
0
 71
3
 72
9
 73
5
 74
0
 42
0.0000001
 43
0.0000001
 44
0.0000000001
 40
0.0
 40
0.0
 40
0.0
 40
0.0
 40
0.2438489176
 40
1.0
 40
1.0
 40
1.0
 40
1.0
 10
15.5356100832
 20
6.2203359997
 30
0.0
 10
15.53677719
 20
6.2210765194
 30
0.0
 10
15.541479229
 20
6.2242448719
 30
0.0
 10
15.5458352773
 20
6.2279193074
 30
0.0
 10
15.548906487
 20
6.2309090084
 30
0.0
  0
SPLINE
  5
64D
100
AcDbEntity
  8
0
100
AcDbSpline
 62
7
  6
CONTINUOUS
 70
0
 71
3
 72
15
 73
11
 74
0
 42
0.0000001
 43
0.0000001
 44
0.0000000001
 40
0.0
 40
0.0
 40
0.0
 40
0.0
 40
0.1204990904
 40
0.240975754
 40
0.3624760562
 40
0.485600392
 40
0.6107354357
 40
0.7381278191
 40
0.8678930663
 40
1.0
 40
1.0
 40
1.0
 40
1.0
 10
15.5509387257
 20
6.2328420159
 30
0.0
 10
15.5547134617
 20
6.2363522649
 30
0.0
 10
15.5626864701
 20
6.2429181463
 30
0.0
 10
15.5753611679
 20
6.2518593794
 30
0.0
 10
15.5884630364
 20
6.2603633192
 30
0.0
 10
15.6018111089
 20
6.2688490249
 30
0.0
 10
15.6152077345
 20
6.2777281083
 30
0.0
 10
15.6284206631
 20
6.2873800479
 30
0.0
 10
15.6411575204
 20
6.2981331464
 30
0.0
 10
15.6490403209
 20
6.3061218892
 30
0.0
 10
15.6528056178
 20
6.3103359997
 30
0.0
  0
SPLINE
  5
64E
100
AcDbEntity
  8
0
100
AcDbSpline
 62
9
  6
CONTINUOUS
 70
0
 71
3
 72
23
 73
19
 74
0
 42
0.0000001
 43
0.0000001
 44
0.0000000001
 40
0.0
 40
0.0
 40
0.0
 40
0.0
 40
0.1250324472
 40
0.2500648884
 40
0.375097318
 40
0.5001297738
 40
0.6251622165
 40
0.6876783664
 40
0.7189364795
 40
0.7501946588
 40
0.7814528765
 40
0.8127108725
 40
0.8439685856
 40
0.8752269814
 40
0.9064855184
 40
0.9377452317
 40
0.9689615689
 40
1.0
 40
1.0
 40
1.0
 40
1.0
 10
15.6528056178
 20
6.3103359997
 30
0.0
 10
15.6528056178
 20
6.3217389163
 30
0.0
 10
15.6528064567
 20
6.3445447491
 30
0.0
 10
15.6528096118
 20
6.3787534968
 30
0.0
 10
15.6528140435
 20
6.4129622451
 30
0.0
 10
15.6528189159
 20
6.4471709935
 30
0.0
 10
15.6528226468
 20
6.4756782787
 30
0.0
 10
15.6528254988
 20
6.4956333755
 30
0.0
 10
15.6528267426
 20
6.5070362918
 30
0.0
 10
15.6528273686
 20
6.5155884946
 30
0.0
 10
15.6528275751
 20
6.5241406898
 30
0.0
 10
15.6528283912
 20
6.5326928308
 30
0.0
 10
15.6528308633
 20
6.5412450314
 30
0.0
 10
15.6528304738
 20
6.5497971189
 30
0.0
 10
15.6528229491
 20
6.558349996
 30
0.0
 10
15.652862121
 20
6.5668967713
 30
0.0
 10
15.6527392566
 20
6.5754319022
 30
0.0
 10
15.6521222031
 20
6.5810806868
 30
0.0
 10
15.6518529123
 20
6.5838985429
 30
0.0
  0
SPLINE
  5
64F
100
AcDbEntity
  8
0
100
AcDbSpline
 62
9
  6
CONTINUOUS
 70
0
 71
3
 72
21
 73
17
 74
0
 42
0.0000001
 43
0.0000001
 44
0.0000000001
 40
0.0
 40
0.0
 40
0.0
 40
0.0
 40
0.1411635622
 40
0.2112459458
 40
0.2807236913
 40
0.4168183967
 40
0.4831039362
 40
0.5478136042
 40
0.6107247809
 40
0.671684606
 40
0.7306540991
 40
0.7877211175
 40
0.8430476458
 40
0.8967997703
 40
0.9491063029
 40
1.0
 40
1.0
 40
1.0
 40
1.0
 10
15.6518529124
 20
6.5838985429
 30
0.0
 10
15.6508467717
 20
6.5944163217
 30
0.0
 10
15.6479686427
 20
6.6100719691
 30
0.0
 10
15.6414423993
 20
6.6300678866
 30
0.0
 10
15.6332689089
 20
6.6490356501
 30
0.0
 10
15.6225762367
 20
6.6665371698
 30
0.0
 10
15.6095811909
 20
6.6817701844
 30
0.0
 10
15.5989867817
 20
6.691736235
 30
0.0
 10
15.5876413086
 20
6.7001868678
 30
0.0
 10
15.5757424164
 20
6.7070150132
 30
0.0
 10
15.563507267
 20
6.7121782634
 30
0.0
 10
15.5511615413
 20
6.7157547661
 30
0.0
 10
15.5388963003
 20
6.7179279779
 30
0.0
 10
15.5268463584
 20
6.7189417809
 30
0.0
 10
15.5150941156
 20
6.7191154124
 30
0.0
 10
15.50737187
 20
6.7188995144
 30
0.0
 10
15.5035648347
 20
6.7187686057
 30
0.0
  0
SPLINE
  5
650
100
AcDbEntity
  8
0
100
AcDbSpline
 62
9
  6
CONTINUOUS
 70
0
 71
3
 72
15
 73
11
 74
0
 42
0.0000001
 43
0.0000001
 44
0.0000000001
 40
0.0
 40
0.0
 40
0.0
 40
0.0
 40
0.1309907038
 40
0.2583001244
 40
0.3821971473
 40
0.5034697723
 40
0.6235822876
 40
0.7446867362
 40
0.8693569264
 40
1.0
 40
1.0
 40
1.0
 40
1.0
 10
15.5035648347
 20
6.7187686057
 30
0.0
 10
15.4999804498
 20
6.718644459
 30
0.0
 10
15.4929123891
 20
6.7183939446
 30
0.0
 10
15.4824683721
 20
6.7176800398
 30
0.0
 10
15.4723500082
 20
6.7163149852
 30
0.0
 10
15.4626006118
 20
6.7139863871
 30
0.0
 10
15.4532945881
 20
6.7104427842
 30
0.0
 10
15.4445371513
 20
6.7054927586
 30
0.0
 10
15.4364514358
 20
6.6990349772
 30
0.0
 10
15.4317005079
 20
6.6938680894
 30
0.0
 10
15.4294575721
 20
6.6910816432
 30
0.0
  0
SPLINE
  5
651
100
AcDbEntity
  8
0
100
AcDbSpline
 62
9
  6
CONTINUOUS
 70
0
 71
3
 72
21
 73
17
 74
0
 42
0.0000001
 43
0.0000001
 44
0.0000000001
 40
0.0
 40
0.0
 40
0.0
 40
0.0
 40
0.0509395294
 40
0.1033179706
 40
0.1571699988
 40
0.212602655
 40
0.2697523296
 40
0.3287552829
 40
0.3896948326
 40
0.4525504248
 40
0.5171831234
 40
0.5833840289
 40
0.7193375256
 40
0.7887672479
 40
0.8588208648
 40
1.0
 40
1.0
 40
1.0
 40
1.0
 10
16.2813823964
 20
6.7187686119
 30
0.0
 10
16.2776159827
 20
6.7186381603
 30
0.0
 10
16.2699766203
 20
6.718371375
 30
0.0
 10
16.2583699259
 20
6.7176132764
 30
0.0
 10
16.246489132
 20
6.7161561521
 30
0.0
 10
16.2344106827
 20
6.7136801274
 30
0.0
 10
16.2222563862
 20
6.7099399745
 30
0.0
 10
16.2101960344
 20
6.7047510469
 30
0.0
 10
16.1984388631
 20
6.6980062057
 30
0.0
 10
16.187203514
 20
6.6897031318
 30
0.0
 10
16.1766777771
 20
6.6799355017
 30
0.0
 10
16.1637111658
 20
6.6650144474
 30
0.0
 10
16.152953353
 20
6.6478613526
 30
0.0
 10
16.1446267531
 20
6.6292396379
 30
0.0
 10
16.1378820099
 20
6.6095784469
 30
0.0
 10
16.1347714646
 20
6.5941602327
 30
0.0
 10
16.1335751679
 20
6.5837840755
 30
0.0
  0
SPLINE
  5
652
100
AcDbEntity
  8
0
100
AcDbSpline
 62
9
  6
CONTINUOUS
 70
0
 71
3
 72
16
 73
12
 74
0
 42
0.0000001
 43
0.0000001
 44
0.0000000001
 40
0.0
 40
0.0
 40
0.0
 40
0.0
 40
0.1199877108
 40
0.2504027938
 40
0.3875168231
 40
0.5262545661
 40
0.6613221257
 40
0.7878461312
 40
0.9015370667
 40
0.9527942115
 40
1.0
 40
1.0
 40
1.0
 40
1.0
 10
16.1335751772
 20
6.5837849552
 30
0.0
 10
16.1388945675
 20
6.5828640014
 30
0.0
 10
16.1500440019
 20
6.5812156588
 30
0.0
 10
16.1673891076
 20
6.5793975311
 30
0.0
 10
16.1856376932
 20
6.578258309
 30
0.0
 10
16.2041267579
 20
6.5778494824
 30
0.0
 10
16.2221402682
 20
6.5782377222
 30
0.0
 10
16.2389940804
 20
6.5793559392
 30
0.0
 10
16.2520245542
 20
6.5809014764
 30
0.0
 10
16.2614429083
 20
6.5824609478
 30
0.0
 10
16.2657883544
 20
6.5833284658
 30
0.0
 10
16.2678626189
 20
6.5837849395
 30
0.0
  0
SPLINE
  5
653
100
AcDbEntity
  8
0
100
AcDbSpline
 62
9
  6
CONTINUOUS
 70
0
 71
3
 72
23
 73
19
 74
0
 42
0.0000001
 43
0.0000001
 44
0.0000000001
 40
0.0
 40
0.0
 40
0.0
 40
0.0
 40
0.0311375601
 40
0.0623558232
 40
0.093603736
 40
0.1248587294
 40
0.1561137758
 40
0.1873688169
 40
0.2186238603
 40
0.2498789077
 40
0.3123889982
 40
0.3748990895
 40
0.4374091805
 40
0.4999192715
 40
0.6249394536
 40
0.7499596358
 40
0.8749798179
 40
1.0
 40
1.0
 40
1.0
 40
1.0
 10
16.2678627141
 20
6.5837840755
 30
0.0
 10
16.2681740027
 20
6.5809625636
 30
0.0
 10
16.26865682
 20
6.5752962658
 30
0.0
 10
16.2690597962
 20
6.5667711711
 30
0.0
 10
16.2692291415
 20
6.5582281322
 30
0.0
 10
16.2692624623
 20
6.549680724
 30
0.0
 10
16.2692537287
 20
6.5411327126
 30
0.0
 10
16.2692562697
 20
6.5325846841
 30
0.0
 10
16.2692560926
 20
6.5240366589
 30
0.0
 10
16.26925599
 20
6.5126392902
 30
0.0
 10
16.2692559908
 20
6.4983925796
 30
0.0
 10
16.2692560188
 20
6.4812965269
 30
0.0
 10
16.2692559977
 20
6.4642004742
 30
0.0
 10
16.2692560114
 20
6.4414057372
 30
0.0
 10
16.2692560033
 20
6.412912316
 30
0.0
 10
16.2692560058
 20
6.3787202106
 30
0.0
 10
16.2692560052
 20
6.3445281051
 30
0.0
 10
16.2692560053
 20
6.3217333682
 30
0.0
 10
16.2692560053
 20
6.3103359997
 30
0.0
  0
SPLINE
  5
654
100
AcDbEntity
  8
0
100
AcDbSpline
 62
9
  6
CONTINUOUS
 70
0
 71
3
 72
15
 73
11
 74
0
 42
0.0000001
 43
0.0000001
 44
0.0000000001
 40
0.0
 40
0.0
 40
0.0
 40
0.0
 40
0.123032717
 40
0.2513876435
 40
0.3827317284
 40
0.5149687333
 40
0.6452132856
 40
0.7705611191
 40
0.8889975671
 40
1.0
 40
1.0
 40
1.0
 40
1.0
 10
16.2813806647
 20
6.7187685497
 30
0.0
 10
16.2814086147
 20
6.7170372061
 30
0.0
 10
16.2816280192
 20
6.7135003523
 30
0.0
 10
16.2824502267
 20
6.708169256
 30
0.0
 10
16.2838288471
 20
6.7028172913
 30
0.0
 10
16.2858084945
 20
6.6976270583
 30
0.0
 10
16.2883334225
 20
6.6927736817
 30
0.0
 10
16.2913477254
 20
6.688435771
 30
0.0
 10
16.2948116382
 20
6.6848109164
 30
0.0
 10
16.2974080565
 20
6.6828605083
 30
0.0
 10
16.298736626
 20
6.6820385948
 30
0.0
  0
SPLINE
  5
655
100
AcDbEntity
  8
0
100
AcDbSpline
 62
9
  6
CONTINUOUS
 70
0
 71
3
 72
9
 73
5
 74
0
 42
0.0000001
 43
0.0000001
 44
0.0000000001
 40
0.0
 40
0.0
 40
0.0
 40
0.0
 40
0.519675837
 40
1.0
 40
1.0
 40
1.0
 40
1.0
 10
16.298736626
 20
6.6820385948
 30
0.0
 10
16.3000451978
 20
6.6812290529
 30
0.0
 10
16.3027102175
 20
6.6798885713
 30
0.0
 10
16.3056026978
 20
6.6791425143
 30
0.0
 10
16.30701053
 20
6.6789407226
 30
0.0
  0
SPLINE
  5
656
100
AcDbEntity
  8
0
100
AcDbSpline
 62
9
  6
CONTINUOUS
 70
0
 71
3
 72
19
 73
15
 74
0
 42
0.0000001
 43
0.0000001
 44
0.0000000001
 40
0.0
 40
0.0
 40
0.0
 40
0.0
 40
0.2008289502
 40
0.3809931312
 40
0.5388724336
 40
0.6734180565
 40
0.73192813
 40
0.7846599244
 40
0.8317537509
 40
0.873477338
 40
0.9102889376
 40
0.9428890347
 40
0.9723148326
 40
1.0
 40
1.0
 40
1.0
 40
1.0
 10
14.9885605033
 20
6.6541626382
 30
0.0
 10
14.9864089345
 20
6.6541626384
 30
0.0
 10
14.9823266432
 20
6.6540942089
 30
0.0
 10
14.9765612992
 20
6.6537536565
 30
0.0
 10
14.9715276646
 20
6.6531843925
 30
0.0
 10
14.9678259725
 20
6.6524958104
 30
0.0
 10
14.9652822156
 20
6.6518099871
 30
0.0
 10
14.9636740928
 20
6.6512658475
 30
0.0
 10
14.9622780453
 20
6.6506687294
 30
0.0
 10
14.9610963557
 20
6.6500187146
 30
0.0
 10
14.9601302843
 20
6.649316024
 30
0.0
 10
14.9593817135
 20
6.6485586425
 30
0.0
 10
14.9588561562
 20
6.6477444683
 30
0.0
 10
14.9586593221
 20
6.647156509
 30
0.0
 10
14.9586038284
 20
6.6468651432
 30
0.0
  0
SPLINE
  5
657
100
AcDbEntity
  8
0
100
AcDbSpline
 62
9
  6
CONTINUOUS
 70
0
 71
3
 72
17
 73
13
 74
0
 42
0.0000001
 43
0.0000001
 44
0.0000000001
 40
0.0
 40
0.0
 40
0.0
 40
0.0
 40
0.052628364
 40
0.1093730337
 40
0.2328327578
 40
0.3657718533
 40
0.503403547
 40
0.640592637
 40
0.7722165783
 40
0.8935361064
 40
0.9489134219
 40
1.0
 40
1.0
 40
1.0
 40
1.0
 10
15.1275492163
 20
6.6281584098
 30
0.0
 10
15.1252216158
 20
6.6290448949
 30
0.0
 10
15.1203517723
 20
6.6308022338
 30
0.0
 10
15.1098841879
 20
6.6342480335
 30
0.0
 10
15.0956356314
 20
6.6383441088
 30
0.0
 10
15.0775154129
 20
6.6427667237
 30
0.0
 10
15.0586090974
 20
6.6466545224
 30
0.0
 10
15.0396376871
 20
6.6498565132
 30
0.0
 10
15.0213260901
 20
6.6522529334
 30
0.0
 10
15.0067854955
 20
6.653543342
 30
0.0
 10
14.9960169844
 20
6.6540678386
 30
0.0
 10
14.9909782351
 20
6.6541626381
 30
0.0
 10
14.9885605033
 20
6.6541626381
 30
0.0
  0
SPLINE
  5
658
100
AcDbEntity
  8
0
100
AcDbSpline
 62
9
  6
CONTINUOUS
 70
0
 71
3
 72
17
 73
13
 74
0
 42
0.0000001
 43
0.0000001
 44
0.0000000001
 40
0.0
 40
0.0
 40
0.0
 40
0.0
 40
0.1320025592
 40
0.195389897
 40
0.2573553163
 40
0.3182352473
 40
0.3783867237
 40
0.4978605291
 40
0.6184299682
 40
0.7418218555
 40
0.8689350692
 40
1.0
 40
1.0
 40
1.0
 40
1.0
 10
16.3573901636
 20
6.6916892802
 30
0.0
 10
16.3551429657
 20
6.6946578921
 30
0.0
 10
16.3515136342
 20
6.6988408977
 30
0.0
 10
16.3461303397
 20
6.7037197456
 30
0.0
 10
16.3419538562
 20
6.7069162885
 30
0.0
 10
16.3375976237
 20
6.7096968289
 30
0.0
 10
16.3315830179
 20
6.7128494912
 30
0.0
 10
16.3236145744
 20
6.71582654
 30
0.0
 10
16.3135613822
 20
6.7179732368
 30
0.0
 10
16.3031243858
 20
6.7189578071
 30
0.0
 10
16.2923567074
 20
6.7191110265
 30
0.0
 10
16.2850770114
 20
6.7188956521
 30
0.0
 10
16.2813823964
 20
6.7187686091
 30
0.0
  0
SPLINE
  5
659
100
AcDbEntity
  8
0
100
AcDbSpline
 62
9
  6
CONTINUOUS
 70
0
 71
3
 72
18
 73
14
 74
0
 42
0.0000001
 43
0.0000001
 44
0.0000000001
 40
0.0
 40
0.0
 40
0.0
 40
0.0
 40
0.1478753243
 40
0.2902219458
 40
0.4250048587
 40
0.4893955835
 40
0.551737603
 40
0.6704168523
 40
0.7826570887
 40
0.8373293671
 40
0.8915240095
 40
0.9456256114
 40
1.0
 40
1.0
 40
1.0
 40
1.0
 10
15.1275492163
 20
6.6281584098
 30
0.0
 10
15.1281860898
 20
6.631502825
 30
0.0
 10
15.1298787591
 20
6.6379928807
 30
0.0
 10
15.1336808623
 20
6.6470452503
 30
0.0
 10
15.1378524432
 20
6.6537590766
 30
0.0
 10
15.1416975254
 20
6.6584029054
 30
0.0
 10
15.1457032291
 20
6.662397259
 30
0.0
 10
15.1511813607
 20
6.6664362825
 30
0.0
 10
15.1572953293
 20
6.6690427909
 30
0.0
 10
15.1622854042
 20
6.6701107278
 30
0.0
 10
15.1660365386
 20
6.6704115884
 30
0.0
 10
15.1697869058
 20
6.6702223851
 30
0.0
 10
15.1722519421
 20
6.6697729338
 30
0.0
 10
15.1734666011
 20
6.6694700416
 30
0.0
  0
SPLINE
  5
65A
100
AcDbEntity
  8
0
100
AcDbSpline
 62
9
  6
CONTINUOUS
 70
0
 71
3
 72
13
 73
9
 74
0
 42
0.0000001
 43
0.0000001
 44
0.0000000001
 40
0.0
 40
0.0
 40
0.0
 40
0.0
 40
0.1240090695
 40
0.2489265624
 40
0.5
 40
0.7510734376
 40
0.8759909305
 40
1.0
 40
1.0
 40
1.0
 40
1.0
 10
15.1275492163
 20
6.3525135895
 30
0.0
 10
15.125405779
 20
6.3637694271
 30
0.0
 10
15.1216507288
 20
6.3864719121
 30
0.0
 10
15.1162701941
 20
6.4323697396
 30
0.0
 10
15.1135774269
 20
6.4903359997
 30
0.0
 10
15.1162701941
 20
6.5483022598
 30
0.0
 10
15.1216507289
 20
6.5942000872
 30
0.0
 10
15.125405779
 20
6.6169025722
 30
0.0
 10
15.1275492163
 20
6.6281584098
 30
0.0
  0
SPLINE
  5
65B
100
AcDbEntity
  8
0
100
AcDbSpline
 62
9
  6
CONTINUOUS
 70
0
 71
3
 72
15
 73
11
 74
0
 42
0.0000001
 43
0.0000001
 44
0.0000000001
 40
0.0
 40
0.0
 40
0.0
 40
0.0
 40
0.1064426495
 40
0.2157479635
 40
0.3299571612
 40
0.450664417
 40
0.5784813633
 40
0.7132621539
 40
0.8543194687
 40
1.0
 40
1.0
 40
1.0
 40
1.0
 10
15.1664676962
 20
6.3103359997
 30
0.0
 10
15.1642678912
 20
6.3103359997
 30
0.0
 10
15.1597933528
 20
6.3108633352
 30
0.0
 10
15.1533242136
 20
6.3131793736
 30
0.0
 10
15.1472362009
 20
6.3169524679
 30
0.0
 10
15.1416928901
 20
6.3220573951
 30
0.0
 10
15.1368217422
 20
6.3283461735
 30
0.0
 10
15.1327451726
 20
6.3356573428
 30
0.0
 10
15.12956731
 20
6.3437936949
 30
0.0
 10
15.1281124232
 20
6.3495560198
 30
0.0
 10
15.1275492163
 20
6.3525135895
 30
0.0
  0
SPLINE
  5
65C
100
AcDbEntity
  8
0
100
AcDbSpline
 62
9
  6
CONTINUOUS
 70
0
 71
3
 72
17
 73
13
 74
0
 42
0.0000001
 43
0.0000001
 44
0.0000000001
 40
0.0
 40
0.0
 40
0.0
 40
0.0
 40
0.0510823398
 40
0.1064462999
 40
0.2277144134
 40
0.3593009104
 40
0.4964744
 40
0.6341208929
 40
0.7670972916
 40
0.890609105
 40
0.9473673475
 40
1.0
 40
1.0
 40
1.0
 40
1.0
 10
14.9885605033
 20
6.3265093612
 30
0.0
 10
14.9909780346
 20
6.3265093609
 30
0.0
 10
14.9960159517
 20
6.3266040725
 30
0.0
 10
15.0067812083
 20
6.3271282701
 30
0.0
 10
15.0213169925
 20
6.3284181223
 30
0.0
 10
15.0396237316
 20
6.3308135276
 30
0.0
 10
15.0585934672
 20
6.3340145497
 30
0.0
 10
15.077501613
 20
6.3379020378
 30
0.0
 10
15.0956267147
 20
6.342325463
 30
0.0
 10
15.1098799925
 20
6.3464227649
 30
0.0
 10
15.1203507633
 20
6.3498694707
 30
0.0
 10
15.1252214261
 20
6.3516270321
 30
0.0
 10
15.1275492163
 20
6.3525135895
 30
0.0
  0
SPLINE
  5
65D
100
AcDbEntity
  8
0
100
AcDbSpline
 62
9
  6
CONTINUOUS
 70
0
 71
3
 72
21
 73
17
 74
0
 42
0.0000001
 43
0.0000001
 44
0.0000000001
 40
0.0
 40
0.0
 40
0.0
 40
0.0
 40
0.0725654256
 40
0.1449226749
 40
0.2871025208
 40
0.4239719325
 40
0.4899057728
 40
0.5538919278
 40
0.6158190769
 40
0.6756625518
 40
0.7334618258
 40
0.7893662516
 40
0.843631658
 40
0.8965894345
 40
0.9485919873
 40
1.0
 40
1.0
 40
1.0
 40
1.0
 10
15.1664676962
 20
6.3103359997
 30
0.0
 10
15.1664676962
 20
6.3070709872
 30
0.0
 10
15.1662394684
 20
6.3005477964
 30
0.0
 10
15.1648963261
 20
6.2876919172
 30
0.0
 10
15.1616031189
 20
6.272168744
 30
0.0
 10
15.1561414152
 20
6.2575658932
 30
0.0
 10
15.1505741263
 20
6.2469169178
 30
0.0
 10
15.1459225423
 20
6.2396313738
 30
0.0
 10
15.1407827552
 20
6.2330245883
 30
0.0
 10
15.1352096012
 20
6.2271555275
 30
0.0
 10
15.1292518352
 20
6.2220834895
 30
0.0
 10
15.1229635709
 20
6.2178600948
 30
0.0
 10
15.1164045067
 20
6.2145236466
 30
0.0
 10
15.1096336485
 20
6.212118607
 30
0.0
 10
15.1027290822
 20
6.2106643348
 30
0.0
 10
15.0980700729
 20
6.2103359997
 30
0.0
 10
15.0957570181
 20
6.2103359997
 30
0.0
  0
SPLINE
  5
65E
100
AcDbEntity
  8
0
100
AcDbSpline
 62
7
  6
CONTINUOUS
 70
0
 71
3
 72
21
 73
17
 74
0
 42
0.0000001
 43
0.0000001
 44
0.0000000001
 40
0.0
 40
0.0
 40
0.0
 40
0.0
 40
0.0635414316
 40
0.1267814791
 40
0.252240583
 40
0.314519586
 40
0.3765225804
 40
0.4383175188
 40
0.499999948
 40
0.5616823768
 40
0.623477308
 40
0.6854803019
 40
0.7477593028
 40
0.8732183981
 40
0.9364584509
 40
1.0
 40
1.0
 40
1.0
 40
1.0
 10
16.5489724895
 20
4.8290314964
 30
0.0
 10
16.536216722
 20
4.8363748279
 30
0.0
 10
16.5104807255
 20
4.8505438488
 30
0.0
 10
16.4581093113
 20
4.8764684209
 30
0.0
 10
16.40405344
 20
4.8982947939
 30
0.0
 10
16.3484822086
 20
4.9145208007
 30
0.0
 10
16.306282731
 20
4.9235115023
 30
0.0
 10
16.2636265757
 20
4.9290463431
 30
0.0
 10
16.2207236441
 20
4.9309163714
 30
0.0
 10
16.1778207145
 20
4.929046338
 30
0.0
 10
16.135164561
 20
4.9235114954
 30
0.0
 10
16.092965088
 20
4.9145207885
 30
0.0
 10
16.0373938512
 20
4.8982947936
 30
0.0
 10
15.9833380347
 20
4.8764683389
 30
0.0
 10
15.9309664466
 20
4.8505440083
 30
0.0
 10
15.9052309052
 20
4.8363741034
 30
0.0
 10
15.8924751141
 20
4.8290307584
 30
0.0
  0
LINE
  5
65F
100
AcDbEntity
  8
0
100
AcDbLine
 62
7
  6
CONTINUOUS
 10
15.6015668845
 20
7.0898733059
 11
15.5970094951
 21
7.0865072574
  0
LINE
  5
660
100
AcDbEntity
  8
0
100
AcDbLine
 62
7
  6
CONTINUOUS
 10
15.5970094951
 20
7.0865072574
 11
15.5923136257
 21
7.0837700972
  0
LINE
  5
661
100
AcDbEntity
  8
0
100
AcDbLine
 62
7
  6
CONTINUOUS
 10
15.5923136257
 20
7.0837700972
 11
15.5883027714
 21
7.0820546277
  0
LINE
  5
662
100
AcDbEntity
  8
0
100
AcDbLine
 62
7
  6
CONTINUOUS
 10
15.6246599724
 20
7.0824104795
 11
15.6247142069
 21
7.0819444875
  0
LINE
  5
663
100
AcDbEntity
  8
0
100
AcDbLine
 62
7
  6
CONTINUOUS
 10
15.9343883349
 20
7.1919849259
 11
15.9424736668
 21
7.1917576803
  0
SPLINE
  5
664
100
AcDbEntity
  8
0
100
AcDbSpline
 62
7
  6
CONTINUOUS
 70
0
 71
3
 72
21
 73
17
 74
0
 42
0.0000001
 43
0.0000001
 44
0.0000000001
 40
0.0
 40
0.0
 40
0.0
 40
0.0
 40
0.0635415447
 40
0.1267815987
 40
0.2522406973
 40
0.3145196977
 40
0.3765226892
 40
0.4383176246
 40
0.5000000509
 40
0.5616824766
 40
0.6234774046
 40
0.6854803953
 40
0.7477593929
 40
0.8732184812
 40
0.9364585249
 40
1.0
 40
1.0
 40
1.0
 40
1.0
 10
15.8924722194
 20
4.8290307584
 30
0.0
 10
15.8797164288
 20
4.8363741031
 30
0.0
 10
15.8539808867
 20
4.8505440076
 30
0.0
 10
15.8016092971
 20
4.8764683398
 30
0.0
 10
15.7475534777
 20
4.8982947951
 30
0.0
 10
15.6919822388
 20
4.9145207906
 30
0.0
 10
15.6497827638
 20
4.9235114971
 30
0.0
 10
15.607126609
 20
4.9290463401
 30
0.0
 10
15.5642236782
 20
4.9309163714
 30
0.0
 10
15.521320749
 20
4.9290463411
 30
0.0
 10
15.4786645961
 20
4.9235115011
 30
0.0
 10
15.4364651222
 20
4.9145207986
 30
0.0
 10
15.3808938908
 20
4.8982947988
 30
0.0
 10
15.3268380437
 20
4.8764683959
 30
0.0
 10
15.2744665625
 20
4.8505439219
 30
0.0
 10
15.2487307468
 20
4.8363745522
 30
0.0
 10
15.2359749684
 20
4.8290312184
 30
0.0
  0
SPLINE
  5
665
100
AcDbEntity
  8
0
100
AcDbSpline
 62
9
  6
CONTINUOUS
 70
0
 71
3
 72
19
 73
15
 74
0
 42
0.0000001
 43
0.0000001
 44
0.0000000001
 40
0.0
 40
0.0
 40
0.0
 40
0.0
 40
0.1284704369
 40
0.2626979642
 40
0.3309255923
 40
0.3993548468
 40
0.4674098629
 40
0.5345037772
 40
0.6636493431
 40
0.7844211621
 40
0.841617311
 40
0.8965810154
 40
0.9493041866
 40
1.0
 40
1.0
 40
1.0
 40
1.0
 10
15.5035632054
 20
6.7187685464
 30
0.0
 10
15.503598293
 20
6.7165950554
 30
0.0
 10
15.5034050653
 20
6.71214287
 30
0.0
 10
15.5024894363
 20
6.7066021191
 30
0.0
 10
15.5012799556
 20
6.702177305
 30
0.0
 10
15.5001183774
 20
6.6989106028
 30
0.0
 10
15.4987224682
 20
6.6957574614
 30
0.0
 10
15.4965948551
 20
6.6918204062
 30
0.0
 10
15.4934581386
 20
6.6874280332
 30
0.0
 10
15.4896016123
 20
6.683881087
 30
0.0
 10
15.4862999592
 20
6.6817165317
 30
0.0
 10
15.4838046255
 20
6.6804543002
 30
0.0
 10
15.4812796081
 20
6.6795371425
 30
0.0
 10
15.4795676478
 20
6.6791498595
 30
0.0
 10
15.4787209267
 20
6.6790124734
 30
0.0
  0
SPLINE
  5
666
100
AcDbEntity
  8
0
100
AcDbSpline
 62
9
  6
CONTINUOUS
 70
0
 71
3
 72
15
 73
11
 74
0
 42
0.0000001
 43
0.0000001
 44
0.0000000001
 40
0.0
 40
0.0
 40
0.0
 40
0.0
 40
0.1296778469
 40
0.2679517329
 40
0.4097648478
 40
0.5495204124
 40
0.6818387699
 40
0.8027663624
 40
0.9091945293
 40
1.0
 40
1.0
 40
1.0
 40
1.0
 10
15.6518522839
 20
6.5839039502
 30
0.0
 10
15.6460459151
 20
6.5830693648
 30
0.0
 10
15.6340090468
 20
6.5816123176
 30
0.0
 10
15.6155337663
 20
6.5800670305
 30
0.0
 10
15.5965588829
 20
6.5791757024
 30
0.0
 10
15.5778341435
 20
6.5789365851
 30
0.0
 10
15.5600575723
 20
6.579359073
 30
0.0
 10
15.5438133907
 20
6.5803501277
 30
0.0
 10
15.5294931392
 20
6.5818290935
 30
0.0
 10
15.5206665138
 20
6.5831626427
 30
0.0
 10
15.5166257954
 20
6.5839010371
 30
0.0
  0
SPLINE
  5
667
100
AcDbEntity
  8
0
100
AcDbSpline
 62
9
  6
CONTINUOUS
 70
0
 71
3
 72
30
 73
26
 74
0
 42
0.0000001
 43
0.0000001
 44
0.0000000001
 40
0.0
 40
0.0
 40
0.0
 40
0.0
 40
0.1250154557
 40
0.2500309109
 40
0.3750463658
 40
0.5000618204
 40
0.5625695477
 40
0.6250772751
 40
0.6875850021
 40
0.7500927318
 40
0.7813465882
 40
0.8126004759
 40
0.828227369
 40
0.8438542314
 40
0.8594812227
 40
0.8751084224
 40
0.8907352765
 40
0.9063613748
 40
0.9219889421
 40
0.9376192928
 40
0.9454318633
 40
0.9532417408
 40
0.968853865
 40
0.9844443697
 40
1.0
 40
1.0
 40
1.0
 40
1.0
 10
15.5157146873
 20
6.3103359997
 30
0.0
 10
15.5157145382
 20
6.3217373444
 30
0.0
 10
15.5157139504
 20
6.3445400339
 30
0.0
 10
15.5157108288
 20
6.378744068
 30
0.0
 10
15.5157066914
 20
6.4129481018
 30
0.0
 10
15.5157027802
 20
6.4414514632
 30
0.0
 10
15.5156997382
 20
6.4642541523
 30
0.0
 10
15.5156975413
 20
6.4813561691
 30
0.0
 10
15.5156956468
 20
6.4984581862
 30
0.0
 10
15.5156939908
 20
6.5127098665
 30
0.0
 10
15.5156934575
 20
6.5241112129
 30
0.0
 10
15.5156922439
 20
6.5312370512
 30
0.0
 10
15.5156924887
 20
6.536937716
 30
0.0
 10
15.51569346
 20
6.5412132154
 30
0.0
 10
15.5156929234
 20
6.5454887443
 30
0.0
 10
15.5156883938
 20
6.5497642665
 30
0.0
 10
15.5156865011
 20
6.5540397222
 30
0.0
 10
15.5157010216
 20
6.5583151654
 30
0.0
 10
15.5157040256
 20
6.5625910287
 30
0.0
 10
15.515660827
 20
6.5661540389
 30
0.0
 10
15.5156634266
 20
6.5690043587
 30
0.0
 10
15.5157164174
 20
6.5718526413
 30
0.0
 10
15.5158911092
 20
6.575406993
 30
0.0
 10
15.5162031262
 20
6.5796601142
 30
0.0
 10
15.5164726847
 20
6.5824881408
 30
0.0
 10
15.5166255818
 20
6.5838985429
 30
0.0
  0
SPLINE
  5
668
100
AcDbEntity
  8
0
100
AcDbSpline
 62
9
  6
CONTINUOUS
 70
0
 71
3
 72
15
 73
11
 74
0
 42
0.0000001
 43
0.0000001
 44
0.0000000001
 40
0.0
 40
0.0
 40
0.0
 40
0.0
 40
0.1804091581
 40
0.3441564921
 40
0.4865871383
 40
0.6106489566
 40
0.7208379269
 40
0.8209036541
 40
0.9134094353
 40
1.0
 40
1.0
 40
1.0
 40
1.0
 10
15.5157146873
 20
6.3103359997
 30
0.0
 10
15.5157146289
 20
6.3050489664
 30
0.0
 10
15.5162824711
 20
6.2949516446
 30
0.0
 10
15.5187492603
 20
6.2808747714
 30
0.0
 10
15.5223750423
 20
6.2687676386
 30
0.0
 10
15.5267935776
 20
6.2586229313
 30
0.0
 10
15.5317372926
 20
6.2501408696
 30
0.0
 10
15.5369933683
 20
6.2429745361
 30
0.0
 10
15.5424376079
 20
6.2368540469
 30
0.0
 10
15.5462474633
 20
6.2332348353
 30
0.0
 10
15.5481526945
 20
6.2315586691
 30
0.0
  0
SPLINE
  5
669
100
AcDbEntity
  8
0
100
AcDbSpline
 62
7
  6
CONTINUOUS
 70
0
 71
3
 72
13
 73
9
 74
0
 42
0.0000001
 43
0.0000001
 44
0.0000000001
 40
0.0
 40
0.0
 40
0.0
 40
0.0
 40
0.0985620204
 40
0.200998289
 40
0.4247571821
 40
0.6865537916
 40
0.8361515471
 40
1.0
 40
1.0
 40
1.0
 40
1.0
 10
15.5106360049
 20
6.2103359997
 30
0.0
 10
15.5115314472
 20
6.2103359997
 30
0.0
 10
15.5133590171
 20
6.2104417737
 30
0.0
 10
15.517170799
 20
6.2110834985
 30
0.0
 10
15.522270307
 20
6.2127754415
 30
0.0
 10
15.5274327532
 20
6.2153800233
 30
0.0
 10
15.5319382883
 20
6.2180286255
 30
0.0
 10
15.5343531445
 20
6.2195385078
 30
0.0
 10
15.5356100614
 20
6.2203360109
 30
0.0
  0
SPLINE
  5
66A
100
AcDbEntity
  8
0
100
AcDbSpline
 62
7
  6
CONTINUOUS
 70
0
 71
3
 72
13
 73
9
 74
0
 42
0.0000001
 43
0.0000001
 44
0.0000000001
 40
0.0
 40
0.0
 40
0.0
 40
0.0
 40
0.1638567955
 40
0.3134786175
 40
0.5752952855
 40
0.7990135667
 40
0.9014411558
 40
1.0
 40
1.0
 40
1.0
 40
1.0
 10
16.2493369695
 20
6.2203360475
 30
0.0
 10
16.2505939618
 20
6.2195384949
 30
0.0
 10
16.2530092974
 20
6.2180287624
 30
0.0
 10
16.2575154494
 20
6.2153802168
 30
0.0
 10
16.2626775373
 20
6.2127746449
 30
0.0
 10
16.2677771025
 20
6.2110834914
 30
0.0
 10
16.2715884248
 20
6.2104417938
 30
0.0
 10
16.2734159066
 20
6.2103359997
 30
0.0
 10
16.2743113286
 20
6.2103359997
 30
0.0
  0
LINE
  5
66B
100
AcDbEntity
  8
0
100
AcDbLine
 62
7
  6
CONTINUOUS
 10
15.5680048849
 20
7.0976515318
 11
15.5674380911
 21
7.0972481243
  0
LINE
  5
66C
100
AcDbEntity
  8
0
100
AcDbLine
 62
7
  6
CONTINUOUS
 10
15.5574984839
 20
7.0899792831
 11
15.5569137554
 21
7.0895400266
  0
SPLINE
  5
66D
100
AcDbEntity
  8
0
100
AcDbSpline
 62
7
  6
CONTINUOUS
 70
0
 71
3
 72
15
 73
11
 74
0
 42
0.0000001
 43
0.0000001
 44
0.0000000001
 40
0.0
 40
0.0
 40
0.0
 40
0.0
 40
0.120395645
 40
0.2405196259
 40
0.3616947966
 40
0.4846760392
 40
0.6098952604
 40
0.7375560324
 40
0.867650079
 40
1.0
 40
1.0
 40
1.0
 40
1.0
 10
16.2366155868
 20
6.2303544419
 30
0.0
 10
16.2327872553
 20
6.2340158151
 30
0.0
 10
16.2246273495
 20
6.2407989538
 30
0.0
 10
16.2115377857
 20
6.2498630432
 30
0.0
 10
16.197989534
 20
6.2584296366
 30
0.0
 10
16.1842215579
 20
6.2670653617
 30
0.0
 10
16.170471156
 20
6.2762623932
 30
0.0
 10
16.1569942562
 20
6.2863974394
 30
0.0
 10
16.1440453151
 20
6.297690159
 30
0.0
 10
16.135993744
 20
6.3059903476
 30
0.0
 10
16.1321168465
 20
6.3103355398
 30
0.0
  0
SPLINE
  5
66E
100
AcDbEntity
  8
0
100
AcDbSpline
 62
9
  6
CONTINUOUS
 70
0
 71
3
 72
18
 73
14
 74
0
 42
0.0000001
 43
0.0000001
 44
0.0000000001
 40
0.0
 40
0.0
 40
0.0
 40
0.0
 40
0.092041331
 40
0.1818425019
 40
0.2675318071
 40
0.3479235644
 40
0.4915175447
 40
0.6148096012
 40
0.7230996035
 40
0.7732860541
 40
0.8214766459
 40
0.9132003057
 40
1.0
 40
1.0
 40
1.0
 40
1.0
 10
16.2692560053
 20
6.3103359997
 30
0.0
 10
16.2692566499
 20
6.3075744446
 30
0.0
 10
16.2691683647
 20
6.3021174361
 30
0.0
 10
16.2686630038
 20
6.2941036198
 30
0.0
 10
16.2678169799
 20
6.2864694314
 30
0.0
 10
16.2663002927
 20
6.2772994636
 30
0.0
 10
16.2637215769
 20
6.2671733457
 30
0.0
 10
16.2594655806
 20
6.2567093215
 30
0.0
 10
16.2551135899
 20
6.2494238168
 30
0.0
 10
16.2513957618
 20
6.2444568429
 30
0.0
 10
16.2476876851
 20
6.2401182016
 30
0.0
 10
16.2428225069
 20
6.2353450584
 30
0.0
 10
16.238678556
 20
6.2319434494
 30
0.0
 10
16.2366153567
 20
6.2303542592
 30
0.0
  0
SPLINE
  5
66F
100
AcDbEntity
  8
0
100
AcDbSpline
 62
9
  6
CONTINUOUS
 70
0
 71
3
 72
18
 73
14
 74
0
 42
0.0000001
 43
0.0000001
 44
0.0000000001
 40
0.0
 40
0.0
 40
0.0
 40
0.0
 40
0.0543744016
 40
0.1084760416
 40
0.1626707408
 40
0.2173430752
 40
0.3295833738
 40
0.4482626362
 40
0.510604669
 40
0.5749953976
 40
0.7097782637
 40
0.8521247405
 40
1.0
 40
1.0
 40
1.0
 40
1.0
 10
16.6114807324
 20
6.6694700416
 30
0.0
 10
16.6126953917
 20
6.6697729339
 30
0.0
 10
16.6151604293
 20
6.6702223847
 30
0.0
 10
16.618910799
 20
6.6704115866
 30
0.0
 10
16.6226619368
 20
6.6701107254
 30
0.0
 10
16.6276520158
 20
6.6690427883
 30
0.0
 10
16.6337659855
 20
6.6664362744
 30
0.0
 10
16.6392441179
 20
6.6623972486
 30
0.0
 10
16.6432498191
 20
6.6584028915
 30
0.0
 10
16.6470949008
 20
6.6537590633
 30
0.0
 10
16.6512664758
 20
6.6470452385
 30
0.0
 10
16.6550685783
 20
6.6379928752
 30
0.0
 10
16.656761244
 20
6.6315028235
 30
0.0
 10
16.6573981172
 20
6.6281584098
 30
0.0
  0
SPLINE
  5
670
100
AcDbEntity
  8
0
100
AcDbSpline
 62
9
  6
CONTINUOUS
 70
0
 71
3
 72
13
 73
9
 74
0
 42
0.0000001
 43
0.0000001
 44
0.0000000001
 40
0.0
 40
0.0
 40
0.0
 40
0.0
 40
0.1240090695
 40
0.2489265624
 40
0.5
 40
0.7510734376
 40
0.8759909305
 40
1.0
 40
1.0
 40
1.0
 40
1.0
 10
16.6573981172
 20
6.6281584098
 30
0.0
 10
16.6595415545
 20
6.6169025722
 30
0.0
 10
16.6632966047
 20
6.5942000872
 30
0.0
 10
16.6686771394
 20
6.5483022598
 30
0.0
 10
16.6713699067
 20
6.4903359997
 30
0.0
 10
16.6686771394
 20
6.4323697396
 30
0.0
 10
16.6632966047
 20
6.3864719121
 30
0.0
 10
16.6595415545
 20
6.3637694271
 30
0.0
 10
16.6573981172
 20
6.3525135895
 30
0.0
  0
SPLINE
  5
671
100
AcDbEntity
  8
0
100
AcDbSpline
 62
9
  6
CONTINUOUS
 70
0
 71
3
 72
15
 73
11
 74
0
 42
0.0000001
 43
0.0000001
 44
0.0000000001
 40
0.0
 40
0.0
 40
0.0
 40
0.0
 40
0.1456805706
 40
0.2867379731
 40
0.4215187935
 40
0.54933573
 40
0.6700429787
 40
0.7842521379
 40
0.8935573823
 40
1.0
 40
1.0
 40
1.0
 40
1.0
 10
16.6573981172
 20
6.3525135895
 30
0.0
 10
16.6568349102
 20
6.349556019
 30
0.0
 10
16.6553800216
 20
6.3437936918
 30
0.0
 10
16.6522021585
 20
6.3356573365
 30
0.0
 10
16.6481255862
 20
6.328346166
 30
0.0
 10
16.6432544371
 20
6.3220573882
 30
0.0
 10
16.6377111262
 20
6.3169524627
 30
0.0
 10
16.6316231144
 20
6.3131793716
 30
0.0
 10
16.6251539781
 20
6.3108633335
 30
0.0
 10
16.6206794416
 20
6.3103359997
 30
0.0
 10
16.6184796373
 20
6.3103359997
 30
0.0
  0
SPLINE
  5
672
100
AcDbEntity
  8
0
100
AcDbSpline
 62
9
  6
CONTINUOUS
 70
0
 71
3
 72
19
 73
15
 74
0
 42
0.0000001
 43
0.0000001
 44
0.0000000001
 40
0.0
 40
0.0
 40
0.0
 40
0.0
 40
0.1321072362
 40
0.2651567585
 40
0.3984858384
 40
0.5294016515
 40
0.5929944894
 40
0.6548737368
 40
0.7147072509
 40
0.7724230159
 40
0.8284955935
 40
0.8839459755
 40
0.9404077122
 40
1.0
 40
1.0
 40
1.0
 40
1.0
 10
16.267862718
 20
6.5837840762
 30
0.0
 10
16.267420768
 20
6.5885391259
 30
0.0
 10
16.2668412839
 20
6.5981157495
 30
0.0
 10
16.2670778007
 20
6.6125353481
 30
0.0
 10
16.2686090407
 20
6.6268362924
 30
0.0
 10
16.2710958388
 20
6.6384544952
 30
0.0
 10
16.2739174178
 20
6.64728983
 30
0.0
 10
16.2764285865
 20
6.6535080611
 30
0.0
 10
16.2793921229
 20
6.65928924
 30
0.0
 10
16.2828526276
 20
6.6645435554
 30
0.0
 10
16.2868880627
 20
6.6691711167
 30
0.0
 10
16.2915823334
 20
6.6730703708
 30
0.0
 10
16.2970148277
 20
6.6761288193
 30
0.0
 10
16.3010152915
 20
6.6774785074
 30
0.0
 10
16.3031059123
 20
6.6779980147
 30
0.0
  0
SPLINE
  5
673
100
AcDbEntity
  8
0
100
AcDbSpline
 62
7
  6
CONTINUOUS
 70
0
 71
3
 72
9
 73
5
 74
0
 42
0.0000001
 43
0.0000001
 44
0.0000000001
 40
0.0
 40
0.0
 40
0.0
 40
0.0
 40
0.2413806762
 40
1.0
 40
1.0
 40
1.0
 40
1.0
 10
15.6200907246
 20
7.0976538527
 30
0.0
 10
15.6191943251
 20
7.0960991834
 30
0.0
 10
15.615543105
 20
7.0896225347
 30
0.0
 10
15.612132863
 20
7.0830110793
 30
0.0
 10
15.609662795
 20
7.0779406526
 30
0.0
  0
LINE
  5
674
100
AcDbEntity
  8
0
100
AcDbLine
 62
7
  6
CONTINUOUS
 10
15.5550984787
 20
7.0881679698
 11
15.5530960972
 21
7.0867090989
  0
LINE
  5
675
100
AcDbEntity
  8
0
100
AcDbLine
 62
7
  6
CONTINUOUS
 10
15.5861382531
 20
7.1013679208
 11
15.5854081785
 21
7.1012545936
  0
LINE
  5
676
100
AcDbEntity
  8
0
100
AcDbLine
 62
7
  6
CONTINUOUS
 10
15.5854081785
 20
7.1012545936
 11
15.5849204941
 21
7.1010242287
  0
SPLINE
  5
677
100
AcDbEntity
  8
0
100
AcDbSpline
 62
9
  6
CONTINUOUS
 70
0
 71
3
 72
19
 73
15
 74
0
 42
0.0000001
 43
0.0000001
 44
0.0000000001
 40
0.0
 40
0.0
 40
0.0
 40
0.0
 40
0.2008289497
 40
0.3809931302
 40
0.5388724324
 40
0.6734180554
 40
0.731928129
 40
0.7846599237
 40
0.8317537503
 40
0.8734773376
 40
0.9102889372
 40
0.9428890344
 40
0.9723148324
 40
1.0
 40
1.0
 40
1.0
 40
1.0
 10
16.7963868302
 20
6.3265093612
 30
0.0
 10
16.798538399
 20
6.3265093609
 30
0.0
 10
16.8026206903
 20
6.3265777904
 30
0.0
 10
16.8083860343
 20
6.3269183427
 30
0.0
 10
16.8134196689
 20
6.3274876066
 30
0.0
 10
16.817121361
 20
6.3281761887
 30
0.0
 10
16.8196651179
 20
6.328862012
 30
0.0
 10
16.8212732407
 20
6.3294061516
 30
0.0
 10
16.8226692882
 20
6.3300032697
 30
0.0
 10
16.8238509778
 20
6.3306532845
 30
0.0
 10
16.8248170492
 20
6.3313559752
 30
0.0
 10
16.8255656199
 20
6.3321133567
 30
0.0
 10
16.8260911773
 20
6.3329275308
 30
0.0
 10
16.8262880114
 20
6.3335154902
 30
0.0
 10
16.826343505
 20
6.333806856
 30
0.0
  0
SPLINE
  5
678
100
AcDbEntity
  8
0
100
AcDbSpline
 62
9
  6
CONTINUOUS
 70
0
 71
3
 72
21
 73
17
 74
0
 42
0.0000001
 43
0.0000001
 44
0.0000000001
 40
0.0
 40
0.0
 40
0.0
 40
0.0
 40
0.0514048593
 40
0.1033961082
 40
0.1563331782
 40
0.21057488
 40
0.2664590935
 40
0.3242458771
 40
0.3840768774
 40
0.4459978048
 40
0.5099853472
 40
0.5759223528
 40
0.7128226306
 40
0.855058025
 40
0.9274303146
 40
1.0
 40
1.0
 40
1.0
 40
1.0
 10
16.6891903163
 20
6.2103359997
 30
0.0
 10
16.6868774026
 20
6.2103359997
 30
0.0
 10
16.6822190523
 20
6.2106640611
 30
0.0
 10
16.675315873
 20
6.2121173935
 30
0.0
 10
16.6685474978
 20
6.2145218946
 30
0.0
 10
16.6619905882
 20
6.2178560314
 30
0.0
 10
16.6557037615
 20
6.2220770905
 30
0.0
 10
16.6497473067
 20
6.2271474533
 30
0.0
 10
16.6441730222
 20
6.2330134909
 30
0.0
 10
16.6390332758
 20
6.2396194188
 30
0.0
 10
16.6343811986
 20
6.2469044901
 30
0.0
 10
16.6288102785
 20
6.2575533815
 30
0.0
 10
16.6233467372
 20
6.2721600519
 30
0.0
 10
16.6200519802
 20
6.2876875362
 30
0.0
 10
16.6187080839
 20
6.300546736
 30
0.0
 10
16.6184796382
 20
6.3070707944
 30
0.0
 10
16.6184796382
 20
6.3103359997
 30
0.0
  0
SPLINE
  5
679
100
AcDbEntity
  8
0
100
AcDbSpline
 62
9
  6
CONTINUOUS
 70
0
 71
3
 72
17
 73
13
 74
0
 42
0.0000001
 43
0.0000001
 44
0.0000000001
 40
0.0
 40
0.0
 40
0.0
 40
0.0
 40
0.052628364
 40
0.1093730337
 40
0.2328327578
 40
0.3657718533
 40
0.5034035471
 40
0.640592637
 40
0.7722165783
 40
0.8935361064
 40
0.9489134219
 40
1.0
 40
1.0
 40
1.0
 40
1.0
 10
16.6573981172
 20
6.3525135895
 30
0.0
 10
16.6597257177
 20
6.3516271045
 30
0.0
 10
16.6645955612
 20
6.3498697655
 30
0.0
 10
16.6750631456
 20
6.3464239659
 30
0.0
 10
16.6893117021
 20
6.3423278905
 30
0.0
 10
16.7074319206
 20
6.3379052756
 30
0.0
 10
16.7263382361
 20
6.3340174769
 30
0.0
 10
16.7453096464
 20
6.3308154862
 30
0.0
 10
16.7636212434
 20
6.3284190659
 30
0.0
 10
16.778161838
 20
6.3271286573
 30
0.0
 10
16.7889303491
 20
6.3266041607
 30
0.0
 10
16.7939690984
 20
6.3265093612
 30
0.0
 10
16.7963868302
 20
6.3265093612
 30
0.0
  0
SPLINE
  5
67A
100
AcDbEntity
  8
0
100
AcDbSpline
 62
9
  6
CONTINUOUS
 70
0
 71
3
 72
17
 73
13
 74
0
 42
0.0000001
 43
0.0000001
 44
0.0000000001
 40
0.0
 40
0.0
 40
0.0
 40
0.0
 40
0.0510823397
 40
0.1064462997
 40
0.2277144134
 40
0.3593009104
 40
0.4964744002
 40
0.6341208932
 40
0.767097292
 40
0.8906091054
 40
0.9473673478
 40
1.0
 40
1.0
 40
1.0
 40
1.0
 10
16.7963868302
 20
6.6541626382
 30
0.0
 10
16.7939692989
 20
6.6541626384
 30
0.0
 10
16.7889313818
 20
6.6540679268
 30
0.0
 10
16.7781661253
 20
6.653543729
 30
0.0
 10
16.763630341
 20
6.6522538768
 30
0.0
 10
16.745323602
 20
6.6498584716
 30
0.0
 10
16.7263538664
 20
6.6466574495
 30
0.0
 10
16.7074457205
 20
6.6427699614
 30
0.0
 10
16.6893206188
 20
6.6383465361
 30
0.0
 10
16.6750673411
 20
6.6342492343
 30
0.0
 10
16.6645965702
 20
6.6308025289
 30
0.0
 10
16.6597259073
 20
6.6290449676
 30
0.0
 10
16.6573981171
 20
6.6281584103
 30
0.0
  0
SPLINE
  5
67B
100
AcDbEntity
  8
0
100
AcDbSpline
 62
9
  6
CONTINUOUS
 70
0
 71
3
 72
18
 73
14
 74
0
 42
0.0000001
 43
0.0000001
 44
0.0000000001
 40
0.0
 40
0.0
 40
0.0
 40
0.0
 40
0.1465728732
 40
0.2888798438
 40
0.4248618089
 40
0.4901820097
 40
0.5535713634
 40
0.6743160208
 40
0.7876726973
 40
0.8421085021
 40
0.8953911013
 40
0.9478893284
 40
1.0
 40
1.0
 40
1.0
 40
1.0
 10
16.6114807324
 20
6.6694700416
 30
0.0
 10
16.6107731924
 20
6.6751447986
 30
0.0
 10
16.6100628814
 20
6.6864285974
 30
0.0
 10
16.6111449577
 20
6.7030145986
 30
0.0
 10
16.6138727463
 20
6.716195148
 30
0.0
 10
16.6171357823
 20
6.7260040989
 30
0.0
 10
16.6209520972
 20
6.7349670852
 30
0.0
 10
16.6268629536
 20
6.7450348011
 30
0.0
 10
16.6344216978
 20
6.7535014304
 30
0.0
 10
16.6411867438
 20
6.7588798644
 30
0.0
 10
16.6465138797
 20
6.7621798752
 30
0.0
 10
16.6521205741
 20
6.7647683109
 30
0.0
 10
16.6560236939
 20
6.7660043599
 30
0.0
 10
16.6579965548
 20
6.7664958178
 30
0.0
  0
ENDSEC
  0
SECTION
  2
OBJECTS
  0
DICTIONARY
  5
C
100
AcDbDictionary
280
0
281
1
  3
ACAD_GROUP
350
D
  3
ACAD_MLINESTYLE
350
17
  3
ACAD_LAYOUT
350
1A
  3
ACAD_PLOTSETTINGS
350
19
  3
ACAD_PLOTSTYLENAME
350
E
  0
DICTIONARY
  5
D
102
{ACAD_REACTORS
330
C
102
}
100
AcDbDictionary
280
0
281
1
  0
ACDBDICTIONARYWDFLT
  5
E
102
{ACAD_REACTORS
330
C
102
}
100
AcDbDictionary
281
1
  3
Normal
350
F
100
AcDbDictionaryWithDefault
340
F
  0
DICTIONARY
  5
17
102
{ACAD_REACTORS
330
C
102
}
100
AcDbDictionary
280
0
281
1
  3
Standard
350
18
  0
DICTIONARY
  5
19
102
{ACAD_REACTORS
330
C
102
}
100
AcDbDictionary
281
1
  0
DICTIONARY
  5
1A
102
{ACAD_REACTORS
330
C
102
}
100
AcDbDictionary
281
1
  3
Model
350
67C
  3
Layout1
350
67D
  0
ACDBPLACEHOLDER
  5
F
102
{ACAD_REACTORS
330
E
102
}
  0
MLINESTYLE
  5
18
102
{ACAD_REACTORS
330
17
102
}
100
AcDbMlineStyle
  2
STANDARD
 70
0
  3

 62
256
 51
90.0
 52
90.0
 71
2
 49
0.5
 62
256
  6
BYLAYER
 49
-0.5
 62
256
  6
BYLAYER
  0
LAYOUT
  5
67C
102
{ACAD_REACTORS
330
1A
102
}
100
AcDbPlotSettings
  1

  2
none_device
  4
ANSI_C_(22.00_x_17.00_Inches)
  6

 40
0.0
 41
0.0
 42
0.0
 43
0.0
 44
558.8
 45
431.8
 46
0.0
 47
0.0
 48
0.0
 49
0.0
140
0.0
141
0.0
142
1.0
143
1.0
 70
1024
 72
0
 73
0
 74
0
  7

 75
0
147
1.0
148
0.0
149
0.0
100
AcDbLayout
  1
Model
 70
0
 71
0
 10
0.0
 20
0.0
 11
22.0
 21
17.0
 12
0.0
 22
0.0
 32
0.0
 14
0.0
 24
0.0
 34
0.0
 15
0.0
 25
0.0
 35
0.0
146
0.0
 13
0.0
 23
0.0
 33
0.0
 16
1.0
 26
0.0
 36
0.0
 17
0.0
 27
1.0
 37
0.0
 76
0
330
202
345
0
346
0
  0
LAYOUT
  5
67D
102
{ACAD_REACTORS
330
1A
102
}
100
AcDbPlotSettings
  1

  2
none_device
  4
ANSI_C_(22.00_x_17.00_Inches)
  6

 40
0.0
 41
0.0
 42
0.0
 43
0.0
 44
558.8
 45
431.8
 46
0.0
 47
0.0
 48
0.0
 49
0.0
140
0.0
141
0.0
142
1.0
143
1.0
 70
0
 72
0
 73
0
 74
0
  7

 75
0
147
1.0
148
0.0
149
0.0
100
AcDbLayout
  1
Layout1
 70
0
 71
1
 10
0.0
 20
0.0
 11
22.0
 21
17.0
 12
0.0
 22
0.0
 32
0.0
 14
0.0
 24
0.0
 34
0.0
 15
0.0
 25
0.0
 35
0.0
146
0.0
 13
0.0
 23
0.0
 33
0.0
 16
1.0
 26
0.0
 36
0.0
 17
0.0
 27
1.0
 37
0.0
 76
0
330
203
345
0
346
0
  0
ENDSEC
  0
EOF
