999
DXF file: E:\BT Custom\CADOUTPUT\_TOP.dxf
999
Pro/ENGINEER 2018400 by Parametric Technology Corporation
  0
SECTION
  2
HEADER
  9
$ACADVER
  1
AC1018
  9
$DWGCODEPAGE
  3
ANSI_1252
  9
$EXTMAX
 10
22.0
 20
17.0
 30
0.0
  9
$EXTMIN
 10
0.0
 20
0.0
 30
0.0
  9
$LIMMIN
 10
0.0
 20
0.0
  9
$LIMMAX
 10
22.0
 20
17.0
  9
$VIEWCTR
 10
11.0
 20
8.5
  9
$VIEWSIZE
 40
17.0
  9
$CLAYER
  8
0
  9
$LTSCALE
 40
1.21
  9
$CELTYPE
  6
BYLAYER
  9
$DIMSCALE
 40
1.0
  9
$DIMASZ
 40
0.1
  9
$DIMEXO
 40
0.0625
  9
$DIMDLI
 40
0.836
  9
$DIMEXE
 40
0.125
  9
$DIMCEN
 40
0.198
  9
$DIMLFAC
 40
1.0
  9
$DIMBLK
  1
_FILLED
  9
$DIMALT
 70
1
  9
$DIMALTD
 70
2
  9
$DIMALTTD
 70
2
  9
$DIMALTF
 40
25.4
  9
$DIMTXT
 40
0.08
  9
$DIMTOL
 70
1
  9
$DIMLIM
 70
0
  9
$DIMTFAC
 40
1.0
  9
$DIMTP
 40
0.001
  9
$DIMTM
 40
0.001
  9
$DIMGAP
 40
0.09
  9
$DIMDSEP
 70
46
  9
$AUNITS
 70
0
  9
$PDMODE
 70
3
  9
$PDSIZE
 40
0.06
  9
$HANDSEED
  5
333
  9
$TILEMODE
 70
1
  9
$MEASUREMENT
 70
0
  9
$INSUNITS
 70
1
  0
ENDSEC
  0
SECTION
  2
CLASSES
  0
CLASS
  1
ACDBDICTIONARYWDFLT
  2
AcDbDictionaryWithDefault
  3
AutoCAD 2000
 90
0
 91
1
280
0
281
0
  0
CLASS
  1
ACDBPLACEHOLDER
  2
AcDbPlaceHolder
  3
AutoCAD 2000
 90
0
 91
1
280
0
281
0
  0
CLASS
  1
LAYOUT
  2
AcDbLayout
  3
AutoCAD 2000
 90
0
 91
0
280
0
281
0
  0
ENDSEC
  0
SECTION
  2
TABLES
  0
TABLE
  2
VPORT
  5
8
100
AcDbSymbolTable
 70
2
  0
VPORT
  5
1F4
100
AcDbSymbolTableRecord
100
AcDbViewportTableRecord
  2
*ACTIVE
 70
0
 10
0.0
 20
0.0
 11
1.0
 21
1.0
 12
11.0
 22
8.5
 13
0.0
 23
0.0
 14
1.0
 24
1.0
 15
0.0
 25
0.0
 16
0.0
 26
0.0
 36
1.0
 17
0.0
 27
0.0
 37
0.0
 40
17.0
 41
1.2941176471
 42
50.0
 43
0.0
 44
0.0
 50
0.0
 51
0.0
 71
0
 72
100
 73
1
 74
1
 75
0
 76
0
 77
0
 78
0
  0
ENDTAB
  0
TABLE
  2
LTYPE
  5
5
100
AcDbSymbolTable
 70
6
  0
LTYPE
  5
14
100
AcDbSymbolTableRecord
100
AcDbLinetypeTableRecord
  2
BYBLOCK
 70
0
  3

 72
65
 73
0
 40
0.0
  0
LTYPE
  5
15
100
AcDbSymbolTableRecord
100
AcDbLinetypeTableRecord
  2
BYLAYER
 70
0
  3

 72
65
 73
0
 40
0.0
  0
LTYPE
  5
16
100
AcDbSymbolTableRecord
100
AcDbLinetypeTableRecord
  2
CONTINUOUS
 70
64
  3
Solid line
 72
65
 73
0
 40
0.0
  0
LTYPE
  5
1F5
100
AcDbSymbolTableRecord
100
AcDbLinetypeTableRecord
  2
CENTER
 70
64
  3
____ _ ____ _ ____ _ ____ _ ____ _ ____ _ ____
 72
65
 73
4
 40
0.6
 49
0.375
 74
0
 49
-0.075
 74
0
 49
0.075
 74
0
 49
-0.075
 74
0
  0
LTYPE
  5
1F6
100
AcDbSymbolTableRecord
100
AcDbLinetypeTableRecord
  2
HIDDEN
 70
64
  3
- - - - - - - - - - - - - - - - - - - -
 72
65
 73
2
 40
0.2
 49
0.1
 74
0
 49
-0.1
 74
0
  0
LTYPE
  5
1F7
100
AcDbSymbolTableRecord
100
AcDbLinetypeTableRecord
  2
PHANTOM
 70
64
  3
_____ _ _ _____ _ _ _____ _ _ _____
 72
65
 73
6
 40
0.8
 49
0.45
 74
0
 49
-0.05
 74
0
 49
0.1
 74
0
 49
-0.05
 74
0
 49
0.1
 74
0
 49
-0.05
 74
0
  0
LTYPE
  5
1F8
100
AcDbSymbolTableRecord
100
AcDbLinetypeTableRecord
  2
DOT
 70
64
  3
. . . . . . . . . . . . . . . . . . . .
 72
65
 73
2
 40
0.2
 49
0.1
 74
0
 49
-0.1
 74
0
  0
LTYPE
  5
1F9
100
AcDbSymbolTableRecord
100
AcDbLinetypeTableRecord
  2
DASHED
 70
64
  3
- - - - - - - - - - - - - - - - - - - -
 72
65
 73
2
 40
0.2
 49
0.1
 74
0
 49
-0.1
 74
0
  0
ENDTAB
  0
TABLE
  2
LAYER
  5
2
100
AcDbSymbolTable
 70
36
  0
LAYER
  5
10
100
AcDbSymbolTableRecord
100
AcDbLayerTableRecord
  2
0
 70
0
 62
7
  6
CONTINUOUS
370
-3
390
F
  0
LAYER
  5
1FA
100
AcDbSymbolTableRecord
100
AcDbLayerTableRecord
  2
DEFAULT_1
 70
0
 62
7
  6
CENTER
370
-3
390
F
  0
LAYER
  5
1FB
100
AcDbSymbolTableRecord
100
AcDbLayerTableRecord
  2
DEFAULT_2
 70
0
 62
8
  6
HIDDEN
370
-3
390
F
  0
LAYER
  5
1FC
100
AcDbSymbolTableRecord
100
AcDbLayerTableRecord
  2
DEFAULT_3
 70
0
 62
7
  6
PHANTOM
370
-3
390
F
  0
LAYER
  5
1FD
100
AcDbSymbolTableRecord
100
AcDbLayerTableRecord
  2
ALL_FEATURES
 70
0
 62
7
  6
CONTINUOUS
370
-3
390
F
  0
LAYER
  5
1FE
100
AcDbSymbolTableRecord
100
AcDbLayerTableRecord
  2
AXES_FEATURES
 70
0
 62
7
  6
CONTINUOUS
370
-3
390
F
  0
LAYER
  5
1FF
100
AcDbSymbolTableRecord
100
AcDbLayerTableRecord
  2
DEFAULT_COORDINATE_SYSTEM
 70
0
 62
7
  6
CONTINUOUS
370
-3
390
F
  0
LAYER
  5
200
100
AcDbSymbolTableRecord
100
AcDbLayerTableRecord
  2
DEFAULT_DATUM_AXES
 70
0
 62
7
  6
CONTINUOUS
370
-3
390
F
  0
LAYER
  5
201
100
AcDbSymbolTableRecord
100
AcDbLayerTableRecord
  2
DEFAULT_DATUM_PLANES
 70
0
 62
7
  6
CONTINUOUS
370
-3
390
F
  0
LAYER
  5
202
100
AcDbSymbolTableRecord
100
AcDbLayerTableRecord
  2
DIMENSIONS
 70
0
 62
7
  6
CONTINUOUS
370
-3
390
F
  0
ENDTAB
  0
TABLE
  2
STYLE
  5
3
100
AcDbSymbolTable
 70
1
  0
STYLE
  5
11
100
AcDbSymbolTableRecord
100
AcDbTextStyleTableRecord
  2
STANDARD
 70
0
 40
0.0
 41
0.8
 50
0.0
 71
0
 42
0.2
  3
txt
  4

  0
STYLE
  5
203
100
AcDbSymbolTableRecord
100
AcDbTextStyleTableRecord
  2
TEXTSTYLE_1
 70
0
 40
0.0
 41
0.8
 50
0.0
 71
0
 42
0.2
  3
gdt
  4

  0
ENDTAB
  0
TABLE
  2
VIEW
  5
6
100
AcDbSymbolTable
 70
0
  0
ENDTAB
  0
TABLE
  2
UCS
  5
7
100
AcDbSymbolTable
 70
0
  0
ENDTAB
  0
TABLE
  2
APPID
  5
9
100
AcDbSymbolTable
 70
1
  0
APPID
  5
204
100
AcDbSymbolTableRecord
100
AcDbRegAppTableRecord
  2
ACAD
 70
0
  0
ENDTAB
  0
TABLE
  2
BLOCK_RECORD
  5
1
100
AcDbSymbolTable
 70
0
  0
BLOCK_RECORD
  5
205
100
AcDbSymbolTableRecord
100
AcDbBlockTableRecord
  2
*Model_Space
  0
BLOCK_RECORD
  5
206
100
AcDbSymbolTableRecord
100
AcDbBlockTableRecord
  2
*Paper_Space
  0
BLOCK_RECORD
  5
207
100
AcDbSymbolTableRecord
100
AcDbBlockTableRecord
  2
_FILLED
  0
ENDTAB
  0
TABLE
  2
DIMSTYLE
  5
A
100
AcDbSymbolTable
 70
1
100
AcDbDimStyleTable
 71
0
  0
DIMSTYLE
105
208
100
AcDbSymbolTableRecord
100
AcDbDimStyleTableRecord
  2
STANDARD
 70
0
  3

  4

 40
1.0
 41
0.1
 42
0.0625
 43
0.38
 44
0.125
 45
0.0
 46
0.0
 47
0.001
 48
0.001
140
0.08
141
0.09
142
0.0
143
25.4
144
1.0
145
0.0
146
1.0
147
0.09
 71
1.0
 72
0.0
 73
1
 74
1
 75
0
 76
0
 77
0
 78
4
 79
1
170
1
171
2
172
0
173
0
174
0
175
0
176
0
177
0
178
0
270
2
179
3
271
3
272
3
273
2
274
2
275
0
280
0
281
0
282
0
283
1
284
4
285
0
286
0
287
3
288
0
340
11
278
46
341
207
342
207
343
207
344
207
  0
ENDTAB
  0
ENDSEC
  0
SECTION
  2
BLOCKS
  0
BLOCK
  5
20
100
AcDbEntity
  8
0
100
AcDbBlockBegin
  2
*Model_Space
 70
0
 10
0.0
 20
0.0
 30
0.0
  3
*Model_Space
  1

  0
ENDBLK
  5
21
100
AcDbEntity
  8
0
100
AcDbBlockEnd
  0
BLOCK
  5
1C
100
AcDbEntity
  8
0
100
AcDbBlockBegin
  2
*Paper_Space
 70
0
 10
0.0
 20
0.0
 30
0.0
  3
*Paper_Space
  1

  0
ENDBLK
  5
1D
100
AcDbEntity
  8
0
100
AcDbBlockEnd
  0
BLOCK
  5
209
100
AcDbEntity
  8
0
100
AcDbBlockBegin
  2
_FILLED
 70
64
 10
0.0
 20
0.0
  3
_FILLED
  1

  0
SOLID
  5
20A
100
AcDbEntity
  8
0
  6
BYBLOCK
 62
0
100
AcDbTrace
 10
0.0
 20
0.0
 11
-1.0
 21
0.2
 12
-1.0
 22
-0.2
 13
-1.0
 23
-0.2
  0
ENDBLK
  5
20B
100
AcDbEntity
  8
0
  6
BYBLOCK
 62
0
100
AcDbBlockEnd
  0
ENDSEC
  0
SECTION
  2
ENTITIES
  0
LINE
  5
20C
100
AcDbEntity
  8
0
100
AcDbLine
 62
7
  6
CONTINUOUS
 10
9.1423183383
 20
5.3277726261
 11
9.1423183383
 21
5.1983375589
  0
LINE
  5
20D
100
AcDbEntity
  8
0
100
AcDbLine
 62
7
  6
CONTINUOUS
 10
9.4273183383
 20
5.4851550294
 11
9.4273183383
 21
5.4611215783
  0
LINE
  5
20E
100
AcDbEntity
  8
0
100
AcDbLine
 62
7
  6
CONTINUOUS
 10
9.6473190087
 20
10.8532409815
 11
9.6473190087
 21
10.8192595446
  0
LINE
  5
20F
100
AcDbEntity
  8
0
100
AcDbLine
 62
7
  6
CONTINUOUS
 10
9.8573183383
 20
11.6072409815
 11
9.8573183383
 21
11.3750677343
  0
LINE
  5
210
100
AcDbEntity
  8
0
100
AcDbLine
 62
7
  6
CONTINUOUS
 10
11.8053740287
 20
10.1662965115
 11
11.6884817779
 21
10.0497409815
  0
LINE
  5
211
100
AcDbEntity
  8
0
100
AcDbLine
 62
7
  6
CONTINUOUS
 10
10.6410683383
 20
8.7756279241
 11
10.5198183383
 21
8.7362409815
  0
LINE
  5
212
100
AcDbEntity
  8
0
100
AcDbLine
 62
7
  6
CONTINUOUS
 10
10.2892574348
 20
10.4162409815
 11
10.2892574348
 21
10.1662964394
  0
LINE
  5
213
100
AcDbEntity
  8
0
100
AcDbLine
 62
7
  6
CONTINUOUS
 10
10.2973183383
 20
7.1072409815
 11
10.2973183383
 21
6.5864093274
  0
LINE
  5
214
100
AcDbEntity
  8
0
100
AcDbLine
 62
7
  6
CONTINUOUS
 10
10.3063183383
 20
10.4782409815
 11
10.3063183383
 21
10.4162409815
  0
LINE
  5
215
100
AcDbEntity
  8
0
100
AcDbLine
 62
7
  6
CONTINUOUS
 10
11.6619523325
 20
9.6065421699
 11
11.5878183383
 21
9.5006245427
  0
LINE
  5
216
100
AcDbEntity
  8
0
100
AcDbLine
 62
7
  6
CONTINUOUS
 10
10.5458183383
 20
8.1512409815
 11
10.5198183383
 21
8.1362409815
  0
LINE
  5
217
100
AcDbEntity
  8
0
100
AcDbLine
 62
7
  6
CONTINUOUS
 10
11.0468569633
 20
6.5342423438
 11
11.0478254781
 21
6.5342423832
  0
LINE
  5
218
100
AcDbEntity
  8
0
100
AcDbLine
 62
7
  6
CONTINUOUS
 10
10.4723183383
 20
6.6208627351
 11
10.4723183383
 21
5.9561823608
  0
LINE
  5
219
100
AcDbEntity
  8
0
100
AcDbLine
 62
7
  6
CONTINUOUS
 10
10.4898183383
 20
8.2472409815
 11
10.4898183383
 21
8.6572409815
  0
LINE
  5
21A
100
AcDbEntity
  8
0
100
AcDbLine
 62
7
  6
CONTINUOUS
 10
10.5198183383
 20
8.1362409815
 11
10.5198183383
 21
8.0649568844
  0
LINE
  5
21B
100
AcDbEntity
  8
0
100
AcDbLine
 62
7
  6
CONTINUOUS
 10
10.5948183383
 20
7.1370506854
 11
10.5948183383
 21
6.909271898
  0
LINE
  5
21C
100
AcDbEntity
  8
0
100
AcDbLine
 62
7
  6
CONTINUOUS
 10
10.6410683383
 20
11.1903838792
 11
10.6410683383
 21
7.3425012461
  0
LINE
  5
21D
100
AcDbEntity
  8
0
100
AcDbLine
 62
7
  6
CONTINUOUS
 10
10.6410683383
 20
7.2603898439
 11
10.6410683383
 21
7.2429926138
  0
LINE
  5
21E
100
AcDbEntity
  8
0
100
AcDbLine
 62
7
  6
CONTINUOUS
 10
10.6410683383
 20
7.2091612713
 11
10.6410683383
 21
7.1932751954
  0
LINE
  5
21F
100
AcDbEntity
  8
0
100
AcDbLine
 62
7
  6
CONTINUOUS
 10
10.6410683383
 20
7.1578614209
 11
10.6410683383
 21
7.1435459954
  0
LINE
  5
220
100
AcDbEntity
  8
0
100
AcDbLine
 62
7
  6
CONTINUOUS
 10
10.6410685839
 20
7.3119853632
 11
10.6410683383
 21
7.2927813287
  0
LINE
  5
221
100
AcDbEntity
  8
0
100
AcDbLine
 62
7
  6
CONTINUOUS
 10
11.5765106536
 20
8.1672409815
 11
11.5488183383
 21
8.1512409815
  0
LINE
  5
222
100
AcDbEntity
  8
0
100
AcDbLine
 62
7
  6
CONTINUOUS
 10
11.5525987595
 20
8.0427373056
 11
11.5018282944
 21
8.0262409815
  0
LINE
  5
223
100
AcDbEntity
  8
0
100
AcDbLine
 62
9
  6
CONTINUOUS
 10
11.7973183383
 20
7.1072409815
 11
11.4998183383
 21
7.1072409815
  0
LINE
  5
224
100
AcDbEntity
  8
0
100
AcDbLine
 62
9
  6
CONTINUOUS
 10
10.5948183383
 20
7.1072409815
 11
10.2973183383
 21
7.1072409815
  0
LINE
  5
225
100
AcDbEntity
  8
0
100
AcDbLine
 62
7
  6
CONTINUOUS
 10
11.5748183383
 20
8.0649568844
 11
11.5525987595
 21
8.0427373056
  0
LINE
  5
226
100
AcDbEntity
  8
0
100
AcDbLine
 62
9
  6
CONTINUOUS
 10
10.6410685839
 20
7.3119853632
 11
10.6434073427
 21
7.3129383397
  0
LINE
  5
227
100
AcDbEntity
  8
0
100
AcDbLine
 62
7
  6
CONTINUOUS
 10
10.5198183383
 20
8.0649568844
 11
10.5420379171
 21
8.0427373056
  0
LINE
  5
228
100
AcDbEntity
  8
0
100
AcDbLine
 62
7
  6
CONTINUOUS
 10
11.1568904109
 20
6.7382189364
 11
11.1568904109
 21
6.5988284967
  0
LINE
  5
229
100
AcDbEntity
  8
0
100
AcDbLine
 62
7
  6
CONTINUOUS
 10
11.1770814628
 20
6.2247651893
 11
11.1770814628
 21
5.9772778159
  0
LINE
  5
22A
100
AcDbEntity
  8
0
100
AcDbLine
 62
7
  6
CONTINUOUS
 10
11.3727462656
 20
6.82634172
 11
11.3727462656
 21
6.6869512803
  0
LINE
  5
22B
100
AcDbEntity
  8
0
100
AcDbLine
 62
7
  6
CONTINUOUS
 10
11.4535683383
 20
7.2860343074
 11
11.4535683383
 21
7.2678936138
  0
LINE
  5
22C
100
AcDbEntity
  8
0
100
AcDbLine
 62
7
  6
CONTINUOUS
 10
11.4535683383
 20
7.2347689064
 11
11.4535683383
 21
7.2182144969
  0
LINE
  5
22D
100
AcDbEntity
  8
0
100
AcDbLine
 62
7
  6
CONTINUOUS
 10
11.4535683383
 20
7.1834307389
 11
11.4535683383
 21
7.1684124525
  0
LINE
  5
22E
100
AcDbEntity
  8
0
100
AcDbLine
 62
7
  6
CONTINUOUS
 10
11.4675552138
 20
6.3433506016
 11
11.4675552138
 21
6.0958632282
  0
LINE
  5
22F
100
AcDbEntity
  8
0
100
AcDbLine
 62
7
  6
CONTINUOUS
 10
11.4535683383
 20
11.1903838792
 11
11.4535680927
 21
7.3421853913
  0
LINE
  5
230
100
AcDbEntity
  8
0
100
AcDbLine
 62
7
  6
CONTINUOUS
 10
10.5420379171
 20
8.0427373056
 11
10.5928083822
 21
8.0262409815
  0
LINE
  5
231
100
AcDbEntity
  8
0
100
AcDbLine
 62
7
  6
CONTINUOUS
 10
10.518126023
 20
8.1672409815
 11
10.5458183383
 21
8.1512409815
  0
LINE
  5
232
100
AcDbEntity
  8
0
100
AcDbLine
 62
7
  6
CONTINUOUS
 10
11.4998183383
 20
7.1370506854
 11
11.4998183383
 21
6.909271898
  0
LINE
  5
233
100
AcDbEntity
  8
0
100
AcDbLine
 62
7
  6
CONTINUOUS
 10
11.5748183383
 20
8.1362409815
 11
11.5748183383
 21
8.0649568844
  0
LINE
  5
234
100
AcDbEntity
  8
0
100
AcDbLine
 62
7
  6
CONTINUOUS
 10
11.6048183383
 20
8.2472409815
 11
11.6048183383
 21
8.6572409815
  0
LINE
  5
235
100
AcDbEntity
  8
0
100
AcDbLine
 62
7
  6
CONTINUOUS
 10
11.6223183383
 20
6.6208627351
 11
11.6223183383
 21
5.9561823608
  0
LINE
  5
236
100
AcDbEntity
  8
0
100
AcDbLine
 62
7
  6
CONTINUOUS
 10
11.7883183383
 20
10.4782409815
 11
11.7883183383
 21
10.4162409815
  0
LINE
  5
237
100
AcDbEntity
  8
0
100
AcDbLine
 62
7
  6
CONTINUOUS
 10
11.7973183383
 20
7.1072409815
 11
11.7973183383
 21
6.5866041366
  0
LINE
  5
238
100
AcDbEntity
  8
0
100
AcDbLine
 62
7
  6
CONTINUOUS
 10
11.8053792417
 20
10.4162409815
 11
11.8053792417
 21
10.1662983646
  0
LINE
  5
239
100
AcDbEntity
  8
0
100
AcDbLine
 62
7
  6
CONTINUOUS
 10
10.5928083822
 20
8.0262409815
 11
10.6410683383
 21
8.0262409815
  0
LINE
  5
23A
100
AcDbEntity
  8
0
100
AcDbLine
 62
7
  6
CONTINUOUS
 10
11.4535683383
 20
8.0262409815
 11
11.5018282944
 21
8.0262409815
  0
LINE
  5
23B
100
AcDbEntity
  8
0
100
AcDbLine
 62
7
  6
CONTINUOUS
 10
10.5420379171
 20
8.0427373056
 11
10.6410683383
 21
8.0427373056
  0
LINE
  5
23C
100
AcDbEntity
  8
0
100
AcDbLine
 62
7
  6
CONTINUOUS
 10
11.4535683383
 20
8.0427373056
 11
11.5525987595
 21
8.0427373056
  0
LINE
  5
23D
100
AcDbEntity
  8
0
100
AcDbLine
 62
7
  6
CONTINUOUS
 10
10.5198183383
 20
8.0649568844
 11
10.6410683383
 21
8.0649568844
  0
LINE
  5
23E
100
AcDbEntity
  8
0
100
AcDbLine
 62
7
  6
CONTINUOUS
 10
11.4535683383
 20
8.0649568844
 11
11.5748183383
 21
8.0649568844
  0
LINE
  5
23F
100
AcDbEntity
  8
0
100
AcDbLine
 62
7
  6
CONTINUOUS
 10
10.5198183383
 20
8.1362409815
 11
10.6410683383
 21
8.1362409815
  0
LINE
  5
240
100
AcDbEntity
  8
0
100
AcDbLine
 62
7
  6
CONTINUOUS
 10
11.4535683383
 20
8.1362409815
 11
11.5748183383
 21
8.1362409815
  0
LINE
  5
241
100
AcDbEntity
  8
0
100
AcDbLine
 62
7
  6
CONTINUOUS
 10
10.5458183383
 20
8.1512409815
 11
10.6410683383
 21
8.1512409815
  0
LINE
  5
242
100
AcDbEntity
  8
0
100
AcDbLine
 62
7
  6
CONTINUOUS
 10
11.4535683383
 20
8.1512409815
 11
11.5488183383
 21
8.1512409815
  0
LINE
  5
243
100
AcDbEntity
  8
0
100
AcDbLine
 62
7
  6
CONTINUOUS
 10
10.518126023
 20
8.1672409815
 11
10.6410683383
 21
8.1672409815
  0
LINE
  5
244
100
AcDbEntity
  8
0
100
AcDbLine
 62
7
  6
CONTINUOUS
 10
11.4535683383
 20
8.1672409815
 11
11.5765106536
 21
8.1672409815
  0
LINE
  5
245
100
AcDbEntity
  8
0
100
AcDbLine
 62
7
  6
CONTINUOUS
 10
10.4898183383
 20
8.2472409815
 11
10.6410683383
 21
8.2472409815
  0
LINE
  5
246
100
AcDbEntity
  8
0
100
AcDbLine
 62
7
  6
CONTINUOUS
 10
11.4535683383
 20
8.2472409815
 11
11.6048183383
 21
8.2472409815
  0
LINE
  5
247
100
AcDbEntity
  8
0
100
AcDbLine
 62
7
  6
CONTINUOUS
 10
10.4326843441
 20
9.6065421699
 11
10.5068183383
 21
9.5006245427
  0
LINE
  5
248
100
AcDbEntity
  8
0
100
AcDbLine
 62
9
  6
CONTINUOUS
 10
11.8598183383
 20
8.3572409815
 11
11.6048183383
 21
8.3572409815
  0
LINE
  5
249
100
AcDbEntity
  8
0
100
AcDbLine
 62
9
  6
CONTINUOUS
 10
10.4898183383
 20
8.3572409815
 11
10.2348183383
 21
8.3572409815
  0
LINE
  5
24A
100
AcDbEntity
  8
0
100
AcDbLine
 62
7
  6
CONTINUOUS
 10
10.4898183383
 20
8.6572409815
 11
10.6410683383
 21
8.6572409815
  0
LINE
  5
24B
100
AcDbEntity
  8
0
100
AcDbLine
 62
7
  6
CONTINUOUS
 10
11.4535683383
 20
8.6572409815
 11
11.6048183383
 21
8.6572409815
  0
LINE
  5
24C
100
AcDbEntity
  8
0
100
AcDbLine
 62
7
  6
CONTINUOUS
 10
11.5488183383
 20
8.1512409815
 11
11.5748183383
 21
8.1362409815
  0
LINE
  5
24D
100
AcDbEntity
  8
0
100
AcDbLine
 62
7
  6
CONTINUOUS
 10
12.2373183383
 20
11.6072409815
 11
12.2373183383
 21
11.3750677343
  0
LINE
  5
24E
100
AcDbEntity
  8
0
100
AcDbLine
 62
7
  6
CONTINUOUS
 10
12.4473176679
 20
10.8532409815
 11
12.4473176679
 21
10.8192595446
  0
LINE
  5
24F
100
AcDbEntity
  8
0
100
AcDbLine
 62
7
  6
CONTINUOUS
 10
11.4675552138
 20
6.3433506016
 11
11.1770814628
 21
6.2247651893
  0
LINE
  5
250
100
AcDbEntity
  8
0
100
AcDbLine
 62
7
  6
CONTINUOUS
 10
11.4675552138
 20
6.0958632282
 11
11.1770814628
 21
5.9772778159
  0
LINE
  5
251
100
AcDbEntity
  8
0
100
AcDbLine
 62
7
  6
CONTINUOUS
 10
10.5198183383
 20
8.7362409815
 11
10.6410683383
 21
8.7362409815
  0
LINE
  5
252
100
AcDbEntity
  8
0
100
AcDbLine
 62
7
  6
CONTINUOUS
 10
11.4535683383
 20
8.7362409815
 11
11.5748183383
 21
8.7362409815
  0
LINE
  5
253
100
AcDbEntity
  8
0
100
AcDbLine
 62
7
  6
CONTINUOUS
 10
11.4535683383
 20
8.7756279241
 11
11.5748183383
 21
8.7362409815
  0
LINE
  5
254
100
AcDbEntity
  8
0
100
AcDbLine
 62
7
  6
CONTINUOUS
 10
10.289265592
 20
10.1662935758
 11
10.4061548986
 21
10.0497409815
  0
LINE
  5
255
100
AcDbEntity
  8
0
100
AcDbLine
 62
7
  6
CONTINUOUS
 10
12.6673183383
 20
5.4851550294
 11
12.6673183383
 21
5.4611215783
  0
LINE
  5
256
100
AcDbEntity
  8
0
100
AcDbLine
 62
7
  6
CONTINUOUS
 10
12.9523183383
 20
5.3277726261
 11
12.9523183383
 21
5.1983375589
  0
LINE
  5
257
100
AcDbEntity
  8
0
100
AcDbLine
 62
9
  6
CONTINUOUS
 10
11.4770580658
 20
9.1946417388
 11
11.4535683383
 21
9.1946417388
  0
LINE
  5
258
100
AcDbEntity
  8
0
100
AcDbLine
 62
9
  6
CONTINUOUS
 10
10.6410683383
 20
9.1946417388
 11
10.6175786107
 21
9.1946417388
  0
LINE
  5
259
100
AcDbEntity
  8
0
100
AcDbLine
 62
9
  6
CONTINUOUS
 10
11.4535683383
 20
9.3572409815
 11
10.6410683383
 21
9.3572409815
  0
LINE
  5
25A
100
AcDbEntity
  8
0
100
AcDbLine
 62
9
  6
CONTINUOUS
 10
10.5068183383
 20
9.5006245427
 11
10.6410683383
 21
9.5006245427
  0
LINE
  5
25B
100
AcDbEntity
  8
0
100
AcDbLine
 62
9
  6
CONTINUOUS
 10
11.4535683383
 20
9.5006245427
 11
11.5878183383
 21
9.5006245427
  0
LINE
  5
25C
100
AcDbEntity
  8
0
100
AcDbLine
 62
9
  6
CONTINUOUS
 10
10.4326843441
 20
9.6065421699
 11
10.6410683383
 21
9.6065421699
  0
LINE
  5
25D
100
AcDbEntity
  8
0
100
AcDbLine
 62
9
  6
CONTINUOUS
 10
11.4535683383
 20
9.6065421699
 11
11.6619523325
 21
9.6065421699
  0
LINE
  5
25E
100
AcDbEntity
  8
0
100
AcDbLine
 62
9
  6
CONTINUOUS
 10
11.9848183383
 20
9.6072409815
 11
11.6624059363
 21
9.6072409815
  0
LINE
  5
25F
100
AcDbEntity
  8
0
100
AcDbLine
 62
9
  6
CONTINUOUS
 10
10.4322307402
 20
9.6072409815
 11
10.1098183383
 21
9.6072409815
  0
LINE
  5
260
100
AcDbEntity
  8
0
100
AcDbLine
 62
9
  6
CONTINUOUS
 10
10.4288183383
 20
9.8347409815
 11
10.6410683383
 21
9.8347409815
  0
LINE
  5
261
100
AcDbEntity
  8
0
100
AcDbLine
 62
9
  6
CONTINUOUS
 10
11.4535683383
 20
9.8347409815
 11
11.6658183383
 21
9.8347409815
  0
LINE
  5
262
100
AcDbEntity
  8
0
100
AcDbLine
 62
9
  6
CONTINUOUS
 10
10.4061548986
 20
10.0497409815
 11
10.6410683383
 21
10.0497409815
  0
LINE
  5
263
100
AcDbEntity
  8
0
100
AcDbLine
 62
9
  6
CONTINUOUS
 10
11.4535683383
 20
10.0497409815
 11
11.6884817779
 21
10.0497409815
  0
LINE
  5
264
100
AcDbEntity
  8
0
100
AcDbLine
 62
9
  6
CONTINUOUS
 10
9.8626887563
 20
10.3572409817
 11
9.8598183383
 21
10.3572409815
  0
LINE
  5
265
100
AcDbEntity
  8
0
100
AcDbLine
 62
9
  6
CONTINUOUS
 10
12.23194792
 20
10.3572409817
 11
12.2348183383
 21
10.3572409815
  0
LINE
  5
266
100
AcDbEntity
  8
0
100
AcDbLine
 62
7
  6
CONTINUOUS
 10
10.2892574348
 20
10.4162409815
 11
10.6410683383
 21
10.4162409815
  0
LINE
  5
267
100
AcDbEntity
  8
0
100
AcDbLine
 62
7
  6
CONTINUOUS
 10
11.4535683383
 20
10.4162409815
 11
11.8053792417
 21
10.4162409815
  0
LINE
  5
268
100
AcDbEntity
  8
0
100
AcDbLine
 62
7
  6
CONTINUOUS
 10
10.2343156645
 20
10.4782409815
 11
10.6410683383
 21
10.4782409815
  0
LINE
  5
269
100
AcDbEntity
  8
0
100
AcDbLine
 62
7
  6
CONTINUOUS
 10
11.4535683383
 20
10.4782409815
 11
11.8603210121
 21
10.4782409815
  0
LINE
  5
26A
100
AcDbEntity
  8
0
100
AcDbLine
 62
7
  6
CONTINUOUS
 10
10.0473183383
 20
10.6662409815
 11
10.6410683383
 21
10.6662409815
  0
LINE
  5
26B
100
AcDbEntity
  8
0
100
AcDbLine
 62
7
  6
CONTINUOUS
 10
11.4535683383
 20
10.6662409815
 11
12.0473183383
 21
10.6662409815
  0
LINE
  5
26C
100
AcDbEntity
  8
0
100
AcDbLine
 62
7
  6
CONTINUOUS
 10
13.800896524
 20
10.8532409815
 11
11.4535683383
 21
10.8532409815
  0
LINE
  5
26D
100
AcDbEntity
  8
0
100
AcDbLine
 62
7
  6
CONTINUOUS
 10
10.6410683383
 20
10.8532409815
 11
8.2937401526
 21
10.8532409815
  0
LINE
  5
26E
100
AcDbEntity
  8
0
100
AcDbLine
 62
7
  6
CONTINUOUS
 10
11.4945333056
 20
11.1903838792
 11
11.4978849088
 21
11.1905716878
  0
LINE
  5
26F
100
AcDbEntity
  8
0
100
AcDbLine
 62
9
  6
CONTINUOUS
 10
14.0191074311
 20
10.9812409815
 11
11.4535683383
 21
10.9812409815
  0
LINE
  5
270
100
AcDbEntity
  8
0
100
AcDbLine
 62
9
  6
CONTINUOUS
 10
10.6410683383
 20
10.9812409815
 11
8.0755292454
 21
10.9812409815
  0
LINE
  5
271
100
AcDbEntity
  8
0
100
AcDbLine
 62
7
  6
CONTINUOUS
 10
7.8541822079
 20
11.1092311463
 11
10.6410683383
 21
11.1092311463
  0
LINE
  5
272
100
AcDbEntity
  8
0
100
AcDbLine
 62
7
  6
CONTINUOUS
 10
11.4535683383
 20
11.1092311463
 11
14.2404544687
 21
11.1092311463
  0
LINE
  5
273
100
AcDbEntity
  8
0
100
AcDbLine
 62
7
  6
CONTINUOUS
 10
10.600103371
 20
11.1903838792
 11
11.4945333056
 21
11.1903838792
  0
LINE
  5
274
100
AcDbEntity
  8
0
100
AcDbLine
 62
9
  6
CONTINUOUS
 10
11.4978849088
 20
11.1905716878
 11
10.5967517678
 21
11.1905716878
  0
LINE
  5
275
100
AcDbEntity
  8
0
100
AcDbLine
 62
9
  6
CONTINUOUS
 10
14.4563911441
 20
11.2332387863
 11
11.7897512665
 21
11.2332387863
  0
LINE
  5
276
100
AcDbEntity
  8
0
100
AcDbLine
 62
9
  6
CONTINUOUS
 10
10.3048854101
 20
11.2332387863
 11
7.6382455324
 21
11.2332387863
  0
LINE
  5
277
100
AcDbEntity
  8
0
100
AcDbLine
 62
7
  6
CONTINUOUS
 10
10.600103371
 20
11.1903838792
 11
10.5967517678
 21
11.1905716878
  0
LINE
  5
278
100
AcDbEntity
  8
0
100
AcDbLine
 62
9
  6
CONTINUOUS
 10
12.2007135508
 20
11.3268954572
 11
9.8939231258
 21
11.3268954572
  0
LINE
  5
279
100
AcDbEntity
  8
0
100
AcDbLine
 62
7
  6
CONTINUOUS
 10
14.6723183383
 20
11.3572409815
 11
12.2339716885
 21
11.3572409815
  0
LINE
  5
27A
100
AcDbEntity
  8
0
100
AcDbLine
 62
7
  6
CONTINUOUS
 10
9.8606649881
 20
11.3572409815
 11
7.4223183383
 21
11.3572409815
  0
LINE
  5
27B
100
AcDbEntity
  8
0
100
AcDbLine
 62
9
  6
CONTINUOUS
 10
12.2373183383
 20
11.3750677343
 11
9.8573183383
 21
11.3750677343
  0
LINE
  5
27C
100
AcDbEntity
  8
0
100
AcDbLine
 62
7
  6
CONTINUOUS
 10
14.9223183383
 20
11.6072409815
 11
7.1723183383
 21
11.6072409815
  0
ARC
  5
27D
100
AcDbEntity
  8
0
100
AcDbCircle
 62
7
  6
CONTINUOUS
 10
10.3091862935
 20
8.6606869932
 40
1.36
100
AcDbArc
 50
338.7260279914
 51
342.3017225173
  0
ARC
  5
27E
100
AcDbEntity
  8
0
100
AcDbCircle
 62
7
  6
CONTINUOUS
 10
10.3190195575
 20
8.214159166
 40
1.36
100
AcDbArc
 50
19.0137742001
 51
22.5744557109
  0
ARC
  5
27F
100
AcDbEntity
  8
0
100
AcDbCircle
 62
7
  6
CONTINUOUS
 10
9.9753458832
 20
4.8977697154
 40
1.0779616633
100
AcDbArc
 50
176.7935381178
 51
188.3562050941
  0
ARC
  5
280
100
AcDbEntity
  8
0
100
AcDbCircle
 62
9
  6
CONTINUOUS
 10
10.2374523767
 20
5.4851553934
 40
0.8101340256
100
AcDbArc
 50
180.0000257385
 51
181.6981938345
  0
ARC
  5
281
100
AcDbEntity
  8
0
100
AcDbCircle
 62
7
  6
CONTINUOUS
 10
9.9947794362
 20
9.1422376529
 40
0.625
100
AcDbArc
 50
4.8096995456
 51
34.9889904702
  0
ARC
  5
282
100
AcDbEntity
  8
0
100
AcDbCircle
 62
7
  6
CONTINUOUS
 10
11.0473154093
 20
6.4539837393
 40
0.4890034313
100
AcDbArc
 50
28.6906911147
 51
34.9069201791
  0
ARC
  5
283
100
AcDbEntity
  8
0
100
AcDbCircle
 62
7
  6
CONTINUOUS
 10
10.8452033216
 20
7.3425340271
 40
0.2041349858
100
AcDbArc
 50
180.0092008348
 51
188.6073365714
  0
ARC
  5
284
100
AcDbEntity
  8
0
100
AcDbCircle
 62
7
  6
CONTINUOUS
 10
10.5997934594
 20
9.7235053847
 40
0.2039751211
100
AcDbArc
 50
146.9521644936
 51
214.9889904702
  0
ARC
  5
285
100
AcDbEntity
  8
0
100
AcDbCircle
 62
7
  6
CONTINUOUS
 10
10.8338796916
 20
7.2092216824
 40
0.1928132658
100
AcDbArc
 50
184.7349484066
 51
185.2360502383
  0
ARC
  5
286
100
AcDbEntity
  8
0
100
AcDbCircle
 62
7
  6
CONTINUOUS
 10
10.8332925395
 20
7.2604023277
 40
0.1922242016
100
AcDbArc
 50
180.0037210064
 51
185.1856091755
  0
ARC
  5
287
100
AcDbEntity
  8
0
100
AcDbCircle
 62
7
  6
CONTINUOUS
 10
10.8332856795
 20
7.1578493306
 40
0.1922173284
100
AcDbArc
 50
174.6962286385
 51
179.9963961588
  0
ARC
  5
288
100
AcDbEntity
  8
0
100
AcDbCircle
 62
7
  6
CONTINUOUS
 10
10.8332167991
 20
7.2091711089
 40
0.1921484611
100
AcDbArc
 50
180.0029334427
 51
184.7362361156
  0
ARC
  5
289
100
AcDbEntity
  8
0
100
AcDbCircle
 62
7
  6
CONTINUOUS
 10
10.8330728017
 20
7.2091581189
 40
0.1920044634
100
AcDbArc
 50
174.9461163356
 51
179.9990593217
  0
ARC
  5
28A
100
AcDbEntity
  8
0
100
AcDbCircle
 62
7
  6
CONTINUOUS
 10
10.8330557631
 20
7.2603870472
 40
0.1919874249
100
AcDbArc
 50
175.1808626498
 51
179.9991653736
  0
ARC
  5
28B
100
AcDbEntity
  8
0
100
AcDbCircle
 62
7
  6
CONTINUOUS
 10
10.8330391509
 20
7.3116753407
 40
0.1919708174
100
AcDbArc
 50
175.5296595598
 51
179.9074703649
  0
ARC
  5
28C
100
AcDbEntity
  8
0
100
AcDbCircle
 62
7
  6
CONTINUOUS
 10
10.8329731175
 20
7.1578622952
 40
0.191904766
100
AcDbArc
 50
180.0002610258
 51
184.2636975408
  0
ARC
  5
28D
100
AcDbEntity
  8
0
100
AcDbCircle
 62
7
  6
CONTINUOUS
 10
10.2850438047
 20
9.928280006
 40
0.1715245336
100
AcDbArc
 50
326.9521644936
 51
45.0826423158
  0
ARC
  5
28E
100
AcDbEntity
  8
0
100
AcDbCircle
 62
7
  6
CONTINUOUS
 10
10.6484694498
 20
9.1972409815
 40
0.031
100
AcDbArc
 50
184.8096995457
 51
256.177430654
  0
ARC
  5
28F
100
AcDbEntity
  8
0
100
AcDbCircle
 62
7
  6
CONTINUOUS
 10
10.6598183383
 20
8.0314413285
 40
0.03
100
AcDbArc
 50
189.9852021673
 51
231.2516820882
  0
ARC
  5
290
100
AcDbEntity
  8
0
100
AcDbCircle
 62
7
  6
CONTINUOUS
 10
10.9951444261
 20
15.6624003973
 40
4.5
100
AcDbArc
 50
276.4144817261
 51
285.5395954904
  0
ARC
  5
291
100
AcDbEntity
  8
0
100
AcDbCircle
 62
7
  6
CONTINUOUS
 10
10.7111024954
 20
10.8196412731
 40
1.0637835553
100
AcDbArc
 50
178.1748939692
 51
180.0205600371
  0
ARC
  5
292
100
AcDbEntity
  8
0
100
AcDbCircle
 62
7
  6
CONTINUOUS
 10
7.8541822079
 20
11.3592421237
 40
0.2500109774
100
AcDbArc
 50
210.2644101313
 51
270.0
  0
ARC
  5
293
100
AcDbEntity
  8
0
100
AcDbCircle
 62
7
  6
CONTINUOUS
 10
7.8573183383
 20
10.8592409815
 40
0.25
100
AcDbArc
 50
29.2092119338
 51
89.9253794282
  0
ARC
  5
294
100
AcDbEntity
  8
0
100
AcDbCircle
 62
7
  6
CONTINUOUS
 10
7.4223183383
 20
11.6072409815
 40
0.25
100
AcDbArc
 50
180.0
 51
270.0
  0
ARC
  5
295
100
AcDbEntity
  8
0
100
AcDbCircle
 62
7
  6
CONTINUOUS
 10
7.4223183383
 20
11.1072409815
 40
0.25
100
AcDbArc
 50
30.2644101313
 51
90.0
  0
ARC
  5
296
100
AcDbEntity
  8
0
100
AcDbCircle
 62
7
  6
CONTINUOUS
 10
8.2937401526
 20
11.1032409815
 40
0.25
100
AcDbArc
 50
209.2092119338
 51
270.0
  0
ARC
  5
297
100
AcDbEntity
  8
0
100
AcDbCircle
 62
7
  6
CONTINUOUS
 10
10.0544544494
 20
10.8532409815
 40
0.1871361111
100
AcDbArc
 50
180.0
 51
267.8145949287
  0
ARC
  5
298
100
AcDbEntity
  8
0
100
AcDbCircle
 62
7
  6
CONTINUOUS
 10
10.2343156645
 20
10.6652409815
 40
0.187
100
AcDbArc
 50
179.6936039968
 51
270.0
  0
ARC
  5
299
100
AcDbEntity
  8
0
100
AcDbCircle
 62
7
  6
CONTINUOUS
 10
9.9073183383
 20
11.3750677343
 40
0.05
100
AcDbArc
 50
180.0
 51
254.4604045097
  0
ARC
  5
29A
100
AcDbEntity
  8
0
100
AcDbCircle
 62
9
  6
CONTINUOUS
 10
11.0608071844
 20
6.5758428288
 40
2.5143186009
100
AcDbArc
 50
278.9551232816
 51
280.9066755833
  0
ARC
  5
29B
100
AcDbEntity
  8
0
100
AcDbCircle
 62
7
  6
CONTINUOUS
 10
11.785450383
 20
8.6606869932
 40
1.36
100
AcDbArc
 50
197.6982774827
 51
201.2739720086
  0
ARC
  5
29C
100
AcDbEntity
  8
0
100
AcDbCircle
 62
7
  6
CONTINUOUS
 10
11.7756171191
 20
8.214159166
 40
1.36
100
AcDbArc
 50
157.4255442891
 51
160.9862257999
  0
ARC
  5
29D
100
AcDbEntity
  8
0
100
AcDbCircle
 62
7
  6
CONTINUOUS
 10
12.1192877851
 20
4.8977698699
 40
1.0779646622
100
AcDbArc
 50
351.6438023755
 51
3.206444737
  0
ARC
  5
29E
100
AcDbEntity
  8
0
100
AcDbCircle
 62
7
  6
CONTINUOUS
 10
12.0998572404
 20
9.1422376529
 40
0.625
100
AcDbArc
 50
145.0110095298
 51
175.1903004544
  0
ARC
  5
29F
100
AcDbEntity
  8
0
100
AcDbCircle
 62
7
  6
CONTINUOUS
 10
11.0760866279
 20
6.845883663
 40
0.562191223
100
AcDbArc
 50
291.1902600043
 51
292.2069278873
  0
ARC
  5
2A0
100
AcDbEntity
  8
0
100
AcDbCircle
 62
7
  6
CONTINUOUS
 10
11.0782892809
 20
6.8141342834
 40
0.5299389795
100
AcDbArc
 50
292.2054296838
 51
293.2833093341
  0
ARC
  5
2A1
100
AcDbEntity
  8
0
100
AcDbCircle
 62
7
  6
CONTINUOUS
 10
11.0473196376
 20
6.4539847449
 40
0.489001519
100
AcDbArc
 50
145.0926920755
 51
151.3093205758
  0
ARC
  5
2A2
100
AcDbEntity
  8
0
100
AcDbCircle
 62
7
  6
CONTINUOUS
 10
11.2760175477
 20
6.5711683895
 40
0.233808901
100
AcDbArc
 50
4.4704986203
 51
8.622461515
  0
ARC
  5
2A3
100
AcDbEntity
  8
0
100
AcDbCircle
 62
7
  6
CONTINUOUS
 10
11.2377482054
 20
7.2348221647
 40
0.215821706
100
AcDbArc
 50
355.0492661572
 51
355.5940767176
  0
ARC
  5
2A4
100
AcDbEntity
  8
0
100
AcDbCircle
 62
7
  6
CONTINUOUS
 10
11.2379119121
 20
7.2860106702
 40
0.2156564274
100
AcDbArc
 50
0.0062799523
 51
7.6402060897
  0
ARC
  5
2A5
100
AcDbEntity
  8
0
100
AcDbCircle
 62
7
  6
CONTINUOUS
 10
11.2382668319
 20
7.1834207995
 40
0.2153015066
100
AcDbArc
 50
0.0026450586
 51
4.635839055
  0
ARC
  5
2A6
100
AcDbEntity
  8
0
100
AcDbCircle
 62
7
  6
CONTINUOUS
 10
11.2383716242
 20
7.2347601342
 40
0.2151967143
100
AcDbArc
 50
0.0023355843
 51
4.4221264199
  0
ARC
  5
2A7
100
AcDbEntity
  8
0
100
AcDbCircle
 62
7
  6
CONTINUOUS
 10
11.2384740589
 20
7.2860373479
 40
0.2150942794
100
AcDbArc
 50
355.1700287533
 51
359.9991900681
  0
ARC
  5
2A8
100
AcDbEntity
  8
0
100
AcDbCircle
 62
7
  6
CONTINUOUS
 10
11.2385065419
 20
7.1834326295
 40
0.2150617964
100
AcDbArc
 50
356.0014038742
 51
359.9994963158
  0
ARC
  5
2A9
100
AcDbEntity
  8
0
100
AcDbCircle
 62
7
  6
CONTINUOUS
 10
11.238537536
 20
7.2347713206
 40
0.2150308023
100
AcDbArc
 50
355.5914270425
 51
359.9993567181
  0
ARC
  5
2AA
100
AcDbEntity
  8
0
100
AcDbCircle
 62
7
  6
CONTINUOUS
 10
11.4948432172
 20
9.7235053847
 40
0.2039751211
100
AcDbArc
 50
325.0110095298
 51
33.0478355064
  0
ARC
  5
2AB
100
AcDbEntity
  8
0
100
AcDbCircle
 62
7
  6
CONTINUOUS
 10
11.8095928719
 20
9.928280006
 40
0.1715245336
100
AcDbArc
 50
134.9173576842
 51
213.0478355064
  0
ARC
  5
2AC
100
AcDbEntity
  8
0
100
AcDbCircle
 62
7
  6
CONTINUOUS
 10
11.4461672268
 20
9.1972409815
 40
0.031
100
AcDbArc
 50
283.822569346
 51
355.1903004543
  0
ARC
  5
2AD
100
AcDbEntity
  8
0
100
AcDbCircle
 62
7
  6
CONTINUOUS
 10
11.4348183383
 20
8.0314413285
 40
0.03
100
AcDbArc
 50
308.7483179118
 51
350.0147978327
  0
ARC
  5
2AE
100
AcDbEntity
  8
0
100
AcDbCircle
 62
7
  6
CONTINUOUS
 10
11.0994922504
 20
15.6624003973
 40
4.5
100
AcDbArc
 50
254.4604045096
 51
263.5855182739
  0
ARC
  5
2AF
100
AcDbEntity
  8
0
100
AcDbCircle
 62
7
  6
CONTINUOUS
 10
11.4306786163
 20
10.8203837383
 40
1.0166396731
100
AcDbArc
 50
359.9366426814
 51
1.8679268522
  0
ARC
  5
2B0
100
AcDbEntity
  8
0
100
AcDbCircle
 62
7
  6
CONTINUOUS
 10
14.2404544687
 20
11.3592421237
 40
0.2500109774
100
AcDbArc
 50
270.0
 51
329.7355898687
  0
ARC
  5
2B1
100
AcDbEntity
  8
0
100
AcDbCircle
 62
7
  6
CONTINUOUS
 10
14.2373183383
 20
10.8592409815
 40
0.25
100
AcDbArc
 50
90.0746205719
 51
150.7907880662
  0
ARC
  5
2B2
100
AcDbEntity
  8
0
100
AcDbCircle
 62
7
  6
CONTINUOUS
 10
14.6723183383
 20
11.6072409815
 40
0.25
100
AcDbArc
 50
270.0
 51
360.0
  0
ARC
  5
2B3
100
AcDbEntity
  8
0
100
AcDbCircle
 62
7
  6
CONTINUOUS
 10
14.6723183383
 20
11.1072409815
 40
0.25
100
AcDbArc
 50
90.0
 51
149.7355898687
  0
ARC
  5
2B4
100
AcDbEntity
  8
0
100
AcDbCircle
 62
7
  6
CONTINUOUS
 10
13.800896524
 20
11.1032409815
 40
0.25
100
AcDbArc
 50
270.0
 51
330.7907880662
  0
ARC
  5
2B5
100
AcDbEntity
  8
0
100
AcDbCircle
 62
7
  6
CONTINUOUS
 10
12.0401822272
 20
10.8532409815
 40
0.1871361111
100
AcDbArc
 50
272.1854050713
 51
360.0
  0
ARC
  5
2B6
100
AcDbEntity
  8
0
100
AcDbCircle
 62
7
  6
CONTINUOUS
 10
11.8603210121
 20
10.6652409815
 40
0.187
100
AcDbArc
 50
270.0
 51
0.3063960032
  0
ARC
  5
2B7
100
AcDbEntity
  8
0
100
AcDbCircle
 62
7
  6
CONTINUOUS
 10
12.1873183383
 20
11.3750677343
 40
0.05
100
AcDbArc
 50
285.5395954903
 51
360.0
  0
SPLINE
  5
2B8
100
AcDbEntity
  8
0
100
AcDbSpline
 62
7
  6
CONTINUOUS
 70
0
 71
3
 72
28
 73
24
 74
0
 42
0.0000001
 43
0.0000001
 44
0.0000000001
 40
0.0
 40
0.0
 40
0.0
 40
0.0
 40
0.0253211363
 40
0.0507083174
 40
0.0762264602
 40
0.1019382644
 40
0.127903211
 40
0.1541767125
 40
0.1808094138
 40
0.2078466383
 40
0.2353279696
 40
0.2632870142
 40
0.3207201253
 40
0.3803188094
 40
0.4421386953
 40
0.5061509462
 40
0.5722515958
 40
0.6402719974
 40
0.7099889687
 40
0.781134841
 40
0.8534069595
 40
0.9264768237
 40
1.0
 40
1.0
 40
1.0
 40
1.0
 10
10.6410683516
 20
7.1435459954
 30
0.0
 10
10.641068359
 20
7.1389742192
 30
0.0
 10
10.6413956977
 20
7.1298153908
 30
0.0
 10
10.6428669218
 20
7.1161203514
 30
0.0
 10
10.6453148177
 20
7.1024935584
 30
0.0
 10
10.6487331756
 20
7.0889701185
 30
0.0
 10
10.6531133689
 20
7.0755836231
 30
0.0
 10
10.6584444109
 20
7.0623675519
 30
0.0
 10
10.6647130475
 20
7.0493547478
 30
0.0
 10
10.6719036731
 20
7.0365776068
 30
0.0
 10
10.6799988874
 20
7.0240674021
 30
0.0
 10
10.6920775292
 20
7.0076404793
 30
0.0
 10
10.7094039025
 20
6.9879366042
 30
0.0
 10
10.7332430197
 20
6.9660720299
 30
0.0
 10
10.7600881044
 20
6.9459787641
 30
0.0
 10
10.7896785857
 20
6.9278537644
 30
0.0
 10
10.8217314342
 20
6.9118727238
 30
0.0
 10
10.85594011
 20
6.8981929063
 30
0.0
 10
10.8919780599
 20
6.8869503799
 30
0.0
 10
10.9295009337
 20
6.8782585668
 30
0.0
 10
10.9681509507
 20
6.8722071919
 30
0.0
 10
11.0075563693
 20
6.8688609662
 30
0.0
 10
11.0340461168
 20
6.8684604635
 30
0.0
 10
11.0473183383
 20
6.8687190447
 30
0.0
  0
SPLINE
  5
2B9
100
AcDbEntity
  8
0
100
AcDbSpline
 62
7
  6
CONTINUOUS
 70
0
 71
3
 72
15
 73
11
 74
0
 42
0.0000001
 43
0.0000001
 44
0.0000000001
 40
0.0
 40
0.0
 40
0.0
 40
0.0
 40
0.1196855453
 40
0.2399227045
 40
0.3612465573
 40
0.4841602044
 40
0.6091213273
 40
0.7365328226
 40
0.8667340243
 40
1.0
 40
1.0
 40
1.0
 40
1.0
 10
10.6410683535
 20
7.1932751954
 30
0.0
 10
10.6410683527
 20
7.1871869259
 30
0.0
 10
10.6416501536
 20
7.1749744365
 30
0.0
 10
10.6442621519
 20
7.1567586629
 30
0.0
 10
10.6486019088
 20
7.1387056982
 30
0.0
 10
10.654649363
 20
7.12089845
 30
0.0
 10
10.662376801
 20
7.1034154725
 30
0.0
 10
10.671749641
 20
7.086333791
 30
0.0
 10
10.68272523
 20
7.0697292854
 30
0.0
 10
10.6909806959
 20
7.0591517597
 30
0.0
 10
10.6953467171
 20
7.0539658238
 30
0.0
  0
SPLINE
  5
2BA
100
AcDbEntity
  8
0
100
AcDbSpline
 62
7
  6
CONTINUOUS
 70
0
 71
3
 72
28
 73
24
 74
0
 42
0.0000001
 43
0.0000001
 44
0.0000000001
 40
0.0
 40
0.0
 40
0.0
 40
0.0
 40
0.0253216834
 40
0.0507093263
 40
0.0762278491
 40
0.1019399596
 40
0.1279051459
 40
0.154178821
 40
0.1808116281
 40
0.2078488931
 40
0.2353302161
 40
0.2632892181
 40
0.3207221256
 40
0.3803204785
 40
0.4421399927
 40
0.5061518298
 40
0.5722520901
 40
0.6402721502
 40
0.7099888445
 40
0.7811345536
 40
0.8534066205
 40
0.9264765329
 40
1.0
 40
1.0
 40
1.0
 40
1.0
 10
10.6410683383
 20
7.2429926138
 30
0.0
 10
10.6410683383
 20
7.2384207601
 30
0.0
 10
10.6413957049
 20
7.2292617922
 30
0.0
 10
10.6428669414
 20
7.2155665674
 30
0.0
 10
10.6453148293
 20
7.2019396279
 30
0.0
 10
10.648733169
 20
7.1884160773
 30
0.0
 10
10.6531133685
 20
7.1750295149
 30
0.0
 10
10.6584444405
 20
7.1618134255
 30
0.0
 10
10.6647130949
 20
7.1488006405
 30
0.0
 10
10.671903713
 20
7.1360235449
 30
0.0
 10
10.6799989182
 20
7.1235134179
 30
0.0
 10
10.6920775778
 20
7.1070866808
 30
0.0
 10
10.7094039826
 20
7.0873831332
 30
0.0
 10
10.7332430839
 20
7.0655189996
 30
0.0
 10
10.7600882193
 20
7.0454263906
 30
0.0
 10
10.789678694
 20
7.0273020922
 30
0.0
 10
10.8217315588
 20
7.0113219104
 30
0.0
 10
10.8559402373
 20
6.9976430474
 30
0.0
 10
10.8919781783
 20
6.9864015463
 30
0.0
 10
10.929501046
 20
6.9777108845
 30
0.0
 10
10.968151037
 20
6.9716607036
 30
0.0
 10
11.0075564347
 20
6.9683157664
 30
0.0
 10
11.0340461348
 20
6.9679161575
 30
0.0
 10
11.0473183383
 20
6.9681751956
 30
0.0
  0
SPLINE
  5
2BB
100
AcDbEntity
  8
0
100
AcDbSpline
 62
7
  6
CONTINUOUS
 70
0
 71
3
 72
22
 73
18
 74
0
 42
0.0000001
 43
0.0000001
 44
0.0000000001
 40
0.0
 40
0.0
 40
0.0
 40
0.0
 40
0.0621340853
 40
0.124608169
 40
0.1873789777
 40
0.2503884167
 40
0.3135674753
 40
0.3768399539
 40
0.5033456491
 40
0.5664228799
 40
0.6292880993
 40
0.6918826751
 40
0.7541625861
 40
0.8161024966
 40
0.8777000328
 40
0.9389802229
 40
1.0
 40
1.0
 40
1.0
 40
1.0
 10
12.2348183383
 20
10.3572409815
 30
0.0
 10
12.2300146844
 20
10.3415584645
 30
0.0
 10
12.219955735
 20
10.3102368353
 30
0.0
 10
12.2037881713
 20
10.2634876391
 30
0.0
 10
12.1867210988
 20
10.2168141584
 30
0.0
 10
12.1689777407
 20
10.1701955405
 30
0.0
 10
12.1507809241
 20
10.1236104392
 30
0.0
 10
12.126213897
 20
10.0615202817
 30
0.0
 10
12.1016478
 20
9.9994571481
 30
0.0
 10
12.0779163468
 20
9.9371850183
 30
0.0
 10
12.0607950692
 20
9.8904520708
 30
0.0
 10
12.0445576442
 20
9.8436260505
 30
0.0
 10
12.029427396
 20
9.7966854588
 30
0.0
 10
12.0156279035
 20
9.7496087144
 30
0.0
 10
12.0033831116
 20
9.7023735983
 30
0.0
 10
11.9929177388
 20
9.6549595109
 30
0.0
 10
11.9872676105
 20
9.6231612507
 30
0.0
 10
11.9848183383
 20
9.6072409815
 30
0.0
  0
SPLINE
  5
2BC
100
AcDbEntity
  8
0
100
AcDbSpline
 62
7
  6
CONTINUOUS
 70
0
 71
3
 72
22
 73
18
 74
0
 42
0.0000001
 43
0.0000001
 44
0.0000000001
 40
0.0
 40
0.0
 40
0.0
 40
0.0
 40
0.0621340853
 40
0.124608169
 40
0.1873789777
 40
0.2503884167
 40
0.3135674753
 40
0.3768399539
 40
0.5033456491
 40
0.5664228799
 40
0.6292880993
 40
0.6918826751
 40
0.7541625861
 40
0.8161024966
 40
0.8777000328
 40
0.9389802229
 40
1.0
 40
1.0
 40
1.0
 40
1.0
 10
9.8598183383
 20
10.3572409815
 30
0.0
 10
9.8646219921
 20
10.3415584645
 30
0.0
 10
9.8746809415
 20
10.3102368353
 30
0.0
 10
9.8908485053
 20
10.2634876391
 30
0.0
 10
9.9079155778
 20
10.2168141584
 30
0.0
 10
9.9256589358
 20
10.1701955405
 30
0.0
 10
9.9438557524
 20
10.1236104392
 30
0.0
 10
9.9684227796
 20
10.0615202817
 30
0.0
 10
9.9929888765
 20
9.9994571481
 30
0.0
 10
10.0167203298
 20
9.9371850183
 30
0.0
 10
10.0338416074
 20
9.8904520708
 30
0.0
 10
10.0500790324
 20
9.8436260505
 30
0.0
 10
10.0652092806
 20
9.7966854588
 30
0.0
 10
10.0790087731
 20
9.7496087144
 30
0.0
 10
10.091253565
 20
9.7023735983
 30
0.0
 10
10.1017189378
 20
9.6549595109
 30
0.0
 10
10.1073690661
 20
9.6231612507
 30
0.0
 10
10.1098183383
 20
9.6072409815
 30
0.0
  0
SPLINE
  5
2BD
100
AcDbEntity
  8
0
100
AcDbSpline
 62
7
  6
CONTINUOUS
 70
0
 71
3
 72
14
 73
10
 74
0
 42
0.0000001
 43
0.0000001
 44
0.0000000001
 40
0.0
 40
0.0
 40
0.0
 40
0.0
 40
0.1272899317
 40
0.2533988563
 40
0.3786017625
 40
0.5031635458
 40
0.6273399171
 40
0.7513785272
 40
1.0
 40
1.0
 40
1.0
 40
1.0
 10
11.9848183383
 20
9.6072409815
 30
0.0
 10
11.9767107927
 20
9.5545419354
 30
0.0
 10
11.961502115
 20
9.449487482
 30
0.0
 10
11.9413480625
 20
9.2921790598
 30
0.0
 10
11.9236346599
 20
9.1357280324
 30
0.0
 10
11.9080205877
 20
8.9798685169
 30
0.0
 10
11.8941643919
 20
8.824333603
 30
0.0
 10
11.8775660246
 20
8.6168801489
 30
0.0
 10
11.866745779
 20
8.4611525916
 30
0.0
 10
11.8598183383
 20
8.3572409815
 30
0.0
  0
SPLINE
  5
2BE
100
AcDbEntity
  8
0
100
AcDbSpline
 62
7
  6
CONTINUOUS
 70
0
 71
3
 72
14
 73
10
 74
0
 42
0.0000001
 43
0.0000001
 44
0.0000000001
 40
0.0
 40
0.0
 40
0.0
 40
0.0
 40
0.1272899317
 40
0.2533988563
 40
0.3786017625
 40
0.5031635458
 40
0.6273399171
 40
0.7513785272
 40
1.0
 40
1.0
 40
1.0
 40
1.0
 10
10.1098183383
 20
9.6072409815
 30
0.0
 10
10.1179258838
 20
9.5545419354
 30
0.0
 10
10.1331345616
 20
9.449487482
 30
0.0
 10
10.1532886141
 20
9.2921790598
 30
0.0
 10
10.1710020166
 20
9.1357280324
 30
0.0
 10
10.1866160889
 20
8.9798685169
 30
0.0
 10
10.2004722847
 20
8.824333603
 30
0.0
 10
10.217070652
 20
8.6168801489
 30
0.0
 10
10.2278908976
 20
8.4611525916
 30
0.0
 10
10.2348183383
 20
8.3572409815
 30
0.0
  0
SPLINE
  5
2BF
100
AcDbEntity
  8
0
100
AcDbSpline
 62
7
  6
CONTINUOUS
 70
0
 71
3
 72
12
 73
8
 74
0
 42
0.0000001
 43
0.0000001
 44
0.0000000001
 40
0.0
 40
0.0
 40
0.0
 40
0.0
 40
0.2503236406
 40
0.5004187032
 40
0.7502630251
 40
0.8751276502
 40
1.0
 40
1.0
 40
1.0
 40
1.0
 10
11.8598183383
 20
8.3572409815
 30
0.0
 10
11.8528702323
 20
8.2530193914
 30
0.0
 10
11.8381147555
 20
8.0447304595
 30
0.0
 10
11.8172832585
 20
7.7323587776
 30
0.0
 10
11.8042602987
 20
7.4719439128
 30
0.0
 10
11.7984024257
 20
7.2635569689
 30
0.0
 10
11.7973183383
 20
7.159346662
 30
0.0
 10
11.7973183383
 20
7.1072409815
 30
0.0
  0
SPLINE
  5
2C0
100
AcDbEntity
  8
0
100
AcDbSpline
 62
7
  6
CONTINUOUS
 70
0
 71
3
 72
12
 73
8
 74
0
 42
0.0000001
 43
0.0000001
 44
0.0000000001
 40
0.0
 40
0.0
 40
0.0
 40
0.0
 40
0.2503236406
 40
0.5004187032
 40
0.7502630251
 40
0.8751276502
 40
1.0
 40
1.0
 40
1.0
 40
1.0
 10
10.2348183383
 20
8.3572409815
 30
0.0
 10
10.2417664443
 20
8.2530193914
 30
0.0
 10
10.256521921
 20
8.0447304595
 30
0.0
 10
10.2773534181
 20
7.7323587776
 30
0.0
 10
10.2903763779
 20
7.4719439128
 30
0.0
 10
10.2962342509
 20
7.2635569689
 30
0.0
 10
10.2973183383
 20
7.159346662
 30
0.0
 10
10.2973183383
 20
7.1072409815
 30
0.0
  0
SPLINE
  5
2C1
100
AcDbEntity
  8
0
100
AcDbSpline
 62
7
  6
CONTINUOUS
 70
0
 71
3
 72
13
 73
9
 74
0
 42
0.0000001
 43
0.0000001
 44
0.0000000001
 40
0.0
 40
0.0
 40
0.0
 40
0.0
 40
0.1250078193
 40
0.2500156246
 40
0.3750234481
 40
0.5000312592
 40
0.7500147871
 40
1.0
 40
1.0
 40
1.0
 40
1.0
 10
12.2348183383
 20
10.3572409815
 30
0.0
 10
12.2410979776
 20
10.3775395446
 30
0.0
 10
12.2543386145
 20
10.4179294505
 30
0.0
 10
12.2762021585
 20
10.4778174476
 30
0.0
 10
12.3000293183
 20
10.5369528126
 30
0.0
 10
12.3343555697
 20
10.6147114646
 30
0.0
 10
12.381958163
 20
10.7097619591
 30
0.0
 10
12.4247890847
 20
10.7832333656
 30
0.0
 10
12.4473176679
 20
10.8192595446
 30
0.0
  0
SPLINE
  5
2C2
100
AcDbEntity
  8
0
100
AcDbSpline
 62
7
  6
CONTINUOUS
 70
0
 71
3
 72
13
 73
9
 74
0
 42
0.0000001
 43
0.0000001
 44
0.0000000001
 40
0.0
 40
0.0
 40
0.0
 40
0.0
 40
0.1250078193
 40
0.2500156246
 40
0.3750234481
 40
0.5000312592
 40
0.7500147871
 40
1.0
 40
1.0
 40
1.0
 40
1.0
 10
9.8598183383
 20
10.3572409815
 30
0.0
 10
9.853538699
 20
10.3775395446
 30
0.0
 10
9.8402980621
 20
10.4179294505
 30
0.0
 10
9.818434518
 20
10.4778174476
 30
0.0
 10
9.7946073583
 20
10.5369528126
 30
0.0
 10
9.7602811069
 20
10.6147114646
 30
0.0
 10
9.7126785135
 20
10.7097619591
 30
0.0
 10
9.6698475919
 20
10.7832333656
 30
0.0
 10
9.6473190087
 20
10.8192595446
 30
0.0
  0
SPLINE
  5
2C3
100
AcDbEntity
  8
0
100
AcDbSpline
 62
7
  6
CONTINUOUS
 70
0
 71
3
 72
23
 73
19
 74
0
 42
0.0000001
 43
0.0000001
 44
0.0000000001
 40
0.0
 40
0.0
 40
0.0
 40
0.0
 40
0.0615515434
 40
0.1231122991
 40
0.1846915272
 40
0.2463036788
 40
0.307968097
 40
0.3697100818
 40
0.4315618656
 40
0.493561415
 40
0.5557520211
 40
0.6181799327
 40
0.6808918768
 40
0.7439320317
 40
0.8073388757
 40
0.8711423529
 40
0.9353605733
 40
1.0
 40
1.0
 40
1.0
 40
1.0
 10
11.4998183383
 20
6.909271898
 30
0.0
 10
11.4998183383
 20
6.9001592436
 30
0.0
 10
11.4990390945
 20
6.8819230118
 30
0.0
 10
11.4955459422
 20
6.8547720259
 30
0.0
 10
11.4897669614
 20
6.8280035014
 30
0.0
 10
11.4817643
 20
6.8017990195
 30
0.0
 10
11.471620185
 20
6.7763218379
 30
0.0
 10
11.4594330679
 20
6.7517181202
 30
0.0
 10
11.4453129774
 20
6.7281141785
 30
0.0
 10
11.4293772298
 20
6.7056162936
 30
0.0
 10
11.4117464389
 20
6.6843116404
 30
0.0
 10
11.3925413758
 20
6.6642701152
 30
0.0
 10
11.3718807381
 20
6.6455470008
 30
0.0
 10
11.3498799794
 20
6.6281857555
 30
0.0
 10
11.3266511228
 20
6.6122208919
 30
0.0
 10
11.3023027887
 20
6.5976803164
 30
0.0
 10
11.2769428628
 20
6.5845878508
 30
0.0
 10
11.2594855844
 20
6.5768622594
 30
0.0
 10
11.2506256592
 20
6.57324521
 30
0.0
  0
SPLINE
  5
2C4
100
AcDbEntity
  8
0
100
AcDbSpline
 62
7
  6
CONTINUOUS
 70
0
 71
3
 72
32
 73
28
 74
0
 42
0.0000001
 43
0.0000001
 44
0.0000000001
 40
0.0
 40
0.0
 40
0.0
 40
0.0
 40
0.065448774
 40
0.1307314439
 40
0.1956967224
 40
0.2280260551
 40
0.2602314321
 40
0.3242180718
 40
0.387618335
 40
0.4191024392
 40
0.4504407503
 40
0.5126853423
 40
0.5744329798
 40
0.6051570419
 40
0.6357907255
 40
0.6663459989
 40
0.6968346438
 40
0.7272679894
 40
0.7576560741
 40
0.7880083146
 40
0.8183327609
 40
0.8486361165
 40
0.8789241106
 40
0.9092012198
 40
0.9394711976
 40
0.9697364253
 40
1.0
 40
1.0
 40
1.0
 40
1.0
 10
11.0468569633
 20
6.5342423502
 30
0.0
 10
11.0326336151
 20
6.5342540217
 30
0.0
 10
11.0042117598
 20
6.5353558336
 30
0.0
 10
10.9619253371
 20
6.5402389195
 30
0.0
 10
10.9272056912
 20
6.5469957972
 30
0.0
 10
10.8999421321
 20
6.5540022129
 30
0.0
 10
10.8731846852
 20
6.5620337159
 30
0.0
 10
10.8405952833
 20
6.5740214463
 30
0.0
 10
10.8092701284
 20
6.5886481771
 30
0.0
 10
10.7852293591
 20
6.601874551
 30
0.0
 10
10.7620222744
 20
6.6160376574
 30
0.0
 10
10.7344442168
 20
6.6355950177
 30
0.0
 10
10.7089778008
 20
6.657639599
 30
0.0
 10
10.690133613
 20
6.6766441582
 30
0.0
 10
10.6768173091
 20
6.6915451404
 30
0.0
 10
10.6643422266
 20
6.707091593
 30
0.0
 10
10.6527532831
 20
6.7232564488
 30
0.0
 10
10.6420959071
 20
6.7400074691
 30
0.0
 10
10.6324146919
 20
6.7573074502
 30
0.0
 10
10.6237529068
 20
6.7751137668
 30
0.0
 10
10.6161515726
 20
6.793378358
 30
0.0
 10
10.6096486362
 20
6.8120477635
 30
0.0
 10
10.6042781201
 20
6.8310634535
 30
0.0
 10
10.600069113
 20
6.8503622316
 30
0.0
 10
10.5970453007
 20
6.8698772062
 30
0.0
 10
10.5952238764
 20
6.8895372636
 30
0.0
 10
10.5948183383
 20
6.9026950062
 30
0.0
 10
10.5948183383
 20
6.909271898
 30
0.0
  0
SPLINE
  5
2C5
100
AcDbEntity
  8
0
100
AcDbSpline
 62
7
  6
CONTINUOUS
 70
0
 71
3
 72
13
 73
9
 74
0
 42
0.0000001
 43
0.0000001
 44
0.0000000001
 40
0.0
 40
0.0
 40
0.0
 40
0.0
 40
0.1277913376
 40
0.2553055348
 40
0.445448783
 40
0.6334846831
 40
0.8185851092
 40
1.0
 40
1.0
 40
1.0
 40
1.0
 10
11.0478254782
 20
6.5342423916
 30
0.0
 10
11.0564710303
 20
6.5342501823
 30
0.0
 10
11.0737458861
 20
6.5346642448
 30
0.0
 10
11.103817154
 20
6.536778573
 30
0.0
 10
11.137777845
 20
6.5411580669
 30
0.0
 10
11.1751642887
 20
6.548705732
 30
0.0
 10
11.2113330156
 20
6.5587966471
 30
0.0
 10
11.2346734274
 20
6.5672540966
 30
0.0
 10
11.2460363757
 20
6.5718930008
 30
0.0
  0
SPLINE
  5
2C6
100
AcDbEntity
  8
0
100
AcDbSpline
 62
7
  6
CONTINUOUS
 70
0
 71
3
 72
11
 73
7
 74
0
 42
0.0000001
 43
0.0000001
 44
0.0000000001
 40
0.0
 40
0.0
 40
0.0
 40
0.0
 40
0.2470582531
 40
0.4965273024
 40
0.7477859881
 40
1.0
 40
1.0
 40
1.0
 40
1.0
 10
11.2506256592
 20
6.57324521
 30
0.0
 10
11.2347885053
 20
6.566779719
 30
0.0
 10
11.2022633355
 20
6.5554304633
 30
0.0
 10
11.1518572795
 20
6.5432628977
 30
0.0
 10
11.1001688579
 20
6.5359141395
 30
0.0
 10
11.0652885323
 20
6.5342581491
 30
0.0
 10
11.0478254782
 20
6.5342423898
 30
0.0
  0
SPLINE
  5
2C7
100
AcDbEntity
  8
0
100
AcDbSpline
 62
7
  6
CONTINUOUS
 70
0
 71
3
 72
15
 73
11
 74
0
 42
0.0000001
 43
0.0000001
 44
0.0000000001
 40
0.0
 40
0.0
 40
0.0
 40
0.0
 40
0.121152588
 40
0.2426962331
 40
0.3650131492
 40
0.4884685583
 40
0.6134031186
 40
0.7401267732
 40
0.8689139644
 40
1.0
 40
1.0
 40
1.0
 40
1.0
 10
11.499818326
 20
7.1370506854
 30
0.0
 10
11.4998183143
 20
7.1431272169
 30
0.0
 10
11.4993270094
 20
7.1553055602
 30
0.0
 10
11.4971197825
 20
7.1734983718
 30
0.0
 10
11.4934495557
 20
7.1915720314
 30
0.0
 10
11.4883289166
 20
7.2094655381
 30
0.0
 10
11.4817753892
 20
7.2271206205
 30
0.0
 10
11.4738109985
 20
7.2444798198
 30
0.0
 10
11.4644631628
 20
7.2614858546
 30
0.0
 10
11.4573941436
 20
7.2724510151
 30
0.0
 10
11.4536490189
 20
7.2778548496
 30
0.0
  0
SPLINE
  5
2C8
100
AcDbEntity
  8
0
100
AcDbSpline
 62
7
  6
CONTINUOUS
 70
0
 71
3
 72
15
 73
11
 74
0
 42
0.0000001
 43
0.0000001
 44
0.0000000001
 40
0.0
 40
0.0
 40
0.0
 40
0.0
 40
0.1211081105
 40
0.2426121071
 40
0.3648988313
 40
0.488337685
 40
0.6132729274
 40
0.7400173867
 40
0.8688475592
 40
1.0
 40
1.0
 40
1.0
 40
1.0
 10
10.5948183506
 20
7.1370506854
 30
0.0
 10
10.5948183389
 20
7.1431660262
 30
0.0
 10
10.5953160009
 20
7.1554224731
 30
0.0
 10
10.5975515511
 20
7.1737309853
 30
0.0
 10
10.6012687822
 20
7.1919180228
 30
0.0
 10
10.6064547517
 20
7.2099214083
 30
0.0
 10
10.6130914813
 20
7.2276817613
 30
0.0
 10
10.6211563684
 20
7.245140545
 30
0.0
 10
10.63062131
 20
7.2622394123
 30
0.0
 10
10.6377774899
 20
7.2732598846
 30
0.0
 10
10.6415685653
 20
7.2786899516
 30
0.0
  0
SPLINE
  5
2C9
100
AcDbEntity
  8
0
100
AcDbSpline
 62
7
  6
CONTINUOUS
 70
0
 71
3
 72
38
 73
34
 74
0
 42
0.0000001
 43
0.0000001
 44
0.0000000001
 40
0.0
 40
0.0
 40
0.0
 40
0.0
 40
0.0627498151
 40
0.0951677331
 40
0.1282097748
 40
0.1618171668
 40
0.1959211197
 40
0.2304445165
 40
0.2653032323
 40
0.3004076263
 40
0.3356639644
 40
0.3709757161
 40
0.4062449894
 40
0.4413739101
 40
0.4762658966
 40
0.5108271543
 40
0.544968012
 40
0.5786043276
 40
0.6116590527
 40
0.6440636582
 40
0.6757597087
 40
0.7067005307
 40
0.7368527686
 40
0.7661980863
 40
0.7947348119
 40
0.8224793257
 40
0.849467388
 40
0.8757549377
 40
0.9014182581
 40
0.9265533748
 40
0.9512742679
 40
0.9757098743
 40
1.0
 40
1.0
 40
1.0
 40
1.0
 10
11.3431286757
 20
7.1147744769
 30
0.0
 10
11.3289737342
 20
7.1037391777
 30
0.0
 10
11.3062572834
 20
7.0885428464
 30
0.0
 10
11.2739492025
 20
7.0711643963
 30
0.0
 10
11.2481906865
 20
7.0593086373
 30
0.0
 10
11.2213229508
 20
7.0488421295
 30
0.0
 10
11.1934915571
 20
7.039817092
 30
0.0
 10
11.1648514036
 20
7.032280409
 30
0.0
 10
11.13556077
 20
7.0262701142
 30
0.0
 10
11.1057818444
 20
7.0218160643
 30
0.0
 10
11.0756794486
 20
7.0189395102
 30
0.0
 10
11.0454202242
 20
7.0176530382
 30
0.0
 10
11.0151716793
 20
7.0179604633
 30
0.0
 10
10.9851012625
 20
7.0198567964
 30
0.0
 10
10.9553754154
 20
7.0233283019
 30
0.0
 10
10.9261586593
 20
7.0283525767
 30
0.0
 10
10.8976126732
 20
7.0348986851
 30
0.0
 10
10.8698953987
 20
7.0429273522
 30
0.0
 10
10.8431601662
 20
7.0523911718
 30
0.0
 10
10.8175548596
 20
7.0632349272
 30
0.0
 10
10.7932211302
 20
7.0753959277
 30
0.0
 10
10.7702936609
 20
7.0888043832
 30
0.0
 10
10.7488994839
 20
7.1033838207
 30
0.0
 10
10.729157355
 20
7.1190514917
 30
0.0
 10
10.7111772153
 20
7.1357188128
 30
0.0
 10
10.6950597257
 20
7.1532917978
 30
0.0
 10
10.6808958479
 20
7.1716714238
 30
0.0
 10
10.6687664299
 20
7.1907539165
 30
0.0
 10
10.6587417387
 20
7.2104311061
 30
0.0
 10
10.6508808798
 20
7.2305902656
 30
0.0
 10
10.645231131
 20
7.2511158923
 30
0.0
 10
10.6418271287
 20
7.2718849787
 30
0.0
 10
10.6410683398
 20
7.2858336493
 30
0.0
 10
10.6410683383
 20
7.2927813287
 30
0.0
  0
SPLINE
  5
2CA
100
AcDbEntity
  8
0
100
AcDbSpline
 62
7
  6
CONTINUOUS
 70
0
 71
3
 72
21
 73
17
 74
0
 42
0.0000001
 43
0.0000001
 44
0.0000000001
 40
0.0
 40
0.0
 40
0.0
 40
0.0
 40
0.0554311939
 40
0.1110880102
 40
0.1671896789
 40
0.22394314
 40
0.2815378173
 40
0.3401415988
 40
0.3998977773
 40
0.4609232628
 40
0.5233077352
 40
0.5871136153
 40
0.7190406161
 40
0.7872258451
 40
0.8568298971
 40
1.0
 40
1.0
 40
1.0
 40
1.0
 10
11.5098183257
 20
6.6067205995
 30
0.0
 10
11.5098183391
 20
6.599740853
 30
0.0
 10
11.5091835137
 20
6.585744741
 30
0.0
 10
11.5063330482
 20
6.5648593505
 30
0.0
 10
11.5015962763
 20
6.5441475103
 30
0.0
 10
11.4949940111
 20
6.5236977112
 30
0.0
 10
11.486554951
 20
6.5035939572
 30
0.0
 10
11.4763154052
 20
6.483919099
 30
0.0
 10
11.4643188623
 20
6.4647534581
 30
0.0
 10
11.4506161029
 20
6.4461752411
 30
0.0
 10
11.4352633584
 20
6.4282588756
 30
0.0
 10
11.4124313002
 20
6.4050986065
 30
0.0
 10
11.386749945
 20
6.3838381083
 30
0.0
 10
11.3587286488
 20
6.3646237836
 30
0.0
 10
11.3284188742
 20
6.3463471097
 30
0.0
 10
11.3043218266
 20
6.3344788335
 30
0.0
 10
11.2877624668
 20
6.3273527037
 30
0.0
  0
SPLINE
  5
2CB
100
AcDbEntity
  8
0
100
AcDbSpline
 62
7
  6
CONTINUOUS
 70
0
 71
3
 72
18
 73
14
 74
0
 42
0.0000001
 43
0.0000001
 44
0.0000000001
 40
0.0
 40
0.0
 40
0.0
 40
0.0
 40
0.0580904924
 40
0.1164576961
 40
0.1751864103
 40
0.2343572103
 40
0.2940457585
 40
0.3543221365
 40
0.4768494832
 40
0.6024134821
 40
0.7313370323
 40
0.8638304561
 40
1.0
 40
1.0
 40
1.0
 40
1.0
 10
11.4449376131
 20
7.2835068696
 30
0.0
 10
11.4444779746
 20
7.2796206757
 30
0.0
 10
11.4433359045
 20
7.2718540995
 30
0.0
 10
11.4409674903
 20
7.2602868194
 30
0.0
 10
11.4379449746
 20
7.2487974221
 30
0.0
 10
11.4342743128
 20
7.2374051739
 30
0.0
 10
11.4299620487
 20
7.226128146
 30
0.0
 10
11.4233328232
 20
7.2111913624
 30
0.0
 10
11.413443575
 20
7.1928793407
 30
0.0
 10
11.399228299
 20
7.1717876455
 30
0.0
 10
11.3826975971
 20
7.1515835151
 30
0.0
 10
11.3639678465
 20
7.1323947439
 30
0.0
 10
11.3502825471
 20
7.1205162393
 30
0.0
 10
11.3431286757
 20
7.1147744769
 30
0.0
  0
SPLINE
  5
2CC
100
AcDbEntity
  8
0
100
AcDbSpline
 62
7
  6
CONTINUOUS
 70
0
 71
3
 72
15
 73
11
 74
0
 42
0.0000001
 43
0.0000001
 44
0.0000000001
 40
0.0
 40
0.0
 40
0.0
 40
0.0
 40
0.1226670717
 40
0.2455761263
 40
0.36893935
 40
0.4929836041
 40
0.6179188151
 40
0.743944323
 40
0.8712474916
 40
1.0
 40
1.0
 40
1.0
 40
1.0
 10
11.4535680927
 20
7.3421853913
 30
0.0
 10
11.4535616538
 20
7.338044533
 30
0.0
 10
11.4532949308
 20
7.3297528167
 30
0.0
 10
11.4521348861
 20
7.3173453406
 30
0.0
 10
11.4502167054
 20
7.3049848233
 30
0.0
 10
11.4475442729
 20
7.2926954212
 30
0.0
 10
11.4441227201
 20
7.2804999708
 30
0.0
 10
11.4399585925
 20
7.2684213695
 30
0.0
 10
11.435060087
 20
7.2564827423
 30
0.0
 10
11.4313331034
 20
7.2486780798
 30
0.0
 10
11.4293540736
 20
7.2448084973
 30
0.0
  0
SPLINE
  5
2CD
100
AcDbEntity
  8
0
100
AcDbSpline
 62
7
  6
CONTINUOUS
 70
0
 71
3
 72
21
 73
17
 74
0
 42
0.0000001
 43
0.0000001
 44
0.0000000001
 40
0.0
 40
0.0
 40
0.0
 40
0.0
 40
0.0525031097
 40
0.1063071575
 40
0.1615356265
 40
0.2182707449
 40
0.3363084212
 40
0.3976667357
 40
0.4604835533
 40
0.5246670459
 40
0.5901002397
 40
0.6566442365
 40
0.7241417316
 40
0.7924200723
 40
0.8612946813
 40
1.0
 40
1.0
 40
1.0
 40
1.0
 10
11.4293540736
 20
7.2448084973
 30
0.0
 10
11.4257923793
 20
7.2378443427
 30
0.0
 10
11.4178841421
 20
7.2240893604
 30
0.0
 10
11.4039934513
 20
7.204399305
 30
0.0
 10
11.3880189574
 20
7.1855230731
 30
0.0
 10
11.36376025
 20
7.1612775478
 30
0.0
 10
11.3359594051
 20
7.1394626317
 30
0.0
 10
11.3053752141
 20
7.1202769752
 30
0.0
 10
11.2806295422
 20
7.106994647
 30
0.0
 10
11.2545282573
 20
7.0950899513
 30
0.0
 10
11.227220342
 20
7.0846292439
 30
0.0
 10
11.1988653784
 20
7.0756734787
 30
0.0
 10
11.1696286825
 20
7.0682743027
 30
0.0
 10
11.1396783545
 20
7.0624743293
 30
0.0
 10
11.0989446966
 20
7.0569066297
 30
0.0
 10
11.0679831275
 20
7.0552391163
 30
0.0
 10
11.0473183383
 20
7.0552391163
 30
0.0
  0
SPLINE
  5
2CE
100
AcDbEntity
  8
0
100
AcDbSpline
 62
7
  6
CONTINUOUS
 70
0
 71
3
 72
27
 73
23
 74
0
 42
0.0000001
 43
0.0000001
 44
0.0000000001
 40
0.0
 40
0.0
 40
0.0
 40
0.0
 40
0.0717234076
 40
0.1431468597
 40
0.2139785181
 40
0.283937802
 40
0.3527635628
 40
0.4202205878
 40
0.4861061772
 40
0.5502574326
 40
0.6125582424
 40
0.6729466568
 40
0.7314216579
 40
0.7880492906
 40
0.815720689
 40
0.8429879448
 40
0.8698796432
 40
0.8964288027
 40
0.9226726073
 40
0.9486521669
 40
0.9744122112
 40
1.0
 40
1.0
 40
1.0
 40
1.0
 10
11.0473183383
 20
7.0552391163
 30
0.0
 10
11.0349354416
 20
7.0552391163
 30
0.0
 10
11.0102139189
 20
7.0560378388
 30
0.0
 10
10.9734204566
 20
7.0596246765
 30
0.0
 10
10.9372400856
 20
7.0655698044
 30
0.0
 10
10.9019755658
 20
7.0738241273
 30
0.0
 10
10.8679196075
 20
7.084319658
 30
0.0
 10
10.8353554304
 20
7.0969700024
 30
0.0
 10
10.804553689
 20
7.1116713022
 30
0.0
 10
10.7757705764
 20
7.1283032605
 30
0.0
 10
10.7492459192
 20
7.1467298465
 30
0.0
 10
10.7252010692
 20
7.1668016968
 30
0.0
 10
10.7038395123
 20
7.1883532825
 30
0.0
 10
10.6883027881
 20
7.207553208
 30
0.0
 10
10.6774332218
 20
7.2234648492
 30
0.0
 10
10.6701164603
 20
7.2355593672
 30
0.0
 10
10.6635897305
 20
7.2478790197
 30
0.0
 10
10.6578666468
 20
7.2603983508
 30
0.0
 10
10.6529595442
 20
7.2730909877
 30
0.0
 10
10.6488789631
 20
7.2859305137
 30
0.0
 10
10.6456338874
 20
7.2988891372
 30
0.0
 10
10.6440274782
 20
7.3076146913
 30
0.0
 10
10.6433674622
 20
7.3119827871
 30
0.0
  0
SPLINE
  5
2CF
100
AcDbEntity
  8
0
100
AcDbSpline
 62
7
  6
CONTINUOUS
 70
0
 71
3
 72
22
 73
18
 74
0
 42
0.0000001
 43
0.0000001
 44
0.0000000001
 40
0.0
 40
0.0
 40
0.0
 40
0.0
 40
0.0552228288
 40
0.1106806266
 40
0.1666014046
 40
0.223199803
 40
0.2806715138
 40
0.3391889057
 40
0.39889793
 40
0.4599162266
 40
0.5223323981
 40
0.5862060949
 40
0.6515689241
 40
0.7184257282
 40
0.7867562844
 40
0.8565174404
 40
1.0
 40
1.0
 40
1.0
 40
1.0
 10
11.6223183256
 20
5.9561823608
 30
0.0
 10
11.6223183401
 20
5.9473088597
 30
0.0
 10
11.621492888
 20
5.9295131912
 30
0.0
 10
11.6177868236
 20
5.9029644128
 30
0.0
 10
11.6116291434
 20
5.8766465546
 30
0.0
 10
11.6030482084
 20
5.8506772366
 30
0.0
 10
11.5920831038
 20
5.825168002
 30
0.0
 10
11.5787831862
 20
5.8002287002
 30
0.0
 10
11.5632076318
 20
5.7759657852
 30
0.0
 10
11.5454250166
 20
5.7524823839
 30
0.0
 10
11.52551294
 20
5.729877927
 30
0.0
 10
11.503557724
 20
5.7082479363
 30
0.0
 10
11.4796539074
 20
5.6876836263
 30
0.0
 10
11.4539046253
 20
5.6682720172
 30
0.0
 10
11.4264183592
 20
5.6500940585
 30
0.0
 10
11.3872561941
 20
5.6273981456
 30
0.0
 10
11.3561636293
 20
5.6127823888
 30
0.0
 10
11.3348183383
 20
5.6040682103
 30
0.0
  0
SPLINE
  5
2D0
100
AcDbEntity
  8
0
100
AcDbSpline
 62
7
  6
CONTINUOUS
 70
0
 71
3
 72
21
 73
17
 74
0
 42
0.0000001
 43
0.0000001
 44
0.0000000001
 40
0.0
 40
0.0
 40
0.0
 40
0.0
 40
0.0587111723
 40
0.1175251771
 40
0.176543606
 40
0.2358655485
 40
0.2955864784
 40
0.3557972152
 40
0.4165829935
 40
0.4780226577
 40
0.5401880644
 40
0.6031435794
 40
0.6669457465
 40
0.7316430781
 40
0.8638403759
 40
1.0
 40
1.0
 40
1.0
 40
1.0
 10
10.4723183475
 20
6.6208627351
 30
0.0
 10
10.4723183361
 20
6.6265435054
 30
0.0
 10
10.472655747
 20
6.6379178692
 30
0.0
 10
10.4741725882
 20
6.6549418674
 30
0.0
 10
10.4766976143
 20
6.6719060308
 30
0.0
 10
10.4802262549
 20
6.6887795052
 30
0.0
 10
10.4847520774
 20
6.7055326509
 30
0.0
 10
10.4902668956
 20
6.7221358182
 30
0.0
 10
10.4967607987
 20
6.7385597363
 30
0.0
 10
10.504222132
 20
6.7547754754
 30
0.0
 10
10.5126375188
 20
6.7707545738
 30
0.0
 10
10.5219918735
 20
6.7864689271
 30
0.0
 10
10.5322688208
 20
6.8018912685
 30
0.0
 10
10.547282747
 20
6.8221718341
 30
0.0
 10
10.568318673
 20
6.8466503316
 30
0.0
 10
10.5869838216
 20
6.8647556992
 30
0.0
 10
10.5968177419
 20
6.873522797
 30
0.0
  0
SPLINE
  5
2D1
100
AcDbEntity
  8
0
100
AcDbSpline
 62
7
  6
CONTINUOUS
 70
0
 71
3
 72
43
 73
39
 74
0
 42
0.0000001
 43
0.0000001
 44
0.0000000001
 40
0.0
 40
0.0
 40
0.0
 40
0.0
 40
0.0125787386
 40
0.0252168234
 40
0.0379244579
 40
0.0507110524
 40
0.0635854741
 40
0.0765559785
 40
0.0896301465
 40
0.1028148744
 40
0.1161163509
 40
0.1295400585
 40
0.1567679775
 40
0.1845336615
 40
0.2128569907
 40
0.2417485432
 40
0.2712105813
 40
0.3012379305
 40
0.3318187035
 40
0.3629348392
 40
0.3945625161
 40
0.4266724769
 40
0.459230329
 40
0.4921968681
 40
0.5255284377
 40
0.5591773633
 40
0.5930924327
 40
0.6272194499
 40
0.6615018229
 40
0.6958812013
 40
0.7302981311
 40
0.7646927316
 40
0.7990053766
 40
0.8331773699
 40
0.8671516133
 40
0.9008732417
 40
0.9342902289
 40
1.0
 40
1.0
 40
1.0
 40
1.0
 10
8.9090533317
 20
4.741146013
 30
0.0
 10
8.9113905934
 20
4.7251926989
 30
0.0
 10
8.9167671938
 20
4.6933077731
 30
0.0
 10
8.9268960003
 20
4.6457482736
 30
0.0
 10
8.9390984297
 20
4.5984021732
 30
0.0
 10
8.9533641999
 20
4.551320246
 30
0.0
 10
8.9696804241
 20
4.5045522175
 30
0.0
 10
8.9880314639
 20
4.4581482496
 30
0.0
 10
9.0083990495
 20
4.4121582594
 30
0.0
 10
9.0307620165
 20
4.3666321917
 30
0.0
 10
9.0550970749
 20
4.3216187108
 30
0.0
 10
9.0902999657
 20
4.2620745063
 30
0.0
 10
9.1391851748
 20
4.1891594631
 30
0.0
 10
9.2049641084
 20
4.1049143994
 30
0.0
 10
9.2778471698
 20
4.0238461127
 30
0.0
 10
9.3575077521
 20
3.9462856593
 30
0.0
 10
9.4435985471
 20
3.8725347209
 30
0.0
 10
9.5357529893
 20
3.8028718562
 30
0.0
 10
9.6335891957
 20
3.7375509317
 30
0.0
 10
9.7367124909
 20
3.676803319
 30
0.0
 10
9.8447165795
 20
3.6208387014
 30
0.0
 10
9.9571845789
 20
3.5698469451
 30
0.0
 10
10.0736891148
 20
3.5239986566
 30
0.0
 10
10.1937927452
 20
3.4834463484
 30
0.0
 10
10.3170480553
 20
3.4483242807
 30
0.0
 10
10.4429982963
 20
3.4187489546
 30
0.0
 10
10.571178017
 20
3.394818436
 30
0.0
 10
10.7011142208
 20
3.3766125158
 30
0.0
 10
10.8323276047
 20
3.364191863
 30
0.0
 10
10.9643341757
 20
3.3575981811
 30
0.0
 10
11.0966469116
 20
3.3568534551
 30
0.0
 10
11.2287776772
 20
3.3619603207
 30
0.0
 10
11.3602388425
 20
3.372901475
 30
0.0
 10
11.4905460326
 20
3.3896405761
 30
0.0
 10
11.6192165022
 20
3.4121208963
 30
0.0
 10
11.7457833066
 20
3.4402701428
 30
0.0
 10
11.9101387273
 20
3.4849700431
 30
0.0
 10
12.0303200395
 20
3.527034674
 30
0.0
 10
12.108299813
 20
3.5588697668
 30
0.0
  0
SPLINE
  5
2D2
100
AcDbEntity
  8
0
100
AcDbSpline
 62
7
  6
CONTINUOUS
 70
0
 71
3
 72
30
 73
26
 74
0
 42
0.0000001
 43
0.0000001
 44
0.0000000001
 40
0.0
 40
0.0
 40
0.0
 40
0.0
 40
0.0706700698
 40
0.1403523147
 40
0.2089855805
 40
0.2765181464
 40
0.3429091424
 40
0.4081290544
 40
0.4721605731
 40
0.5037327407
 40
0.5350075636
 40
0.5966651999
 40
0.6571686174
 40
0.6870055989
 40
0.7165727772
 40
0.7458789698
 40
0.7749343217
 40
0.8037503202
 40
0.8323397914
 40
0.860716887
 40
0.8888970584
 40
0.9168970382
 40
0.9447346674
 40
0.9724288408
 40
1.0
 40
1.0
 40
1.0
 40
1.0
 10
12.1082998136
 20
3.558869767
 30
0.0
 10
12.1447755297
 20
3.5737609228
 30
0.0
 10
12.2165246202
 20
3.6050689862
 30
0.0
 10
12.3209164652
 20
3.6569103244
 30
0.0
 10
12.4210037431
 20
3.7131622594
 30
0.0
 10
12.5164276736
 20
3.7736479983
 30
0.0
 10
12.6068431768
 20
3.8381757602
 30
0.0
 10
12.6919116999
 20
3.9065324095
 30
0.0
 10
12.7583911418
 20
3.9667812177
 30
0.0
 10
12.8085418122
 20
4.0166781143
 30
0.0
 10
12.8561848415
 20
4.0671695684
 30
0.0
 10
12.911875266
 20
4.1321825109
 30
0.0
 10
12.9626088977
 20
4.2001440951
 30
0.0
 10
12.999736769
 20
4.2557476417
 30
0.0
 10
13.0257278463
 20
4.297835802
 30
0.0
 10
13.0499640733
 20
4.3404575553
 30
0.0
 10
13.0724217865
 20
4.3835714635
 30
0.0
 10
13.0930789496
 20
4.427134917
 30
0.0
 10
13.1119158162
 20
4.4711050602
 30
0.0
 10
13.1289148164
 20
4.5154386975
 30
0.0
 10
13.1440607532
 20
4.5600924906
 30
0.0
 10
13.1573405982
 20
4.6050229806
 30
0.0
 10
13.1687435957
 20
4.650187102
 30
0.0
 10
13.1782610792
 20
4.6955409227
 30
0.0
 10
13.1833551868
 20
4.7259374118
 30
0.0
 10
13.1855833244
 20
4.7411458701
 30
0.0
  0
SPLINE
  5
2D3
100
AcDbEntity
  8
0
100
AcDbSpline
 62
7
  6
CONTINUOUS
 70
0
 71
3
 72
30
 73
26
 74
0
 42
0.0000001
 43
0.0000001
 44
0.0000000001
 40
0.0
 40
0.0
 40
0.0
 40
0.0
 40
0.0277605061
 40
0.055549265
 40
0.0833930851
 40
0.1113197196
 40
0.1393556851
 40
0.1675269302
 40
0.1958584984
 40
0.2243743548
 40
0.2530972827
 40
0.2820487433
 40
0.3112487773
 40
0.3407159182
 40
0.3704671179
 40
0.4005176844
 40
0.4615587886
 40
0.5239394307
 40
0.5877206684
 40
0.6529366287
 40
0.7195954599
 40
0.7876808012
 40
0.857153372
 40
0.9279527387
 40
1.0
 40
1.0
 40
1.0
 40
1.0
 10
9.4273183383
 20
5.4851550294
 30
0.0
 10
9.4273183383
 20
5.4977882168
 30
0.0
 10
9.4279029262
 20
5.5230713369
 30
0.0
 10
9.4305318181
 20
5.5609433363
 30
0.0
 10
9.4349097272
 20
5.598730056
 30
0.0
 10
9.4410309566
 20
5.636387424
 30
0.0
 10
9.4488879752
 20
5.6738733901
 30
0.0
 10
9.4584709345
 20
5.7111457676
 30
0.0
 10
9.4697679929
 20
5.7481630444
 30
0.0
 10
9.482765361
 20
5.7848842453
 30
0.0
 10
9.4974473527
 20
5.8212690261
 30
0.0
 10
9.5137963727
 20
5.8572777331
 30
0.0
 10
9.5317931029
 20
5.8928714695
 30
0.0
 10
9.551416393
 20
5.9280118917
 30
0.0
 10
9.5726440052
 20
5.9626620543
 30
0.0
 10
9.6032094207
 20
6.0083925864
 30
0.0
 10
9.6453849044
 20
6.0641545274
 30
0.0
 10
9.7017108086
 20
6.1281650978
 30
0.0
 10
9.7637711199
 20
6.1893671272
 30
0.0
 10
9.8312923125
 20
6.2475071859
 30
0.0
 10
9.9039827049
 20
6.3023491589
 30
0.0
 10
9.9815299695
 20
6.3536689597
 30
0.0
 10
10.063603771
 20
6.401257499
 30
0.0
 10
10.1498517937
 20
6.4449186119
 30
0.0
 10
10.2094040905
 20
6.4710749687
 30
0.0
 10
10.2397590488
 20
6.4834673285
 30
0.0
  0
SPLINE
  5
2D4
100
AcDbEntity
  8
0
100
AcDbSpline
 62
7
  6
CONTINUOUS
 70
0
 71
3
 72
9
 73
5
 74
0
 42
0.0000001
 43
0.0000001
 44
0.0000000001
 40
0.0
 40
0.0
 40
0.0
 40
0.0
 40
0.2468615381
 40
1.0
 40
1.0
 40
1.0
 40
1.0
 10
10.2397590488
 20
6.4834673285
 30
0.0
 10
10.2584478065
 20
6.4910969819
 30
0.0
 10
10.3346493913
 20
6.5207779843
 30
0.0
 10
10.4127302914
 20
6.5456014189
 30
0.0
 10
10.4721929821
 20
6.5616296911
 30
0.0
  0
SPLINE
  5
2D5
100
AcDbEntity
  8
0
100
AcDbSpline
 62
7
  6
CONTINUOUS
 70
0
 71
3
 72
30
 73
26
 74
0
 42
0.0000001
 43
0.0000001
 44
0.0000000001
 40
0.0
 40
0.0
 40
0.0
 40
0.0
 40
0.0728187202
 40
0.1445063037
 40
0.2149145044
 40
0.283917288
 40
0.3514142329
 40
0.4173339416
 40
0.48163733
 40
0.5443206755
 40
0.6054182482
 40
0.6354009244
 40
0.6650184509
 40
0.6942865044
 40
0.7232232986
 40
0.7518495361
 40
0.7801883299
 40
0.8082650859
 40
0.8361073603
 40
0.8637446886
 40
0.8912083562
 40
0.9185312197
 40
0.9457472466
 40
0.9728917277
 40
1.0
 40
1.0
 40
1.0
 40
1.0
 10
11.622430276
 20
6.5616333084
 30
0.0
 10
11.6601759712
 20
6.5514591555
 30
0.0
 10
11.7345286767
 20
6.5291433912
 30
0.0
 10
11.8429624964
 20
6.489531641
 30
0.0
 10
11.9469225289
 20
6.4442297687
 30
0.0
 10
12.0458194795
 20
6.3934857418
 30
0.0
 10
12.1390978294
 20
6.3375743613
 30
0.0
 10
12.2262303499
 20
6.2767981899
 30
0.0
 10
12.3067235758
 20
6.2114835859
 30
0.0
 10
12.3801135725
 20
6.1419864686
 30
0.0
 10
12.4353518202
 20
6.0805033193
 30
0.0
 10
12.475486068
 20
6.0296104517
 30
0.0
 10
12.5033754387
 20
5.9908822175
 30
0.0
 10
12.5291963643
 20
5.951414735
 30
0.0
 10
12.5529104729
 20
5.9112625077
 30
0.0
 10
12.574481342
 20
5.8704822534
 30
0.0
 10
12.5938756119
 20
5.8291318119
 30
0.0
 10
12.6110628316
 20
5.7872704059
 30
0.0
 10
12.626015676
 20
5.7449585272
 30
0.0
 10
12.6387100458
 20
5.7022579056
 30
0.0
 10
12.6491252551
 20
5.6592313446
 30
0.0
 10
12.6572440673
 20
5.6159428532
 30
0.0
 10
12.6630530492
 20
5.5724566238
 30
0.0
 10
12.6665423134
 20
5.5288397716
 30
0.0
 10
12.6673183383
 20
5.49970815
 30
0.0
 10
12.6673183383
 20
5.4851550294
 30
0.0
  0
SPLINE
  5
2D6
100
AcDbEntity
  8
0
100
AcDbSpline
 62
7
  6
CONTINUOUS
 70
0
 71
3
 72
33
 73
29
 74
0
 42
0.0000001
 43
0.0000001
 44
0.0000000001
 40
0.0
 40
0.0
 40
0.0
 40
0.0
 40
0.0280957417
 40
0.0562158864
 40
0.0843844462
 40
0.1126254417
 40
0.1409623342
 40
0.1694180948
 40
0.1980150265
 40
0.2267746495
 40
0.2557175806
 40
0.2848634178
 40
0.3142306479
 40
0.3438365605
 40
0.3736971573
 40
0.4038270793
 40
0.4342395505
 40
0.4649463397
 40
0.5272721972
 40
0.5908793718
 40
0.6231811848
 40
0.6558159627
 40
0.6887848227
 40
0.7220874207
 40
0.7896775514
 40
0.858563878
 40
0.9286947713
 40
1.0
 40
1.0
 40
1.0
 40
1.0
 10
9.1423183383
 20
5.3277726261
 30
0.0
 10
9.1423183383
 20
5.3429742672
 30
0.0
 10
9.1430193504
 20
5.3733954019
 30
0.0
 10
9.1461716855
 20
5.4189593078
 30
0.0
 10
9.1514199617
 20
5.4644096037
 30
0.0
 10
9.1587557695
 20
5.5096883617
 30
0.0
 10
9.168167609
 20
5.5547401669
 30
0.0
 10
9.1796408975
 20
5.5995101508
 30
0.0
 10
9.193158151
 20
5.6439448221
 30
0.0
 10
9.2086992297
 20
5.6879920235
 30
0.0
 10
9.2262415223
 20
5.7316010735
 30
0.0
 10
9.2457601488
 20
5.77472281
 30
0.0
 10
9.2672281178
 20
5.8173096403
 30
0.0
 10
9.2906164737
 20
5.8593155322
 30
0.0
 10
9.3158945507
 20
5.9006960125
 30
0.0
 10
9.3430298879
 20
5.9414079018
 30
0.0
 10
9.3719890904
 20
5.9814100716
 30
0.0
 10
9.4131853704
 20
6.0340011463
 30
0.0
 10
9.469144907
 20
6.0977593693
 30
0.0
 10
9.5300854644
 20
6.157996743
 30
0.0
 10
9.5819624846
 20
6.2043381326
 30
0.0
 10
9.6226222244
 20
6.2383087065
 30
0.0
 10
9.6647859165
 20
6.2712792128
 30
0.0
 10
9.7232324732
 20
6.3140724479
 30
0.0
 10
9.7998533518
 20
6.3648578409
 30
0.0
 10
9.8965851522
 20
6.421012749
 30
0.0
 10
9.9981497577
 20
6.4724687886
 30
0.0
 10
10.0682521129
 20
6.5032685152
 30
0.0
 10
10.1039710028
 20
6.5178506909
 30
0.0
  0
SPLINE
  5
2D7
100
AcDbEntity
  8
0
100
AcDbSpline
 62
7
  6
CONTINUOUS
 70
0
 71
3
 72
11
 73
7
 74
0
 42
0.0000001
 43
0.0000001
 44
0.0000000001
 40
0.0
 40
0.0
 40
0.0
 40
0.0
 40
0.2461025022
 40
0.4949751982
 40
0.7463667544
 40
1.0
 40
1.0
 40
1.0
 40
1.0
 10
10.1039710028
 20
6.5178506909
 30
0.0
 10
10.1333505135
 20
6.5298448259
 30
0.0
 10
10.1929709476
 20
6.5526888238
 30
0.0
 10
10.2842335914
 20
6.5833209701
 30
0.0
 10
10.3776105245
 20
6.6104453822
 30
0.0
 10
10.4408468515
 20
6.6260799669
 30
0.0
 10
10.4727441562
 20
6.6333014053
 30
0.0
  0
SPLINE
  5
2D8
100
AcDbEntity
  8
0
100
AcDbSpline
 62
7
  6
CONTINUOUS
 70
0
 71
3
 72
31
 73
27
 74
0
 42
0.0000001
 43
0.0000001
 44
0.0000000001
 40
0.0
 40
0.0
 40
0.0
 40
0.0
 40
0.0722202099
 40
0.1434348823
 40
0.2134810673
 40
0.2822191129
 40
0.3495365769
 40
0.415351987
 40
0.4796183188
 40
0.5423260751
 40
0.5731101519
 40
0.6035194703
 40
0.6335642855
 40
0.6632574499
 40
0.692614379
 40
0.7216529809
 40
0.7503935734
 40
0.7788587739
 40
0.807073347
 40
0.835064032
 40
0.8628593547
 40
0.8904894084
 40
0.917985616
 40
0.9453804727
 40
0.9727073164
 40
1.0
 40
1.0
 40
1.0
 40
1.0
 10
11.6220586784
 20
6.633263775
 30
0.0
 10
11.6692452301
 20
6.6225775122
 30
0.0
 10
11.7623668111
 20
6.5986113725
 30
0.0
 10
11.8985491627
 20
6.554657906
 30
0.0
 10
12.0295704446
 20
6.5031644831
 30
0.0
 10
12.1546318057
 20
6.4444205296
 30
0.0
 10
12.2729766233
 20
6.3787514905
 30
0.0
 10
12.3838850376
 20
6.3065166154
 30
0.0
 10
12.4866705505
 20
6.2281141403
 30
0.0
 10
12.5655155622
 20
6.157548973
 30
0.0
 10
12.6238026378
 20
6.098425116
 30
0.0
 10
12.6648355124
 20
6.0530974364
 30
0.0
 10
12.7033806523
 20
6.0065815598
 30
0.0
 10
12.7393731935
 20
5.9589429669
 30
0.0
 10
12.7727500334
 20
5.9102506799
 30
0.0
 10
12.8034512963
 20
5.8605762391
 30
0.0
 10
12.831420188
 20
5.8099941938
 30
0.0
 10
12.8566033599
 20
5.7585821775
 30
0.0
 10
12.878951219
 20
5.7064210559
 30
0.0
 10
12.8984183369
 20
5.6535949796
 30
0.0
 10
12.9149639044
 20
5.6001913818
 30
0.0
 10
12.9285522282
 20
5.5463007801
 30
0.0
 10
12.9391532226
 20
5.4920167942
 30
0.0
 10
12.9467429069
 20
5.4374347985
 30
0.0
 10
12.9513038009
 20
5.3826550089
 30
0.0
 10
12.9523183383
 20
5.3460564309
 30
0.0
 10
12.9523183383
 20
5.3277726261
 30
0.0
  0
SPLINE
  5
2D9
100
AcDbEntity
  8
0
100
AcDbSpline
 62
7
  6
CONTINUOUS
 70
0
 71
3
 72
21
 73
17
 74
0
 42
0.0000001
 43
0.0000001
 44
0.0000000001
 40
0.0
 40
0.0
 40
0.0
 40
0.0
 40
0.0601440766
 40
0.1203990869
 40
0.1808128288
 40
0.2414329497
 40
0.3023056152
 40
0.3634757719
 40
0.4249867779
 40
0.4868802063
 40
0.5491956301
 40
0.6119704218
 40
0.6752395958
 40
0.7390356659
 40
0.8683023488
 40
1.0
 40
1.0
 40
1.0
 40
1.0
 10
8.8990731305
 20
4.9580644672
 30
0.0
 10
8.9000021871
 20
4.9746136652
 30
0.0
 10
8.9025998144
 20
5.0077058664
 30
0.0
 10
8.9086994601
 20
5.0571773583
 30
0.0
 10
8.916996242
 20
5.1064620381
 30
0.0
 10
8.9274780348
 20
5.155502268
 30
0.0
 10
8.940129989
 20
5.2042431588
 30
0.0
 10
8.9549343999
 20
5.2526304786
 30
0.0
 10
8.9718709478
 20
5.3006114614
 30
0.0
 10
8.9909168928
 20
5.3481346861
 30
0.0
 10
9.012047298
 20
5.3951502414
 30
0.0
 10
9.0352350196
 20
5.4416094906
 30
0.0
 10
9.0604515369
 20
5.4874660091
 30
0.0
 10
9.0968929262
 20
5.5480024056
 30
0.0
 10
9.1474540565
 20
5.6219622103
 30
0.0
 10
9.1923467532
 20
5.6782412055
 30
0.0
 10
9.2159566508
 20
5.7058073313
 30
0.0
  0
SPLINE
  5
2DA
100
AcDbEntity
  8
0
100
AcDbSpline
 62
7
  6
CONTINUOUS
 70
0
 71
3
 72
21
 73
17
 74
0
 42
0.0000001
 43
0.0000001
 44
0.0000000001
 40
0.0
 40
0.0
 40
0.0
 40
0.0
 40
0.1316941143
 40
0.260958459
 40
0.3247537941
 40
0.3880225162
 40
0.4507971254
 40
0.5131126235
 40
0.5750063645
 40
0.6365179008
 40
0.6976887808
 40
0.7585623405
 40
0.8191834989
 40
0.879598387
 40
0.9398546446
 40
1.0
 40
1.0
 40
1.0
 40
1.0
 10
12.8788729819
 20
5.7055819943
 30
0.0
 10
12.9024685397
 20
5.6780220127
 30
0.0
 10
12.9473338049
 20
5.621756284
 30
0.0
 10
12.9978635259
 20
5.5478162007
 30
0.0
 10
13.0342822318
 20
5.4872968778
 30
0.0
 10
13.0594831054
 20
5.4414536205
 30
0.0
 10
13.0826564602
 20
5.3950081997
 30
0.0
 10
13.1037737905
 20
5.3480069875
 30
0.0
 10
13.1228079952
 20
5.3004985805
 30
0.0
 10
13.1397341713
 20
5.2525328451
 30
0.0
 10
13.1545296125
 20
5.2041611544
 30
0.0
 10
13.1671740177
 20
5.1554362208
 30
0.0
 10
13.1776496968
 20
5.1064122224
 30
0.0
 10
13.1859418291
 20
5.0571439923
 30
0.0
 10
13.1920383002
 20
5.0076891158
 30
0.0
 10
13.194634803
 20
4.9746080805
 30
0.0
 10
13.1955635461
 20
4.9580644672
 30
0.0
  0
SPLINE
  5
2DB
100
AcDbEntity
  8
0
100
AcDbSpline
 62
7
  6
CONTINUOUS
 70
0
 71
3
 72
20
 73
16
 74
0
 42
0.0000001
 43
0.0000001
 44
0.0000000001
 40
0.0
 40
0.0
 40
0.0
 40
0.0
 40
0.0536615395
 40
0.1086677188
 40
0.1650482661
 40
0.2228078828
 40
0.3423209632
 40
0.4040319495
 40
0.4669352354
 40
0.5309418064
 40
0.5959494598
 40
0.7284643851
 40
0.7957567702
 40
0.8635449219
 40
1.0
 40
1.0
 40
1.0
 40
1.0
 10
10.6953467171
 20
7.0539658238
 30
0.0
 10
10.6998294665
 20
7.0486439244
 30
0.0
 10
10.7093207707
 20
7.0382086421
 30
0.0
 10
10.7248291318
 20
7.0234362865
 30
0.0
 10
10.7417179812
 20
7.0094154344
 30
0.0
 10
10.7662514009
 20
6.9916087954
 30
0.0
 10
10.7930048713
 20
6.9757966759
 30
0.0
 10
10.8215279287
 20
6.9620411787
 30
0.0
 10
10.8441193363
 20
6.9526351724
 30
0.0
 10
10.8675785014
 20
6.9442955522
 30
0.0
 10
10.9000836365
 20
6.9345871232
 30
0.0
 10
10.9336953928
 20
6.9272480843
 30
0.0
 10
10.9680470278
 20
6.9222787686
 30
0.0
 10
11.0031027762
 20
6.9188843881
 30
0.0
 10
11.0296276274
 20
6.9181814581
 30
0.0
 10
11.0473183383
 20
6.9185277047
 30
0.0
  0
SPLINE
  5
2DC
100
AcDbEntity
  8
0
100
AcDbSpline
 62
7
  6
CONTINUOUS
 70
0
 71
3
 72
13
 73
9
 74
0
 42
0.0000001
 43
0.0000001
 44
0.0000000001
 40
0.0
 40
0.0
 40
0.0
 40
0.0
 40
0.257091984
 40
0.3848573731
 40
0.511526837
 40
0.6367210066
 40
0.7600893133
 40
1.0
 40
1.0
 40
1.0
 40
1.0
 10
11.0473183383
 20
6.8687190447
 30
0.0
 10
11.0692860984
 20
6.8691470402
 30
0.0
 10
11.1021769448
 20
6.8716726439
 30
0.0
 10
11.1453254274
 20
6.8788050621
 30
0.0
 10
11.1769871086
 20
6.8859802453
 30
0.0
 10
11.207798804
 20
6.8949495745
 30
0.0
 10
11.2470950249
 20
6.9090887126
 30
0.0
 10
11.2752849622
 20
6.9223871526
 30
0.0
 10
11.2931594662
 20
6.9324319535
 30
0.0
  0
SPLINE
  5
2DD
100
AcDbEntity
  8
0
100
AcDbSpline
 62
7
  6
CONTINUOUS
 70
0
 71
3
 72
21
 73
17
 74
0
 42
0.0000001
 43
0.0000001
 44
0.0000000001
 40
0.0
 40
0.0
 40
0.0
 40
0.0
 40
0.1403420779
 40
0.2087235098
 40
0.2758612696
 40
0.406339044
 40
0.4697762512
 40
0.5320497379
 40
0.5932255828
 40
0.6533886951
 40
0.7126424358
 40
0.7711075864
 40
0.8289206837
 40
0.886231858
 40
0.9432021123
 40
1.0
 40
1.0
 40
1.0
 40
1.0
 10
11.2931594662
 20
6.9324319535
 30
0.0
 10
11.3053604133
 20
6.9392884283
 30
0.0
 10
11.3230294127
 20
6.95038236
 30
0.0
 10
11.3450868347
 20
6.9668409401
 30
0.0
 10
11.3654479772
 20
6.9838587954
 30
0.0
 10
11.3839828967
 20
7.0022446267
 30
0.0
 10
11.4003650377
 20
7.0218672778
 30
0.0
 10
11.4113719622
 20
7.0369242023
 30
0.0
 10
11.4211735985
 20
7.0524070684
 30
0.0
 10
11.4297375208
 20
7.0682670356
 30
0.0
 10
11.4370344434
 20
7.0844530239
 30
0.0
 10
11.4430394433
 20
7.1009129395
 30
0.0
 10
11.4477318115
 20
7.1175933724
 30
0.0
 10
11.4510952676
 20
7.1344404534
 30
0.0
 10
11.4531180711
 20
7.1513977704
 30
0.0
 10
11.4535683384
 20
7.1627483243
 30
0.0
 10
11.4535683383
 20
7.1684124525
 30
0.0
  0
SPLINE
  5
2DE
100
AcDbEntity
  8
0
100
AcDbSpline
 62
7
  6
CONTINUOUS
 70
0
 71
3
 72
28
 73
24
 74
0
 42
0.0000001
 43
0.0000001
 44
0.0000000001
 40
0.0
 40
0.0
 40
0.0
 40
0.0
 40
0.0717757662
 40
0.1433044739
 40
0.2142516794
 40
0.2842991533
 40
0.3531545296
 40
0.4205600258
 40
0.4863011674
 40
0.5502160608
 40
0.6122043719
 40
0.67223621
 40
0.7303597678
 40
0.7587553095
 40
0.7867305717
 40
0.8143154961
 40
0.8415452418
 40
0.8684599317
 40
0.8951042611
 40
0.9215269746
 40
0.9477802589
 40
0.9739190145
 40
1.0
 40
1.0
 40
1.0
 40
1.0
 10
11.0473183383
 20
6.9185277047
 30
0.0
 10
11.0606085299
 20
6.9187878233
 30
0.0
 10
11.0871344251
 20
6.9202271262
 30
0.0
 10
11.1265404305
 20
6.925130197
 30
0.0
 10
11.1651914847
 20
6.9327383493
 30
0.0
 10
11.2027157128
 20
6.942986961
 30
0.0
 10
11.2387550969
 20
6.9557866339
 30
0.0
 10
11.2729649788
 20
6.971024062
 30
0.0
 10
11.3050183783
 20
6.9885632978
 30
0.0
 10
11.3346081863
 20
7.0082470894
 30
0.0
 10
11.3614507879
 20
7.0298993108
 30
0.0
 10
11.3852850687
 20
7.0533225941
 30
0.0
 10
11.4025848849
 20
7.0743115831
 30
0.0
 10
11.4146475454
 20
7.0917622117
 30
0.0
 10
11.4227414195
 20
7.105048645
 30
0.0
 10
11.4299306077
 20
7.1186016779
 30
0.0
 10
11.4361977888
 20
7.1323900053
 30
0.0
 10
11.4415274114
 20
7.1463812188
 30
0.0
 10
11.4459062665
 20
7.1605424859
 30
0.0
 10
11.449323449
 20
7.1748403482
 30
0.0
 10
11.4517704452
 20
7.1892412394
 30
0.0
 10
11.4532411192
 20
7.2037101764
 30
0.0
 10
11.4535683382
 20
7.2133843474
 30
0.0
 10
11.4535683383
 20
7.2182144969
 30
0.0
  0
SPLINE
  5
2DF
100
AcDbEntity
  8
0
100
AcDbSpline
 62
7
  6
CONTINUOUS
 70
0
 71
3
 72
28
 73
24
 74
0
 42
0.0000001
 43
0.0000001
 44
0.0000000001
 40
0.0
 40
0.0
 40
0.0
 40
0.0
 40
0.0717722369
 40
0.1432972948
 40
0.2142409052
 40
0.2842849919
 40
0.3531373518
 40
0.4205403276
 40
0.4862795879
 40
0.5501933405
 40
0.6121813534
 40
0.6722138085
 40
0.7303389374
 40
0.7587356339
 40
0.7867122857
 40
0.8142988262
 40
0.8415304164
 40
0.8684471689
 40
0.8950937493
 40
0.9215188826
 40
0.9477747425
 40
0.9739162067
 40
1.0
 40
1.0
 40
1.0
 40
1.0
 10
11.0473183383
 20
6.9681751956
 30
0.0
 10
11.0606085604
 20
6.9684345853
 30
0.0
 10
11.0871345423
 20
6.9698726715
 30
0.0
 10
11.1265407078
 20
6.9747746074
 30
0.0
 10
11.165191888
 20
6.9823822715
 30
0.0
 10
11.2027162084
 20
6.9926310031
 30
0.0
 10
11.2387556515
 20
7.005431365
 30
0.0
 10
11.2729655635
 20
7.0206700143
 30
0.0
 10
11.3050189646
 20
7.0382109655
 30
0.0
 10
11.33460875
 20
7.0578969304
 30
0.0
 10
11.3614513059
 20
7.0795517457
 30
0.0
 10
11.3852855214
 20
7.1029780051
 30
0.0
 10
11.4025851936
 20
7.123969693
 30
0.0
 10
11.4146477522
 20
7.1414226177
 30
0.0
 10
11.4227415913
 20
7.1547108923
 30
0.0
 10
11.4299307456
 20
7.1682658345
 30
0.0
 10
11.4361978944
 20
7.1820561376
 30
0.0
 10
11.4415274889
 20
7.1960493885
 30
0.0
 10
11.4459063183
 20
7.2102127491
 30
0.0
 10
11.4493234795
 20
7.2245127563
 30
0.0
 10
11.451770459
 20
7.2389158422
 30
0.0
 10
11.4532411226
 20
7.2533870213
 30
0.0
 10
11.4535683383
 20
7.2630627009
 30
0.0
 10
11.4535683383
 20
7.2678936138
 30
0.0
  0
SPLINE
  5
2E0
100
AcDbEntity
  8
0
100
AcDbSpline
 62
7
  6
CONTINUOUS
 70
0
 71
3
 72
21
 73
17
 74
0
 42
0.0000001
 43
0.0000001
 44
0.0000000001
 40
0.0
 40
0.0
 40
0.0
 40
0.0
 40
0.1361653328
 40
0.2683662203
 40
0.3330647116
 40
0.3968676468
 40
0.4598235131
 40
0.5219888468
 40
0.583428046
 40
0.6442129931
 40
0.7044225756
 40
0.7641420654
 40
0.8234623153
 40
0.8824788635
 40
0.9412908785
 40
1.0
 40
1.0
 40
1.0
 40
1.0
 10
11.4977400126
 20
6.873593138
 30
0.0
 10
11.5075799146
 20
6.8648247126
 30
0.0
 10
11.5262564264
 20
6.8467161504
 30
0.0
 10
11.5473056444
 20
6.8222322204
 30
0.0
 10
11.5623290662
 20
6.8019465848
 30
0.0
 10
11.5726125577
 20
6.7865202287
 30
0.0
 10
11.5819729334
 20
6.770801589
 30
0.0
 10
11.5903937353
 20
6.7548179267
 30
0.0
 10
11.5978598717
 20
6.7385973857
 30
0.0
 10
11.6043580088
 20
6.7221684787
 30
0.0
 10
11.6098764569
 20
6.7055601494
 30
0.0
 10
11.6144052276
 20
6.6888016794
 30
0.0
 10
11.6179361579
 20
6.6719227626
 30
0.0
 10
11.6204628598
 20
6.6549530759
 30
0.0
 10
11.6219807448
 20
6.6379234912
 30
0.0
 10
11.6223183178
 20
6.626545375
 30
0.0
 10
11.6223183291
 20
6.6208627351
 30
0.0
  0
SPLINE
  5
2E1
100
AcDbEntity
  8
0
100
AcDbSpline
 62
7
  6
CONTINUOUS
 70
0
 71
3
 72
38
 73
34
 74
0
 42
0.0000001
 43
0.0000001
 44
0.0000000001
 40
0.0
 40
0.0
 40
0.0
 40
0.0
 40
0.066713454
 40
0.1007433068
 40
0.1351323213
 40
0.1698136182
 40
0.2047169552
 40
0.2397696607
 40
0.274897463
 40
0.3100252603
 40
0.3450779701
 40
0.3799813041
 40
0.4146626014
 40
0.4490516306
 40
0.4830814267
 40
0.5166891389
 40
0.5498168774
 40
0.5824126194
 40
0.6144310734
 40
0.6458346297
 40
0.6765942517
 40
0.7066904383
 40
0.7361140926
 40
0.7648674077
 40
0.7929646021
 40
0.8204325361
 40
0.8473110881
 40
0.8736532152
 40
0.8995246192
 40
0.925002889
 40
0.9501761278
 40
0.9751409473
 40
1.0
 40
1.0
 40
1.0
 40
1.0
 10
11.3348183383
 20
5.6040682103
 30
0.0
 10
11.3127712863
 20
5.595067539
 30
0.0
 10
11.2787201555
 20
5.5832493445
 30
0.0
 10
11.2320919051
 20
5.570854322
 30
0.0
 10
11.1960912425
 20
5.563140733
 30
0.0
 10
11.1594575655
 20
5.5571074728
 30
0.0
 10
11.1223447203
 20
5.5527794528
 30
0.0
 10
11.0849117794
 20
5.5501752833
 30
0.0
 10
11.0473183378
 20
5.549305994
 30
0.0
 10
11.0097249054
 20
5.5501752913
 30
0.0
 10
10.9722919351
 20
5.5527794699
 30
0.0
 10
10.9351792012
 20
5.5571074501
 30
0.0
 10
10.8985451027
 20
5.5631408262
 30
0.0
 10
10.8625459845
 20
5.5708539474
 30
0.0
 10
10.8273354708
 20
5.5802140411
 30
0.0
 10
10.7930638105
 20
5.5911813544
 30
0.0
 10
10.7598772329
 20
5.6037093343
 30
0.0
 10
10.727917343
 20
5.6177448481
 30
0.0
 10
10.6973205258
 20
5.6332284306
 30
0.0
 10
10.6682173993
 20
5.6500945449
 30
0.0
 10
10.6407322786
 20
5.6682718793
 30
0.0
 10
10.6149827029
 20
5.6876836524
 30
0.0
 10
10.5910789722
 20
5.708247929
 30
0.0
 10
10.5691237459
 20
5.7298779354
 30
0.0
 10
10.5492116715
 20
5.7524823875
 30
0.0
 10
10.5314290473
 20
5.7759657849
 30
0.0
 10
10.5158534826
 20
5.8002286954
 30
0.0
 10
10.5025535592
 20
5.8251679959
 30
0.0
 10
10.4915884604
 20
5.8506772321
 30
0.0
 10
10.4830075395
 20
5.8766465544
 30
0.0
 10
10.4768498722
 20
5.9029644121
 30
0.0
 10
10.473143788
 20
5.9295131902
 30
0.0
 10
10.4723183655
 20
5.9473088584
 30
0.0
 10
10.472318351
 20
5.9561823608
 30
0.0
  0
SPLINE
  5
2E2
100
AcDbEntity
  8
0
100
AcDbSpline
 62
7
  6
CONTINUOUS
 70
0
 71
3
 72
36
 73
32
 74
0
 42
0.0000001
 43
0.0000001
 44
0.0000000001
 40
0.0
 40
0.0
 40
0.0
 40
0.0
 40
0.066716011
 40
0.1007471599
 40
0.1351374895
 40
0.204705419
 40
0.2397594665
 40
0.2748886096
 40
0.345052924
 40
0.3799575979
 40
0.4146402169
 40
0.449030564
 40
0.4830616586
 40
0.5166706561
 40
0.5497996645
 40
0.5823966495
 40
0.6144163304
 40
0.6458210819
 40
0.6765818846
 40
0.706679218
 40
0.7361040042
 40
0.7648584193
 40
0.7929566911
 40
0.8204256763
 40
0.8473052512
 40
0.8736483869
 40
0.8995207749
 40
0.925000024
 40
0.9501742224
 40
0.9751399992
 40
1.0
 40
1.0
 40
1.0
 40
1.0
 10
11.2785683383
 20
6.323498348
 30
0.0
 10
11.2608348385
 20
6.316258677
 30
0.0
 10
11.2334462019
 20
6.306752805
 30
0.0
 10
11.1959400158
 20
6.2967827052
 30
0.0
 10
11.1571888357
 20
6.2884798233
 30
0.0
 10
11.1175942181
 20
6.2829350752
 30
0.0
 10
11.0775565622
 20
6.2801497288
 30
0.0
 10
11.0372615398
 20
6.27921791
 30
0.0
 10
10.9969841326
 20
6.2810766609
 30
0.0
 10
10.9571200162
 20
6.2857254895
 30
0.0
 10
10.927652761
 20
6.2905785074
 30
0.0
 10
10.8986971358
 20
6.2967825233
 30
0.0
 10
10.8703755882
 20
6.3043113041
 30
0.0
 10
10.8428092655
 20
6.3131328364
 30
0.0
 10
10.81611571
 20
6.3232096881
 30
0.0
 10
10.7904088427
 20
6.3344991237
 30
0.0
 10
10.7657983616
 20
6.34695331
 30
0.0
 10
10.7423893267
 20
6.3605195356
 30
0.0
 10
10.7202817329
 20
6.3751404369
 30
0.0
 10
10.6995701147
 20
6.3907542532
 30
0.0
 10
10.6803431951
 20
6.4072950786
 30
0.0
 10
10.6626835485
 20
6.4246931232
 30
0.0
 10
10.6466673117
 20
6.4428749638
 30
0.0
 10
10.6323638992
 20
6.4617637851
 30
0.0
 10
10.6198357357
 20
6.4812796086
 30
0.0
 10
10.6091379809
 20
6.5013394827
 30
0.0
 10
10.6003182309
 20
6.5218577827
 30
0.0
 10
10.5934161825
 20
6.5427461483
 30
0.0
 10
10.588463272
 20
6.5639148601
 30
0.0
 10
10.5854822882
 20
6.5852693109
 30
0.0
 10
10.5848183645
 20
6.5995832179
 30
0.0
 10
10.5848183509
 20
6.6067205995
 30
0.0
  0
SPLINE
  5
2E3
100
AcDbEntity
  8
0
100
AcDbSpline
 62
7
  6
CONTINUOUS
 70
0
 71
3
 72
19
 73
15
 74
0
 42
0.0000001
 43
0.0000001
 44
0.0000000001
 40
0.0
 40
0.0
 40
0.0
 40
0.0
 40
0.141156497
 40
0.2778143876
 40
0.4096144324
 40
0.5364113346
 40
0.5979837569
 40
0.6583660576
 40
0.7176136935
 40
0.7757999408
 40
0.8330157643
 40
0.8893692444
 40
0.9449844915
 40
1.0
 40
1.0
 40
1.0
 40
1.0
 10
11.2201279562
 20
6.4869480864
 30
0.0
 10
11.2311203432
 20
6.4914357096
 30
0.0
 10
11.2523769176
 20
6.5012364486
 30
0.0
 10
11.2821898516
 20
6.5186155723
 30
0.0
 10
11.3090967296
 20
6.53824709
 30
0.0
 10
11.3290142723
 20
6.5564708019
 30
0.0
 10
11.3431153688
 20
6.571943992
 30
0.0
 10
11.3526663434
 20
6.5838354187
 30
0.0
 10
11.361263351
 20
6.5960876562
 30
0.0
 10
11.3688794402
 20
6.6086630523
 30
0.0
 10
11.3754901397
 20
6.6215222962
 30
0.0
 10
11.3810742485
 20
6.6346255567
 30
0.0
 10
11.3856134172
 20
6.6479306647
 30
0.0
 10
11.3879440809
 20
6.6569507458
 30
0.0
 10
11.3889269021
 20
6.6614727076
 30
0.0
  0
SPLINE
  5
2E4
100
AcDbEntity
  8
0
100
AcDbSpline
 62
7
  6
CONTINUOUS
 70
0
 71
3
 72
21
 73
17
 74
0
 42
0.0000001
 43
0.0000001
 44
0.0000000001
 40
0.0
 40
0.0
 40
0.0
 40
0.0
 40
0.1178050236
 40
0.1786831618
 40
0.2406593233
 40
0.3035621166
 40
0.3672054642
 40
0.4313924288
 40
0.4959185956
 40
0.5605754997
 40
0.6251542113
 40
0.6894484839
 40
0.7532583508
 40
0.8163934964
 40
0.8786766474
 40
1.0
 40
1.0
 40
1.0
 40
1.0
 10
10.8140296609
 20
6.9657677494
 30
0.0
 10
10.8304171219
 20
6.9571365011
 30
0.0
 10
10.856251832
 20
6.9458201954
 30
0.0
 10
10.8922113587
 20
6.9340042402
 30
0.0
 10
10.9204889858
 20
6.9266211348
 30
0.0
 10
10.9495828412
 20
6.9208706999
 30
0.0
 10
10.9793089584
 20
6.9167925452
 30
0.0
 10
11.0094748177
 20
6.9144173135
 30
0.0
 10
11.0398862595
 20
6.9137642899
 30
0.0
 10
11.0703472267
 20
6.9148418661
 30
0.0
 10
11.1006613486
 20
6.9176472064
 30
0.0
 10
11.1306335147
 20
6.9221665484
 30
0.0
 10
11.1600697198
 20
6.9283747094
 30
0.0
 10
11.1887835972
 20
6.9362374007
 30
0.0
 10
11.2255190507
 20
6.948748574
 30
0.0
 10
11.251955551
 20
6.9606102044
 30
0.0
 10
11.268775485
 20
6.9696065273
 30
0.0
  0
SPLINE
  5
2E5
100
AcDbEntity
  8
0
100
AcDbSpline
 62
7
  6
CONTINUOUS
 70
0
 71
3
 72
15
 73
11
 74
0
 42
0.0000001
 43
0.0000001
 44
0.0000000001
 40
0.0
 40
0.0
 40
0.0
 40
0.0
 40
0.1222301494
 40
0.2449044978
 40
0.3682066337
 40
0.4923134391
 40
0.6173934284
 40
0.7436050574
 40
0.8710955622
 40
1.0
 40
1.0
 40
1.0
 40
1.0
 10
10.5854690529
 20
6.588707015
 30
0.0
 10
10.5857939695
 20
6.5930336721
 30
0.0
 10
10.5866882997
 20
6.6016863774
 30
0.0
 10
10.5887548409
 20
6.6145987683
 30
0.0
 10
10.5915449942
 20
6.6274428524
 30
0.0
 10
10.5950541238
 20
6.6401977447
 30
0.0
 10
10.59927662
 20
6.6528433436
 30
0.0
 10
10.6042057262
 20
6.6653597024
 30
0.0
 10
10.6098332362
 20
6.677726717
 30
0.0
 10
10.6140206786
 20
6.6858126074
 30
0.0
 10
10.61622448
 20
6.6898226986
 30
0.0
  0
SPLINE
  5
2E6
100
AcDbEntity
  8
0
100
AcDbSpline
 62
7
  6
CONTINUOUS
 70
0
 71
3
 72
9
 73
5
 74
0
 42
0.0000001
 43
0.0000001
 44
0.0000000001
 40
0.0
 40
0.0
 40
0.0
 40
0.0
 40
0.4938634713
 40
1.0
 40
1.0
 40
1.0
 40
1.0
 10
10.61622448
 20
6.6898226986
 30
0.0
 10
10.6204573784
 20
6.6975249843
 30
0.0
 10
10.6297723726
 20
6.7127216932
 30
0.0
 10
10.640405708
 20
6.7270226567
 30
0.0
 10
10.6460782364
 20
6.7340192194
 30
0.0
  0
SPLINE
  5
2E7
100
AcDbEntity
  8
0
100
AcDbSpline
 62
7
  6
CONTINUOUS
 70
0
 71
3
 72
15
 73
11
 74
0
 42
0.0000001
 43
0.0000001
 44
0.0000000001
 40
0.0
 40
0.0
 40
0.0
 40
0.0
 40
0.1209734675
 40
0.2423575076
 40
0.3645529616
 40
0.487941913
 40
0.6128794452
 40
0.7396869943
 40
0.8686471542
 40
1.0
 40
1.0
 40
1.0
 40
1.0
 10
10.5848183509
 20
6.6067205995
 30
0.0
 10
10.5848183387
 20
6.6130902229
 30
0.0
 10
10.585346645
 20
6.625857333
 30
0.0
 10
10.587719695
 20
6.6449255746
 30
0.0
 10
10.5916651814
 20
6.6638623405
 30
0.0
 10
10.5971688132
 20
6.6826003761
 30
0.0
 10
10.6042107497
 20
6.7010754983
 30
0.0
 10
10.6127660614
 20
6.7192244793
 30
0.0
 10
10.6228037799
 20
6.7369843786
 30
0.0
 10
10.6303886882
 20
6.7484164658
 30
0.0
 10
10.6344060285
 20
6.7540461926
 30
0.0
  0
SPLINE
  5
2E8
100
AcDbEntity
  8
0
100
AcDbSpline
 62
7
  6
CONTINUOUS
 70
0
 71
3
 72
22
 73
18
 74
0
 42
0.0000001
 43
0.0000001
 44
0.0000000001
 40
0.0
 40
0.0
 40
0.0
 40
0.0
 40
0.0579578167
 40
0.1160429584
 40
0.174380804
 40
0.2330928882
 40
0.2922952056
 40
0.3520966344
 40
0.4125975991
 40
0.473889069
 40
0.5360517144
 40
0.5991553466
 40
0.6632586234
 40
0.7284088407
 40
0.7946423249
 40
0.8619832809
 40
1.0
 40
1.0
 40
1.0
 40
1.0
 10
11.6223183291
 20
6.6208627351
 30
0.0
 10
11.6223183418
 20
6.6144981969
 30
0.0
 10
11.6218946204
 20
6.6017511001
 30
0.0
 10
11.619990164
 20
6.5826833672
 30
0.0
 10
11.6168209328
 20
6.5636999786
 30
0.0
 10
11.6123942145
 20
6.5448443348
 30
0.0
 10
11.6067201271
 20
6.5261580626
 30
0.0
 10
11.5998116142
 20
6.507682691
 30
0.0
 10
11.5916843707
 20
6.4894590697
 30
0.0
 10
11.5823567654
 20
6.4715274241
 30
0.0
 10
11.571849783
 20
6.4539272312
 30
0.0
 10
11.5601869746
 20
6.4366971821
 30
0.0
 10
11.5473943175
 20
6.4198750491
 30
0.0
 10
11.5335004922
 20
6.4034978307
 30
0.0
 10
11.5185355866
 20
6.3876008166
 30
0.0
 10
11.4970276782
 20
6.3669266292
 30
0.0
 10
11.4796384707
 20
6.3524994451
 30
0.0
 10
11.4675552138
 20
6.3433506016
 30
0.0
  0
SPLINE
  5
2E9
100
AcDbEntity
  8
0
100
AcDbSpline
 62
9
  6
CONTINUOUS
 70
0
 71
3
 72
9
 73
5
 74
0
 42
0.0000001
 43
0.0000001
 44
0.0000000001
 40
0.0
 40
0.0
 40
0.0
 40
0.0
 40
0.2468336434
 40
1.0
 40
1.0
 40
1.0
 40
1.0
 10
10.2451611418
 20
6.4814021058
 30
0.0
 10
10.2634179685
 20
6.4888554241
 30
0.0
 10
10.3378594893
 20
6.5178719376
 30
0.0
 10
10.4141108835
 20
6.5422144199
 30
0.0
 10
10.4721788317
 20
6.5579824125
 30
0.0
  0
SPLINE
  5
2EA
100
AcDbEntity
  8
0
100
AcDbSpline
 62
9
  6
CONTINUOUS
 70
0
 71
3
 72
53
 73
49
 74
0
 42
0.0000001
 43
0.0000001
 44
0.0000000001
 40
0.0
 40
0.0
 40
0.0
 40
0.0
 40
0.0370118789
 40
0.0734796527
 40
0.1093351965
 40
0.1445192645
 40
0.1789828374
 40
0.2126884593
 40
0.2456116098
 40
0.2777420127
 40
0.3090848771
 40
0.3396619836
 40
0.354678061
 40
0.3695188819
 40
0.3841921275
 40
0.3987065869
 40
0.4130721381
 40
0.427299717
 40
0.4414012741
 40
0.4553897146
 40
0.4692788239
 40
0.483083181
 40
0.4968180578
 40
0.5104993054
 40
0.5241432284
 40
0.5377664505
 40
0.5513857734
 40
0.5650180329
 40
0.5786799527
 40
0.592388002
 40
0.606158258
 40
0.620006276
 40
0.6339469696
 40
0.647994503
 40
0.6621621981
 40
0.6764624551
 40
0.6909066873
 40
0.7055052677
 40
0.7202674919
 40
0.7352015546
 40
0.7656063472
 40
0.7967694074
 40
0.8287164696
 40
0.8614564966
 40
0.8949826873
 40
0.9292736968
 40
0.9642948941
 40
1.0
 40
1.0
 40
1.0
 40
1.0
 10
11.6223771618
 20
6.5580043276
 30
0.0
 10
11.6572641081
 20
6.5485325049
 30
0.0
 10
11.726044113
 20
6.5278957896
 30
0.0
 10
11.8265505344
 20
6.4916539527
 30
0.0
 10
11.9232194924
 20
6.4505068253
 30
0.0
 10
12.0155707783
 20
6.4046565047
 30
0.0
 10
12.1031501279
 20
6.3543267085
 30
0.0
 10
12.1855252097
 20
6.2997627557
 30
0.0
 10
12.2622889964
 20
6.2412307349
 30
0.0
 10
12.3330621129
 20
6.1790144457
 30
0.0
 10
12.3974903935
 20
6.1134200541
 30
0.0
 10
12.4459228687
 20
6.0558536387
 30
0.0
 10
12.4811073252
 20
6.0084422568
 30
0.0
 10
12.5055659998
 20
5.972462153
 30
0.0
 10
12.5282201957
 20
5.9358947157
 30
0.0
 10
12.549042149
 20
5.8987845235
 30
0.0
 10
12.5680056828
 20
5.8611775895
 30
0.0
 10
12.5850870623
 20
5.8231203857
 30
0.0
 10
12.6002648617
 20
5.7846600538
 30
0.0
 10
12.6135200106
 20
5.7458442634
 30
0.0
 10
12.6248358112
 20
5.7067211768
 30
0.0
 10
12.6341979704
 20
5.6673393863
 30
0.0
 10
12.6415946364
 20
5.6277478558
 30
0.0
 10
12.6470164674
 20
5.5879958614
 30
0.0
 10
12.6504565985
 20
5.5481329091
 30
0.0
 10
12.6519106643
 20
5.5082086696
 30
0.0
 10
12.6513768026
 20
5.4682729053
 30
0.0
 10
12.64885568
 20
5.4283753991
 30
0.0
 10
12.6443505192
 20
5.3885658742
 30
0.0
 10
12.6378670389
 20
5.3488939211
 30
0.0
 10
12.6294134498
 20
5.3094089273
 30
0.0
 10
12.6190004276
 20
5.2701600116
 30
0.0
 10
12.6066411195
 20
5.2311959519
 30
0.0
 10
12.5923511298
 20
5.1925651143
 30
0.0
 10
12.576148442
 20
5.1543154002
 30
0.0
 10
12.5580534118
 20
5.1164942026
 30
0.0
 10
12.5380886683
 20
5.0791482931
 30
0.0
 10
12.5162793306
 20
5.0423240039
 30
0.0
 10
12.4926521441
 20
5.0060662217
 30
0.0
 10
12.4585657707
 20
4.958257853
 30
0.0
 10
12.4114649065
 20
4.9001398147
 30
0.0
 10
12.3485516617
 20
4.8338078887
 30
0.0
 10
12.2792165209
 20
4.7707814616
 30
0.0
 10
12.2038066405
 20
4.7113708461
 30
0.0
 10
12.1226952585
 20
4.6558640964
 30
0.0
 10
12.0362824205
 20
4.6045314273
 30
0.0
 10
11.9449983733
 20
4.5576245452
 30
0.0
 10
11.8817621681
 20
4.5297072436
 30
0.0
 10
11.8494755348
 20
4.5165262808
 30
0.0
  0
SPLINE
  5
2EB
100
AcDbEntity
  8
0
100
AcDbSpline
 62
9
  6
CONTINUOUS
 70
0
 71
3
 72
30
 73
26
 74
0
 42
0.0000001
 43
0.0000001
 44
0.0000000001
 40
0.0
 40
0.0
 40
0.0
 40
0.0
 40
0.0723988532
 40
0.1435151471
 40
0.2132658457
 40
0.2815863167
 40
0.3484332082
 40
0.4137863497
 40
0.4776505867
 40
0.5400575121
 40
0.6010667756
 40
0.6310795718
 40
0.6607786276
 40
0.6901795571
 40
0.7192997505
 40
0.7481583196
 40
0.7767760332
 40
0.8051752387
 40
0.8333797474
 40
0.8614147056
 40
0.8893064496
 40
0.917082344
 40
0.9447705947
 40
0.9724000512
 40
1.0
 40
1.0
 40
1.0
 40
1.0
 10
11.8573183383
 20
4.4690782324
 30
0.0
 10
11.8876674622
 20
4.4814682104
 30
0.0
 10
11.9471976411
 20
4.5076113409
 30
0.0
 10
12.0333987996
 20
4.5512338194
 30
0.0
 10
12.1153941393
 20
4.5987524808
 30
0.0
 10
12.1928303391
 20
4.6499650622
 30
0.0
 10
12.2653770141
 20
4.7046557084
 30
0.0
 10
12.332723106
 20
4.7625931372
 30
0.0
 10
12.3945799055
 20
4.8235338695
 30
0.0
 10
12.4506788273
 20
4.8872175336
 30
0.0
 10
12.4926606022
 20
4.9426588539
 30
0.0
 10
12.5230659273
 20
4.9880961174
 30
0.0
 10
12.5441680324
 20
5.0224996998
 30
0.0
 10
12.5636669644
 20
5.057374071
 30
0.0
 10
12.5815420979
 20
5.0926824356
 30
0.0
 10
12.5977739695
 20
5.128386864
 30
0.0
 10
12.6123449797
 20
5.1644491551
 30
0.0
 10
12.6252393387
 20
5.2008306166
 30
0.0
 10
12.636443046
 20
5.2374922075
 30
0.0
 10
12.6459438865
 20
5.2743945498
 30
0.0
 10
12.6537314681
 20
5.3114980013
 30
0.0
 10
12.6597973315
 20
5.34876256
 30
0.0
 10
12.6641348536
 20
5.3861483962
 30
0.0
 10
12.6667392763
 20
5.4236141904
 30
0.0
 10
12.667318316
 20
5.4486248553
 30
0.0
 10
12.6673183255
 20
5.4611215783
 30
0.0
  0
SPLINE
  5
2EC
100
AcDbEntity
  8
0
100
AcDbSpline
 62
9
  6
CONTINUOUS
 70
0
 71
3
 72
36
 73
32
 74
0
 42
0.0000001
 43
0.0000001
 44
0.0000000001
 40
0.0
 40
0.0
 40
0.0
 40
0.0
 40
0.0739866379
 40
0.1103356461
 40
0.1462265459
 40
0.2165630174
 40
0.2510008817
 40
0.2849385846
 40
0.35129221
 40
0.3837310039
 40
0.4156834614
 40
0.4471629511
 40
0.478187011
 40
0.5087773863
 40
0.538960017
 40
0.5687649665
 40
0.5982262841
 40
0.627381793
 40
0.6562728006
 40
0.6849437274
 40
0.713441659
 40
0.7418158244
 40
0.7701170137
 40
0.7983969481
 40
0.8267076217
 40
0.8551006342
 40
0.8836265366
 40
0.9123342082
 40
0.9412702849
 40
0.97047865
 40
1.0
 40
1.0
 40
1.0
 40
1.0
 10
12.0484360611
 20
3.774667227
 30
0.0
 10
12.0974742462
 20
3.7946869823
 30
0.0
 10
12.1696191234
 20
3.8270640841
 30
0.0
 10
12.2626572846
 20
3.8750908047
 30
0.0
 10
12.3515703763
 20
3.9252574047
 30
0.0
 10
12.4364276873
 20
3.9797086569
 30
0.0
 10
12.5166079044
 20
4.038337766
 30
0.0
 10
12.5920544287
 20
4.0984628595
 30
0.0
 10
12.6625591934
 20
4.1623866793
 30
0.0
 10
12.7274477799
 20
4.2298815513
 30
0.0
 10
12.7726656994
 20
4.2815508149
 30
0.0
 10
12.8147095544
 20
4.3345468198
 30
0.0
 10
12.8535028947
 20
4.3887739066
 30
0.0
 10
12.8889732571
 20
4.4441323534
 30
0.0
 10
12.9210546709
 20
4.5005207079
 30
0.0
 10
12.9496871734
 20
4.5578353702
 30
0.0
 10
12.9748171069
 20
4.6159709025
 30
0.0
 10
12.9963972092
 20
4.6748201569
 30
0.0
 10
13.0143867555
 20
4.7342744648
 30
0.0
 10
13.0287516823
 20
4.7942238271
 30
0.0
 10
13.0394647052
 20
4.8545571263
 30
0.0
 10
13.0465054225
 20
4.9151623543
 30
0.0
 10
13.049860399
 20
4.9759268604
 30
0.0
 10
13.0495232252
 20
5.0367376103
 30
0.0
 10
13.0454945443
 20
5.0974814617
 30
0.0
 10
13.0377820571
 20
5.1580454202
 30
0.0
 10
13.0264004562
 20
5.2183169742
 30
0.0
 10
13.0113714818
 20
5.2781841046
 30
0.0
 10
12.9927233814
 20
5.3375364705
 30
0.0
 10
12.9704925148
 20
5.3962620725
 30
0.0
 10
12.9534069318
 20
5.4347068951
 30
0.0
 10
12.9442986681
 20
5.4537779203
 30
0.0
  0
SPLINE
  5
2ED
100
AcDbEntity
  8
0
100
AcDbSpline
 62
7
  6
CONTINUOUS
 70
0
 71
3
 72
30
 73
26
 74
0
 42
0.0000001
 43
0.0000001
 44
0.0000000001
 40
0.0
 40
0.0
 40
0.0
 40
0.0
 40
0.0260111643
 40
0.0521321646
 40
0.0784140221
 40
0.1049053439
 40
0.1316516809
 40
0.1586949998
 40
0.1860732198
 40
0.2138198502
 40
0.2419637319
 40
0.2705289136
 40
0.2995346163
 40
0.3289952299
 40
0.3589203382
 40
0.3893148709
 40
0.4514940651
 40
0.5155037395
 40
0.5812359488
 40
0.6485292504
 40
0.7171763781
 40
0.786932478
 40
0.8575224966
 40
0.9286488271
 40
1.0
 40
1.0
 40
1.0
 40
1.0
 10
11.4530448261
 20
7.1684359336
 30
0.0
 10
11.4527179806
 20
7.1637577396
 30
0.0
 10
11.4517564393
 20
7.1544001756
 30
0.0
 10
11.4494023284
 20
7.1404507132
 30
0.0
 10
11.4461396014
 20
7.1265959975
 30
0.0
 10
11.4419759078
 20
7.1128674521
 30
0.0
 10
11.4369209341
 20
7.0992951375
 30
0.0
 10
11.4309864202
 20
7.0859089509
 30
0.0
 10
11.4241860571
 20
7.0727382313
 30
0.0
 10
11.4165354489
 20
7.0598118113
 30
0.0
 10
11.4080521291
 20
7.0471579003
 30
0.0
 10
11.398755495
 20
7.0348040443
 30
0.0
 10
11.3886666852
 20
7.0227770731
 30
0.0
 10
11.3778086595
 20
7.0111031547
 30
0.0
 10
11.3662057515
 20
6.9998073511
 30
0.0
 10
11.3496541615
 20
6.9851742548
 30
0.0
 10
11.3272095357
 20
6.9679811628
 30
0.0
 10
11.2979751571
 20
6.9493958635
 30
0.0
 10
11.2664946707
 20
6.9328532216
 30
0.0
 10
11.2330520034
 20
6.9184936269
 30
0.0
 10
11.1979462275
 20
6.9064364273
 30
0.0
 10
11.1614919516
 20
6.8967816779
 30
0.0
 10
11.1240150503
 20
6.8896079126
 30
0.0
 10
11.0858533252
 20
6.8849720443
 30
0.0
 10
11.0601797919
 20
6.883596217
 30
0.0
 10
11.0473183383
 20
6.8833389507
 30
0.0
  0
SPLINE
  5
2EE
100
AcDbEntity
  8
0
100
AcDbSpline
 62
9
  6
CONTINUOUS
 70
0
 71
3
 72
33
 73
29
 74
0
 42
0.0000001
 43
0.0000001
 44
0.0000000001
 40
0.0
 40
0.0
 40
0.0
 40
0.0
 40
0.0623833831
 40
0.0940518908
 40
0.1259974409
 40
0.1905885373
 40
0.223179418
 40
0.2559193168
 40
0.3216980719
 40
0.3546750935
 40
0.3876597286
 40
0.453499167
 40
0.4862917778
 40
0.5189499306
 40
0.5837177359
 40
0.6157716421
 40
0.6475610132
 40
0.6790567231
 40
0.7102314211
 40
0.7410597469
 40
0.7715185482
 40
0.8015871023
 40
0.8312473398
 40
0.8892720021
 40
0.9176287924
 40
0.9455360274
 40
0.9729922598
 40
1.0
 40
1.0
 40
1.0
 40
1.0
 10
11.8494755348
 20
4.5165262808
 30
0.0
 10
11.8057515553
 20
4.4986760409
 30
0.0
 10
11.7387744709
 20
4.4742654949
 30
0.0
 10
11.6475116263
 20
4.4464759496
 30
0.0
 10
11.5537015023
 20
4.4215111743
 30
0.0
 10
11.4579543812
 20
4.401346672
 30
0.0
 10
11.3607887387
 20
4.385988151
 30
0.0
 10
11.2622683912
 20
4.3737967691
 30
0.0
 10
11.1628982601
 20
4.3665291605
 30
0.0
 10
11.0631771935
 20
4.3641859118
 30
0.0
 10
10.9633871376
 20
4.3651354246
 30
0.0
 10
10.8638337286
 20
4.37101527
 30
0.0
 10
10.7650147302
 20
4.3818250538
 30
0.0
 10
10.6674174423
 20
4.3958258163
 30
0.0
 10
10.571126052
 20
4.4146506309
 30
0.0
 10
10.4766595402
 20
4.4382937111
 30
0.0
 10
10.4072882092
 20
4.4582777026
 30
0.0
 10
10.3393112175
 20
4.4805288266
 30
0.0
 10
10.2728751974
 20
4.5049991079
 30
0.0
 10
10.2081249492
 20
4.5316354532
 30
0.0
 10
10.1452019416
 20
4.5603797342
 30
0.0
 10
10.0842408949
 20
4.5911709658
 30
0.0
 10
10.0063372698
 20
4.6345401941
 30
0.0
 10
9.9322496183
 20
4.6819854834
 30
0.0
 10
9.8626263656
 20
4.7333922553
 30
0.0
 10
9.8133803644
 20
4.7733288984
 30
0.0
 10
9.7668234539
 20
4.8148482139
 30
0.0
 10
9.7374016948
 20
4.8437630924
 30
0.0
 10
9.7231852959
 20
4.8584580136
 30
0.0
  0
SPLINE
  5
2EF
100
AcDbEntity
  8
0
100
AcDbSpline
 62
9
  6
CONTINUOUS
 70
0
 71
3
 72
40
 73
36
 74
0
 42
0.0000001
 43
0.0000001
 44
0.0000000001
 40
0.0
 40
0.0
 40
0.0
 40
0.0
 40
0.0322236796
 40
0.0481203501
 40
0.0638760039
 40
0.0949738714
 40
0.1255515208
 40
0.1406588308
 40
0.1556509844
 40
0.185309658
 40
0.2145834006
 40
0.2435303878
 40
0.272214296
 40
0.3007033839
 40
0.3290693954
 40
0.357386318
 40
0.3857290435
 40
0.4141719881
 40
0.4427877332
 40
0.4716457471
 40
0.5008112396
 40
0.5303441859
 40
0.5602985429
 40
0.5907216639
 40
0.6216539056
 40
0.6531284113
 40
0.6851710507
 40
0.7178004886
 40
0.7510283555
 40
0.7848594982
 40
0.8192922887
 40
0.8543189759
 40
0.8899260481
 40
0.9260947173
 40
1.0
 40
1.0
 40
1.0
 40
1.0
 10
9.7231852959
 20
4.8584580136
 30
0.0
 10
9.7077856424
 20
4.8743760175
 30
0.0
 10
9.685431914
 20
4.8987835327
 30
0.0
 10
9.6571999031
 20
4.9324116343
 30
0.0
 10
9.6304387624
 20
4.9662415215
 30
0.0
 10
9.5992812337
 20
5.0094292057
 30
0.0
 10
9.5710693891
 20
5.0540734541
 30
0.0
 10
9.5504966959
 20
5.0903580316
 30
0.0
 10
9.5313973218
 20
5.1267268751
 30
0.0
 10
9.5099834873
 20
5.1728482764
 30
0.0
 10
9.4882728068
 20
5.2292618435
 30
0.0
 10
9.4706970083
 20
5.2863996154
 30
0.0
 10
9.4573053129
 20
5.3441077766
 30
0.0
 10
9.4481346404
 20
5.4022321896
 30
0.0
 10
9.4432105721
 20
5.460616754
 30
0.0
 10
9.4425468431
 20
5.5191045085
 30
0.0
 10
9.446145316
 20
5.5775380659
 30
0.0
 10
9.4539959471
 20
5.6357602535
 30
0.0
 10
9.4660768585
 20
5.6936146956
 30
0.0
 10
9.4823544954
 20
5.7509463787
 30
0.0
 10
9.5027838833
 20
5.8076021509
 30
0.0
 10
9.5273089001
 20
5.8634311645
 30
0.0
 10
9.5558625728
 20
5.918285261
 30
0.0
 10
9.5883673788
 20
5.9720193051
 30
0.0
 10
9.6247355325
 20
6.0244914917
 30
0.0
 10
9.664869261
 20
6.0755636394
 30
0.0
 10
9.7086611092
 20
6.1251014542
 30
0.0
 10
9.7559942141
 20
6.1729748042
 30
0.0
 10
9.8067426145
 20
6.2190580067
 30
0.0
 10
9.8607714808
 20
6.263230071
 30
0.0
 10
9.9179377126
 20
6.3053751278
 30
0.0
 10
9.9780891979
 20
6.3453821767
 30
0.0
 10
10.0410693211
 20
6.383147456
 30
0.0
 10
10.1292071889
 20
6.4307121396
 30
0.0
 10
10.1981326872
 20
6.4622028196
 30
0.0
 10
10.2451611418
 20
6.4814021058
 30
0.0
  0
SPLINE
  5
2F0
100
AcDbEntity
  8
0
100
AcDbSpline
 62
9
  6
CONTINUOUS
 70
0
 71
3
 72
47
 73
43
 74
0
 42
0.0000001
 43
0.0000001
 44
0.0000000001
 40
0.0
 40
0.0
 40
0.0
 40
0.0
 40
0.0330545862
 40
0.0665837077
 40
0.1005310841
 40
0.1348352682
 40
0.1694308951
 40
0.2042494071
 40
0.239219847
 40
0.2742696439
 40
0.3093253901
 40
0.344313616
 40
0.3791615628
 40
0.4137979583
 40
0.448153804
 40
0.4821631617
 40
0.5157639711
 40
0.5488988588
 40
0.5815159952
 40
0.6135699362
 40
0.645022516
 40
0.6758437181
 40
0.7060125765
 40
0.7355180394
 40
0.7500234937
 40
0.7643639374
 40
0.7785411406
 40
0.7925576304
 40
0.8201177133
 40
0.8470844754
 40
0.8603626856
 40
0.8735118326
 40
0.8865399299
 40
0.8994557291
 40
0.9122686881
 40
0.9249889338
 40
0.9376272081
 40
0.950194809
 40
0.9627035249
 40
0.9751655613
 40
0.9875934577
 40
1.0
 40
1.0
 40
1.0
 40
1.0
 10
11.8573183383
 20
4.4931116836
 30
0.0
 10
11.8267847831
 20
4.4806464119
 30
0.0
 10
11.764606097
 20
4.4571546752
 30
0.0
 10
11.6690598317
 20
4.42649836
 30
0.0
 10
11.5709101347
 20
4.4002766762
 30
0.0
 10
11.4705707634
 20
4.3786000809
 30
0.0
 10
11.3684605477
 20
4.3615585959
 30
0.0
 10
11.2650068839
 20
4.3492232779
 30
0.0
 10
11.1606424776
 20
4.3416455656
 30
0.0
 10
11.0558039647
 20
4.3388570502
 30
0.0
 10
10.9509299486
 20
4.340869345
 30
0.0
 10
10.8464591929
 20
4.3476740999
 30
0.0
 10
10.7428287536
 20
4.3592428717
 30
0.0
 10
10.6404721671
 20
4.3755275196
 30
0.0
 10
10.5398175846
 20
4.3964600631
 30
0.0
 10
10.4412860454
 20
4.4219534207
 30
0.0
 10
10.3452896238
 20
4.4519013141
 30
0.0
 10
10.2522298336
 20
4.4861792652
 30
0.0
 10
10.1624958465
 20
4.524644622
 30
0.0
 10
10.0764629903
 20
4.5671377483
 30
0.0
 10
9.9944913368
 20
4.6134820577
 30
0.0
 10
9.9169234817
 20
4.6634860123
 30
0.0
 10
9.8440865315
 20
4.7169405215
 30
0.0
 10
9.787260912
 20
4.7644495472
 30
0.0
 10
9.7445062628
 20
4.8039799521
 30
0.0
 10
9.713986024
 20
4.8341775737
 30
0.0
 10
9.684864242
 20
4.865059449
 30
0.0
 10
9.6481509406
 20
4.9068646805
 30
0.0
 10
9.605825604
 20
4.9606659218
 30
0.0
 10
9.5681039584
 20
5.0169134261
 30
0.0
 10
9.5411145695
 20
5.0628585177
 30
0.0
 10
9.5225551955
 20
5.0975882483
 30
0.0
 10
9.5055965835
 20
5.1327258159
 30
0.0
 10
9.4902563611
 20
5.1682348581
 30
0.0
 10
9.4765509684
 20
5.2040779562
 30
0.0
 10
9.4644949271
 20
5.2402174518
 30
0.0
 10
9.4541010791
 20
5.2766153054
 30
0.0
 10
9.445380541
 20
5.3132332206
 30
0.0
 10
9.4383426597
 20
5.350032537
 30
0.0
 10
9.4329949163
 20
5.3869747146
 30
0.0
 10
9.429343051
 20
5.42401975
 30
0.0
 10
9.4280409868
 20
5.4487741721
 30
0.0
 10
9.4276741661
 20
5.4611472867
 30
0.0
  0
SPLINE
  5
2F1
100
AcDbEntity
  8
0
100
AcDbSpline
 62
7
  6
CONTINUOUS
 70
0
 71
3
 72
15
 73
11
 74
0
 42
0.0000001
 43
0.0000001
 44
0.0000000001
 40
0.0
 40
0.0
 40
0.0
 40
0.0
 40
0.1194660049
 40
0.2397611574
 40
0.3613049982
 40
0.4844875399
 40
0.6096620144
 40
0.7371378768
 40
0.8671797946
 40
1.0
 40
1.0
 40
1.0
 40
1.0
 10
10.6415994595
 20
7.1435947711
 30
0.0
 10
10.6420084261
 20
7.1381056563
 30
0.0
 10
10.6433029695
 20
7.1271189343
 30
0.0
 10
10.6466491222
 20
7.1107927007
 30
0.0
 10
10.6513919109
 20
7.0946369853
 30
0.0
 10
10.6575137011
 20
7.078711864
 30
0.0
 10
10.6649921068
 20
7.063074358
 30
0.0
 10
10.6738001937
 20
7.0477803639
 30
0.0
 10
10.6839057356
 20
7.0328853593
 30
0.0
 10
10.6914030981
 20
7.0233592541
 30
0.0
 10
10.6953467171
 20
7.0186797703
 30
0.0
  0
SPLINE
  5
2F2
100
AcDbEntity
  8
0
100
AcDbSpline
 62
9
  6
CONTINUOUS
 70
0
 71
3
 72
46
 73
42
 74
0
 42
0.0000001
 43
0.0000001
 44
0.0000000001
 40
0.0
 40
0.0
 40
0.0
 40
0.0
 40
0.0331256727
 40
0.0667311553
 40
0.1007587563
 40
0.1351455686
 40
0.1698246302
 40
0.2047257159
 40
0.2397761659
 40
0.2749017012
 40
0.3100272367
 40
0.3450776863
 40
0.3799787726
 40
0.4146578333
 40
0.4490446458
 40
0.4830722487
 40
0.5166777945
 40
0.5498034015
 40
0.5823970418
 40
0.614413434
 40
0.6458149623
 40
0.6765726035
 40
0.7066668472
 40
0.7360886091
 40
0.7648400712
 40
0.7929354572
 40
0.8204016196
 40
0.8339132775
 40
0.8472836925
 40
0.8605198917
 40
0.8736297027
 40
0.8866217315
 40
0.8995053297
 40
0.9122905562
 40
0.9249881294
 40
0.9376093715
 40
0.9501661402
 40
0.9626707539
 40
0.97513591
 40
0.987574597
 40
1.0
 40
1.0
 40
1.0
 40
1.0
 10
11.9998183383
 20
4.1612031361
 30
0.0
 10
11.9635475549
 20
4.1463956508
 30
0.0
 10
11.8896725816
 20
4.1185075707
 30
0.0
 10
11.7761316161
 20
4.0821734387
 30
0.0
 10
11.6594770294
 20
4.0511627932
 30
0.0
 10
11.5402105857
 20
4.0256089269
 30
0.0
 10
11.4188401721
 20
4.0056200671
 30
0.0
 10
11.295884085
 20
3.9912812778
 30
0.0
 10
11.1718670203
 20
3.9826535253
 30
0.0
 10
11.0473183385
 20
3.9797735378
 30
0.0
 10
10.9227696549
 20
3.982653518
 30
0.0
 10
10.7987525955
 20
3.9912812903
 30
0.0
 10
10.6757964908
 20
4.0056200509
 30
0.0
 10
10.5544261364
 20
4.0256089341
 30
0.0
 10
10.4351594911
 20
4.0511628268
 30
0.0
 10
10.3185055381
 20
4.0821732597
 30
0.0
 10
10.2049620206
 20
4.1185084063
 30
0.0
 10
10.0950134428
 20
4.160014151
 30
0.0
 10
9.989128924
 20
4.206514402
 30
0.0
 10
9.8877603453
 20
4.2578121902
 30
0.0
 10
9.7913404307
 20
4.3136903825
 30
0.0
 10
9.7002810478
 20
4.3739126717
 30
0.0
 10
9.6149715671
 20
4.4382247896
 30
0.0
 10
9.5357775425
 20
4.5063549223
 30
0.0
 10
9.463038534
 20
4.5780167112
 30
0.0
 10
9.3970703503
 20
4.6529039771
 30
0.0
 10
9.347702893
 20
4.7180988631
 30
0.0
 10
9.3119485034
 20
4.7715297324
 30
0.0
 10
9.2871339677
 20
4.8119857837
 30
0.0
 10
9.2642046581
 20
4.8529954572
 30
0.0
 10
9.2431848451
 20
4.8945154876
 30
0.0
 10
9.2240973855
 20
4.9365012575
 30
0.0
 10
9.2069629287
 20
4.9789078298
 30
0.0
 10
9.1918001003
 20
5.0216897295
 30
0.0
 10
9.1786253971
 20
5.0648010526
 30
0.0
 10
9.1674531338
 20
5.1081954775
 30
0.0
 10
9.1582954859
 20
5.1518263819
 30
0.0
 10
9.1511624596
 20
5.1956467407
 30
0.0
 10
9.1460618779
 20
5.2396097185
 30
0.0
 10
9.1429993073
 20
5.2836667174
 30
0.0
 10
9.1423183412
 20
5.3130774056
 30
0.0
 10
9.142318351
 20
5.3277726261
 30
0.0
  0
SPLINE
  5
2F3
100
AcDbEntity
  8
0
100
AcDbSpline
 62
7
  6
CONTINUOUS
 70
0
 71
3
 72
29
 73
25
 74
0
 42
0.0000001
 43
0.0000001
 44
0.0000000001
 40
0.0
 40
0.0
 40
0.0
 40
0.0
 40
0.0259962278
 40
0.0521140859
 40
0.0784032254
 40
0.1049107916
 40
0.1316808162
 40
0.1587537064
 40
0.1861658451
 40
0.2139492643
 40
0.2421314104
 40
0.2707350205
 40
0.2997781239
 40
0.3292740467
 40
0.3896375216
 40
0.451860229
 40
0.5158921032
 40
0.5816235593
 40
0.6488933123
 40
0.7174957363
 40
0.7871888667
 40
0.8577015274
 40
0.9287406909
 40
1.0
 40
1.0
 40
1.0
 40
1.0
 10
11.4527647392
 20
7.2161969401
 30
0.0
 10
11.4523629755
 20
7.2115587922
 30
0.0
 10
11.4512563542
 20
7.2022841294
 30
0.0
 10
11.4487010253
 20
7.188468624
 30
0.0
 10
11.4452531677
 20
7.1747535459
 30
0.0
 10
11.4409207456
 20
7.1611694796
 30
0.0
 10
11.4357136137
 20
7.1477456915
 30
0.0
 10
11.4296436733
 20
7.1345112618
 30
0.0
 10
11.4227247
 20
7.1214947157
 30
0.0
 10
11.4149723249
 20
7.1087240723
 30
0.0
 10
11.4064039607
 20
7.0962267512
 30
0.0
 10
11.3970389507
 20
7.0840295768
 30
0.0
 10
11.3868979889
 20
7.0721583602
 30
0.0
 10
11.372262035
 20
7.0566817133
 30
0.0
 10
11.3521041333
 20
7.0382998072
 30
0.0
 10
11.325414754
 20
7.0181144094
 30
0.0
 10
11.2962720199
 20
6.9997949914
 30
0.0
 10
11.2649353704
 20
6.9834948805
 30
0.0
 10
11.2316808066
 20
6.9693483139
 30
0.0
 10
11.1968016183
 20
6.9574715012
 30
0.0
 10
11.1606052833
 20
6.9479612613
 30
0.0
 10
11.1234103184
 20
6.9408936993
 30
0.0
 10
11.0855466736
 20
6.936323918
 30
0.0
 10
11.0600771949
 20
6.9349646609
 30
0.0
 10
11.0473183383
 20
6.9347087464
 30
0.0
  0
SPLINE
  5
2F4
100
AcDbEntity
  8
0
100
AcDbSpline
 62
9
  6
CONTINUOUS
 70
0
 71
3
 72
38
 73
34
 74
0
 42
0.0000001
 43
0.0000001
 44
0.0000000001
 40
0.0
 40
0.0
 40
0.0
 40
0.0
 40
0.0740845712
 40
0.1103968555
 40
0.1461876251
 40
0.1814394239
 40
0.2161390162
 40
0.2502777694
 40
0.2838519337
 40
0.3168629216
 40
0.3493175603
 40
0.3812283109
 40
0.4126134385
 40
0.4434971214
 40
0.4739094822
 40
0.5038865202
 40
0.5334699324
 40
0.5627068067
 40
0.5916491787
 40
0.6203534453
 40
0.6488796408
 40
0.677290587
 40
0.7056509408
 40
0.7340261728
 40
0.7624815139
 40
0.7910809114
 40
0.8198860337
 40
0.848955362
 40
0.8783433947
 40
0.9080999857
 40
0.9382698223
 40
0.968892045
 40
1.0
 40
1.0
 40
1.0
 40
1.0
 10
12.0978596418
 20
3.6610013494
 30
0.0
 10
12.1554640039
 20
3.6845182318
 30
0.0
 10
12.2400162941
 20
3.7228786559
 30
0.0
 10
12.3485047357
 20
3.780413552
 30
0.0
 10
12.4263371983
 20
3.8259827189
 30
0.0
 10
12.500983755
 20
3.8741454191
 30
0.0
 10
12.5722747166
 20
3.9247924782
 30
0.0
 10
12.6400445125
 20
3.9778072823
 30
0.0
 10
12.7041365193
 20
4.0330682662
 30
0.0
 10
12.764402222
 20
4.0904486076
 30
0.0
 10
12.8207018266
 20
4.1498166507
 30
0.0
 10
12.8729044772
 20
4.2110361341
 30
0.0
 10
12.920888557
 20
4.2739664699
 30
0.0
 10
12.9645419495
 20
4.3384630099
 30
0.0
 10
13.003762323
 20
4.4043772995
 30
0.0
 10
13.0384573785
 20
4.4715573567
 30
0.0
 10
13.068545103
 20
4.5398479523
 30
0.0
 10
13.093954034
 20
4.6090909008
 30
0.0
 10
13.1146235256
 20
4.6791253807
 30
0.0
 10
13.1305040035
 20
4.7497882914
 30
0.0
 10
13.1415572313
 20
4.8209146484
 30
0.0
 10
13.1477565121
 20
4.8923380366
 30
0.0
 10
13.1490868353
 20
4.9638911031
 30
0.0
 10
13.1455449751
 20
5.0354060789
 30
0.0
 10
13.1371395116
 20
5.1067153174
 30
0.0
 10
13.1238907724
 20
5.1776518262
 30
0.0
 10
13.1058307227
 20
5.2480497847
 30
0.0
 10
13.0830027908
 20
5.3177450013
 30
0.0
 10
13.0554615704
 20
5.3865754073
 30
0.0
 10
13.023272775
 20
5.4543811649
 30
0.0
 10
12.9865122023
 20
5.5210060428
 30
0.0
 10
12.9452684122
 20
5.5862937668
 30
0.0
 10
12.9150900291
 20
5.6284890063
 30
0.0
 10
12.8993114581
 20
5.6493121451
 30
0.0
  0
SPLINE
  5
2F5
100
AcDbEntity
  8
0
100
AcDbSpline
 62
9
  6
CONTINUOUS
 70
0
 71
3
 72
57
 73
53
 74
0
 42
0.0000001
 43
0.0000001
 44
0.0000000001
 40
0.0
 40
0.0
 40
0.0
 40
0.0
 40
0.014116022
 40
0.0280452772
 40
0.041797988
 40
0.055385949
 40
0.0688224831
 40
0.0821223726
 40
0.0953017643
 40
0.1083780479
 40
0.1213697074
 40
0.1342961467
 40
0.1471774929
 40
0.1600343802
 40
0.1728877206
 40
0.1857584662
 40
0.1986673717
 40
0.2116347604
 40
0.2246803039
 40
0.2378228182
 40
0.2510800809
 40
0.2644686743
 40
0.278003854
 40
0.2916994456
 40
0.3055677666
 40
0.3196195748
 40
0.3338640384
 40
0.3483087271
 40
0.3629596204
 40
0.3778211318
 40
0.4081796886
 40
0.4236844625
 40
0.4394026936
 40
0.4714620173
 40
0.4877994241
 40
0.5043322441
 40
0.5379493808
 40
0.5550210136
 40
0.5722534543
 40
0.6071529962
 40
0.6425586986
 40
0.6783678631
 40
0.7144708614
 40
0.7507531383
 40
0.7870971799
 40
0.8233844611
 40
0.8594973858
 40
0.895321234
 40
0.9307461285
 40
0.9482785164
 40
0.9656732154
 40
1.0
 40
1.0
 40
1.0
 40
1.0
 10
9.1951799124
 20
5.6491203383
 30
0.0
 10
9.1819096336
 20
5.6316012235
 30
0.0
 10
9.1563479868
 20
5.5961768864
 30
0.0
 10
9.1208318806
 20
5.541617066
 30
0.0
 10
9.0884596949
 20
5.4860818946
 30
0.0
 10
9.0592860759
 20
5.4296633321
 30
0.0
 10
9.0333591021
 20
5.3724530388
 30
0.0
 10
9.0107219597
 20
5.314544591
 30
0.0
 10
8.9914123769
 20
5.256032726
 30
0.0
 10
8.9754626509
 20
5.1970133579
 30
0.0
 10
8.9628995262
 20
5.1375833769
 30
0.0
 10
8.9537441212
 20
5.0778404912
 30
0.0
 10
8.9480118566
 20
5.0178830425
 30
0.0
 10
8.9457124013
 20
4.9578098143
 30
0.0
 10
8.9468496372
 20
4.8977198309
 30
0.0
 10
8.9514216443
 20
4.8377121515
 30
0.0
 10
8.9594207081
 20
4.7778856637
 30
0.0
 10
8.9708333479
 20
4.718338881
 30
0.0
 10
8.9856403656
 20
4.6591697463
 30
0.0
 10
9.0038169104
 20
4.6004754472
 30
0.0
 10
9.0253325564
 20
4.5423522422
 30
0.0
 10
9.0501513901
 20
4.4848952989
 30
0.0
 10
9.078232105
 20
4.4281985435
 30
0.0
 10
9.1095280967
 20
4.3723545224
 30
0.0
 10
9.1439875731
 20
4.3174542601
 30
0.0
 10
9.1815536186
 20
4.2635871659
 30
0.0
 10
9.2221644422
 20
4.2108407818
 30
0.0
 10
9.2657529348
 20
4.1593011508
 30
0.0
 10
9.3122488693
 20
4.1090508292
 30
0.0
 10
9.3784775565
 20
4.04342268
 30
0.0
 10
9.4498241472
 20
3.9811950911
 30
0.0
 10
9.5257009886
 20
3.9225535068
 30
0.0
 10
9.6059491903
 20
3.8653536136
 30
0.0
 10
9.6904878776
 20
3.8120707123
 30
0.0
 10
9.7787741965
 20
3.762794947
 30
0.0
 10
9.8708871169
 20
3.7155239077
 30
0.0
 10
9.9664196293
 20
3.6725526299
 30
0.0
 10
10.0648739855
 20
3.6339201691
 30
0.0
 10
10.1664001446
 20
3.5977940807
 30
0.0
 10
10.2969160136
 20
3.5582136702
 30
0.0
 10
10.4577403574
 20
3.5199652958
 30
0.0
 10
10.6223972407
 20
3.4910079798
 30
0.0
 10
10.7898132745
 20
3.4715299414
 30
0.0
 10
10.9589021912
 20
3.46165666
 30
0.0
 10
11.1285654348
 20
3.4614520553
 30
0.0
 10
11.2977007132
 20
3.4709173588
 30
0.0
 10
11.4652104037
 20
3.4899916499
 30
0.0
 10
11.6300027229
 20
3.5185507978
 30
0.0
 10
11.7646472238
 20
3.550211935
 30
0.0
 10
11.8700268515
 20
3.5801485617
 30
0.0
 10
11.9727966416
 20
3.6128108895
 30
0.0
 10
12.0483796274
 20
3.6408012182
 30
0.0
 10
12.0978596418
 20
3.6610013494
 30
0.0
  0
SPLINE
  5
2F6
100
AcDbEntity
  8
0
100
AcDbSpline
 62
7
  6
CONTINUOUS
 70
0
 71
3
 72
45
 73
41
 74
0
 42
0.0000001
 43
0.0000001
 44
0.0000000001
 40
0.0
 40
0.0
 40
0.0
 40
0.0
 40
0.0327676092
 40
0.0659891792
 40
0.0996134902
 40
0.1335847643
 40
0.1678436844
 40
0.2023280163
 40
0.2369732845
 40
0.2717134302
 40
0.3064814727
 40
0.3412101601
 40
0.375832622
 40
0.4102830244
 40
0.4444972243
 40
0.4784134399
 40
0.5119729185
 40
0.5451206312
 40
0.5778059637
 40
0.6099834419
 40
0.6416134497
 40
0.6726629837
 40
0.7031063894
 40
0.7329261226
 40
0.7621134673
 40
0.7906692428
 40
0.8186044157
 40
0.8459406258
 40
0.8593961574
 40
0.8727151348
 40
0.8859033837
 40
0.8989674167
 40
0.9119144199
 40
0.9247522358
 40
0.9374893377
 40
0.9501347946
 40
0.9626982316
 40
0.9751897838
 40
0.9876200438
 40
1.0
 40
1.0
 40
1.0
 40
1.0
 10
12.122286909
 20
3.5812019778
 30
0.0
 10
12.0833841561
 20
3.5653199954
 30
0.0
 10
12.0042168636
 20
3.535314573
 30
0.0
 10
11.8826577805
 20
3.4959083592
 30
0.0
 10
11.7578721755
 20
3.4619186467
 30
0.0
 10
11.6303453501
 20
3.4334775093
 30
0.0
 10
11.5005683285
 20
3.4106939758
 30
0.0
 10
11.3690422071
 20
3.3936556417
 30
0.0
 10
11.2362744466
 20
3.3824281489
 30
0.0
 10
11.1027774537
 20
3.377054568
 30
0.0
 10
10.9690664231
 20
3.3775557073
 30
0.0
 10
10.8356573916
 20
3.3839295068
 30
0.0
 10
10.7030652284
 20
3.3961515718
 30
0.0
 10
10.5718016164
 20
3.4141747512
 30
0.0
 10
10.4423731111
 20
3.4379298486
 30
0.0
 10
10.3152791173
 20
3.4673253977
 30
0.0
 10
10.1910100438
 20
3.502248542
 30
0.0
 10
10.0700453139
 20
3.5425650063
 30
0.0
 10
9.9528516552
 20
3.5881201356
 30
0.0
 10
9.8398811819
 20
3.6387390554
 30
0.0
 10
9.7315698631
 20
3.6942278504
 30
0.0
 10
9.6283357129
 20
3.7543739057
 30
0.0
 10
9.5305774973
 20
3.8189471632
 30
0.0
 10
9.4386730049
 20
3.8877007111
 30
0.0
 10
9.3529782687
 20
3.9603716981
 30
0.0
 10
9.2738250569
 20
4.0366834214
 30
0.0
 10
9.2015237837
 20
4.1163410846
 30
0.0
 10
9.1469258845
 20
4.1856292762
 30
0.0
 10
9.1070218383
 20
4.2424128151
 30
0.0
 10
9.0791258463
 20
4.2854162869
 30
0.0
 10
9.0531350371
 20
4.3290135703
 30
0.0
 10
9.0290742645
 20
4.3731631043
 30
0.0
 10
9.0069671681
 20
4.4178220476
 30
0.0
 10
8.9868353298
 20
4.4629472249
 30
0.0
 10
8.9686984298
 20
4.508494906
 30
0.0
 10
8.9525742323
 20
4.5544209771
 30
0.0
 10
8.9384785989
 20
4.6006808189
 30
0.0
 10
8.9264253415
 20
4.6472298539
 30
0.0
 10
8.9164264689
 20
4.6940216826
 30
0.0
 10
8.9111271109
 20
4.7254047846
 30
0.0
 10
8.9088258211
 20
4.7411126279
 30
0.0
  0
LINE
  5
2F7
100
AcDbEntity
  8
0
100
AcDbLine
 62
7
  6
CONTINUOUS
 10
11.452804528
 20
7.2679266044
 11
11.4527669787
 21
7.267487263
  0
SPLINE
  5
2F8
100
AcDbEntity
  8
0
100
AcDbSpline
 62
7
  6
CONTINUOUS
 70
0
 71
3
 72
29
 73
25
 74
0
 42
0.0000001
 43
0.0000001
 44
0.0000000001
 40
0.0
 40
0.0
 40
0.0
 40
0.0
 40
0.0259969794
 40
0.0521155155
 40
0.078405256
 40
0.1049133409
 40
0.131683807
 40
0.1587570786
 40
0.1861695388
 40
0.2139532146
 40
0.2421355588
 40
0.2707393209
 40
0.299782535
 40
0.329278527
 40
0.3896420213
 40
0.4518646392
 40
0.5158963106
 40
0.581627483
 40
0.6488968587
 40
0.7174988113
 40
0.787191371
 40
0.8577033377
 40
0.9287416742
 40
1.0
 40
1.0
 40
1.0
 40
1.0
 10
11.4527669787
 20
7.267487263
 30
0.0
 10
11.4523657521
 20
7.2628485876
 30
0.0
 10
11.4512601707
 20
7.2535728461
 30
0.0
 10
11.4487062822
 20
7.2397556461
 30
0.0
 10
11.4452597496
 20
7.2260388228
 30
0.0
 10
11.4409285345
 20
7.2124529695
 30
0.0
 10
11.435722491
 20
7.1990273573
 30
0.0
 10
11.4296535173
 20
7.1857910721
 30
0.0
 10
11.4227353899
 20
7.172772645
 30
0.0
 10
11.4149837397
 20
7.1600001042
 30
0.0
 10
11.4064159809
 20
7.1475008752
 30
0.0
 10
11.3970514563
 20
7.1353017878
 30
0.0
 10
11.3869108614
 20
7.1234286584
 30
0.0
 10
11.3722752543
 20
7.1079494629
 30
0.0
 10
11.3521174918
 20
7.0895643981
 30
0.0
 10
11.3254278344
 20
7.0693753326
 30
0.0
 10
11.2962844203
 20
7.0510523915
 30
0.0
 10
11.2649467272
 20
7.0347489448
 30
0.0
 10
11.2316907963
 20
7.0205992638
 30
0.0
 10
11.1968099644
 20
7.0087195916
 30
0.0
 10
11.1606117593
 20
6.9992067748
 30
0.0
 10
11.1234147502
 20
6.9921369422
 30
0.0
 10
11.0855489447
 20
6.9875652154
 30
0.0
 10
11.060077954
 20
6.9862048857
 30
0.0
 10
11.0473183383
 20
6.9859484935
 30
0.0
  0
SPLINE
  5
2F9
100
AcDbEntity
  8
0
100
AcDbSpline
 62
9
  6
CONTINUOUS
 70
0
 71
3
 72
15
 73
11
 74
0
 42
0.0000001
 43
0.0000001
 44
0.0000000001
 40
0.0
 40
0.0
 40
0.0
 40
0.0
 40
0.133809704
 40
0.2653099078
 40
0.3943534031
 40
0.5208241986
 40
0.6446427274
 40
0.7657689007
 40
0.884205291
 40
1.0
 40
1.0
 40
1.0
 40
1.0
 10
11.8632509719
 20
4.4488927861
 30
0.0
 10
11.8930984196
 20
4.4610779557
 30
0.0
 10
11.9516723484
 20
4.4867578511
 30
0.0
 10
12.0365715411
 20
4.5295116866
 30
0.0
 10
12.1174497969
 20
4.5760136385
 30
0.0
 10
12.1939751136
 20
4.6260751551
 30
0.0
 10
12.2658361198
 20
4.6794945568
 30
0.0
 10
12.3327404189
 20
4.7360580207
 30
0.0
 10
12.3944106941
 20
4.7955334177
 30
0.0
 10
12.4322920297
 20
4.8374375721
 30
0.0
 10
12.4502393468
 20
4.858796953
 30
0.0
  0
SPLINE
  5
2FA
100
AcDbEntity
  8
0
100
AcDbSpline
 62
9
  6
CONTINUOUS
 70
0
 71
3
 72
25
 73
21
 74
0
 42
0.0000001
 43
0.0000001
 44
0.0000000001
 40
0.0
 40
0.0
 40
0.0
 40
0.0
 40
0.0673746154
 40
0.1006496737
 40
0.1336570463
 40
0.1988944129
 40
0.2631670465
 40
0.2949718643
 40
0.3265688596
 40
0.389182624
 40
0.4511254653
 40
0.5125167621
 40
0.5734843742
 40
0.6341628525
 40
0.694691406
 40
0.7552116883
 40
0.8158654886
 40
0.8767924168
 40
0.9381276753
 40
1.0
 40
1.0
 40
1.0
 40
1.0
 10
12.4502393468
 20
4.858796953
 30
0.0
 10
12.4635956069
 20
4.8746924455
 30
0.0
 10
12.4829139915
 20
4.8989839286
 30
0.0
 10
12.5071654437
 20
4.9322795022
 30
0.0
 10
12.5300840228
 20
4.9657116765
 30
0.0
 10
12.5565989782
 20
5.0082332891
 30
0.0
 10
12.5803449821
 20
5.0519424426
 30
0.0
 10
12.597505758
 20
5.0873525882
 30
0.0
 10
12.6133441566
 20
5.1228141305
 30
0.0
 10
12.6308805929
 20
5.167662821
 30
0.0
 10
12.6482606518
 20
5.2223064889
 30
0.0
 10
12.6618733395
 20
5.2774882218
 30
0.0
 10
12.6716847937
 20
5.3330759567
 30
0.0
 10
12.6776710869
 20
5.3889379354
 30
0.0
 10
12.6798174506
 20
5.444941086
 30
0.0
 10
12.6781185863
 20
5.5009520565
 30
0.0
 10
12.6725787482
 20
5.5568371757
 30
0.0
 10
12.6632113093
 20
5.6124641823
 30
0.0
 10
12.6500402614
 20
5.6676979146
 30
0.0
 10
12.6387991236
 20
5.7039964327
 30
0.0
 10
12.6325735925
 20
5.722017748
 30
0.0
  0
SPLINE
  5
2FB
100
AcDbEntity
  8
0
100
AcDbSpline
 62
9
  6
CONTINUOUS
 70
0
 71
3
 72
11
 73
7
 74
0
 42
0.0000001
 43
0.0000001
 44
0.0000000001
 40
0.0
 40
0.0
 40
0.0
 40
0.0
 40
0.2458936007
 40
0.4947056134
 40
0.7461707595
 40
1.0
 40
1.0
 40
1.0
 40
1.0
 10
10.1170657142
 20
6.5155428207
 30
0.0
 10
10.1453619245
 20
6.5270947002
 30
0.0
 10
10.2027915478
 20
6.5491266142
 30
0.0
 10
10.2907033406
 20
6.578754486
 30
0.0
 10
10.3806844591
 20
6.6050903184
 30
0.0
 10
10.4416300758
 20
6.6203402096
 30
0.0
 10
10.472378682
 20
6.6274049625
 30
0.0
  0
SPLINE
  5
2FC
100
AcDbEntity
  8
0
100
AcDbSpline
 62
9
  6
CONTINUOUS
 70
0
 71
3
 72
54
 73
50
 74
0
 42
0.0000001
 43
0.0000001
 44
0.0000000001
 40
0.0
 40
0.0
 40
0.0
 40
0.0
 40
0.0371955954
 40
0.07389192
 40
0.1100122115
 40
0.1454882064
 40
0.1802615787
 40
0.2142854005
 40
0.2475256256
 40
0.2799625643
 40
0.3115922885
 40
0.3424279202
 40
0.3575601429
 40
0.372507137
 40
0.3872757553
 40
0.401874042
 40
0.4163112234
 40
0.4305976867
 40
0.4447449442
 40
0.4587655825
 40
0.4726731961
 40
0.4864823052
 40
0.5002082579
 40
0.513867117
 40
0.5274755328
 40
0.5410506039
 40
0.554609728
 40
0.5681704467
 40
0.5817502875
 40
0.5953666051
 40
0.6090364274
 40
0.6227763078
 40
0.6366021885
 40
0.6505292752
 40
0.6645719271
 40
0.6787435615
 40
0.6930565742
 40
0.7075222761
 40
0.7221508455
 40
0.7369512956
 40
0.7519314547
 40
0.7670979592
 40
0.7980046888
 40
0.8297074352
 40
0.8622177246
 40
0.8955301439
 40
0.929623634
 40
0.9644628877
 40
1.0
 40
1.0
 40
1.0
 40
1.0
 10
11.6222315995
 20
6.6274110204
 30
0.0
 10
11.6644383155
 20
6.6177141933
 30
0.0
 10
11.7477921263
 20
6.5962192642
 30
0.0
 10
11.8699445456
 20
6.5574789728
 30
0.0
 10
11.9878559633
 20
6.5126286527
 30
0.0
 10
12.1009134671
 20
6.4618990308
 30
0.0
 10
12.2085349074
 20
6.4055493025
 30
0.0
 10
12.3101644378
 20
6.3438672019
 30
0.0
 10
12.4052766942
 20
6.2771675937
 30
0.0
 10
12.4933802306
 20
6.2057891319
 30
0.0
 10
12.5740144074
 20
6.1300992638
 30
0.0
 10
12.6350237873
 20
6.063324915
 30
0.0
 10
12.6795974511
 20
6.0081384704
 30
0.0
 10
12.7107079043
 20
5.9661828738
 30
0.0
 10
12.7396632954
 20
5.9234611237
 30
0.0
 10
12.7664264457
 20
5.8800277534
 30
0.0
 10
12.7909621847
 20
5.8359390987
 30
0.0
 10
12.813238412
 20
5.7912521716
 30
0.0
 10
12.833225886
 20
5.7460248756
 30
0.0
 10
12.8508983261
 20
5.7003158572
 30
0.0
 10
12.8662324424
 20
5.6541844572
 30
0.0
 10
12.879207983
 20
5.6076906319
 30
0.0
 10
12.8898077739
 20
5.5608948769
 30
0.0
 10
12.898017755
 20
5.5138581449
 30
0.0
 10
12.9038270342
 20
5.4666417619
 30
0.0
 10
12.9072278967
 20
5.4193073321
 30
0.0
 10
12.9082158213
 20
5.3719166445
 30
0.0
 10
12.9067894931
 20
5.3245315766
 30
0.0
 10
12.9029508067
 20
5.2772139973
 30
0.0
 10
12.89670486
 20
5.23002567
 30
0.0
 10
12.8880599493
 20
5.183028156
 30
0.0
 10
12.8770275584
 20
5.1362827179
 30
0.0
 10
12.8636223107
 20
5.0898502316
 30
0.0
 10
12.8478619391
 20
5.0437911012
 30
0.0
 10
12.8297672469
 20
4.9981651771
 30
0.0
 10
12.8093620687
 20
4.9530316811
 30
0.0
 10
12.7866732193
 20
4.9084491299
 30
0.0
 10
12.7617304846
 20
4.8644752764
 30
0.0
 10
12.7345664926
 20
4.8211669724
 30
0.0
 10
12.7052169213
 20
4.7785803844
 30
0.0
 10
12.6737194512
 20
4.7367698736
 30
0.0
 10
12.6286361775
 20
4.6817903387
 30
0.0
 10
12.567011709
 20
4.6153006973
 30
0.0
 10
12.4856816037
 20
4.5399870122
 30
0.0
 10
12.3969221028
 20
4.4690186562
 30
0.0
 10
12.3011974361
 20
4.4027611224
 30
0.0
 10
12.199000871
 20
4.3415503351
 30
0.0
 10
12.0908655923
 20
4.2857007285
 30
0.0
 10
12.0158770919
 20
4.2525369716
 30
0.0
 10
11.9775709624
 20
4.2368985597
 30
0.0
  0
SPLINE
  5
2FD
100
AcDbEntity
  8
0
100
AcDbSpline
 62
9
  6
CONTINUOUS
 70
0
 71
3
 72
25
 73
21
 74
0
 42
0.0000001
 43
0.0000001
 44
0.0000000001
 40
0.0
 40
0.0
 40
0.0
 40
0.0
 40
0.0618347239
 40
0.1231420692
 40
0.1840501337
 40
0.2446932945
 40
0.3052101718
 40
0.3657414311
 40
0.4264275044
 40
0.4874063206
 40
0.5488111342
 40
0.610768531
 40
0.6733966765
 40
0.7050004021
 40
0.7368115073
 40
0.8010949296
 40
0.8663399247
 40
0.899349667
 40
0.9326260548
 40
1.0
 40
1.0
 40
1.0
 40
1.0
 10
9.4608682303
 20
5.7185354669
 30
0.0
 10
9.4547467795
 20
5.7005735702
 30
0.0
 10
9.4437051208
 20
5.6643985275
 30
0.0
 10
9.4308071263
 20
5.6093671883
 30
0.0
 10
9.4216828555
 20
5.5539531527
 30
0.0
 10
9.4163555155
 20
5.4982899604
 30
0.0
 10
9.4148378469
 20
5.4425082553
 30
0.0
 10
9.417133627
 20
5.3867400534
 30
0.0
 10
9.42323724
 20
5.3311170362
 30
0.0
 10
9.4331337604
 20
5.2757705952
 30
0.0
 10
9.4467992643
 20
5.2208308183
 30
0.0
 10
9.4642000375
 20
5.1664280801
 30
0.0
 10
9.4817273835
 20
5.121777198
 30
0.0
 10
9.4975430784
 20
5.086471383
 30
0.0
 10
9.5146705071
 20
5.0512169341
 30
0.0
 10
9.5383551055
 20
5.0076990422
 30
0.0
 10
9.5647849069
 20
4.965360091
 30
0.0
 10
9.587621165
 20
4.932069507
 30
0.0
 10
9.6117793336
 20
4.8989145401
 30
0.0
 10
9.631018304
 20
4.8747230105
 30
0.0
 10
9.6443177713
 20
4.8588916356
 30
0.0
  0
SPLINE
  5
2FE
100
AcDbEntity
  8
0
100
AcDbSpline
 62
9
  6
CONTINUOUS
 70
0
 71
3
 72
15
 73
11
 74
0
 42
0.0000001
 43
0.0000001
 44
0.0000000001
 40
0.0
 40
0.0
 40
0.0
 40
0.0
 40
0.1160218748
 40
0.2346136163
 40
0.355822674
 40
0.4796545485
 40
0.6060752586
 40
0.735014259
 40
0.8663674008
 40
1.0
 40
1.0
 40
1.0
 40
1.0
 10
9.6443177713
 20
4.8588916356
 30
0.0
 10
9.6617422381
 20
4.8381499576
 30
0.0
 10
9.6984637859
 20
4.797434539
 30
0.0
 10
9.7581290897
 20
4.739543321
 30
0.0
 10
9.82274788
 20
4.6843858313
 30
0.0
 10
9.8920674379
 20
4.6321758201
 30
0.0
 10
9.9658215425
 20
4.583110535
 30
0.0
 10
10.0437271167
 20
4.5373766129
 30
0.0
 10
10.1254821708
 20
4.4951492019
 30
0.0
 10
10.1818875383
 20
4.4696484138
 30
0.0
 10
10.210631009
 20
4.4575107795
 30
0.0
  0
LINE
  5
2FF
100
AcDbEntity
  8
0
100
AcDbLine
 62
9
  6
CONTINUOUS
 10
10.210631009
 20
4.4575107795
 11
10.2116013466
 21
4.457101353
  0
SPLINE
  5
300
100
AcDbEntity
  8
0
100
AcDbSpline
 62
9
  6
CONTINUOUS
 70
0
 71
3
 72
23
 73
19
 74
0
 42
0.0000001
 43
0.0000001
 44
0.0000000001
 40
0.0
 40
0.0
 40
0.0
 40
0.0
 40
0.0600918484
 40
0.1210890938
 40
0.1828855628
 40
0.2453653425
 40
0.3084044665
 40
0.3718725172
 40
0.4356342397
 40
0.4995511022
 40
0.5634828622
 40
0.6272891127
 40
0.6908308293
 40
0.7539719329
 40
0.8165808495
 40
0.8785321049
 40
0.9397078094
 40
1.0
 40
1.0
 40
1.0
 40
1.0
 10
10.2116013466
 20
4.457101353
 30
0.0
 10
10.242839125
 20
4.4439311803
 30
0.0
 10
10.3065190505
 20
4.419099544
 30
0.0
 10
10.4045108658
 20
4.3866736035
 30
0.0
 10
10.5053228449
 20
4.3589069496
 30
0.0
 10
10.6085095062
 20
4.3359220843
 30
0.0
 10
10.7136197008
 20
4.3178190068
 30
0.0
 10
10.8201924772
 20
4.3046767221
 30
0.0
 10
10.9277608246
 20
4.2965527291
 30
0.0
 10
11.035853223
 20
4.2934823848
 30
0.0
 10
11.1439958773
 20
4.2954792376
 30
0.0
 10
11.2517147691
 20
4.3025344287
 30
0.0
 10
11.3585377159
 20
4.3146172688
 30
0.0
 10
11.4639966033
 20
4.3316748815
 30
0.0
 10
11.5676289449
 20
4.3536328225
 30
0.0
 10
11.668981545
 20
4.3803955324
 30
0.0
 10
11.7676067368
 20
4.4118449265
 30
0.0
 10
11.8317604551
 20
4.4360368365
 30
0.0
 10
11.8632509719
 20
4.4488927861
 30
0.0
  0
SPLINE
  5
301
100
AcDbEntity
  8
0
100
AcDbSpline
 62
9
  6
CONTINUOUS
 70
0
 71
3
 72
11
 73
7
 74
0
 42
0.0000001
 43
0.0000001
 44
0.0000000001
 40
0.0
 40
0.0
 40
0.0
 40
0.0
 40
0.245171257
 40
0.4938426117
 40
0.7456019573
 40
1.0
 40
1.0
 40
1.0
 40
1.0
 10
11.9775709624
 20
4.2368985597
 30
0.0
 10
11.9427307234
 20
4.2226750917
 30
0.0
 10
11.8717898479
 20
4.1958591125
 30
0.0
 10
11.7627918031
 20
4.1608284521
 30
0.0
 10
11.6508385924
 20
4.1308245991
 30
0.0
 10
11.5748835041
 20
4.114330408
 30
0.0
 10
11.5365410312
 20
4.1069411836
 30
0.0
  0
SPLINE
  5
302
100
AcDbEntity
  8
0
100
AcDbSpline
 62
9
  6
CONTINUOUS
 70
0
 71
3
 72
11
 73
7
 74
0
 42
0.0000001
 43
0.0000001
 44
0.0000000001
 40
0.0
 40
0.0
 40
0.0
 40
0.0
 40
0.2486894659
 40
0.4359759619
 40
0.623738891
 40
1.0
 40
1.0
 40
1.0
 40
1.0
 10
11.4521880637
 20
4.0921723527
 30
0.0
 10
11.4183041538
 20
4.0868304466
 30
0.0
 10
11.3587051751
 20
4.0786683283
 30
0.0
 10
11.2730988102
 20
4.0699808898
 30
0.0
 10
11.1697212136
 20
4.0625952166
 30
0.0
 10
11.0918916979
 20
4.0605105246
 30
0.0
 10
11.0399931881
 20
4.0606550201
 30
0.0
  0
SPLINE
  5
303
100
AcDbEntity
  8
0
100
AcDbSpline
 62
9
  6
CONTINUOUS
 70
0
 71
3
 72
60
 73
56
 74
0
 42
0.0000001
 43
0.0000001
 44
0.0000000001
 40
0.0
 40
0.0
 40
0.0
 40
0.0
 40
0.0373569533
 40
0.0745836802
 40
0.111558146
 40
0.1481626031
 40
0.184285722
 40
0.2198247683
 40
0.2546878331
 40
0.2718431941
 40
0.2888012551
 40
0.3220914546
 40
0.338417722
 40
0.3545240635
 40
0.3704079846
 40
0.3860683997
 40
0.4015056993
 40
0.4167218115
 40
0.4317202574
 40
0.4465061968
 40
0.461086463
 40
0.4754695829
 40
0.4896657798
 40
0.5036869567
 40
0.517546656
 40
0.531259993
 40
0.5448435627
 40
0.5583153166
 40
0.5716944103
 40
0.5850010229
 40
0.5982561514
 40
0.6114813829
 40
0.6246986506
 40
0.6379299803
 40
0.6511972345
 40
0.6645218605
 40
0.6779246506
 40
0.69142552
 40
0.7050433075
 40
0.7187956027
 40
0.7326986014
 40
0.7467669916
 40
0.7610138666
 40
0.7754506669
 40
0.7900871467
 40
0.8049313624
 40
0.8199896807
 40
0.8352668035
 40
0.866481491
 40
0.8824272183
 40
0.8985948127
 40
0.9315771219
 40
0.9483878881
 40
0.9654013999
 40
1.0
 40
1.0
 40
1.0
 40
1.0
 10
11.0399931881
 20
4.0606550201
 30
0.0
 10
10.9893717451
 20
4.06079596
 30
0.0
 10
10.8882889589
 20
4.0639932863
 30
0.0
 10
10.7376433666
 20
4.0775151949
 30
0.0
 10
10.5890474098
 20
4.0996708007
 30
0.0
 10
10.4434939049
 20
4.1303138119
 30
0.0
 10
10.3019455475
 20
4.169242742
 30
0.0
 10
10.1653457074
 20
4.2161995597
 30
0.0
 10
10.0557965075
 20
4.2620117282
 30
0.0
 10
9.971502972
 20
4.30243636
 30
0.0
 10
9.890552774
 20
4.3447690355
 30
0.0
 10
9.8128500222
 20
4.3907912722
 30
0.0
 10
9.7388861226
 20
4.4404296585
 30
0.0
 10
9.6859464986
 20
4.4789828392
 30
0.0
 10
9.6352758981
 20
4.5190331443
 30
0.0
 10
9.5869577436
 20
4.5605148892
 30
0.0
 10
9.541073021
 20
4.6033590809
 30
0.0
 10
9.4976983421
 20
4.6474947124
 30
0.0
 10
9.4569062995
 20
4.692848561
 30
0.0
 10
9.418765228
 20
4.73934538
 30
0.0
 10
9.3833391285
 20
4.7869079879
 30
0.0
 10
9.3506875543
 20
4.8354573854
 30
0.0
 10
9.3208655127
 20
4.884912866
 30
0.0
 10
9.2939233655
 20
4.9351921299
 30
0.0
 10
9.269906733
 20
4.9862113998
 30
0.0
 10
9.248856398
 20
5.0378855414
 30
0.0
 10
9.2308082131
 20
5.09012819
 30
0.0
 10
9.2157930092
 20
5.1428518847
 30
0.0
 10
9.2038365098
 20
5.1959682133
 30
0.0
 10
9.1949592512
 20
5.2493879678
 30
0.0
 10
9.1891765144
 20
5.3030213123
 30
0.0
 10
9.1864982696
 20
5.356777961
 30
0.0
 10
9.1869291392
 20
5.4105673652
 30
0.0
 10
9.1904683792
 20
5.464298906
 30
0.0
 10
9.1971098826
 20
5.5178820887
 30
0.0
 10
9.2068422027
 20
5.5712267336
 30
0.0
 10
9.2196485962
 20
5.6242431613
 30
0.0
 10
9.235507082
 20
5.6768423683
 30
0.0
 10
9.254390513
 20
5.7289361907
 30
0.0
 10
9.2762666577
 20
5.7804374575
 30
0.0
 10
9.3010982885
 20
5.831260132
 30
0.0
 10
9.328843271
 20
5.8813194424
 30
0.0
 10
9.3594546673
 20
5.930532014
 30
0.0
 10
9.3928807968
 20
5.9788159578
 30
0.0
 10
9.4290654647
 20
6.0260911026
 30
0.0
 10
9.4679475613
 20
6.0722786609
 30
0.0
 10
9.5094630706
 20
6.1173030471
 30
0.0
 10
9.568650255
 20
6.1760975751
 30
0.0
 10
9.6324727549
 20
6.2318180749
 30
0.0
 10
9.7003930514
 20
6.2842946234
 30
0.0
 10
9.7722672186
 20
6.335465608
 30
0.0
 10
9.8480195662
 20
6.3830900904
 30
0.0
 10
9.9271546039
 20
6.4270863642
 30
0.0
 10
10.0097420524
 20
6.4692618348
 30
0.0
 10
10.0736597021
 20
6.4978223905
 30
0.0
 10
10.1170657142
 20
6.5155428207
 30
0.0
  0
SPLINE
  5
304
100
AcDbEntity
  8
0
100
AcDbSpline
 62
7
  6
CONTINUOUS
 70
0
 71
3
 72
30
 73
26
 74
0
 42
0.0000001
 43
0.0000001
 44
0.0000000001
 40
0.0
 40
0.0
 40
0.0
 40
0.0
 40
0.0274397958
 40
0.0549841052
 40
0.0826548803
 40
0.1104733397
 40
0.1384598585
 40
0.1666338626
 40
0.1950137491
 40
0.223616814
 40
0.2524591815
 40
0.2815557521
 40
0.3109201719
 40
0.3405648006
 40
0.4007287317
 40
0.4621294522
 40
0.4933144914
 40
0.5248263346
 40
0.5888349203
 40
0.6541744263
 40
0.7208376591
 40
0.7887999624
 40
0.8580205034
 40
0.9284434112
 40
1.0
 40
1.0
 40
1.0
 40
1.0
 10
13.1858108349
 20
4.7411124855
 30
0.0
 10
13.1836290204
 20
4.7262203133
 30
0.0
 10
13.1786394294
 20
4.696466066
 30
0.0
 10
13.1693117117
 20
4.6520862678
 30
0.0
 10
13.1581362862
 20
4.6079204303
 30
0.0
 10
13.1451231427
 20
4.5640081152
 30
0.0
 10
13.1302836751
 20
4.520387375
 30
0.0
 10
13.1136310153
 20
4.4770963023
 30
0.0
 10
13.0951798318
 20
4.4341725859
 30
0.0
 10
13.0749463156
 20
4.3916536313
 30
0.0
 10
13.0529482046
 20
4.3495764099
 30
0.0
 10
13.0292049389
 20
4.3079776258
 30
0.0
 10
13.003736934
 20
4.2668929638
 30
0.0
 10
12.9673344442
 20
4.2125847787
 30
0.0
 10
12.9175523829
 20
4.1461580238
 30
0.0
 10
12.8628821811
 20
4.0825831019
 30
0.0
 10
12.8160671853
 20
4.0331550722
 30
0.0
 10
12.7667014774
 20
3.9842197471
 30
0.0
 10
12.7011720337
 20
3.9250457353
 30
0.0
 10
12.6172059604
 20
3.8578012553
 30
0.0
 10
12.5277890627
 20
3.794179385
 30
0.0
 10
12.4332346109
 20
3.7344009917
 30
0.0
 10
12.3338698405
 20
3.6786710433
 30
0.0
 10
12.2300429349
 20
3.6271828642
 30
0.0
 10
12.158625245
 20
3.5960370413
 30
0.0
 10
12.122286909
 20
3.5812019778
 30
0.0
  0
SPLINE
  5
305
100
AcDbEntity
  8
0
100
AcDbSpline
 62
9
  6
CONTINUOUS
 70
0
 71
3
 72
54
 73
50
 74
0
 42
0.0000001
 43
0.0000001
 44
0.0000000001
 40
0.0
 40
0.0
 40
0.0
 40
0.0
 40
0.0133207417
 40
0.0265152619
 40
0.0395976066
 40
0.0525828346
 40
0.0654869059
 40
0.0783265504
 40
0.0911191217
 40
0.1038824355
 40
0.1166345977
 40
0.1293938254
 40
0.1421782653
 40
0.1550058135
 40
0.1678939417
 40
0.1808595333
 40
0.1939187329
 40
0.207086812
 40
0.2203780526
 40
0.2338056502
 40
0.2473816357
 40
0.2611168163
 40
0.2750207342
 40
0.2891016419
 40
0.3033664924
 40
0.3178209424
 40
0.3324693659
 40
0.3473148789
 40
0.3623593705
 40
0.3776035408
 40
0.3930469433
 40
0.4086880315
 40
0.4405471994
 40
0.4731535623
 40
0.5064602822
 40
0.5404078963
 40
0.5749260003
 40
0.6099348954
 40
0.6453471962
 40
0.6810693979
 40
0.7170034114
 40
0.7530480696
 40
0.7891006154
 40
0.8250581783
 40
0.8608192513
 40
0.896285177
 40
0.9313616487
 40
0.9659602292
 40
1.0
 40
1.0
 40
1.0
 40
1.0
 10
9.1503191441
 20
5.4537384199
 30
0.0
 10
9.1422865311
 20
5.4369179749
 30
0.0
 10
9.127102816
 20
5.4030444064
 30
0.0
 10
9.1069602737
 20
5.3514017302
 30
0.0
 10
9.0895931308
 20
5.2992533426
 30
0.0
 10
9.0750274823
 20
5.2466755815
 30
0.0
 10
9.0632844431
 20
5.1937435676
 30
0.0
 10
9.0543812816
 20
5.1405335336
 30
0.0
 10
9.0483310598
 20
5.0871220562
 30
0.0
 10
9.045142679
 20
5.0335861008
 30
0.0
 10
9.0448208316
 20
4.9800028432
 30
0.0
 10
9.0473659922
 20
4.926449546
 30
0.0
 10
9.0527744152
 20
4.8730034177
 30
0.0
 10
9.0610381459
 20
4.8197414776
 30
0.0
 10
9.0721450451
 20
4.7667404219
 30
0.0
 10
9.0860788213
 20
4.7140764949
 30
0.0
 10
9.1028190729
 20
4.6618253659
 30
0.0
 10
9.1223413454
 20
4.6100620142
 30
0.0
 10
9.1446171877
 20
4.5588606203
 30
0.0
 10
9.1696142139
 20
4.5082944638
 30
0.0
 10
9.1972961675
 20
4.4584358263
 30
0.0
 10
9.2276229875
 20
4.4093558989
 30
0.0
 10
9.2605508771
 20
4.3611246935
 30
0.0
 10
9.2960323725
 20
4.3138109558
 30
0.0
 10
9.3340164155
 20
4.2674820805
 30
0.0
 10
9.3744484244
 20
4.2222040278
 30
0.0
 10
9.4172703738
 20
4.1780412334
 30
0.0
 10
9.4624208577
 20
4.1350565438
 30
0.0
 10
9.5098352511
 20
4.0933110778
 30
0.0
 10
9.5594455014
 20
4.0528643559
 30
0.0
 10
9.6111813479
 20
4.0137734212
 30
0.0
 10
9.6833331497
 20
3.9632292252
 30
0.0
 10
9.7784987107
 20
3.903811317
 30
0.0
 10
9.8992142818
 20
3.8392211416
 30
0.0
 10
10.0264666719
 20
3.7812632922
 30
0.0
 10
10.1595275683
 20
3.7302670418
 30
0.0
 10
10.2976410389
 20
3.68651936
 30
0.0
 10
10.4400209841
 20
3.6502676055
 30
0.0
 10
10.5858573645
 20
3.6217167494
 30
0.0
 10
10.7343202597
 20
3.6010284168
 30
0.0
 10
10.8845647289
 20
3.5883197621
 30
0.0
 10
11.0357356054
 20
3.5836627896
 30
0.0
 10
11.1869724211
 20
3.5870838962
 30
0.0
 10
11.337414281
 20
3.5985636867
 30
0.0
 10
11.4862050219
 20
3.6180371786
 30
0.0
 10
11.6324973178
 20
3.6453938514
 30
0.0
 10
11.775460476
 20
3.6804795844
 30
0.0
 10
11.9142743818
 20
3.7230931828
 30
0.0
 10
12.004336818
 20
3.7566637865
 30
0.0
 10
12.0484360611
 20
3.774667227
 30
0.0
  0
SPLINE
  5
306
100
AcDbEntity
  8
0
100
AcDbSpline
 62
9
  6
CONTINUOUS
 70
0
 71
3
 72
29
 73
25
 74
0
 42
0.0000001
 43
0.0000001
 44
0.0000000001
 40
0.0
 40
0.0
 40
0.0
 40
0.0
 40
0.0282654068
 40
0.0565532101
 40
0.0848856829
 40
0.1132848497
 40
0.1417723716
 40
0.1703694319
 40
0.1990966206
 40
0.2279738441
 40
0.2570202305
 40
0.2862540362
 40
0.3156925863
 40
0.345352208
 40
0.4053852628
 40
0.4664717803
 40
0.5287019964
 40
0.5921471778
 40
0.6568596312
 40
0.722873042
 40
0.790203132
 40
0.8588485167
 40
0.928791667
 40
1.0
 40
1.0
 40
1.0
 40
1.0
 10
9.142318351
 20
5.1983375589
 30
0.0
 10
9.1423183426
 20
5.1856895619
 30
0.0
 10
9.1428226423
 20
5.1603806527
 30
0.0
 10
9.1450909661
 20
5.1224548775
 30
0.0
 10
9.1488695563
 20
5.0845889628
 30
0.0
 10
9.1541552752
 20
5.0468138667
 30
0.0
 10
9.1609438739
 20
5.0091594636
 30
0.0
 10
9.1692299569
 20
4.9716558107
 30
0.0
 10
9.1790067793
 20
4.9343327244
 30
0.0
 10
9.1902664869
 20
4.8972199088
 30
0.0
 10
9.203000124
 20
4.8603468591
 30
0.0
 10
9.2171973112
 20
4.8237429852
 30
0.0
 10
9.2328470011
 20
4.7874368608
 30
0.0
 10
9.255722402
 20
4.7392757033
 30
0.0
 10
9.2879497159
 20
4.6799303728
 30
0.0
 10
9.3320451395
 20
4.6106702687
 30
0.0
 10
9.3815799487
 20
4.54328682
 30
0.0
 10
9.436393399
 20
4.4779948463
 30
0.0
 10
9.4963101233
 20
4.4149988212
 30
0.0
 10
9.5611386778
 20
4.3544966701
 30
0.0
 10
9.6306724486
 20
4.2966782785
 30
0.0
 10
9.7046911857
 20
4.2417247839
 30
0.0
 10
9.7829574355
 20
4.1898101013
 30
0.0
 10
9.8373324032
 20
4.1576127191
 30
0.0
 10
9.86513856
 20
4.1420525681
 30
0.0
  0
SPLINE
  5
307
100
AcDbEntity
  8
0
100
AcDbSpline
 62
9
  6
CONTINUOUS
 70
0
 71
3
 72
23
 73
19
 74
0
 42
0.0000001
 43
0.0000001
 44
0.0000000001
 40
0.0
 40
0.0
 40
0.0
 40
0.0
 40
0.0584998529
 40
0.1182124529
 40
0.1790304822
 40
0.2408284548
 40
0.3034654815
 40
0.3667879717
 40
0.4306322744
 40
0.4948272563
 40
0.5591968374
 40
0.6235624993
 40
0.68774578
 40
0.7515707639
 40
0.8148665894
 40
0.8774699855
 40
0.9392278306
 40
1.0
 40
1.0
 40
1.0
 40
1.0
 10
9.86513856
 20
4.1420525681
 30
0.0
 10
9.9026701234
 20
4.1210501406
 30
0.0
 10
9.9799317305
 20
4.0811011014
 30
0.0
 10
10.1004660015
 20
4.0280348712
 30
0.0
 10
10.2262444682
 20
3.9814595685
 30
0.0
 10
10.3565647512
 20
3.9416345221
 30
0.0
 10
10.4907077442
 20
3.9087775733
 30
0.0
 10
10.6279308097
 20
3.8830697041
 30
0.0
 10
10.7674748217
 20
3.8646523519
 30
0.0
 10
10.9085675556
 20
3.8536269924
 30
0.0
 10
11.0504281913
 20
3.8500543847
 30
0.0
 10
11.1922716212
 20
3.8539541964
 30
0.0
 10
11.333312799
 20
3.8653049176
 30
0.0
 10
11.4727713074
 20
3.8840440685
 30
0.0
 10
11.6098749673
 20
3.9100682707
 30
0.0
 10
11.7438668265
 20
3.9432349225
 30
0.0
 10
11.8739995539
 20
3.9833590926
 30
0.0
 10
11.9584536656
 20
4.014881012
 30
0.0
 10
11.9998183383
 20
4.0317680689
 30
0.0
  0
SPLINE
  5
308
100
AcDbEntity
  8
0
100
AcDbSpline
 62
9
  6
CONTINUOUS
 70
0
 71
3
 72
46
 73
42
 74
0
 42
0.0000001
 43
0.0000001
 44
0.0000000001
 40
0.0
 40
0.0
 40
0.0
 40
0.0
 40
0.012425403
 40
0.02486409
 40
0.0373292462
 40
0.0498338599
 40
0.0623906283
 40
0.0750118702
 40
0.0877094441
 40
0.1004946708
 40
0.1133782682
 40
0.1263702964
 40
0.1394801086
 40
0.1527163085
 40
0.1660867222
 40
0.1795983792
 40
0.2070645442
 40
0.2351599273
 40
0.2639113921
 40
0.2933331515
 40
0.3234273974
 40
0.3541850369
 40
0.3855865665
 40
0.4176029579
 40
0.4501965985
 40
0.4833222056
 40
0.5169277511
 40
0.5509553545
 40
0.5853421663
 40
0.6200212277
 40
0.6549223133
 40
0.6899727634
 40
0.7250982986
 40
0.7602238341
 40
0.795274284
 40
0.8301753696
 40
0.8648544312
 40
0.8992412441
 40
0.9332688484
 40
0.9668743127
 40
1.0
 40
1.0
 40
1.0
 40
1.0
 10
9.4273183511
 20
5.4611215783
 30
0.0
 10
9.4273183416
 20
5.4486248554
 30
0.0
 10
9.4278974341
 20
5.4236141916
 30
0.0
 10
9.4305018162
 20
5.3861483965
 30
0.0
 10
9.4348393262
 20
5.3487625577
 30
0.0
 10
9.4409052126
 20
5.3114980019
 30
0.0
 10
9.4486928111
 20
5.2743945547
 30
0.0
 10
9.4581936208
 20
5.2374922055
 30
0.0
 10
9.4693973218
 20
5.200830612
 30
0.0
 10
9.4822917049
 20
5.1644491576
 30
0.0
 10
9.496862725
 20
5.1283868715
 30
0.0
 10
9.5130945648
 20
5.09268243
 30
0.0
 10
9.5309697006
 20
5.0573740657
 30
0.0
 10
9.5504686548
 20
5.0224997052
 30
0.0
 10
9.5715707623
 20
4.9880961257
 30
0.0
 10
9.6019760496
 20
4.9426588359
 30
0.0
 10
9.6439578751
 20
4.8872175566
 30
0.0
 10
9.7000567469
 20
4.823533845
 30
0.0
 10
9.7619135905
 20
4.7625931636
 30
0.0
 10
9.8292596492
 20
4.7046556781
 30
0.0
 10
9.9018063262
 20
4.6499651027
 30
0.0
 10
9.9792426282
 20
4.5987524101
 30
0.0
 10
10.061237532
 20
4.5512339758
 30
0.0
 10
10.1474407237
 20
4.5076106416
 30
0.0
 10
10.2374842554
 20
4.4680671293
 30
0.0
 10
10.3309838335
 20
4.4327709075
 30
0.0
 10
10.4275405227
 20
4.4018717169
 30
0.0
 10
10.5267423138
 20
4.3755006594
 30
0.0
 10
10.6281659129
 20
4.3537697647
 30
0.0
 10
10.7313785017
 20
4.336771374
 30
0.0
 10
10.8359395954
 20
4.3245777502
 30
0.0
 10
10.9414029232
 20
4.3172407791
 30
0.0
 10
11.0473183385
 20
4.3147916308
 30
0.0
 10
11.1532337522
 20
4.3172407825
 30
0.0
 10
11.2586970845
 20
4.3245777435
 30
0.0
 10
11.3632581639
 20
4.3367713809
 30
0.0
 10
11.4664708021
 20
4.353769764
 30
0.0
 10
11.5678942356
 20
4.375500625
 30
0.0
 10
11.6670965487
 20
4.4018718723
 30
0.0
 10
11.7636510705
 20
4.4327701887
 30
0.0
 10
11.826473879
 20
4.4564860347
 30
0.0
 10
11.8573183383
 20
4.4690782324
 30
0.0
  0
SPLINE
  5
309
100
AcDbEntity
  8
0
100
AcDbSpline
 62
9
  6
CONTINUOUS
 70
0
 71
3
 72
29
 73
25
 74
0
 42
0.0000001
 43
0.0000001
 44
0.0000000001
 40
0.0
 40
0.0
 40
0.0
 40
0.0
 40
0.0282655447
 40
0.0565534848
 40
0.0848860903
 40
0.1132853865
 40
0.1417730344
 40
0.170370211
 40
0.1990975095
 40
0.2279748372
 40
0.2570213136
 40
0.2862552002
 40
0.3156938243
 40
0.3453535018
 40
0.4053866401
 40
0.4664731819
 40
0.5287033748
 40
0.5921484842
 40
0.6568608079
 40
0.7228740493
 40
0.7902039345
 40
0.8588490736
 40
0.9287919594
 40
1.0
 40
1.0
 40
1.0
 40
1.0
 10
12.9523183255
 20
5.1983375589
 30
0.0
 10
12.9523183171
 20
5.1856899744
 30
0.0
 10
12.9518141044
 20
5.1603818903
 30
0.0
 10
12.9495458622
 20
5.1224573543
 30
0.0
 10
12.9457675502
 20
5.0845926683
 30
0.0
 10
12.9404821972
 20
5.046818789
 30
0.0
 10
12.9336939907
 20
5.0091656046
 30
0.0
 10
12.9254084757
 20
4.971663141
 30
0.0
 10
12.915632307
 20
4.9343412255
 30
0.0
 10
12.9043732813
 20
4.8972295811
 30
0.0
 10
12.8916404973
 20
4.8603576552
 30
0.0
 10
12.8774442415
 20
4.8237548808
 30
0.0
 10
12.8617955126
 20
4.7874498545
 30
0.0
 10
12.8389216294
 20
4.7392900843
 30
0.0
 10
12.8066963307
 20
4.6799464597
 30
0.0
 10
12.7626037466
 20
4.6106881577
 30
0.0
 10
12.7130720327
 20
4.5433063651
 30
0.0
 10
12.6582619631
 20
4.4780158626
 30
0.0
 10
12.5983489425
 20
4.4150210458
 30
0.0
 10
12.5335243067
 20
4.3545198998
 30
0.0
 10
12.4639946627
 20
4.296702286
 30
0.0
 10
12.389980288
 20
4.2417492535
 30
0.0
 10
12.3117185464
 20
4.1898347953
 30
0.0
 10
12.2573466466
 20
4.1576373733
 30
0.0
 10
12.2295420436
 20
4.1420771597
 30
0.0
  0
SPLINE
  5
30A
100
AcDbEntity
  8
0
100
AcDbSpline
 62
9
  6
CONTINUOUS
 70
0
 71
3
 72
9
 73
5
 74
0
 42
0.0000001
 43
0.0000001
 44
0.0000000001
 40
0.0
 40
0.0
 40
0.0
 40
0.0
 40
0.2462391488
 40
1.0
 40
1.0
 40
1.0
 40
1.0
 10
12.2295420436
 20
4.1420771597
 30
0.0
 10
12.2112826063
 20
4.1318586809
 30
0.0
 10
12.1364664003
 20
4.0915526851
 30
0.0
 10
12.059118113
 20
4.0559771005
 30
0.0
 10
11.9998183383
 20
4.0317680689
 30
0.0
  0
SPLINE
  5
30B
100
AcDbEntity
  8
0
100
AcDbSpline
 62
9
  6
CONTINUOUS
 70
0
 71
3
 72
30
 73
26
 74
0
 42
0.0000001
 43
0.0000001
 44
0.0000000001
 40
0.0
 40
0.0
 40
0.0
 40
0.0
 40
0.0275999488
 40
0.0552294052
 40
0.0829176559
 40
0.1106935507
 40
0.1385852947
 40
0.1666202517
 40
0.1948247608
 40
0.2232239677
 40
0.2518416815
 40
0.2807002479
 40
0.3098204415
 40
0.339221374
 40
0.3689204302
 40
0.3989332226
 40
0.4599424894
 40
0.5223494116
 40
0.5862136516
 40
0.6515667906
 40
0.7184136845
 40
0.7867341524
 40
0.8564848449
 40
0.9276011783
 40
1.0
 40
1.0
 40
1.0
 40
1.0
 10
12.9523183255
 20
5.3277726261
 30
0.0
 10
12.9523183157
 20
5.3130774055
 30
0.0
 10
12.9516373997
 20
5.2836667165
 30
0.0
 10
12.9485748015
 20
5.2396097173
 30
0.0
 10
12.9434741983
 20
5.1956467427
 30
0.0
 10
12.936341183
 20
5.1518263831
 30
0.0
 10
12.9271835554
 20
5.1081954751
 30
0.0
 10
12.9160112947
 20
5.0648010483
 30
0.0
 10
12.9028365627
 20
5.0216897329
 30
0.0
 10
12.8876737344
 20
4.9789078339
 30
0.0
 10
12.8705392964
 20
4.9365012558
 30
0.0
 10
12.8514518489
 20
4.8945154801
 30
0.0
 10
12.8304320154
 20
4.8529954581
 30
0.0
 10
12.8075026926
 20
4.8119857914
 30
0.0
 10
12.7826881715
 20
4.7715297335
 30
0.0
 10
12.7469338031
 20
4.7180988488
 30
0.0
 10
12.6975663017
 20
4.6529039977
 30
0.0
 10
12.6315981602
 20
4.5780166941
 30
0.0
 10
12.5588591195
 20
4.5063549346
 30
0.0
 10
12.4796651234
 20
4.4382247861
 30
0.0
 10
12.3943555937
 20
4.3739126575
 30
0.0
 10
12.3032963721
 20
4.3136904424
 30
0.0
 10
12.2068759074
 20
4.2578120158
 30
0.0
 10
12.1055097293
 20
4.2065152123
 30
0.0
 10
12.0355066445
 20
4.1757728261
 30
0.0
 10
11.9998183383
 20
4.1612031361
 30
0.0
  0
SPLINE
  5
30C
100
AcDbEntity
  8
0
100
AcDbSpline
 62
9
  6
CONTINUOUS
 70
0
 71
3
 72
30
 73
26
 74
0
 42
0.0000001
 43
0.0000001
 44
0.0000000001
 40
0.0
 40
0.0
 40
0.0
 40
0.0
 40
0.0275999488
 40
0.0552294053
 40
0.082917656
 40
0.1106935504
 40
0.1385852944
 40
0.1666202526
 40
0.1948247613
 40
0.2232239668
 40
0.2518416804
 40
0.2807002495
 40
0.3098204429
 40
0.3392213724
 40
0.3689204282
 40
0.3989332244
 40
0.4599424879
 40
0.5223494133
 40
0.5862136503
 40
0.6515667918
 40
0.7184136833
 40
0.7867341543
 40
0.8564848529
 40
0.9276011468
 40
1.0
 40
1.0
 40
1.0
 40
1.0
 10
12.6673183255
 20
5.4851550294
 30
0.0
 10
12.667318316
 20
5.4726583064
 30
0.0
 10
12.6667392763
 20
5.4476476415
 30
0.0
 10
12.6641348536
 20
5.4101818473
 30
0.0
 10
12.6597973315
 20
5.3727960112
 30
0.0
 10
12.6537314681
 20
5.3355314525
 30
0.0
 10
12.6459438865
 20
5.298428001
 30
0.0
 10
12.636443046
 20
5.2615256586
 30
0.0
 10
12.6252393387
 20
5.2248640678
 30
0.0
 10
12.6123449797
 20
5.1884826062
 30
0.0
 10
12.5977739695
 20
5.1524203151
 30
0.0
 10
12.5815420979
 20
5.1167158868
 30
0.0
 10
12.5636669644
 20
5.0814075222
 30
0.0
 10
12.5441680324
 20
5.046533151
 30
0.0
 10
12.5230659273
 20
5.0121295686
 30
0.0
 10
12.4926606022
 20
4.9666923051
 30
0.0
 10
12.4506788273
 20
4.9112509848
 30
0.0
 10
12.3945799055
 20
4.8475673207
 30
0.0
 10
12.332723106
 20
4.7866265883
 30
0.0
 10
12.2653770141
 20
4.7286891595
 30
0.0
 10
12.1928303391
 20
4.6739985133
 30
0.0
 10
12.1153941393
 20
4.622785932
 30
0.0
 10
12.0333987996
 20
4.5752672706
 30
0.0
 10
11.9471976411
 20
4.5316447921
 30
0.0
 10
11.8876674622
 20
4.5055016616
 30
0.0
 10
11.8573183383
 20
4.4931116836
 30
0.0
  0
SPLINE
  5
30D
100
AcDbEntity
  8
0
100
AcDbSpline
 62
7
  6
CONTINUOUS
 70
0
 71
3
 72
23
 73
19
 74
0
 42
0.0000001
 43
0.0000001
 44
0.0000000001
 40
0.0
 40
0.0
 40
0.0
 40
0.0
 40
0.1171255397
 40
0.1475005232
 40
0.1782570931
 40
0.2407967359
 40
0.3045195837
 40
0.3691569514
 40
0.4344169753
 40
0.499992267
 40
0.5655678372
 40
0.6308286849
 40
0.6954674068
 40
0.7591921002
 40
0.8217340363
 40
0.8524919006
 40
0.882868264
 40
1.0
 40
1.0
 40
1.0
 40
1.0
 10
10.7756633678
 20
7.1289038644
 30
0.0
 10
10.7939735658
 20
7.1159416148
 30
0.0
 10
10.8186479658
 20
7.1017774992
 30
0.0
 10
10.8498061962
 20
7.0878227017
 30
0.0
 10
10.8718012675
 20
7.0790095794
 30
0.0
 10
10.9003581068
 20
7.0694756409
 30
0.0
 10
10.935840433
 20
7.0605128251
 30
0.0
 10
10.9723905362
 20
7.0540485016
 30
0.0
 10
11.009657632
 20
7.0501443442
 30
0.0
 10
11.0472852968
 20
7.0488372469
 30
0.0
 10
11.0849132779
 20
7.050139771
 30
0.0
 10
11.1221813192
 20
7.0540394033
 30
0.0
 10
11.1587329894
 20
7.0604992795
 30
0.0
 10
11.1942174857
 20
7.0694577872
 30
0.0
 10
11.2227765851
 20
7.0789882306
 30
0.0
 10
11.2447737593
 20
7.0877986593
 30
0.0
 10
11.2759355226
 20
7.1017497272
 30
0.0
 10
11.3006132901
 20
7.1159108253
 30
0.0
 10
11.3189265665
 20
7.12887078
 30
0.0
  0
SPLINE
  5
30E
100
AcDbEntity
  8
0
100
AcDbSpline
 62
7
  6
CONTINUOUS
 70
0
 71
3
 72
23
 73
19
 74
0
 42
0.0000001
 43
0.0000001
 44
0.0000000001
 40
0.0
 40
0.0
 40
0.0
 40
0.0
 40
0.0571692674
 40
0.116080885
 40
0.1765917918
 40
0.2385186807
 40
0.3016452998
 40
0.3657292668
 40
0.4305087289
 40
0.4957088385
 40
0.5610478898
 40
0.6262436869
 40
0.6910194412
 40
0.7551101878
 40
0.8182687852
 40
0.8494330081
 40
0.880283082
 40
1.0
 40
1.0
 40
1.0
 40
1.0
 10
10.7838457486
 20
7.0809194657
 30
0.0
 10
10.7925784558
 20
7.075290316
 30
0.0
 10
10.810822414
 20
7.0646383226
 30
0.0
 10
10.8397942042
 20
7.0507584404
 30
0.0
 10
10.8705578133
 20
7.0388453001
 30
0.0
 10
10.9028456483
 20
7.0290082467
 30
0.0
 10
10.9363805199
 20
7.0213367572
 30
0.0
 10
10.9708735445
 20
7.0159027502
 30
0.0
 10
11.006027818
 20
7.0127589212
 30
0.0
 10
11.0415406389
 20
7.0119384364
 30
0.0
 10
11.0771062824
 20
7.0134547049
 30
0.0
 10
11.1124185179
 20
7.01730096
 30
0.0
 10
11.1471736656
 20
7.0234508278
 30
0.0
 10
11.1810718767
 20
7.0318577337
 30
0.0
 10
11.2084875162
 20
7.0407300745
 30
0.0
 10
11.2297219651
 20
7.048907149
 30
0.0
 10
11.2600814512
 20
7.0619070701
 30
0.0
 10
11.2842736574
 20
7.0750353261
 30
0.0
 10
11.3024373059
 20
7.0870123595
 30
0.0
  0
SPLINE
  5
30F
100
AcDbEntity
  8
0
100
AcDbSpline
 62
7
  6
CONTINUOUS
 70
0
 71
3
 72
22
 73
18
 74
0
 42
0.0000001
 43
0.0000001
 44
0.0000000001
 40
0.0
 40
0.0
 40
0.0
 40
0.0
 40
0.0575303389
 40
0.1166508854
 40
0.177224813
 40
0.2390838899
 40
0.3020336974
 40
0.3658592409
 40
0.4303298578
 40
0.4952042312
 40
0.5602353439
 40
0.6251750599
 40
0.6897791045
 40
0.7538116327
 40
0.8170501512
 40
0.8792904126
 40
1.0
 40
1.0
 40
1.0
 40
1.0
 10
10.7951548251
 20
7.0250510793
 30
0.0
 10
10.8035808246
 20
7.0200091706
 30
0.0
 10
10.8210853728
 20
7.0104727281
 30
0.0
 10
10.8486849288
 20
6.9980308927
 30
0.0
 10
10.8777982595
 20
6.9873423995
 30
0.0
 10
10.9082018609
 20
6.9784941666
 30
0.0
 10
10.9396652885
 20
6.9715575792
 30
0.0
 10
10.9719492662
 20
6.9665903311
 30
0.0
 10
11.0048084723
 20
6.9636351292
 30
0.0
 10
11.0379931389
 20
6.962719482
 30
0.0
 10
11.0712510765
 20
6.9638556336
 30
0.0
 10
11.1043294622
 20
6.9670401624
 30
0.0
 10
11.1369772988
 20
6.9722543787
 30
0.0
 10
11.1689453925
 20
6.9794637063
 30
0.0
 10
11.1999954171
 20
6.9886209322
 30
0.0
 10
11.2394301985
 20
7.0031835339
 30
0.0
 10
11.267584394
 20
7.0170207968
 30
0.0
 10
11.2853129003
 20
7.0275170912
 30
0.0
  0
SPLINE
  5
310
100
AcDbEntity
  8
0
100
AcDbSpline
 62
7
  6
CONTINUOUS
 70
0
 71
3
 72
39
 73
35
 74
0
 42
0.0000001
 43
0.0000001
 44
0.0000000001
 40
0.0
 40
0.0
 40
0.0
 40
0.0
 40
0.0248343515
 40
0.0498052662
 40
0.0750449756
 40
0.1006749215
 40
0.1268029848
 40
0.1535202213
 40
0.1808992321
 40
0.2089932993
 40
0.2233226641
 40
0.2378420085
 40
0.2674498837
 40
0.2978204008
 40
0.3289354171
 40
0.3607620546
 40
0.3932543029
 40
0.426354599
 40
0.4599952982
 40
0.4941002627
 40
0.5285863014
 40
0.563364581
 40
0.5983421192
 40
0.6334230892
 40
0.6685102096
 40
0.7035061588
 40
0.73831483
 40
0.7728427978
 40
0.8070006579
 40
0.8407043935
 40
0.8738769136
 40
0.906449405
 40
0.9383630143
 40
1.0
 40
1.0
 40
1.0
 40
1.0
 10
10.6410683384
 20
7.3116695084
 30
0.0
 10
10.6410683454
 20
7.3045252546
 30
0.0
 10
10.6418266821
 20
7.2901860751
 30
0.0
 10
10.6452292019
 20
7.2688294572
 30
0.0
 10
10.6508766381
 20
7.247715698
 30
0.0
 10
10.6587348672
 20
7.2269674776
 30
0.0
 10
10.6687568343
 20
7.2067004147
 30
0.0
 10
10.6808838951
 20
7.1870271905
 30
0.0
 10
10.695045343
 20
7.1680567824
 30
0.0
 10
10.7083883583
 20
7.1530178248
 30
0.0
 10
10.7199741798
 20
7.1414323843
 30
0.0
 10
10.732323184
 20
7.1300119361
 30
0.0
 10
10.7488824704
 20
7.1163733799
 30
0.0
 10
10.770275874
 20
7.1012028312
 30
0.0
 10
10.793203447
 20
7.0872028666
 30
0.0
 10
10.8175373013
 20
7.0744506977
 30
0.0
 10
10.843142902
 20
7.0630159247
 30
0.0
 10
10.8698784761
 20
7.0529612855
 30
0.0
 10
10.8975961113
 20
7.0443419633
 30
0.0
 10
10.9261424378
 20
7.0372053446
 30
0.0
 10
10.9553594851
 20
7.0315906774
 30
0.0
 10
10.9850855579
 20
7.0275288687
 30
0.0
 10
11.0151561226
 20
7.0250422951
 30
0.0
 10
11.0454047274
 20
7.0241446637
 30
0.0
 10
11.0756639271
 20
7.0248409357
 30
0.0
 10
11.1057662119
 20
7.027127268
 30
0.0
 10
11.1355449517
 20
7.0309910472
 30
0.0
 10
11.164835338
 20
7.0364109961
 30
0.0
 10
11.1934751992
 20
7.0433572323
 30
0.0
 10
11.2213062917
 20
7.0517916948
 30
0.0
 10
11.2481737275
 20
7.0616674933
 30
0.0
 10
11.273932074
 20
7.0729323364
 30
0.0
 10
11.306216474
 20
7.0895194259
 30
0.0
 10
11.3289515647
 20
7.1041248024
 30
0.0
 10
11.3431286757
 20
7.1147744769
 30
0.0
  0
SPLINE
  5
311
100
AcDbEntity
  8
0
100
AcDbSpline
 62
9
  6
CONTINUOUS
 70
0
 71
3
 72
28
 73
24
 74
0
 42
0.0000001
 43
0.0000001
 44
0.0000000001
 40
0.0
 40
0.0
 40
0.0
 40
0.0
 40
0.0257107628
 40
0.0514832413
 40
0.0773781188
 40
0.1034540579
 40
0.1297667912
 40
0.1563683146
 40
0.1833062143
 40
0.2106231489
 40
0.2383564634
 40
0.2665379341
 40
0.3243220871
 40
0.3841398499
 40
0.4460434432
 40
0.5100037049
 40
0.5759188429
 40
0.6436238012
 40
0.7129000494
 40
0.7834850469
 40
0.8550815191
 40
0.9273662305
 40
1.0
 40
1.0
 40
1.0
 40
1.0
 10
11.4535683383
 20
8.1198041144
 30
0.0
 10
11.4535683383
 20
8.1151028555
 30
0.0
 10
11.4532410509
 20
8.1056857933
 30
0.0
 10
11.4517701139
 20
8.0916029632
 30
0.0
 10
11.4493227015
 20
8.0775883044
 30
0.0
 10
11.4459049771
 20
8.0636768627
 30
0.0
 10
11.4415254918
 20
8.0499022196
 30
0.0
 10
11.4361951869
 20
8.0362978465
 30
0.0
 10
11.42992731
 20
8.0228965796
 30
0.0
 10
11.4227374456
 20
8.0097308222
 30
0.0
 10
11.4146429405
 20
7.9968318697
 30
0.0
 10
11.4025725683
 20
7.9798923469
 30
0.0
 10
11.3852598215
 20
7.9595449313
 30
0.0
 10
11.3614231048
 20
7.9369000159
 30
0.0
 10
11.3345791732
 20
7.9160265824
 30
0.0
 10
11.3049889411
 20
7.8971217209
 30
0.0
 10
11.2729357128
 20
7.8803614131
 30
0.0
 10
11.2387263282
 20
7.8659028903
 30
0.0
 10
11.2026875628
 20
7.8538821622
 30
0.0
 10
11.1651639038
 20
7.8444126283
 30
0.0
 10
11.1265132654
 20
7.8375838265
 30
0.0
 10
11.0871074368
 20
7.8334604626
 30
0.0
 10
11.0605995527
 20
7.8325419845
 30
0.0
 10
11.0473183383
 20
7.8325419845
 30
0.0
  0
SPLINE
  5
312
100
AcDbEntity
  8
0
100
AcDbSpline
 62
7
  6
CONTINUOUS
 70
0
 71
3
 72
20
 73
16
 74
0
 42
0.0000001
 43
0.0000001
 44
0.0000000001
 40
0.0
 40
0.0
 40
0.0
 40
0.0
 40
0.1364608968
 40
0.2042503101
 40
0.2715430334
 40
0.4040564141
 40
0.4690625337
 40
0.5330672684
 40
0.5959685899
 40
0.657677668
 40
0.7771878384
 40
0.8349469301
 40
0.8913278557
 40
0.9463355547
 40
1.0
 40
1.0
 40
1.0
 40
1.0
 10
11.0473183383
 20
6.8833389507
 30
0.0
 10
11.0296280954
 20
6.8829850945
 30
0.0
 10
11.0031035984
 20
6.8836771169
 30
0.0
 10
10.9680477305
 20
6.8870581881
 30
0.0
 10
10.9336964055
 20
6.8920150641
 30
0.0
 10
10.9000846355
 20
6.8993429044
 30
0.0
 10
10.8675793618
 20
6.9090414995
 30
0.0
 10
10.8441201555
 20
6.9173744693
 30
0.0
 10
10.8215286769
 20
6.9267745551
 30
0.0
 10
10.7930054359
 20
6.9405232558
 30
0.0
 10
10.7662517132
 20
6.9563300587
 30
0.0
 10
10.7417182239
 20
6.9741328277
 30
0.0
 10
10.7248292162
 20
6.9881517114
 30
0.0
 10
10.7093206997
 20
7.0029229472
 30
0.0
 10
10.6998294377
 20
7.0133579051
 30
0.0
 10
10.6953467171
 20
7.0186797703
 30
0.0
  0
SPLINE
  5
313
100
AcDbEntity
  8
0
100
AcDbSpline
 62
9
  6
CONTINUOUS
 70
0
 71
3
 72
20
 73
16
 74
0
 42
0.0000001
 43
0.0000001
 44
0.0000000001
 40
0.0
 40
0.0
 40
0.0
 40
0.0
 40
0.0626458746
 40
0.1252740533
 40
0.1878864991
 40
0.2504833629
 40
0.3756309218
 40
0.4381819307
 40
0.5007179512
 40
0.5632391252
 40
0.6257434559
 40
0.688223749
 40
0.7506721872
 40
0.8754432842
 40
1.0
 40
1.0
 40
1.0
 40
1.0
 10
10.2892039599
 20
10.3594858695
 30
0.0
 10
10.2802972192
 20
10.3595353919
 30
0.0
 10
10.2624861701
 20
10.3596194813
 30
0.0
 10
10.2357729767
 20
10.3597166162
 30
0.0
 10
10.2090666633
 20
10.3597860415
 30
0.0
 10
10.1734714095
 20
10.3598412442
 30
0.0
 10
10.1378848215
 20
10.3598406249
 30
0.0
 10
10.1023069551
 20
10.3597842521
 30
0.0
 10
10.0756332435
 20
10.3597140164
 30
0.0
 10
10.0489662558
 20
10.3596163421
 30
0.0
 10
10.022307312
 20
10.3594893171
 30
0.0
 10
9.9956589518
 20
10.359317034
 30
0.0
 10
9.9601583979
 20
10.359007785
 30
0.0
 10
9.9158340068
 20
10.3584351227
 30
0.0
 10
9.8803920926
 20
10.3576986459
 30
0.0
 10
9.8626887563
 20
10.3572409817
 30
0.0
  0
SPLINE
  5
314
100
AcDbEntity
  8
0
100
AcDbSpline
 62
9
  6
CONTINUOUS
 70
0
 71
3
 72
19
 73
15
 74
0
 42
0.0000001
 43
0.0000001
 44
0.0000000001
 40
0.0
 40
0.0
 40
0.0
 40
0.0
 40
0.1245848075
 40
0.2492907438
 40
0.3116798032
 40
0.3740895174
 40
0.4989833482
 40
0.5614752181
 40
0.624002263
 40
0.6865684228
 40
0.7491758786
 40
0.8118236298
 40
0.8745106306
 40
1.0
 40
1.0
 40
1.0
 40
1.0
 10
10.289287318
 20
10.3550197806
 30
0.0
 10
10.2715709453
 20
10.3549151674
 30
0.0
 10
10.2361206312
 20
10.3547617007
 30
0.0
 10
10.1917979956
 20
10.3546818959
 30
0.0
 10
10.1563169787
 20
10.3546686029
 30
0.0
 10
10.1208092446
 20
10.3546842306
 30
0.0
 10
10.0852869177
 20
10.3547520116
 30
0.0
 10
10.0497481258
 20
10.3548875593
 30
0.0
 10
10.0230727976
 20
10.3550273696
 30
0.0
 10
9.9963812783
 20
10.3552084751
 30
0.0
 10
9.9696729617
 20
10.355438161
 30
0.0
 10
9.9429481026
 20
10.3557359908
 30
0.0
 10
9.9072831106
 20
10.3562477958
 30
0.0
 10
9.8805282997
 20
10.3567877062
 30
0.0
 10
9.8626887417
 20
10.3572409813
 30
0.0
  0
SPLINE
  5
315
100
AcDbEntity
  8
0
100
AcDbSpline
 62
7
  6
CONTINUOUS
 70
0
 71
3
 72
27
 73
23
 74
0
 42
0.0000001
 43
0.0000001
 44
0.0000000001
 40
0.0
 40
0.0
 40
0.0
 40
0.0
 40
0.0729801149
 40
0.1455386481
 40
0.2173601272
 40
0.2881419876
 40
0.357603421
 40
0.4254931655
 40
0.4915971354
 40
0.5557471375
 40
0.6178291466
 40
0.6777923269
 40
0.735657157
 40
0.7915229666
 40
0.8187717086
 40
0.8455965627
 40
0.8720336824
 40
0.8981242663
 40
0.9239142283
 40
0.9494537544
 40
0.9747967215
 40
1.0
 40
1.0
 40
1.0
 40
1.0
 10
11.0473183383
 20
6.9347087464
 30
0.0
 10
11.034576219
 20
6.9344531677
 30
0.0
 10
11.0091404352
 20
6.9347880097
 30
0.0
 10
10.971276526
 20
6.9378219403
 30
0.0
 10
10.9340817292
 20
6.9433533204
 30
0.0
 10
10.8978858974
 20
6.9513269365
 30
0.0
 10
10.8630073868
 20
6.9616664863
 30
0.0
 10
10.8297534836
 20
6.9742749651
 30
0.0
 10
10.7984170342
 20
6.9890361805
 30
0.0
 10
10.7692740602
 20
7.0058154623
 30
0.0
 10
10.7425819732
 20
7.024461216
 30
0.0
 10
10.7185767897
 20
7.0448069575
 30
0.0
 10
10.6974745438
 20
7.0666688514
 30
0.0
 10
10.6823381953
 20
7.0861567253
 30
0.0
 10
10.6719158037
 20
7.1022916354
 30
0.0
 10
10.6649956725
 20
7.1145405448
 30
0.0
 10
10.6589248269
 20
7.127007269
 30
0.0
 10
10.6537167943
 20
7.1396636525
 30
0.0
 10
10.6493836216
 20
7.1524805219
 30
0.0
 10
10.6459352105
 20
7.1654286305
 30
0.0
 10
10.6433796044
 20
7.1784773034
 30
0.0
 10
10.642272658
 20
7.1872427644
 30
0.0
 10
10.6418710016
 20
7.1916257042
 30
0.0
  0
SPLINE
  5
316
100
AcDbEntity
  8
0
100
AcDbSpline
 62
7
  6
CONTINUOUS
 70
0
 71
3
 72
27
 73
23
 74
0
 42
0.0000001
 43
0.0000001
 44
0.0000000001
 40
0.0
 40
0.0
 40
0.0
 40
0.0
 40
0.0729806649
 40
0.1455395786
 40
0.2173612773
 40
0.2881432077
 40
0.3576045729
 40
0.4254941311
 40
0.4915978166
 40
0.555747457
 40
0.6178290704
 40
0.6777918461
 40
0.7356563228
 40
0.791521871
 40
0.8187705381
 40
0.8455953652
 40
0.8720325107
 40
0.8981231796
 40
0.9239132954
 40
0.9494530508
 40
0.9747963274
 40
1.0
 40
1.0
 40
1.0
 40
1.0
 10
11.0473183383
 20
6.9859484935
 30
0.0
 10
11.0345761342
 20
6.9856924512
 30
0.0
 10
11.0091401786
 20
6.9860263955
 30
0.0
 10
10.9712759719
 20
6.9890590766
 30
0.0
 10
10.9340808901
 20
6.9945893109
 30
0.0
 10
10.8978847939
 20
7.0025618899
 30
0.0
 10
10.8630060463
 20
7.0129005159
 30
0.0
 10
10.8297519408
 20
7.0255081879
 30
0.0
 10
10.7984153311
 20
7.0402687166
 30
0.0
 10
10.7692722447
 20
7.0570474353
 30
0.0
 10
10.7425801002
 20
7.0756927505
 30
0.0
 10
10.7185749183
 20
7.0960381819
 30
0.0
 10
10.6974727398
 20
7.1178998936
 30
0.0
 10
10.6823365152
 20
7.1373877126
 30
0.0
 10
10.6719142629
 20
7.1535226346
 30
0.0
 10
10.6649942483
 20
7.1657715929
 30
0.0
 10
10.6589235376
 20
7.1782383974
 30
0.0
 10
10.6537156588
 20
7.1908948926
 30
0.0
 10
10.6493826585
 20
7.203711905
 30
0.0
 10
10.6459344383
 20
7.216660188
 30
0.0
 10
10.6433790416
 20
7.2297090663
 30
0.0
 10
10.6422722494
 20
7.2384746695
 30
0.0
 10
10.6418706722
 20
7.242857685
 30
0.0
  0
LINE
  5
317
100
AcDbEntity
  8
0
100
AcDbLine
 62
7
  6
CONTINUOUS
 10
10.6418706722
 20
7.242857685
 11
10.6418550863
 21
7.2430286346
  0
SPLINE
  5
318
100
AcDbEntity
  8
0
100
AcDbSpline
 62
9
  6
CONTINUOUS
 70
0
 71
3
 72
28
 73
24
 74
0
 42
0.0000001
 43
0.0000001
 44
0.0000000001
 40
0.0
 40
0.0
 40
0.0
 40
0.0
 40
0.0726337695
 40
0.1449184809
 40
0.2165149531
 40
0.2870999506
 40
0.3563761988
 40
0.4240811571
 40
0.4899962951
 40
0.5539565568
 40
0.6158601501
 40
0.6756779129
 40
0.7334620659
 40
0.7616435366
 40
0.7893768511
 40
0.8166937857
 40
0.8436316854
 40
0.8702332088
 40
0.8965459421
 40
0.9226218812
 40
0.9485167587
 40
0.9742892372
 40
1.0
 40
1.0
 40
1.0
 40
1.0
 10
11.0473183383
 20
7.8325419845
 30
0.0
 10
11.0340371239
 20
7.8325419845
 30
0.0
 10
11.0075292398
 20
7.8334604626
 30
0.0
 10
10.9681234112
 20
7.8375838265
 30
0.0
 10
10.9294727728
 20
7.8444126283
 30
0.0
 10
10.8919491138
 20
7.8538821622
 30
0.0
 10
10.8559103483
 20
7.8659028903
 30
0.0
 10
10.8217009638
 20
7.8803614131
 30
0.0
 10
10.7896477355
 20
7.8971217209
 30
0.0
 10
10.7600575034
 20
7.9160265824
 30
0.0
 10
10.7332135718
 20
7.9369000159
 30
0.0
 10
10.7093768551
 20
7.9595449313
 30
0.0
 10
10.6920641082
 20
7.9798923469
 30
0.0
 10
10.6799937361
 20
7.9968318697
 30
0.0
 10
10.6718992309
 20
8.0097308222
 30
0.0
 10
10.6647093666
 20
8.0228965796
 30
0.0
 10
10.6584414896
 20
8.0362978465
 30
0.0
 10
10.6531111848
 20
8.0499022196
 30
0.0
 10
10.6487316995
 20
8.0636768627
 30
0.0
 10
10.6453139751
 20
8.0775883044
 30
0.0
 10
10.6428665627
 20
8.0916029632
 30
0.0
 10
10.6413956257
 20
8.1056857933
 30
0.0
 10
10.6410683383
 20
8.1151028555
 30
0.0
 10
10.6410683383
 20
8.1198041144
 30
0.0
  0
SPLINE
  5
319
100
AcDbEntity
  8
0
100
AcDbSpline
 62
9
  6
CONTINUOUS
 70
0
 71
3
 72
20
 73
16
 74
0
 42
0.0000001
 43
0.0000001
 44
0.0000000001
 40
0.0
 40
0.0
 40
0.0
 40
0.0
 40
0.1245571751
 40
0.2493283635
 40
0.3117767451
 40
0.3742569351
 40
0.4367611334
 40
0.4992821965
 40
0.5618181811
 40
0.6243692062
 40
0.7495168557
 40
0.812113744
 40
0.8747261666
 40
0.9373542493
 40
1.0
 40
1.0
 40
1.0
 40
1.0
 10
12.23194792
 20
10.3572409817
 30
0.0
 10
12.2142445347
 20
10.3576982219
 30
0.0
 10
12.1788025881
 20
10.3584341814
 30
0.0
 10
12.1344781953
 20
10.3590068006
 30
0.0
 10
12.0989777076
 20
10.3593162458
 30
0.0
 10
12.0723294315
 20
10.3594887545
 30
0.0
 10
12.0456705793
 20
10.3596160684
 30
0.0
 10
12.0190036732
 20
10.359713996
 30
0.0
 10
11.9923300214
 20
10.3597843104
 30
0.0
 10
11.9567521996
 20
10.3598406776
 30
0.0
 10
11.9211656478
 20
10.3598411934
 30
0.0
 10
11.8855704357
 20
10.3597859824
 30
0.0
 10
11.8588641768
 20
10.3597166332
 30
0.0
 10
11.8321510581
 20
10.359619745
 30
0.0
 10
11.8143400668
 20
10.3595358526
 30
0.0
 10
11.8054333569
 20
10.3594864154
 30
0.0
  0
SPLINE
  5
31A
100
AcDbEntity
  8
0
100
AcDbSpline
 62
9
  6
CONTINUOUS
 70
0
 71
3
 72
19
 73
15
 74
0
 42
0.0000001
 43
0.0000001
 44
0.0000000001
 40
0.0
 40
0.0
 40
0.0
 40
0.0
 40
0.1254900154
 40
0.1881771799
 40
0.250824941
 40
0.3134322131
 40
0.3759980216
 40
0.4385247267
 40
0.5010163412
 40
0.6259101763
 40
0.6883202786
 40
0.7507097531
 40
0.8754157416
 40
1.0
 40
1.0
 40
1.0
 40
1.0
 10
12.2319479343
 20
10.3572409813
 30
0.0
 10
12.2141083301
 20
10.3567872651
 30
0.0
 10
12.1873534565
 20
10.3562471775
 30
0.0
 10
12.1516884146
 20
10.3557355263
 30
0.0
 10
12.1249636066
 20
10.3554378688
 30
0.0
 10
12.0982554158
 20
10.3552082436
 30
0.0
 10
12.071564073
 20
10.3550270322
 30
0.0
 10
12.0448889298
 20
10.3548873949
 30
0.0
 10
12.0093502894
 20
10.3547521338
 30
0.0
 10
11.9738280113
 20
10.354684619
 30
0.0
 10
11.9383202311
 20
10.3546686283
 30
0.0
 10
11.9028391609
 20
10.3546814962
 30
0.0
 10
11.8585166223
 20
10.3547616159
 30
0.0
 10
11.8230664489
 20
10.3549153989
 30
0.0
 10
11.8053501887
 20
10.3550200626
 30
0.0
  0
SPLINE
  5
31B
100
AcDbEntity
  8
0
100
AcDbSpline
 62
7
  6
CONTINUOUS
 70
0
 71
3
 72
10
 73
6
 74
0
 42
0.0000001
 43
0.0000001
 44
0.0000000001
 40
0.0
 40
0.0
 40
0.0
 40
0.0
 40
0.2511030945
 40
0.5012548397
 40
1.0
 40
1.0
 40
1.0
 40
1.0
 10
11.4950098105
 20
9.3001421235
 30
0.0
 10
11.4923207339
 20
9.2558534333
 30
0.0
 10
11.4872324253
 20
9.1674266502
 30
0.0
 10
11.4780838246
 20
8.9909616442
 30
0.0
 10
11.4722226132
 20
8.8587582269
 30
0.0
 10
11.4686325825
 20
8.7707024448
 30
0.0
  0
SPLINE
  5
31C
100
AcDbEntity
  8
0
100
AcDbSpline
 62
7
  6
CONTINUOUS
 70
0
 71
3
 72
10
 73
6
 74
0
 42
0.0000001
 43
0.0000001
 44
0.0000000001
 40
0.0
 40
0.0
 40
0.0
 40
0.0
 40
0.2511030945
 40
0.5012548397
 40
1.0
 40
1.0
 40
1.0
 40
1.0
 10
10.5996268661
 20
9.3001421235
 30
0.0
 10
10.6023159427
 20
9.2558534333
 30
0.0
 10
10.6074042513
 20
9.1674266502
 30
0.0
 10
10.6165528519
 20
8.9909616442
 30
0.0
 10
10.6224140634
 20
8.8587582269
 30
0.0
 10
10.626004094
 20
8.7707024448
 30
0.0
  0
SPLINE
  5
31D
100
AcDbEntity
  8
0
100
AcDbSpline
 62
7
  6
CONTINUOUS
 70
0
 71
3
 72
33
 73
29
 74
0
 42
0.0000001
 43
0.0000001
 44
0.0000000001
 40
0.0
 40
0.0
 40
0.0
 40
0.0
 40
0.0707199127
 40
0.1062865064
 40
0.1419121242
 40
0.2131015556
 40
0.28385507
 40
0.3537393372
 40
0.3882351882
 40
0.422365143
 40
0.4893392229
 40
0.5221243268
 40
0.5543926078
 40
0.6172595408
 40
0.6478440112
 40
0.6778433542
 40
0.7072571689
 40
0.7360926484
 40
0.7643649335
 40
0.7920974255
 40
0.8193219117
 40
0.8460785807
 40
0.8724158202
 40
0.8983897603
 40
0.9240636019
 40
0.9495066155
 40
0.9747929168
 40
1.0
 40
1.0
 40
1.0
 40
1.0
 10
11.1770814628
 20
6.2247651893
 30
0.0
 10
11.1559874347
 20
6.2213099458
 30
0.0
 10
11.1240533666
 20
6.2174127052
 30
0.0
 10
11.0812338993
 20
6.2147700115
 30
0.0
 10
11.0381990674
 20
6.2138291494
 30
0.0
 10
10.9845052721
 20
6.2158510001
 30
0.0
 10
10.9208557649
 20
6.2233568507
 30
0.0
 10
10.8688975772
 20
6.2338145544
 30
0.0
 10
10.8284480492
 20
6.2446522075
 30
0.0
 10
10.7893405402
 20
6.2569468587
 30
0.0
 10
10.7515478263
 20
6.2715969595
 30
0.0
 10
10.7154239383
 20
6.2885834574
 30
0.0
 10
10.6812489434
 20
6.3066890114
 30
0.0
 10
10.6489943692
 20
6.3269267957
 30
0.0
 10
10.6190617706
 20
6.3492293169
 30
0.0
 10
10.5981632819
 20
6.3666650222
 30
0.0
 10
10.5786808817
 20
6.3849049124
 30
0.0
 10
10.5606754843
 20
6.403892616
 30
0.0
 10
10.5442045468
 20
6.4235686414
 30
0.0
 10
10.5293205742
 20
6.4438714836
 30
0.0
 10
10.5160713028
 20
6.4647375207
 30
0.0
 10
10.5044994566
 20
6.4861012262
 30
0.0
 10
10.4946426055
 20
6.5078952799
 30
0.0
 10
10.4865329847
 20
6.5300507935
 30
0.0
 10
10.4801973202
 20
6.552497257
 30
0.0
 10
10.4756566471
 20
6.5751635861
 30
0.0
 10
10.4729261207
 20
6.5979752983
 30
0.0
 10
10.4723183627
 20
6.6132438766
 30
0.0
 10
10.4723183475
 20
6.6208627351
 30
0.0
  0
SPLINE
  5
31E
100
AcDbEntity
  8
0
100
AcDbSpline
 62
7
  6
CONTINUOUS
 70
0
 71
3
 72
33
 73
29
 74
0
 42
0.0000001
 43
0.0000001
 44
0.0000000001
 40
0.0
 40
0.0
 40
0.0
 40
0.0
 40
0.0310821567
 40
0.0616811605
 40
0.0918305749
 40
0.1215697139
 40
0.1509433801
 40
0.1800014908
 40
0.2087985694
 40
0.2373930482
 40
0.2658465024
 40
0.2942227315
 40
0.3225867575
 40
0.3510038045
 40
0.3795382544
 40
0.4082526109
 40
0.4372065849
 40
0.4664562514
 40
0.496053312
 40
0.5260445403
 40
0.5564713354
 40
0.5873694162
 40
0.6506695654
 40
0.7161391063
 40
0.7838543306
 40
0.8538056467
 40
0.925905738
 40
1.0
 40
1.0
 40
1.0
 40
1.0
 10
11.4732608802
 20
6.7811424898
 30
0.0
 10
11.476858607
 20
6.7763620076
 30
0.0
 10
11.4837381468
 20
6.7666760223
 30
0.0
 10
11.4931348151
 20
6.7516926436
 30
0.0
 10
11.5015045853
 20
6.736405268
 30
0.0
 10
11.5088273553
 20
6.7208496197
 30
0.0
 10
11.515085943
 20
6.7050614134
 30
0.0
 10
11.5202654543
 20
6.6890771771
 30
0.0
 10
11.5243535388
 20
6.6729339484
 30
0.0
 10
11.527340423
 20
6.6566692485
 30
0.0
 10
11.5292189313
 20
6.6403209588
 30
0.0
 10
11.5299845359
 20
6.6239272215
 30
0.0
 10
11.5296353776
 20
6.607526324
 30
0.0
 10
11.5281722848
 20
6.5911565797
 30
0.0
 10
11.5255988032
 20
6.5748562008
 30
0.0
 10
11.5219211371
 20
6.5586631789
 30
0.0
 10
11.5171481031
 20
6.5426151747
 30
0.0
 10
11.5112911031
 20
6.5267494279
 30
0.0
 10
11.5043640167
 20
6.5111026267
 30
0.0
 10
11.4963833424
 20
6.4957109868
 30
0.0
 10
11.4873675064
 20
6.4806095149
 30
0.0
 10
11.4738888977
 20
6.4607512947
 30
0.0
 10
11.4544866434
 20
6.4368283064
 30
0.0
 10
11.4276612275
 20
6.4100767527
 30
0.0
 10
11.3973512249
 20
6.385279522
 30
0.0
 10
11.3638381209
 20
6.3626607411
 30
0.0
 10
11.3274322838
 20
6.3424229033
 30
0.0
 10
11.3017728157
 20
6.3307837402
 30
0.0
 10
11.2885683383
 20
6.3253930349
 30
0.0
  0
SPLINE
  5
31F
100
AcDbEntity
  8
0
100
AcDbSpline
 62
7
  6
CONTINUOUS
 70
0
 71
3
 72
47
 73
43
 74
0
 42
0.0000001
 43
0.0000001
 44
0.0000000001
 40
0.0
 40
0.0
 40
0.0
 40
0.0
 40
0.069577796
 40
0.1051389504
 40
0.141069513
 40
0.177260337
 40
0.2135980252
 40
0.2499668109
 40
0.2862504309
 40
0.3223339816
 40
0.3581058208
 40
0.3934594283
 40
0.4282953877
 40
0.4625233267
 40
0.4960639599
 40
0.5288511856
 40
0.5608342032
 40
0.5919796498
 40
0.6072362392
 40
0.6222800216
 40
0.6517304264
 40
0.6803680396
 40
0.7082481273
 40
0.7354506737
 40
0.7488340549
 40
0.7620889744
 40
0.775231836
 40
0.7882801844
 40
0.8012525568
 40
0.8141683148
 40
0.8270474368
 40
0.8399103041
 40
0.8527774806
 40
0.8656694843
 40
0.8786065574
 40
0.8916084389
 40
0.9046941687
 40
0.917881896
 40
0.9311886976
 40
0.9446304538
 40
0.9719670639
 40
1.0
 40
1.0
 40
1.0
 40
1.0
 10
11.2792996823
 20
6.3217048522
 30
0.0
 10
11.2563489777
 20
6.3128063686
 30
0.0
 10
11.2207512511
 20
6.3015968027
 30
0.0
 10
11.1719870222
 20
6.290892841
 30
0.0
 10
11.1343397354
 20
6.2849087945
 30
0.0
 10
11.0961410952
 20
6.2810693922
 30
0.0
 10
11.0576306353
 20
6.279397973
 30
0.0
 10
11.0190547002
 20
6.2799053447
 30
0.0
 10
10.9806587551
 20
6.2825882677
 30
0.0
 10
10.9426874595
 20
6.2874297576
 30
0.0
 10
10.9053826441
 20
6.2943990853
 30
0.0
 10
10.8689818967
 20
6.3034521902
 30
0.0
 10
10.833717009
 20
6.3145317861
 30
0.0
 10
10.7998124715
 20
6.3275678672
 30
0.0
 10
10.7674842744
 20
6.3424781972
 30
0.0
 10
10.7369379917
 20
6.359169119
 30
0.0
 10
10.7083694677
 20
6.3775347574
 30
0.0
 10
10.6862084446
 20
6.3942556307
 30
0.0
 10
10.6696656401
 20
6.4083669155
 30
0.0
 10
10.6541521419
 20
6.4227330438
 30
0.0
 10
10.6362791058
 20
6.4414876662
 30
0.0
 10
10.6173050867
 20
6.4653108641
 30
0.0
 10
10.6010790074
 20
6.4901429214
 30
0.0
 10
10.5898746964
 20
6.5116691908
 30
0.0
 10
10.5824217331
 20
6.5292065345
 30
0.0
 10
10.5776058695
 20
6.5424381711
 30
0.0
 10
10.5735427728
 20
6.5557960147
 30
0.0
 10
10.5702389472
 20
6.5692589519
 30
0.0
 10
10.5676998603
 20
6.582805194
 30
0.0
 10
10.5659296412
 20
6.5964129145
 30
0.0
 10
10.5649312844
 20
6.6100601476
 30
0.0
 10
10.5647064217
 20
6.6237248387
 30
0.0
 10
10.5652553746
 20
6.6373849041
 30
0.0
 10
10.5665772988
 20
6.6510182678
 30
0.0
 10
10.5686700031
 20
6.6646029056
 30
0.0
 10
10.5715299726
 20
6.6781168994
 30
0.0
 10
10.5751525671
 20
6.691538476
 30
0.0
 10
10.5795317867
 20
6.7048459503
 30
0.0
 10
10.5846605828
 20
6.7180182392
 30
0.0
 10
10.5925298108
 20
6.7354677895
 30
0.0
 10
10.6042432539
 20
6.7568579953
 30
0.0
 10
10.6153045226
 20
6.7730657182
 30
0.0
 10
10.6212636247
 20
6.7809933331
 30
0.0
  0
SPLINE
  5
320
100
AcDbEntity
  8
0
100
AcDbSpline
 62
7
  6
CONTINUOUS
 70
0
 71
3
 72
11
 73
7
 74
0
 42
0.0000001
 43
0.0000001
 44
0.0000000001
 40
0.0
 40
0.0
 40
0.0
 40
0.0
 40
0.2446553399
 40
0.4932515325
 40
0.745234584
 40
1.0
 40
1.0
 40
1.0
 40
1.0
 10
11.3348183383
 20
6.0212612112
 30
0.0
 10
11.3224301048
 20
6.016203736
 30
0.0
 10
11.2971410367
 20
6.0067579563
 30
0.0
 10
11.2581796558
 20
5.9947163468
 30
0.0
 10
11.2180691273
 20
5.9847417923
 30
0.0
 10
11.1908319804
 20
5.9795301779
 30
0.0
 10
11.1770814628
 20
5.9772778159
 30
0.0
  0
SPLINE
  5
321
100
AcDbEntity
  8
0
100
AcDbSpline
 62
7
  6
CONTINUOUS
 70
0
 71
3
 72
10
 73
6
 74
0
 42
0.0000001
 43
0.0000001
 44
0.0000000001
 40
0.0
 40
0.0
 40
0.0
 40
0.0
 40
0.4887327763
 40
0.7417538751
 40
1.0
 40
1.0
 40
1.0
 40
1.0
 10
11.4675552138
 20
6.0958632282
 30
0.0
 10
11.4477321833
 20
6.0808542117
 30
0.0
 10
11.4159396941
 20
6.0602419162
 30
0.0
 10
11.3707812196
 20
6.0367750883
 30
0.0
 10
11.3469819226
 20
6.0262269737
 30
0.0
 10
11.3348183383
 20
6.0212612112
 30
0.0
  0
SPLINE
  5
322
100
AcDbEntity
  8
0
100
AcDbSpline
 62
7
  6
CONTINUOUS
 70
0
 71
3
 72
9
 73
5
 74
0
 42
0.0000001
 43
0.0000001
 44
0.0000000001
 40
0.0
 40
0.0
 40
0.0
 40
0.0
 40
0.5061417393
 40
1.0
 40
1.0
 40
1.0
 40
1.0
 10
11.4485079906
 20
6.7340814434
 30
0.0
 10
11.454186559
 20
6.7270809509
 30
0.0
 10
11.464831151
 20
6.7127716461
 30
0.0
 10
11.4741557716
 20
6.6975650984
 30
0.0
 10
11.4783929312
 20
6.6898577295
 30
0.0
  0
SPLINE
  5
323
100
AcDbEntity
  8
0
100
AcDbSpline
 62
7
  6
CONTINUOUS
 70
0
 71
3
 72
11
 73
7
 74
0
 42
0.0000001
 43
0.0000001
 44
0.0000000001
 40
0.0
 40
0.0
 40
0.0
 40
0.0
 40
0.255747633
 40
0.5071077575
 40
0.7548893171
 40
1.0
 40
1.0
 40
1.0
 40
1.0
 10
11.4783929312
 20
6.6898577295
 30
0.0
 10
11.4820433565
 20
6.6832176268
 30
0.0
 10
11.4887470088
 20
6.6697480835
 30
0.0
 10
11.4969717781
 20
6.6489195835
 30
0.0
 10
11.5032350495
 20
6.6277472317
 30
0.0
 10
11.5060953798
 20
6.6134018907
 30
0.0
 10
11.5071838664
 20
6.60622171
 30
0.0
  0
SPLINE
  5
324
100
AcDbEntity
  8
0
100
AcDbSpline
 62
7
  6
CONTINUOUS
 70
0
 71
3
 72
15
 73
11
 74
0
 42
0.0000001
 43
0.0000001
 44
0.0000000001
 40
0.0
 40
0.0
 40
0.0
 40
0.0
 40
0.1313599015
 40
0.2603246517
 40
0.3871344275
 40
0.5120720522
 40
0.6354592499
 40
0.7576514835
 40
0.8790312913
 40
1.0
 40
1.0
 40
1.0
 40
1.0
 10
11.4601667679
 20
6.7541356988
 30
0.0
 10
11.4641891505
 20
6.7485032029
 30
0.0
 10
11.4717836309
 20
6.7370652609
 30
0.0
 10
11.4818342226
 20
6.7192954754
 30
0.0
 10
11.490400589
 20
6.7011358483
 30
0.0
 10
11.4974516826
 20
6.6826494399
 30
0.0
 10
11.5029625072
 20
6.6638995985
 30
0.0
 10
11.5069131654
 20
6.644950633
 30
0.0
 10
11.5092893493
 20
6.6258699303
 30
0.0
 10
11.5098183135
 20
6.6130944036
 30
0.0
 10
11.5098183257
 20
6.6067205995
 30
0.0
  0
SPLINE
  5
325
100
AcDbEntity
  8
0
100
AcDbSpline
 62
7
  6
CONTINUOUS
 70
0
 71
3
 72
15
 73
11
 74
0
 42
0.0000001
 43
0.0000001
 44
0.0000000001
 40
0.0
 40
0.0
 40
0.0
 40
0.0
 40
0.1291869542
 40
0.2567684719
 40
0.3829284625
 40
0.5078692173
 40
0.6318093266
 40
0.7549811298
 40
0.8776277847
 40
1.0
 40
1.0
 40
1.0
 40
1.0
 10
11.4762810261
 20
6.6887449821
 30
0.0
 10
11.4787933968
 20
6.6841542756
 30
0.0
 10
11.483528837
 20
6.6748856314
 30
0.0
 10
11.4897667379
 20
6.6606735991
 30
0.0
 10
11.4950797376
 20
6.6462728694
 30
0.0
 10
11.4994561209
 20
6.6317142155
 30
0.0
 10
11.5028865479
 20
6.617028151
 30
0.0
 10
11.5053635644
 20
6.6022454304
 30
0.0
 10
11.5068817648
 20
6.5873980569
 30
0.0
 10
11.5072526356
 20
6.5774713642
 30
0.0
 10
11.5072774085
 20
6.5725142635
 30
0.0
  0
SPLINE
  5
326
100
AcDbEntity
  8
0
100
AcDbSpline
 62
7
  6
CONTINUOUS
 70
0
 71
3
 72
15
 73
11
 74
0
 42
0.0000001
 43
0.0000001
 44
0.0000000001
 40
0.0
 40
0.0
 40
0.0
 40
0.0
 40
0.1223812114
 40
0.2450281975
 40
0.3681948129
 40
0.492127367
 40
0.6170612124
 40
0.743217764
 40
0.8708019313
 40
1.0
 40
1.0
 40
1.0
 40
1.0
 10
10.587356864
 20
6.5718296944
 30
0.0
 10
10.5873669212
 20
6.5768151235
 30
0.0
 10
10.5877120771
 20
6.586799184
 30
0.0
 10
10.5892028819
 20
6.6017340708
 30
0.0
 10
10.5916637407
 20
6.6166046514
 30
0.0
 10
10.5950892595
 20
6.6313783438
 30
0.0
 10
10.599471876
 20
6.6460238509
 30
0.0
 10
10.6048020985
 20
6.6605101251
 30
0.0
 10
10.6110680131
 20
6.674805868
 30
0.0
 10
10.6158289227
 20
6.6841280264
 30
0.0
 10
10.618355643
 20
6.6887449841
 30
0.0
  0
SPLINE
  5
327
100
AcDbEntity
  8
0
100
AcDbSpline
 62
9
  6
CONTINUOUS
 70
0
 71
3
 72
30
 73
26
 74
0
 42
0.0000001
 43
0.0000001
 44
0.0000000001
 40
0.0
 40
0.0
 40
0.0
 40
0.0
 40
0.0656119891
 40
0.0990412157
 40
0.1328112846
 40
0.201131036
 40
0.2701122162
 40
0.3392536665
 40
0.4080483092
 40
0.4760019281
 40
0.5426521584
 40
0.6075879651
 40
0.6393138042
 40
0.670491
 40
0.7310719257
 40
0.760465869
 40
0.7892455757
 40
0.817415693
 40
0.8449904331
 40
0.8719939848
 40
0.8984607639
 40
0.9244354447
 40
0.9499727146
 40
0.9751366968
 40
1.0
 40
1.0
 40
1.0
 40
1.0
 10
11.2201279562
 20
6.4869480864
 30
0.0
 10
11.2078567523
 20
6.4819383884
 30
0.0
 10
11.1889438076
 20
6.4752905037
 30
0.0
 10
11.163072515
 20
6.4681613589
 30
0.0
 10
11.1363684094
 20
6.4620920012
 30
0.0
 10
11.102184346
 20
6.4567000016
 30
0.0
 10
11.0605321384
 20
6.4537869767
 30
0.0
 10
11.0186861175
 20
6.4544466998
 30
0.0
 10
10.9772570001
 20
6.4586699387
 30
0.0
 10
10.9368457711
 20
6.4663962421
 30
0.0
 10
10.8980423562
 20
6.4775138709
 30
0.0
 10
10.8672713448
 20
6.4895682224
 30
0.0
 10
10.8439969228
 20
6.5007833462
 30
0.0
 10
10.8221086629
 20
6.5127654148
 30
0.0
 10
10.8015940525
 20
6.5262239562
 30
0.0
 10
10.7827605421
 20
6.5411023221
 30
0.0
 10
10.7697452988
 20
6.5527320246
 30
0.0
 10
10.7577494913
 20
6.56489992
 30
0.0
 10
10.7468169192
 20
6.5775622649
 30
0.0
 10
10.7369884151
 20
6.5906728724
 30
0.0
 10
10.7283007012
 20
6.6041840248
 30
0.0
 10
10.720786546
 20
6.6180462287
 30
0.0
 10
10.7144744102
 20
6.6322090021
 30
0.0
 10
10.7093888087
 20
6.6466187404
 30
0.0
 10
10.7068157349
 20
6.6564060696
 30
0.0
 10
10.7057445284
 20
6.6613131981
 30
0.0
  0
SPLINE
  5
328
100
AcDbEntity
  8
0
100
AcDbSpline
 62
7
  6
CONTINUOUS
 70
0
 71
3
 72
36
 73
32
 74
0
 42
0.0000001
 43
0.0000001
 44
0.0000000001
 40
0.0
 40
0.0
 40
0.0
 40
0.0
 40
0.0667160108
 40
0.1007471597
 40
0.1351374893
 40
0.2047054189
 40
0.2397594664
 40
0.2748886095
 40
0.3450529239
 40
0.3799575978
 40
0.4146402168
 40
0.4490305639
 40
0.4830616585
 40
0.516670656
 40
0.5497996644
 40
0.5823966494
 40
0.6144163303
 40
0.6458210818
 40
0.6765818846
 40
0.7066792179
 40
0.7361040042
 40
0.7648584193
 40
0.7929566911
 40
0.8204256762
 40
0.8473052512
 40
0.8736483868
 40
0.8995207749
 40
0.925000024
 40
0.9501742224
 40
0.9751399992
 40
1.0
 40
1.0
 40
1.0
 40
1.0
 10
11.2735683383
 20
6.8599521582
 30
0.0
 10
11.2562182656
 20
6.8528690207
 30
0.0
 10
11.2294218158
 20
6.8435686811
 30
0.0
 10
11.1927265743
 20
6.833814151
 30
0.0
 10
11.1548132575
 20
6.8256907909
 30
0.0
 10
11.1160747397
 20
6.8202659291
 30
0.0
 10
11.0769027629
 20
6.8175408065
 30
0.0
 10
11.0374789841
 20
6.8166291352
 30
0.0
 10
10.9980724398
 20
6.8184476968
 30
0.0
 10
10.9590702503
 20
6.8229960102
 30
0.0
 10
10.9302401249
 20
6.827744098
 30
0.0
 10
10.9019105672
 20
6.833813973
 30
0.0
 10
10.8742013774
 20
6.8411799693
 30
0.0
 10
10.8472310833
 20
6.8498107658
 30
0.0
 10
10.8211146858
 20
6.8596697396
 30
0.0
 10
10.7959636426
 20
6.8707150793
 30
0.0
 10
10.77188528
 20
6.8828999859
 30
0.0
 10
10.7489823865
 20
6.8961728877
 30
0.0
 10
10.7273527947
 20
6.9104776614
 30
0.0
 10
10.7070889952
 20
6.9257538817
 30
0.0
 10
10.6882777928
 20
6.9419370677
 30
0.0
 10
10.6709999764
 20
6.9589589382
 30
0.0
 10
10.6553300366
 20
6.976747658
 30
0.0
 10
10.6413358871
 20
6.9952280724
 30
0.0
 10
10.6290786028
 20
7.0143219321
 30
0.0
 10
10.6186121508
 20
7.0339480792
 30
0.0
 10
10.6099830981
 20
7.0540227403
 30
0.0
 10
10.6032302832
 20
7.0744594655
 30
0.0
 10
10.5983844627
 20
7.0951704755
 30
0.0
 10
10.5954679325
 20
7.1160632084
 30
0.0
 10
10.594818364
 20
7.1300676256
 30
0.0
 10
10.5948183506
 20
7.1370506854
 30
0.0
  0
SPLINE
  5
329
100
AcDbEntity
  8
0
100
AcDbSpline
 62
9
  6
CONTINUOUS
 70
0
 71
3
 72
31
 73
27
 74
0
 42
0.0000001
 43
0.0000001
 44
0.0000000001
 40
0.0
 40
0.0
 40
0.0
 40
0.0
 40
0.0251788572
 40
0.0504383375
 40
0.0758572684
 40
0.1015109823
 40
0.1274697981
 40
0.153797745
 40
0.1805515643
 40
0.2077799979
 40
0.2355233496
 40
0.2638132904
 40
0.2926728694
 40
0.3221166902
 40
0.3827520031
 40
0.4139567682
 40
0.4457269839
 40
0.4780409933
 40
0.5108713911
 40
0.5779290568
 40
0.6466040964
 40
0.7165233073
 40
0.7872707047
 40
0.858402847
 40
0.9294637778
 40
1.0
 40
1.0
 40
1.0
 40
1.0
 10
10.5948183453
 20
6.909271898
 30
0.0
 10
10.5948183304
 20
6.9032196709
 30
0.0
 10
10.5953057435
 20
6.8910902385
 30
0.0
 10
10.5974953068
 20
6.8729698927
 30
0.0
 10
10.6011362628
 20
6.8549672575
 30
0.0
 10
10.6062161911
 20
6.8371426207
 30
0.0
 10
10.6127179015
 20
6.8195535011
 30
0.0
 10
10.6206195498
 20
6.8022569314
 30
0.0
 10
10.6298948016
 20
6.7853086061
 30
0.0
 10
10.6405129602
 20
6.7687629378
 30
0.0
 10
10.6524391851
 20
6.7526728152
 30
0.0
 10
10.6656343345
 20
6.737089743
 30
0.0
 10
10.6800562223
 20
6.7220627808
 30
0.0
 10
10.7010590688
 20
6.7026466031
 30
0.0
 10
10.7241596525
 20
6.6847463153
 30
0.0
 10
10.7490144813
 20
6.66844974
 30
0.0
 10
10.7687956715
 20
6.656882296
 30
0.0
 10
10.7894701345
 20
6.6461273146
 30
0.0
 10
10.8183396435
 20
6.6328233813
 30
0.0
 10
10.8562909801
 20
6.6184609181
 30
0.0
 10
10.903936888
 20
6.6050722407
 30
0.0
 10
10.9534106745
 20
6.5955726582
 30
0.0
 10
11.0040793817
 20
6.5900827447
 30
0.0
 10
11.0552998771
 20
6.5886715523
 30
0.0
 10
11.1064150832
 20
6.5913561553
 30
0.0
 10
11.1401936691
 20
6.5958819103
 30
0.0
 10
11.1568904109
 20
6.5988284967
 30
0.0
  0
SPLINE
  5
32A
100
AcDbEntity
  8
0
100
AcDbSpline
 62
7
  6
CONTINUOUS
 70
0
 71
3
 72
21
 73
17
 74
0
 42
0.0000001
 43
0.0000001
 44
0.0000000001
 40
0.0
 40
0.0
 40
0.0
 40
0.0
 40
0.1434924464
 40
0.2132583893
 40
0.2815936412
 40
0.4137535633
 40
0.4776316556
 40
0.5400521208
 40
0.601074624
 40
0.6607877567
 40
0.7193091835
 40
0.7767848394
 40
0.8333871352
 40
0.8893117554
 40
0.9447733681
 40
1.0
 40
1.0
 40
1.0
 40
1.0
 10
11.2735683383
 20
6.8599521582
 30
0.0
 10
11.290366156
 20
6.8668098386
 30
0.0
 10
11.3148340564
 20
6.8783113426
 30
0.0
 10
11.3456545351
 20
6.8961732319
 30
0.0
 10
11.374170306
 20
6.9150314423
 30
0.0
 10
11.4003406679
 20
6.936007684
 30
0.0
 10
11.4236361772
 20
6.9589584992
 30
0.0
 10
11.4393067611
 20
6.9767477783
 30
0.0
 10
11.4533007482
 20
6.9952280451
 30
0.0
 10
11.4655580828
 20
7.0143219398
 30
0.0
 10
11.4760245304
 20
7.0339480754
 30
0.0
 10
11.484653592
 20
7.054022738
 30
0.0
 10
11.491406406
 20
7.0744594628
 30
0.0
 10
11.4962522278
 20
7.0951704739
 30
0.0
 10
11.499168739
 20
7.1160632076
 30
0.0
 10
11.4998183394
 20
7.1300676253
 30
0.0
 10
11.499818326
 20
7.1370506854
 30
0.0
  0
SPLINE
  5
32B
100
AcDbEntity
  8
0
100
AcDbSpline
 62
9
  6
CONTINUOUS
 70
0
 71
3
 72
20
 73
16
 74
0
 42
0.0000001
 43
0.0000001
 44
0.0000000001
 40
0.0
 40
0.0
 40
0.0
 40
0.0
 40
0.1384064972
 40
0.2722306318
 40
0.4016121431
 40
0.4647563538
 40
0.5269278706
 40
0.5881972995
 40
0.6486468661
 40
0.7083698866
 40
0.76746994
 40
0.8260597275
 40
0.8842596637
 40
0.9421962112
 40
1.0
 40
1.0
 40
1.0
 40
1.0
 10
11.3727462656
 20
6.6869512803
 30
0.0
 10
11.3826422755
 20
6.6941940589
 30
0.0
 10
11.4014797902
 20
6.709327114
 30
0.0
 10
11.4269543276
 20
6.7342527588
 30
0.0
 10
11.4454367346
 20
6.7565726342
 30
0.0
 10
11.4583152848
 20
6.7751168236
 30
0.0
 10
11.4669509879
 20
6.7892256959
 30
0.0
 10
11.4746192863
 20
6.8036128802
 30
0.0
 10
11.4813024957
 20
6.8182456748
 30
0.0
 10
11.4869847028
 20
6.8330902174
 30
0.0
 10
11.4916524523
 20
6.8481122113
 30
0.0
 10
11.495294607
 20
6.8632767403
 30
0.0
 10
11.4979024346
 20
6.8785487987
 30
0.0
 10
11.4994696653
 20
6.8938918664
 30
0.0
 10
11.4998183187
 20
6.9041502745
 30
0.0
 10
11.4998183313
 20
6.909271898
 30
0.0
  0
SPLINE
  5
32C
100
AcDbEntity
  8
0
100
AcDbSpline
 62
7
  6
CONTINUOUS
 70
0
 71
3
 72
31
 73
27
 74
0
 42
0.0000001
 43
0.0000001
 44
0.0000000001
 40
0.0
 40
0.0
 40
0.0
 40
0.0
 40
0.0756265781
 40
0.1500605034
 40
0.2231758642
 40
0.2948431627
 40
0.3649044826
 40
0.4331767378
 40
0.4994487111
 40
0.5634824877
 40
0.5945871659
 40
0.6250391966
 40
0.6548074255
 40
0.6838690865
 40
0.7122063397
 40
0.7398169949
 40
0.7667181093
 40
0.792955236
 40
0.8186146208
 40
0.8438323318
 40
0.8688029454
 40
0.8937813418
 40
0.9190720117
 40
0.9450028804
 40
0.9718909443
 40
1.0
 40
1.0
 40
1.0
 40
1.0
 10
11.2648183383
 20
6.5868820766
 30
0.0
 10
11.2619113576
 20
6.5856953066
 30
0.0
 10
11.2561016811
 20
6.5834406649
 30
0.0
 10
11.2473452709
 20
6.5804041296
 30
0.0
 10
11.2386355251
 20
6.5777541825
 30
0.0
 10
11.2299990977
 20
6.5755119516
 30
0.0
 10
11.2214662002
 20
6.5737046676
 30
0.0
 10
11.213073083
 20
6.572366709
 30
0.0
 10
11.2048648992
 20
6.5715407881
 30
0.0
 10
11.1981601408
 20
6.5713201011
 30
0.0
 10
11.1929464831
 20
6.5714675471
 30
0.0
 10
11.1891634841
 20
6.5717441391
 30
0.0
 10
11.1854828222
 20
6.5721979456
 30
0.0
 10
11.1819189769
 20
6.5728394413
 30
0.0
 10
11.1784885261
 20
6.573680412
 30
0.0
 10
11.1752103647
 20
6.5747328219
 30
0.0
 10
11.1721060443
 20
6.576009403
 30
0.0
 10
11.1692000156
 20
6.5775228945
 30
0.0
 10
11.1665198562
 20
6.5792855441
 30
0.0
 10
11.1640964671
 20
6.5813082416
 30
0.0
 10
11.1619637156
 20
6.5835987433
 30
0.0
 10
11.1601572889
 20
6.5861596667
 30
0.0
 10
11.1587124281
 20
6.5889863001
 30
0.0
 10
11.157660248
 20
6.5920654932
 30
0.0
 10
11.1570244651
 20
6.5953749353
 30
0.0
 10
11.1568904109
 20
6.5976614523
 30
0.0
 10
11.1568904109
 20
6.5988284967
 30
0.0
  0
SPLINE
  5
32D
100
AcDbEntity
  8
0
100
AcDbSpline
 62
7
  6
CONTINUOUS
 70
0
 71
3
 72
28
 73
24
 74
0
 42
0.0000001
 43
0.0000001
 44
0.0000000001
 40
0.0
 40
0.0
 40
0.0
 40
0.0
 40
0.0239815726
 40
0.0491796955
 40
0.0755935063
 40
0.1031646086
 40
0.1317918804
 40
0.1613515664
 40
0.1917114206
 40
0.2227413036
 40
0.2543203553
 40
0.2863406576
 40
0.3513259137
 40
0.4170994588
 40
0.4832205342
 40
0.5493752454
 40
0.615338832
 40
0.6809468838
 40
0.7460750602
 40
0.8106246482
 40
0.874511343
 40
0.9376635194
 40
1.0
 40
1.0
 40
1.0
 40
1.0
 10
11.3727462656
 20
6.6869512803
 30
0.0
 10
11.3727462656
 20
6.6857258545
 30
0.0
 10
11.3725915358
 20
6.683211068
 30
0.0
 10
11.3719401376
 20
6.6793974141
 30
0.0
 10
11.3708808828
 20
6.6754866636
 30
0.0
 10
11.3694380164
 20
6.6715149481
 30
0.0
 10
11.3676406805
 20
6.667514539
 30
0.0
 10
11.3655208343
 20
6.6635140568
 30
0.0
 10
11.3631111006
 20
6.6595375509
 30
0.0
 10
11.3604433028
 20
6.6556045673
 30
0.0
 10
11.3575473975
 20
6.6517302745
 30
0.0
 10
11.3533982125
 20
6.6466336343
 30
0.0
 10
11.3477863652
 20
6.6404842099
 30
0.0
 10
11.3405471375
 20
6.6334905548
 30
0.0
 10
11.332893559
 20
6.6268626928
 30
0.0
 10
11.3249229325
 20
6.6206055519
 30
0.0
 10
11.3167095318
 20
6.6147165185
 30
0.0
 10
11.3083111039
 20
6.6091901123
 30
0.0
 10
11.2997731973
 20
6.60402041
 30
0.0
 10
11.2911326793
 20
6.5992026126
 30
0.0
 10
11.2824199565
 20
6.5947339233
 30
0.0
 10
11.2736616777
 20
6.5906146825
 30
0.0
 10
11.2677673619
 20
6.5880860104
 30
0.0
 10
11.2648183383
 20
6.5868820766
 30
0.0
  0
SPLINE
  5
32E
100
AcDbEntity
  8
0
100
AcDbSpline
 62
7
  6
CONTINUOUS
 70
0
 71
3
 72
35
 73
31
 74
0
 42
0.0000001
 43
0.0000001
 44
0.0000000001
 40
0.0
 40
0.0
 40
0.0
 40
0.0
 40
0.0355842202
 40
0.0707120246
 40
0.1395062208
 40
0.1731361355
 40
0.2062300095
 40
0.238775526
 40
0.2707659584
 40
0.3022018269
 40
0.3330926321
 40
0.3933104293
 40
0.4227374673
 40
0.4517779213
 40
0.4805052475
 40
0.5090049328
 40
0.5373718493
 40
0.5657065979
 40
0.5941111982
 40
0.6226846129
 40
0.6515186233
 40
0.6806945018
 40
0.7102807835
 40
0.7403321837
 40
0.8019627246
 40
0.8336035429
 40
0.8658000329
 40
0.898549919
 40
0.9318442014
 40
1.0
 40
1.0
 40
1.0
 40
1.0
 10
10.2892574348
 20
10.1662983643
 30
0.0
 10
10.2926468708
 20
10.1629186921
 30
0.0
 10
10.2994511116
 20
10.1562710649
 30
0.0
 10
10.3131606248
 20
10.1434565262
 30
0.0
 10
10.3271288045
 20
10.131306812
 30
0.0
 10
10.3413972212
 20
10.1199583277
 30
0.0
 10
10.3521097109
 20
10.1119827672
 30
0.0
 10
10.3629139029
 20
10.1045124675
 30
0.0
 10
10.3738088274
 20
10.0975816119
 30
0.0
 10
10.3847933903
 20
10.0912248026
 30
0.0
 10
10.3994260177
 20
10.083627563
 30
0.0
 10
10.4143624489
 20
10.0772249528
 30
0.0
 10
10.4295343725
 20
10.0722315241
 30
0.0
 10
10.4408862581
 20
10.0692507715
 30
0.0
 10
10.4522843176
 20
10.0670306346
 30
0.0
 10
10.4637161033
 20
10.065589562
 30
0.0
 10
10.4751674329
 20
10.0649401189
 30
0.0
 10
10.4866234989
 20
10.0650880087
 30
0.0
 10
10.4980692796
 20
10.0660319071
 30
0.0
 10
10.5094901624
 20
10.0677635045
 30
0.0
 10
10.5208725021
 20
10.0702679673
 30
0.0
 10
10.5322038995
 20
10.0735246252
 30
0.0
 10
10.5434740044
 20
10.0775080644
 30
0.0
 10
10.558530721
 20
10.0838008426
 30
0.0
 10
10.5733120417
 20
10.0913978233
 30
0.0
 10
10.5877846689
 20
10.1000851294
 30
0.0
 10
10.5986465716
 20
10.1072201869
 30
0.0
 10
10.6094167924
 20
10.1148816747
 30
0.0
 10
10.6237655531
 20
10.1258388344
 30
0.0
 10
10.634221499
 20
10.1346227466
 30
0.0
 10
10.6410900658
 20
10.1406948335
 30
0.0
  0
SPLINE
  5
32F
100
AcDbEntity
  8
0
100
AcDbSpline
 62
7
  6
CONTINUOUS
 70
0
 71
3
 72
35
 73
31
 74
0
 42
0.0000001
 43
0.0000001
 44
0.0000000001
 40
0.0
 40
0.0
 40
0.0
 40
0.0
 40
0.0681557986
 40
0.101450081
 40
0.1341999671
 40
0.1663964571
 40
0.1980372753
 40
0.2596678163
 40
0.2897192165
 40
0.3193054981
 40
0.3484813766
 40
0.377315387
 40
0.4058888017
 40
0.4342934021
 40
0.4626281506
 40
0.4909950672
 40
0.5194947524
 40
0.5482220786
 40
0.5772625326
 40
0.6066895706
 40
0.6669073678
 40
0.6977981729
 40
0.7292340414
 40
0.7612244738
 40
0.7937699903
 40
0.8268638643
 40
0.8604937791
 40
0.9292879752
 40
0.9644157796
 40
1.0
 40
1.0
 40
1.0
 40
1.0
 10
11.4535466109
 20
10.1406948334
 30
0.0
 10
11.4604151777
 20
10.1346227466
 30
0.0
 10
11.4708711236
 20
10.1258388344
 30
0.0
 10
11.4852198842
 20
10.1148816747
 30
0.0
 10
11.495990105
 20
10.1072201869
 30
0.0
 10
11.5068520078
 20
10.1000851293
 30
0.0
 10
11.521324635
 20
10.0913978233
 30
0.0
 10
11.5361059556
 20
10.0838008425
 30
0.0
 10
11.5511626723
 20
10.0775080644
 30
0.0
 10
11.5624327772
 20
10.0735246252
 30
0.0
 10
11.5737641746
 20
10.0702679672
 30
0.0
 10
11.5851465142
 20
10.0677635045
 30
0.0
 10
11.5965673971
 20
10.0660319071
 30
0.0
 10
11.6080131777
 20
10.0650880087
 30
0.0
 10
11.6194692438
 20
10.0649401189
 30
0.0
 10
11.6309205734
 20
10.065589562
 30
0.0
 10
11.642352359
 20
10.0670306346
 30
0.0
 10
11.6537504185
 20
10.0692507715
 30
0.0
 10
11.6651023041
 20
10.0722315241
 30
0.0
 10
11.6802742277
 20
10.0772249528
 30
0.0
 10
11.695210659
 20
10.083627563
 30
0.0
 10
11.7098432863
 20
10.0912248026
 30
0.0
 10
11.7208278492
 20
10.097581612
 30
0.0
 10
11.7317227737
 20
10.1045124675
 30
0.0
 10
11.7425269657
 20
10.1119827672
 30
0.0
 10
11.7532394554
 20
10.1199583277
 30
0.0
 10
11.7675078721
 20
10.131306812
 30
0.0
 10
11.7814760518
 20
10.1434565262
 30
0.0
 10
11.795185565
 20
10.1562710651
 30
0.0
 10
11.8019898058
 20
10.1629186923
 30
0.0
 10
11.8053792417
 20
10.1662983646
 30
0.0
  0
ELLIPSE
  5
330
100
AcDbEntity
  8
0
100
AcDbEllipse
 62
7
  6
CONTINUOUS
 10
11.0473183383
 20
6.7410708879
 30
0.0
 11
0.4522967215
 21
0.1611958191
 31
0.0
 40
0.084133201
 41
4.9269927592
 42
5.4850315861
  0
ENDSEC
  0
SECTION
  2
OBJECTS
  0
DICTIONARY
  5
C
100
AcDbDictionary
280
0
281
1
  3
ACAD_GROUP
350
D
  3
ACAD_MLINESTYLE
350
17
  3
ACAD_LAYOUT
350
1A
  3
ACAD_PLOTSETTINGS
350
19
  3
ACAD_PLOTSTYLENAME
350
E
  0
DICTIONARY
  5
D
102
{ACAD_REACTORS
330
C
102
}
100
AcDbDictionary
280
0
281
1
  0
ACDBDICTIONARYWDFLT
  5
E
102
{ACAD_REACTORS
330
C
102
}
100
AcDbDictionary
281
1
  3
Normal
350
F
100
AcDbDictionaryWithDefault
340
F
  0
DICTIONARY
  5
17
102
{ACAD_REACTORS
330
C
102
}
100
AcDbDictionary
280
0
281
1
  3
Standard
350
18
  0
DICTIONARY
  5
19
102
{ACAD_REACTORS
330
C
102
}
100
AcDbDictionary
281
1
  0
DICTIONARY
  5
1A
102
{ACAD_REACTORS
330
C
102
}
100
AcDbDictionary
281
1
  3
Model
350
331
  3
Layout1
350
332
  0
ACDBPLACEHOLDER
  5
F
102
{ACAD_REACTORS
330
E
102
}
  0
MLINESTYLE
  5
18
102
{ACAD_REACTORS
330
17
102
}
100
AcDbMlineStyle
  2
STANDARD
 70
0
  3

 62
256
 51
90.0
 52
90.0
 71
2
 49
0.5
 62
256
  6
BYLAYER
 49
-0.5
 62
256
  6
BYLAYER
  0
LAYOUT
  5
331
102
{ACAD_REACTORS
330
1A
102
}
100
AcDbPlotSettings
  1

  2
none_device
  4
ANSI_C_(22.00_x_17.00_Inches)
  6

 40
0.0
 41
0.0
 42
0.0
 43
0.0
 44
558.8
 45
431.8
 46
0.0
 47
0.0
 48
0.0
 49
0.0
140
0.0
141
0.0
142
1.0
143
1.0
 70
1024
 72
0
 73
0
 74
0
  7

 75
0
147
1.0
148
0.0
149
0.0
100
AcDbLayout
  1
Model
 70
0
 71
0
 10
0.0
 20
0.0
 11
22.0
 21
17.0
 12
0.0
 22
0.0
 32
0.0
 14
0.0
 24
0.0
 34
0.0
 15
0.0
 25
0.0
 35
0.0
146
0.0
 13
0.0
 23
0.0
 33
0.0
 16
1.0
 26
0.0
 36
0.0
 17
0.0
 27
1.0
 37
0.0
 76
0
330
205
345
0
346
0
  0
LAYOUT
  5
332
102
{ACAD_REACTORS
330
1A
102
}
100
AcDbPlotSettings
  1

  2
none_device
  4
ANSI_C_(22.00_x_17.00_Inches)
  6

 40
0.0
 41
0.0
 42
0.0
 43
0.0
 44
558.8
 45
431.8
 46
0.0
 47
0.0
 48
0.0
 49
0.0
140
0.0
141
0.0
142
1.0
143
1.0
 70
0
 72
0
 73
0
 74
0
  7

 75
0
147
1.0
148
0.0
149
0.0
100
AcDbLayout
  1
Layout1
 70
0
 71
1
 10
0.0
 20
0.0
 11
22.0
 21
17.0
 12
0.0
 22
0.0
 32
0.0
 14
0.0
 24
0.0
 34
0.0
 15
0.0
 25
0.0
 35
0.0
146
0.0
 13
0.0
 23
0.0
 33
0.0
 16
1.0
 26
0.0
 36
0.0
 17
0.0
 27
1.0
 37
0.0
 76
0
330
206
345
0
346
0
  0
ENDSEC
  0
EOF
