999
DXF file: 3-1034tr_TOP.dxf
999
Pro/ENGINEER 2018400 by Parametric Technology Corporation
  0
SECTION
  2
HEADER
  9
$ACADVER
  1
AC1027
  9
$DWGCODEPAGE
  3
ANSI_1252
  9
$EXTMAX
 10
11.0
 20
8.5
 30
0.0
  9
$EXTMIN
 10
0.0
 20
0.0
 30
0.0
  9
$LIMMIN
 10
0.0
 20
0.0
  9
$LIMMAX
 10
11.0
 20
8.5
  9
$VIEWCTR
 10
5.5
 20
4.25
  9
$VIEWSIZE
 40
8.5
  9
$CLAYER
  8
0
  9
$LTSCALE
 40
0.605
  9
$CELTYPE
  6
BYLAYER
  9
$DIMSCALE
 40
1.0
  9
$DIMASZ
 40
0.1
  9
$DIMEXO
 40
0.0625
  9
$DIMDLI
 40
0.418
  9
$DIMEXE
 40
0.125
  9
$DIMCEN
 40
0.099
  9
$DIMLFAC
 40
1.0
  9
$DIMBLK
  1
_FILLED
  9
$DIMALT
 70
1
  9
$DIMALTD
 70
2
  9
$DIMALTTD
 70
2
  9
$DIMALTF
 40
25.4
  9
$DIMTXT
 40
0.08
  9
$DIMTOL
 70
1
  9
$DIMLIM
 70
0
  9
$DIMTFAC
 40
1.0
  9
$DIMTP
 40
0.001
  9
$DIMTM
 40
0.001
  9
$DIMGAP
 40
0.09
  9
$DIMDSEP
 70
46
  9
$AUNITS
 70
0
  9
$PDMODE
 70
3
  9
$PDSIZE
 40
0.3125
  9
$HANDSEED
  5
480
  9
$TILEMODE
 70
1
  9
$MEASUREMENT
 70
0
  9
$INSUNITS
 70
1
  0
ENDSEC
  0
SECTION
  2
CLASSES
  0
CLASS
  1
ACDBDICTIONARYWDFLT
  2
AcDbDictionaryWithDefault
  3
AutoCAD 2000
 90
0
 91
1
280
0
281
0
  0
CLASS
  1
ACDBPLACEHOLDER
  2
AcDbPlaceHolder
  3
AutoCAD 2000
 90
0
 91
1
280
0
281
0
  0
CLASS
  1
LAYOUT
  2
AcDbLayout
  3
AutoCAD 2000
 90
0
 91
0
280
0
281
0
  0
ENDSEC
  0
SECTION
  2
TABLES
  0
TABLE
  2
VPORT
  5
8
100
AcDbSymbolTable
 70
2
  0
VPORT
  5
1F4
100
AcDbSymbolTableRecord
100
AcDbViewportTableRecord
  2
*ACTIVE
 70
0
 10
0.0
 20
0.0
 11
1.0
 21
1.0
 12
5.5
 22
4.25
 13
0.0
 23
0.0
 14
1.0
 24
1.0
 15
0.0
 25
0.0
 16
0.0
 26
0.0
 36
1.0
 17
0.0
 27
0.0
 37
0.0
 40
8.5
 41
1.2941176471
 42
50.0
 43
0.0
 44
0.0
 50
0.0
 51
0.0
 71
0
 72
100
 73
1
 74
1
 75
0
 76
0
 77
0
 78
0
  0
ENDTAB
  0
TABLE
  2
LTYPE
  5
5
100
AcDbSymbolTable
 70
6
  0
LTYPE
  5
14
100
AcDbSymbolTableRecord
100
AcDbLinetypeTableRecord
  2
BYBLOCK
 70
0
  3

 72
65
 73
0
 40
0.0
  0
LTYPE
  5
15
100
AcDbSymbolTableRecord
100
AcDbLinetypeTableRecord
  2
BYLAYER
 70
0
  3

 72
65
 73
0
 40
0.0
  0
LTYPE
  5
16
100
AcDbSymbolTableRecord
100
AcDbLinetypeTableRecord
  2
CONTINUOUS
 70
64
  3
Solid line
 72
65
 73
0
 40
0.0
  0
LTYPE
  5
1F5
100
AcDbSymbolTableRecord
100
AcDbLinetypeTableRecord
  2
CENTER
 70
64
  3
____ _ ____ _ ____ _ ____ _ ____ _ ____ _ ____
 72
65
 73
4
 40
0.6
 49
0.375
 74
0
 49
-0.075
 74
0
 49
0.075
 74
0
 49
-0.075
 74
0
  0
LTYPE
  5
1F6
100
AcDbSymbolTableRecord
100
AcDbLinetypeTableRecord
  2
HIDDEN
 70
64
  3
- - - - - - - - - - - - - - - - - - - -
 72
65
 73
2
 40
0.2
 49
0.1
 74
0
 49
-0.1
 74
0
  0
LTYPE
  5
1F7
100
AcDbSymbolTableRecord
100
AcDbLinetypeTableRecord
  2
PHANTOM
 70
64
  3
_____ _ _ _____ _ _ _____ _ _ _____
 72
65
 73
6
 40
0.8
 49
0.45
 74
0
 49
-0.05
 74
0
 49
0.1
 74
0
 49
-0.05
 74
0
 49
0.1
 74
0
 49
-0.05
 74
0
  0
LTYPE
  5
1F8
100
AcDbSymbolTableRecord
100
AcDbLinetypeTableRecord
  2
DOT
 70
64
  3
. . . . . . . . . . . . . . . . . . . .
 72
65
 73
2
 40
0.2
 49
0.1
 74
0
 49
-0.1
 74
0
  0
LTYPE
  5
1F9
100
AcDbSymbolTableRecord
100
AcDbLinetypeTableRecord
  2
DASHED
 70
64
  3
- - - - - - - - - - - - - - - - - - - -
 72
65
 73
2
 40
0.2
 49
0.1
 74
0
 49
-0.1
 74
0
  0
ENDTAB
  0
TABLE
  2
LAYER
  5
2
100
AcDbSymbolTable
 70
36
  0
LAYER
  5
10
100
AcDbSymbolTableRecord
100
AcDbLayerTableRecord
  2
0
 70
0
 62
7
  6
CONTINUOUS
370
-3
390
F
  0
LAYER
  5
1FA
100
AcDbSymbolTableRecord
100
AcDbLayerTableRecord
  2
DEFAULT_1
 70
0
 62
7
  6
CENTER
370
-3
390
F
  0
LAYER
  5
1FB
100
AcDbSymbolTableRecord
100
AcDbLayerTableRecord
  2
DEFAULT_2
 70
0
 62
8
  6
HIDDEN
370
-3
390
F
  0
LAYER
  5
1FC
100
AcDbSymbolTableRecord
100
AcDbLayerTableRecord
  2
DEFAULT_3
 70
0
 62
7
  6
PHANTOM
370
-3
390
F
  0
LAYER
  5
1FD
100
AcDbSymbolTableRecord
100
AcDbLayerTableRecord
  2
1_PLATE
 70
0
 62
7
  6
CONTINUOUS
370
-3
390
F
  0
LAYER
  5
1FE
100
AcDbSymbolTableRecord
100
AcDbLayerTableRecord
  2
2-265_ASSY_PLANES
 70
0
 62
7
  6
CONTINUOUS
370
-3
390
F
  0
LAYER
  5
1FF
100
AcDbSymbolTableRecord
100
AcDbLayerTableRecord
  2
ALL_ASSEMBLY_MEMBERS
 70
0
 62
7
  6
CONTINUOUS
370
-3
390
F
  0
LAYER
  5
200
100
AcDbSymbolTableRecord
100
AcDbLayerTableRecord
  2
ALL_FEATURES
 70
0
 62
7
  6
CONTINUOUS
370
-3
390
F
  0
LAYER
  5
201
100
AcDbSymbolTableRecord
100
AcDbLayerTableRecord
  2
AXES_FEATURES
 70
0
 62
7
  6
CONTINUOUS
370
-3
390
F
  0
LAYER
  5
202
100
AcDbSymbolTableRecord
100
AcDbLayerTableRecord
  2
CHAMFER_FEATURES
 70
0
 62
7
  6
CONTINUOUS
370
-3
390
F
  0
LAYER
  5
203
100
AcDbSymbolTableRecord
100
AcDbLayerTableRecord
  2
CUT_FEATURES
 70
0
 62
7
  6
CONTINUOUS
370
-3
390
F
  0
LAYER
  5
204
100
AcDbSymbolTableRecord
100
AcDbLayerTableRecord
  2
DATUM_CURVES
 70
0
 62
7
  6
CONTINUOUS
370
-3
390
F
  0
LAYER
  5
205
100
AcDbSymbolTableRecord
100
AcDbLayerTableRecord
  2
DATUM_PLANES
 70
0
 62
7
  6
CONTINUOUS
370
-3
390
F
  0
LAYER
  5
206
100
AcDbSymbolTableRecord
100
AcDbLayerTableRecord
  2
DATUM_POINTS
 70
0
 62
7
  6
CONTINUOUS
370
-3
390
F
  0
LAYER
  5
207
100
AcDbSymbolTableRecord
100
AcDbLayerTableRecord
  2
DEFAULT_COORDINATE_SYSTEM
 70
0
 62
7
  6
CONTINUOUS
370
-3
390
F
  0
LAYER
  5
208
100
AcDbSymbolTableRecord
100
AcDbLayerTableRecord
  2
DEFAULT_DATUM_AXES
 70
0
 62
7
  6
CONTINUOUS
370
-3
390
F
  0
LAYER
  5
209
100
AcDbSymbolTableRecord
100
AcDbLayerTableRecord
  2
DEFAULT_DATUM_CURVES
 70
0
 62
7
  6
CONTINUOUS
370
-3
390
F
  0
LAYER
  5
20A
100
AcDbSymbolTableRecord
100
AcDbLayerTableRecord
  2
DEFAULT_DATUM_PLANES
 70
0
 62
7
  6
CONTINUOUS
370
-3
390
F
  0
LAYER
  5
20B
100
AcDbSymbolTableRecord
100
AcDbLayerTableRecord
  2
DEFAULT_SURFACES
 70
0
 62
7
  6
CONTINUOUS
370
-3
390
F
  0
LAYER
  5
20C
100
AcDbSymbolTableRecord
100
AcDbLayerTableRecord
  2
DIMENSIONS
 70
0
 62
7
  6
CONTINUOUS
370
-3
390
F
  0
LAYER
  5
20D
100
AcDbSymbolTableRecord
100
AcDbLayerTableRecord
  2
HOLE_FEATURES
 70
0
 62
7
  6
CONTINUOUS
370
-3
390
F
  0
LAYER
  5
20E
100
AcDbSymbolTableRecord
100
AcDbLayerTableRecord
  2
NOTES
 70
0
 62
7
  6
CONTINUOUS
370
-3
390
F
  0
LAYER
  5
20F
100
AcDbSymbolTableRecord
100
AcDbLayerTableRecord
  2
PART_REFERENCE_DIMENSIONS
 70
0
 62
7
  6
CONTINUOUS
370
-3
390
F
  0
LAYER
  5
210
100
AcDbSymbolTableRecord
100
AcDbLayerTableRecord
  2
PLATED_AREA
 70
0
 62
7
  6
CONTINUOUS
370
-3
390
F
  0
LAYER
  5
211
100
AcDbSymbolTableRecord
100
AcDbLayerTableRecord
  2
PLATED_SURFACE_AREA
 70
0
 62
7
  6
CONTINUOUS
370
-3
390
F
  0
LAYER
  5
212
100
AcDbSymbolTableRecord
100
AcDbLayerTableRecord
  2
POINTS
 70
0
 62
7
  6
CONTINUOUS
370
-3
390
F
  0
LAYER
  5
213
100
AcDbSymbolTableRecord
100
AcDbLayerTableRecord
  2
PROTRUSION
 70
0
 62
7
  6
CONTINUOUS
370
-3
390
F
  0
LAYER
  5
214
100
AcDbSymbolTableRecord
100
AcDbLayerTableRecord
  2
PROTRUSION_FEATURES
 70
0
 62
7
  6
CONTINUOUS
370
-3
390
F
  0
LAYER
  5
215
100
AcDbSymbolTableRecord
100
AcDbLayerTableRecord
  2
QUILT
 70
0
 62
7
  6
CONTINUOUS
370
-3
390
F
  0
LAYER
  5
216
100
AcDbSymbolTableRecord
100
AcDbLayerTableRecord
  2
QUILTS
 70
0
 62
7
  6
CONTINUOUS
370
-3
390
F
  0
LAYER
  5
217
100
AcDbSymbolTableRecord
100
AcDbLayerTableRecord
  2
REFERENCE_DIMENSIONS
 70
0
 62
7
  6
CONTINUOUS
370
-3
390
F
  0
LAYER
  5
218
100
AcDbSymbolTableRecord
100
AcDbLayerTableRecord
  2
ROUND_FEATURES
 70
0
 62
7
  6
CONTINUOUS
370
-3
390
F
  0
LAYER
  5
219
100
AcDbSymbolTableRecord
100
AcDbLayerTableRecord
  2
SHELL_FEATURES
 70
0
 62
7
  6
CONTINUOUS
370
-3
390
F
  0
LAYER
  5
21A
100
AcDbSymbolTableRecord
100
AcDbLayerTableRecord
  2
SIZE_REF
 70
0
 62
7
  6
CONTINUOUS
370
-3
390
F
  0
LAYER
  5
21B
100
AcDbSymbolTableRecord
100
AcDbLayerTableRecord
  2
XSEC_DATUMS
 70
0
 62
7
  6
CONTINUOUS
370
-3
390
F
  0
ENDTAB
  0
TABLE
  2
STYLE
  5
3
100
AcDbSymbolTable
 70
1
  0
STYLE
  5
11
100
AcDbSymbolTableRecord
100
AcDbTextStyleTableRecord
  2
STANDARD
 70
0
 40
0.0
 41
0.8
 50
0.0
 71
0
 42
0.2
  3
txt
  4

  0
STYLE
  5
21C
100
AcDbSymbolTableRecord
100
AcDbTextStyleTableRecord
  2
TEXTSTYLE_1
 70
0
 40
0.0
 41
0.8
 50
0.0
 71
0
 42
0.2
  3
gdt
  4

  0
ENDTAB
  0
TABLE
  2
VIEW
  5
6
100
AcDbSymbolTable
 70
0
  0
ENDTAB
  0
TABLE
  2
UCS
  5
7
100
AcDbSymbolTable
 70
0
  0
ENDTAB
  0
TABLE
  2
APPID
  5
9
100
AcDbSymbolTable
 70
1
  0
APPID
  5
21D
100
AcDbSymbolTableRecord
100
AcDbRegAppTableRecord
  2
ACAD
 70
0
  0
ENDTAB
  0
TABLE
  2
BLOCK_RECORD
  5
1
100
AcDbSymbolTable
 70
0
  0
BLOCK_RECORD
  5
21E
100
AcDbSymbolTableRecord
100
AcDbBlockTableRecord
  2
*Model_Space
  0
BLOCK_RECORD
  5
21F
100
AcDbSymbolTableRecord
100
AcDbBlockTableRecord
  2
*Paper_Space
  0
BLOCK_RECORD
  5
220
100
AcDbSymbolTableRecord
100
AcDbBlockTableRecord
  2
_FILLED
  0
ENDTAB
  0
TABLE
  2
DIMSTYLE
  5
A
100
AcDbSymbolTable
 70
1
100
AcDbDimStyleTable
 71
0
  0
DIMSTYLE
105
221
100
AcDbSymbolTableRecord
100
AcDbDimStyleTableRecord
  2
STANDARD
 70
0
  3

  4

 40
1.0
 41
0.1
 42
0.0625
 43
0.38
 44
0.125
 45
0.0
 46
0.0
 47
0.001
 48
0.001
140
0.08
141
0.09
142
0.0
143
25.4
144
1.0
145
0.0
146
1.0
147
0.09
 71
1.0
 72
0.0
 73
1
 74
1
 75
0
 76
0
 77
0
 78
4
 79
1
170
1
171
2
172
0
173
0
174
0
175
0
176
0
177
0
178
0
270
2
179
3
271
3
272
3
273
2
274
2
275
0
280
0
281
0
282
0
283
1
284
4
285
0
286
0
287
3
288
0
340
11
278
46
341
220
342
220
343
220
344
220
  0
ENDTAB
  0
ENDSEC
  0
SECTION
  2
BLOCKS
  0
BLOCK
  5
20
100
AcDbEntity
  8
0
100
AcDbBlockBegin
  2
*Model_Space
 70
0
 10
0.0
 20
0.0
 30
0.0
  3
*Model_Space
  1

  0
ENDBLK
  5
21
100
AcDbEntity
  8
0
100
AcDbBlockEnd
  0
BLOCK
  5
1C
100
AcDbEntity
  8
0
100
AcDbBlockBegin
  2
*Paper_Space
 70
0
 10
0.0
 20
0.0
 30
0.0
  3
*Paper_Space
  1

  0
ENDBLK
  5
1D
100
AcDbEntity
  8
0
100
AcDbBlockEnd
  0
BLOCK
  5
222
100
AcDbEntity
  8
0
100
AcDbBlockBegin
  2
_FILLED
 70
64
 10
0.0
 20
0.0
  3
_FILLED
  1

  0
SOLID
  5
223
100
AcDbEntity
  8
0
  6
BYBLOCK
 62
0
100
AcDbTrace
 10
0.0
 20
0.0
 11
-1.0
 21
0.2
 12
-1.0
 22
-0.2
 13
-1.0
 23
-0.2
  0
ENDBLK
  5
224
100
AcDbEntity
  8
0
  6
BYBLOCK
 62
0
100
AcDbBlockEnd
  0
ENDSEC
  0
SECTION
  2
ENTITIES
  0
MTEXT
  5
225
100
AcDbEntity
  8
0
100
AcDbMText
 62
2
  6
CONTINUOUS
  7
STANDARD
 71
3
 72
1
 10
5.0272903727
 20
3.3067091199
 30
0.0
 11
1.0
 21
0.0
 31
0.0
 73
2
 44
0.9
  1
SCALE  .500
 40
0.08
 41
0.704
  0
LINE
  5
226
100
AcDbEntity
  8
0
100
AcDbLine
 62
7
  6
CONTINUOUS
 10
0.0
 20
0.0
 11
0.0
 21
8.5
  0
LINE
  5
227
100
AcDbEntity
  8
0
100
AcDbLine
 62
7
  6
CONTINUOUS
 10
0.0
 20
0.0
 11
11.0
 21
0.0
  0
LINE
  5
228
100
AcDbEntity
  8
0
100
AcDbLine
 62
7
  6
CONTINUOUS
 10
0.0
 20
8.5
 11
11.0
 21
8.5
  0
LINE
  5
229
100
AcDbEntity
  8
0
100
AcDbLine
 62
7
  6
CONTINUOUS
 10
11.0
 20
0.0
 11
11.0
 21
8.5
  0
LINE
  5
22A
100
AcDbEntity
  8
1_PLATE
100
AcDbLine
 62
7
  6
CONTINUOUS
 10
3.1522903727
 20
5.3909045136
 11
3.1522903727
 21
5.3154045136
  0
LINE
  5
22B
100
AcDbEntity
  8
ALL_ASSEMBLY_MEMBERS
100
AcDbLine
 62
7
  6
CONTINUOUS
 10
4.8297180444
 20
3.4273044733
 11
5.2248627009
 21
3.4273044733
  0
LINE
  5
22C
100
AcDbEntity
  8
ALL_ASSEMBLY_MEMBERS
100
AcDbLine
 62
7
  6
CONTINUOUS
 10
4.8000380574
 20
3.4417091199
 11
5.2545426879
 21
3.4417091199
  0
LINE
  5
22D
100
AcDbEntity
  8
ALL_ASSEMBLY_MEMBERS
100
AcDbLine
 62
7
  6
CONTINUOUS
 10
4.7746501621
 20
3.449957282
 11
5.2799305833
 21
3.449957282
  0
LINE
  5
22E
100
AcDbEntity
  8
ALL_ASSEMBLY_MEMBERS
100
AcDbLine
 62
7
  6
CONTINUOUS
 10
4.7635403727
 20
3.4610670714
 11
5.2910403727
 21
3.4610670714
  0
LINE
  5
22F
100
AcDbEntity
  8
ALL_ASSEMBLY_MEMBERS
100
AcDbLine
 62
7
  6
CONTINUOUS
 10
4.7635403727
 20
3.4967091199
 11
5.2910403727
 21
3.4967091199
  0
LINE
  5
230
100
AcDbEntity
  8
ALL_ASSEMBLY_MEMBERS
100
AcDbLine
 62
7
  6
CONTINUOUS
 10
4.8000353946
 20
3.4417091199
 11
4.7746501621
 21
3.449957282
  0
LINE
  5
231
100
AcDbEntity
  8
ALL_ASSEMBLY_MEMBERS
100
AcDbLine
 62
7
  6
CONTINUOUS
 10
4.7765403727
 20
3.5042091199
 11
5.2780403727
 21
3.5042091199
  0
LINE
  5
232
100
AcDbEntity
  8
ALL_ASSEMBLY_MEMBERS
100
AcDbLine
 62
7
  6
CONTINUOUS
 10
4.762694215
 20
3.5122091199
 11
5.2918865303
 21
3.5122091199
  0
LINE
  5
233
100
AcDbEntity
  8
ALL_ASSEMBLY_MEMBERS
100
AcDbLine
 62
7
  6
CONTINUOUS
 10
4.7485403727
 20
3.5522091199
 11
5.3060403727
 21
3.5522091199
  0
LINE
  5
234
100
AcDbEntity
  8
ALL_ASSEMBLY_MEMBERS
100
AcDbLine
 62
7
  6
CONTINUOUS
 10
4.7765403727
 20
3.5042091199
 11
4.762694215
 21
3.5122091199
  0
LINE
  5
235
100
AcDbEntity
  8
ALL_ASSEMBLY_MEMBERS
100
AcDbLine
 62
7
  6
CONTINUOUS
 10
4.5725595015
 20
3.7572274803
 11
4.5971425365
 21
3.7400777986
  0
LINE
  5
236
100
AcDbEntity
  8
ALL_ASSEMBLY_MEMBERS
100
AcDbLine
 62
7
  6
CONTINUOUS
 10
4.7746501621
 20
3.449957282
 11
4.7635403727
 21
3.4610670714
  0
LINE
  5
237
100
AcDbEntity
  8
ALL_ASSEMBLY_MEMBERS
100
AcDbLine
 62
7
  6
CONTINUOUS
 10
4.7485403727
 20
3.7572091199
 11
5.3060403727
 21
3.7572091199
  0
LINE
  5
238
100
AcDbEntity
  8
ALL_ASSEMBLY_MEMBERS
100
AcDbLine
 62
7
  6
CONTINUOUS
 10
5.2910403727
 20
3.4967091199
 11
5.2780403727
 21
3.5042091199
  0
LINE
  5
239
100
AcDbEntity
  8
ALL_ASSEMBLY_MEMBERS
100
AcDbLine
 62
7
  6
CONTINUOUS
 10
4.7635403727
 20
3.7967091199
 11
5.2910403727
 21
3.7967091199
  0
LINE
  5
23A
100
AcDbEntity
  8
ALL_ASSEMBLY_MEMBERS
100
AcDbLine
 62
7
  6
CONTINUOUS
 10
4.8420403727
 20
3.8222091199
 11
5.2125403727
 21
3.8222091199
  0
LINE
  5
23B
100
AcDbEntity
  8
ALL_ASSEMBLY_MEMBERS
100
AcDbLine
 62
7
  6
CONTINUOUS
 10
5.1880583841
 20
3.9123136827
 11
5.1686442083
 21
3.9123136827
  0
LINE
  5
23C
100
AcDbEntity
  8
ALL_ASSEMBLY_MEMBERS
100
AcDbLine
 62
7
  6
CONTINUOUS
 10
5.1882605733
 20
3.9354041529
 11
5.1682575066
 21
3.9354041529
  0
LINE
  5
23D
100
AcDbEntity
  8
ALL_ASSEMBLY_MEMBERS
100
AcDbLine
 62
7
  6
CONTINUOUS
 10
5.2910403727
 20
3.7967091199
 11
5.2125403727
 21
3.8222091199
  0
LINE
  5
23E
100
AcDbEntity
  8
ALL_ASSEMBLY_MEMBERS
100
AcDbLine
 62
7
  6
CONTINUOUS
 10
4.762694215
 20
3.5122091199
 11
4.7485403727
 21
3.5522091199
  0
LINE
  5
23F
100
AcDbEntity
  8
ALL_ASSEMBLY_MEMBERS
100
AcDbLine
 62
7
  6
CONTINUOUS
 10
4.5347903727
 20
4.9640595136
 11
4.5347903727
 21
5.1127543595
  0
LINE
  5
240
100
AcDbEntity
  8
ALL_ASSEMBLY_MEMBERS
100
AcDbLine
 62
7
  6
CONTINUOUS
 10
4.5422903727
 20
4.3397451946
 11
4.5422903727
 21
4.7672091199
  0
LINE
  5
241
100
AcDbEntity
  8
ALL_ASSEMBLY_MEMBERS
100
AcDbLine
 62
7
  6
CONTINUOUS
 10
4.5425403727
 20
4.9148469152
 11
4.5425403727
 21
4.826264238
  0
LINE
  5
242
100
AcDbEntity
  8
ALL_ASSEMBLY_MEMBERS
100
AcDbLine
 62
7
  6
CONTINUOUS
 10
4.5427092717
 20
4.9148469152
 11
4.5427092717
 21
4.826264238
  0
LINE
  5
243
100
AcDbEntity
  8
ALL_ASSEMBLY_MEMBERS
100
AcDbLine
 62
7
  6
CONTINUOUS
 10
4.5450069081
 20
4.9640595136
 11
4.5450069081
 21
4.9148469152
  0
LINE
  5
244
100
AcDbEntity
  8
ALL_ASSEMBLY_MEMBERS
100
AcDbLine
 62
7
  6
CONTINUOUS
 10
4.5450069081
 20
4.826264238
 11
4.5450069081
 21
4.7672091199
  0
LINE
  5
245
100
AcDbEntity
  8
ALL_ASSEMBLY_MEMBERS
100
AcDbLine
 62
7
  6
CONTINUOUS
 10
4.5451766712
 20
4.9148469152
 11
4.5451766712
 21
4.826264238
  0
LINE
  5
246
100
AcDbEntity
  8
ALL_ASSEMBLY_MEMBERS
100
AcDbLine
 62
7
  6
CONTINUOUS
 10
4.5572961735
 20
4.8536243479
 11
4.5572961735
 21
4.8481523264
  0
LINE
  5
247
100
AcDbEntity
  8
ALL_ASSEMBLY_MEMBERS
100
AcDbLine
 62
7
  6
CONTINUOUS
 10
4.5576009798
 20
4.8901044935
 11
4.5576009798
 21
4.8846324721
  0
LINE
  5
248
100
AcDbEntity
  8
ALL_ASSEMBLY_MEMBERS
100
AcDbLine
 62
7
  6
CONTINUOUS
 10
4.5588500604
 20
4.8536243479
 11
4.5588500604
 21
4.8481523264
  0
LINE
  5
249
100
AcDbEntity
  8
ALL_ASSEMBLY_MEMBERS
100
AcDbLine
 62
7
  6
CONTINUOUS
 10
4.5591697837
 20
4.8901044935
 11
4.5591697837
 21
4.8864564792
  0
LINE
  5
24A
100
AcDbEntity
  8
ALL_ASSEMBLY_MEMBERS
100
AcDbLine
 62
7
  6
CONTINUOUS
 10
4.5611770878
 20
4.8536243479
 11
4.5611770878
 21
4.8481523264
  0
LINE
  5
24B
100
AcDbEntity
  8
ALL_ASSEMBLY_MEMBERS
100
AcDbLine
 62
7
  6
CONTINUOUS
 10
4.5614962866
 20
4.8901044935
 11
4.5614962866
 21
4.8864564792
  0
LINE
  5
24C
100
AcDbEntity
  8
ALL_ASSEMBLY_MEMBERS
100
AcDbLine
 62
7
  6
CONTINUOUS
 10
4.567732567
 20
4.8901044935
 11
4.567732567
 21
4.8864564792
  0
LINE
  5
24D
100
AcDbEntity
  8
ALL_ASSEMBLY_MEMBERS
100
AcDbLine
 62
7
  6
CONTINUOUS
 10
4.5681262717
 20
4.8536243479
 11
4.5681262717
 21
4.8481523264
  0
LINE
  5
24E
100
AcDbEntity
  8
ALL_ASSEMBLY_MEMBERS
100
AcDbLine
 62
7
  6
CONTINUOUS
 10
4.5697305509
 20
4.8901044935
 11
4.5697305509
 21
4.8846324721
  0
LINE
  5
24F
100
AcDbEntity
  8
ALL_ASSEMBLY_MEMBERS
100
AcDbLine
 62
7
  6
CONTINUOUS
 10
4.5701389826
 20
4.8536243479
 11
4.5701389826
 21
4.8481523264
  0
LINE
  5
250
100
AcDbEntity
  8
ALL_ASSEMBLY_MEMBERS
100
AcDbLine
 62
7
  6
CONTINUOUS
 10
4.5720485193
 20
4.8901044935
 11
4.5720485193
 21
4.8846324721
  0
LINE
  5
251
100
AcDbEntity
  8
ALL_ASSEMBLY_MEMBERS
100
AcDbLine
 62
7
  6
CONTINUOUS
 10
4.5724568842
 20
4.8536243479
 11
4.5724568842
 21
4.8481523264
  0
LINE
  5
252
100
AcDbEntity
  8
ALL_ASSEMBLY_MEMBERS
100
AcDbLine
 62
7
  6
CONTINUOUS
 10
4.5725595015
 20
3.5521907596
 11
4.5725595015
 21
3.7572274803
  0
LINE
  5
253
100
AcDbEntity
  8
ALL_ASSEMBLY_MEMBERS
100
AcDbLine
 62
7
  6
CONTINUOUS
 10
4.5735124294
 20
4.9119925845
 11
4.5735124294
 21
4.8645683934
  0
LINE
  5
254
100
AcDbEntity
  8
ALL_ASSEMBLY_MEMBERS
100
AcDbLine
 62
7
  6
CONTINUOUS
 10
4.575716528
 20
4.9028725487
 11
4.575716528
 21
4.8736884291
  0
LINE
  5
255
100
AcDbEntity
  8
ALL_ASSEMBLY_MEMBERS
100
AcDbLine
 62
7
  6
CONTINUOUS
 10
4.5780349322
 20
4.9028725487
 11
4.5780349322
 21
4.8791604506
  0
LINE
  5
256
100
AcDbEntity
  8
ALL_ASSEMBLY_MEMBERS
100
AcDbLine
 62
7
  6
CONTINUOUS
 10
4.5883677697
 20
4.855448355
 11
4.5883677697
 21
4.8518003407
  0
LINE
  5
257
100
AcDbEntity
  8
ALL_ASSEMBLY_MEMBERS
100
AcDbLine
 62
7
  6
CONTINUOUS
 10
4.5899565831
 20
4.9119925845
 11
4.5899565831
 21
4.9028725487
  0
LINE
  5
258
100
AcDbEntity
  8
ALL_ASSEMBLY_MEMBERS
100
AcDbLine
 62
7
  6
CONTINUOUS
 10
4.5910307164
 20
4.8572723622
 11
4.5910307164
 21
4.8499763336
  0
LINE
  5
259
100
AcDbEntity
  8
ALL_ASSEMBLY_MEMBERS
100
AcDbLine
 62
7
  6
CONTINUOUS
 10
4.5922853542
 20
4.9119925845
 11
4.5922853542
 21
4.9028725487
  0
LINE
  5
25A
100
AcDbEntity
  8
ALL_ASSEMBLY_MEMBERS
100
AcDbLine
 62
7
  6
CONTINUOUS
 10
4.5933606817
 20
4.8572723622
 11
4.5933606817
 21
4.8499763336
  0
LINE
  5
25B
100
AcDbEntity
  8
ALL_ASSEMBLY_MEMBERS
100
AcDbLine
 62
7
  6
CONTINUOUS
 10
4.5971425365
 20
3.5693404412
 11
4.5971425365
 21
3.7400777986
  0
LINE
  5
25C
100
AcDbEntity
  8
ALL_ASSEMBLY_MEMBERS
100
AcDbLine
 62
7
  6
CONTINUOUS
 10
4.6094835011
 20
3.7447091199
 11
4.6094835011
 21
3.5647091199
  0
LINE
  5
25D
100
AcDbEntity
  8
ALL_ASSEMBLY_MEMBERS
100
AcDbLine
 62
7
  6
CONTINUOUS
 10
4.8555403727
 20
4.0017091199
 11
5.1990403727
 21
4.0017091199
  0
LINE
  5
25E
100
AcDbEntity
  8
ALL_ASSEMBLY_MEMBERS
100
AcDbLine
 62
7
  6
CONTINUOUS
 10
4.8522717108
 20
4.0172091199
 11
5.2023090345
 21
4.0172091199
  0
LINE
  5
25F
100
AcDbEntity
  8
ALL_ASSEMBLY_MEMBERS
100
AcDbLine
 62
7
  6
CONTINUOUS
 10
4.8210403727
 20
4.0395416652
 11
5.2335403727
 21
4.0395416652
  0
LINE
  5
260
100
AcDbEntity
  8
ALL_ASSEMBLY_MEMBERS
100
AcDbLine
 62
7
  6
CONTINUOUS
 10
5.4820212438
 20
3.5521907596
 11
5.4574382088
 21
3.5693404412
  0
LINE
  5
261
100
AcDbEntity
  8
ALL_ASSEMBLY_MEMBERS
100
AcDbLine
 62
7
  6
CONTINUOUS
 10
4.6229704722
 20
3.5588873377
 11
4.6229704722
 21
3.7505309021
  0
LINE
  5
262
100
AcDbEntity
  8
ALL_ASSEMBLY_MEMBERS
100
AcDbLine
 62
7
  6
CONTINUOUS
 10
4.7388647955
 20
4.9148469152
 11
4.7388647955
 21
4.826264238
  0
LINE
  5
263
100
AcDbEntity
  8
ALL_ASSEMBLY_MEMBERS
100
AcDbLine
 62
7
  6
CONTINUOUS
 10
4.7486327859
 20
3.5606376926
 11
4.7486327859
 21
3.7487805473
  0
LINE
  5
264
100
AcDbEntity
  8
ALL_ASSEMBLY_MEMBERS
100
AcDbLine
 62
7
  6
CONTINUOUS
 10
4.9666440882
 20
4.9119925845
 11
4.9583927349
 21
4.8992245344
  0
LINE
  5
265
100
AcDbEntity
  8
ALL_ASSEMBLY_MEMBERS
100
AcDbLine
 62
7
  6
CONTINUOUS
 10
4.9955238249
 20
4.9046965559
 11
4.9913981483
 21
4.8992245344
  0
LINE
  5
266
100
AcDbEntity
  8
ALL_ASSEMBLY_MEMBERS
100
AcDbLine
 62
7
  6
CONTINUOUS
 10
5.0037751783
 20
4.9010485416
 11
4.9996495016
 21
4.8974005273
  0
LINE
  5
267
100
AcDbEntity
  8
ALL_ASSEMBLY_MEMBERS
100
AcDbLine
 62
7
  6
CONTINUOUS
 10
5.0642851002
 20
4.9010485416
 11
5.0601594235
 21
4.8974005273
  0
LINE
  5
268
100
AcDbEntity
  8
ALL_ASSEMBLY_MEMBERS
100
AcDbLine
 62
7
  6
CONTINUOUS
 10
5.002399954
 20
4.9101685773
 11
4.9955238249
 21
4.9046965559
  0
LINE
  5
269
100
AcDbEntity
  8
ALL_ASSEMBLY_MEMBERS
100
AcDbLine
 62
7
  6
CONTINUOUS
 10
5.0629098799
 20
4.9101685773
 11
5.0560337469
 21
4.9046965559
  0
LINE
  5
26A
100
AcDbEntity
  8
ALL_ASSEMBLY_MEMBERS
100
AcDbLine
 62
7
  6
CONTINUOUS
 10
4.7040191619
 20
4.1422091199
 11
5.3505615835
 21
4.1422091199
  0
LINE
  5
26B
100
AcDbEntity
  8
ALL_ASSEMBLY_MEMBERS
100
AcDbLine
 62
7
  6
CONTINUOUS
 10
4.7589454989
 20
3.5853338837
 11
4.7589454954
 21
3.7240846407
  0
LINE
  5
26C
100
AcDbEntity
  8
ALL_ASSEMBLY_MEMBERS
100
AcDbLine
 62
7
  6
CONTINUOUS
 10
4.7598273478
 20
4.9148469152
 11
4.7598273478
 21
4.826264238
  0
LINE
  5
26D
100
AcDbEntity
  8
ALL_ASSEMBLY_MEMBERS
100
AcDbLine
 62
7
  6
CONTINUOUS
 10
4.76124259
 20
4.9148469152
 11
4.76124259
 21
4.826264238
  0
LINE
  5
26E
100
AcDbEntity
  8
ALL_ASSEMBLY_MEMBERS
100
AcDbLine
 62
7
  6
CONTINUOUS
 10
4.7635403727
 20
3.4610670714
 11
4.7635403727
 21
3.4967091199
  0
LINE
  5
26F
100
AcDbEntity
  8
ALL_ASSEMBLY_MEMBERS
100
AcDbLine
 62
7
  6
CONTINUOUS
 10
4.7660403727
 20
3.6222091199
 11
4.7660403727
 21
3.6872091199
  0
LINE
  5
270
100
AcDbEntity
  8
ALL_ASSEMBLY_MEMBERS
100
AcDbLine
 62
7
  6
CONTINUOUS
 10
4.8555403727
 20
3.8222091199
 11
4.8555403727
 21
4.0017091199
  0
LINE
  5
271
100
AcDbEntity
  8
ALL_ASSEMBLY_MEMBERS
100
AcDbLine
 62
7
  6
CONTINUOUS
 10
4.9886476978
 20
4.8919285058
 11
4.9872724716
 21
4.8864564792
  0
LINE
  5
272
100
AcDbEntity
  8
ALL_ASSEMBLY_MEMBERS
100
AcDbLine
 62
7
  6
CONTINUOUS
 10
4.9913981483
 20
4.8992245344
 11
4.9886476978
 21
4.8919285058
  0
LINE
  5
273
100
AcDbEntity
  8
ALL_ASSEMBLY_MEMBERS
100
AcDbLine
 62
7
  6
CONTINUOUS
 10
4.9996495016
 20
4.8974005273
 11
4.9941486007
 21
4.8864564792
  0
LINE
  5
274
100
AcDbEntity
  8
ALL_ASSEMBLY_MEMBERS
100
AcDbLine
 62
7
  6
CONTINUOUS
 10
5.0271540101
 20
4.8518003407
 11
5.0216531092
 21
4.8408562965
  0
LINE
  5
275
100
AcDbEntity
  8
ALL_ASSEMBLY_MEMBERS
100
AcDbLine
 62
7
  6
CONTINUOUS
 10
5.0601594235
 20
4.8974005273
 11
5.0546585265
 21
4.8864564792
  0
LINE
  5
276
100
AcDbEntity
  8
ALL_ASSEMBLY_MEMBERS
100
AcDbLine
 62
7
  6
CONTINUOUS
 10
4.9666440882
 20
4.8974005273
 11
4.9583927349
 21
4.8846324721
  0
LINE
  5
277
100
AcDbEntity
  8
ALL_ASSEMBLY_MEMBERS
100
AcDbLine
 62
7
  6
CONTINUOUS
 10
5.0560337469
 20
4.9046965559
 11
5.0519080702
 21
4.8992245344
  0
LINE
  5
278
100
AcDbEntity
  8
ALL_ASSEMBLY_MEMBERS
100
AcDbLine
 62
7
  6
CONTINUOUS
 10
5.0299044665
 20
4.8390322894
 11
5.0257787898
 21
4.8335602673
  0
LINE
  5
279
100
AcDbEntity
  8
ALL_ASSEMBLY_MEMBERS
100
AcDbLine
 62
7
  6
CONTINUOUS
 10
5.0904143884
 20
4.8390322894
 11
5.0862887117
 21
4.8335602673
  0
LINE
  5
27A
100
AcDbEntity
  8
ALL_ASSEMBLY_MEMBERS
100
AcDbLine
 62
7
  6
CONTINUOUS
 10
5.0216531092
 20
4.8408562965
 11
5.0175274325
 21
4.8372082822
  0
LINE
  5
27B
100
AcDbEntity
  8
ALL_ASSEMBLY_MEMBERS
100
AcDbLine
 62
7
  6
CONTINUOUS
 10
5.0821630351
 20
4.8408562965
 11
5.0780373584
 21
4.8372082822
  0
LINE
  5
27C
100
AcDbEntity
  8
ALL_ASSEMBLY_MEMBERS
100
AcDbLine
 62
7
  6
CONTINUOUS
 10
5.0257787898
 20
4.8335602673
 11
5.0189026607
 21
4.8280882453
  0
LINE
  5
27D
100
AcDbEntity
  8
ALL_ASSEMBLY_MEMBERS
100
AcDbLine
 62
7
  6
CONTINUOUS
 10
5.0862887117
 20
4.8335602673
 11
5.0794125866
 21
4.8280882453
  0
LINE
  5
27E
100
AcDbEntity
  8
ALL_ASSEMBLY_MEMBERS
100
AcDbLine
 62
7
  6
CONTINUOUS
 10
4.5422903727
 20
4.3397451946
 11
5.5122903727
 21
4.3397451946
  0
LINE
  5
27F
100
AcDbEntity
  8
ALL_ASSEMBLY_MEMBERS
100
AcDbLine
 62
7
  6
CONTINUOUS
 10
5.1680614503
 20
3.913014087
 11
5.1779588225
 21
3.9011186498
  0
LINE
  5
280
100
AcDbEntity
  8
ALL_ASSEMBLY_MEMBERS
100
AcDbLine
 62
7
  6
CONTINUOUS
 10
5.1882605733
 20
3.9354041529
 11
5.1783632011
 21
3.9472995901
  0
LINE
  5
281
100
AcDbEntity
  8
ALL_ASSEMBLY_MEMBERS
100
AcDbLine
 62
7
  6
CONTINUOUS
 10
5.1861454977
 20
3.9507795926
 11
5.1861722517
 21
3.9507473625
  0
LINE
  5
282
100
AcDbEntity
  8
ALL_ASSEMBLY_MEMBERS
100
AcDbLine
 62
7
  6
CONTINUOUS
 10
5.1861454159
 20
3.9507793203
 11
5.1861717666
 21
3.9507457556
  0
LINE
  5
283
100
AcDbEntity
  8
ALL_ASSEMBLY_MEMBERS
100
AcDbLine
 62
7
  6
CONTINUOUS
 10
5.187109941
 20
3.9495205139
 11
5.1862179349
 21
3.9507820011
  0
LINE
  5
284
100
AcDbEntity
  8
ALL_ASSEMBLY_MEMBERS
100
AcDbLine
 62
7
  6
CONTINUOUS
 10
5.1848394727
 20
3.9527314409
 11
5.1815587568
 21
3.9573710739
  0
LINE
  5
285
100
AcDbEntity
  8
ALL_ASSEMBLY_MEMBERS
100
AcDbLine
 62
7
  6
CONTINUOUS
 10
4.9354158092
 20
4.0172091199
 11
4.9354158092
 21
4.0017091199
  0
LINE
  5
286
100
AcDbEntity
  8
ALL_ASSEMBLY_MEMBERS
100
AcDbLine
 62
7
  6
CONTINUOUS
 10
4.9382999121
 20
4.0172091199
 11
4.9382999121
 21
4.0017091199
  0
LINE
  5
287
100
AcDbEntity
  8
ALL_ASSEMBLY_MEMBERS
100
AcDbLine
 62
7
  6
CONTINUOUS
 10
4.9465187758
 20
4.0172091199
 11
4.9465187758
 21
4.0017091199
  0
LINE
  5
288
100
AcDbEntity
  8
ALL_ASSEMBLY_MEMBERS
100
AcDbLine
 62
7
  6
CONTINUOUS
 10
4.9547320058
 20
4.0172091199
 11
4.9547320058
 21
4.0017091199
  0
LINE
  5
289
100
AcDbEntity
  8
ALL_ASSEMBLY_MEMBERS
100
AcDbLine
 62
7
  6
CONTINUOUS
 10
4.9583927349
 20
4.8992245344
 11
4.9583927349
 21
4.8846324721
  0
LINE
  5
28A
100
AcDbEntity
  8
ALL_ASSEMBLY_MEMBERS
100
AcDbLine
 62
7
  6
CONTINUOUS
 10
4.9661825355
 20
4.0017091199
 11
4.9661825355
 21
4.0172091199
  0
LINE
  5
28B
100
AcDbEntity
  8
ALL_ASSEMBLY_MEMBERS
100
AcDbLine
 62
7
  6
CONTINUOUS
 10
4.9666440882
 20
4.8974005273
 11
4.9666440882
 21
4.826264238
  0
LINE
  5
28C
100
AcDbEntity
  8
ALL_ASSEMBLY_MEMBERS
100
AcDbLine
 62
7
  6
CONTINUOUS
 10
4.9699184858
 20
4.0172091199
 11
4.9699184858
 21
4.0017091199
  0
LINE
  5
28D
100
AcDbEntity
  8
ALL_ASSEMBLY_MEMBERS
100
AcDbLine
 62
7
  6
CONTINUOUS
 10
4.9748954416
 20
4.9119925845
 11
4.9748954416
 21
4.826264238
  0
LINE
  5
28E
100
AcDbEntity
  8
ALL_ASSEMBLY_MEMBERS
100
AcDbLine
 62
7
  6
CONTINUOUS
 10
4.9822104532
 20
4.0172091199
 11
4.9822104532
 21
4.0017091199
  0
LINE
  5
28F
100
AcDbEntity
  8
ALL_ASSEMBLY_MEMBERS
100
AcDbLine
 62
7
  6
CONTINUOUS
 10
4.9858972454
 20
4.8773364435
 11
4.9858972454
 21
4.8609203791
  0
LINE
  5
290
100
AcDbEntity
  8
ALL_ASSEMBLY_MEMBERS
100
AcDbLine
 62
7
  6
CONTINUOUS
 10
4.9916152291
 20
4.0017091199
 11
4.9916152291
 21
4.0172091199
  0
LINE
  5
291
100
AcDbEntity
  8
ALL_ASSEMBLY_MEMBERS
100
AcDbLine
 62
7
  6
CONTINUOUS
 10
4.9927733725
 20
4.8755124363
 11
4.9927733725
 21
4.8627443862
  0
LINE
  5
292
100
AcDbEntity
  8
ALL_ASSEMBLY_MEMBERS
100
AcDbLine
 62
7
  6
CONTINUOUS
 10
4.9977903727
 20
4.4971293236
 11
4.9977903727
 21
4.5026573301
  0
LINE
  5
293
100
AcDbEntity
  8
ALL_ASSEMBLY_MEMBERS
100
AcDbLine
 62
7
  6
CONTINUOUS
 10
5.0005052279
 20
4.0017091199
 11
5.0005052279
 21
4.0172091199
  0
LINE
  5
294
100
AcDbEntity
  8
ALL_ASSEMBLY_MEMBERS
100
AcDbLine
 62
7
  6
CONTINUOUS
 10
5.0020525455
 20
4.0172091199
 11
5.0020525455
 21
4.0017091199
  0
LINE
  5
295
100
AcDbEntity
  8
ALL_ASSEMBLY_MEMBERS
100
AcDbLine
 62
7
  6
CONTINUOUS
 10
5.0165519097
 20
4.0172091199
 11
5.0165519097
 21
4.0017091199
  0
LINE
  5
296
100
AcDbEntity
  8
ALL_ASSEMBLY_MEMBERS
100
AcDbLine
 62
7
  6
CONTINUOUS
 10
5.017290888
 20
5.0990595136
 11
5.017290888
 21
5.0190595136
  0
LINE
  5
297
100
AcDbEntity
  8
ALL_ASSEMBLY_MEMBERS
100
AcDbLine
 62
7
  6
CONTINUOUS
 10
5.02247914
 20
4.0017091199
 11
5.02247914
 21
4.0172091199
  0
LINE
  5
298
100
AcDbEntity
  8
ALL_ASSEMBLY_MEMBERS
100
AcDbLine
 62
7
  6
CONTINUOUS
 10
5.0285292383
 20
4.8755124363
 11
5.0285292383
 21
4.8627443862
  0
LINE
  5
299
100
AcDbEntity
  8
ALL_ASSEMBLY_MEMBERS
100
AcDbLine
 62
7
  6
CONTINUOUS
 10
5.0321016054
 20
4.0017091199
 11
5.0321016054
 21
4.0172091199
  0
LINE
  5
29A
100
AcDbEntity
  8
ALL_ASSEMBLY_MEMBERS
100
AcDbLine
 62
7
  6
CONTINUOUS
 10
5.0354053635
 20
4.8773364435
 11
5.0354053635
 21
4.8609203791
  0
LINE
  5
29B
100
AcDbEntity
  8
ALL_ASSEMBLY_MEMBERS
100
AcDbLine
 62
7
  6
CONTINUOUS
 10
5.0372898573
 20
5.0990595136
 11
5.0372898573
 21
5.0190595136
  0
LINE
  5
29C
100
AcDbEntity
  8
ALL_ASSEMBLY_MEMBERS
100
AcDbLine
 62
7
  6
CONTINUOUS
 10
5.0380288356
 20
4.0172091199
 11
5.0380288356
 21
4.0017091199
  0
LINE
  5
29D
100
AcDbEntity
  8
ALL_ASSEMBLY_MEMBERS
100
AcDbLine
 62
7
  6
CONTINUOUS
 10
5.0464071732
 20
4.8773364435
 11
5.0464071732
 21
4.8609203791
  0
LINE
  5
29E
100
AcDbEntity
  8
ALL_ASSEMBLY_MEMBERS
100
AcDbLine
 62
7
  6
CONTINUOUS
 10
4.9941486007
 20
4.8864564792
 11
4.9927733725
 21
4.8755124363
  0
LINE
  5
29F
100
AcDbEntity
  8
ALL_ASSEMBLY_MEMBERS
100
AcDbLine
 62
7
  6
CONTINUOUS
 10
5.0285292383
 20
4.8627443862
 11
5.0271540101
 21
4.8518003407
  0
LINE
  5
2A0
100
AcDbEntity
  8
ALL_ASSEMBLY_MEMBERS
100
AcDbLine
 62
7
  6
CONTINUOUS
 10
5.0546585265
 20
4.8864564792
 11
5.0532832984
 21
4.8755124363
  0
LINE
  5
2A1
100
AcDbEntity
  8
ALL_ASSEMBLY_MEMBERS
100
AcDbLine
 62
7
  6
CONTINUOUS
 10
5.0890391602
 20
4.8627443862
 11
5.0876639399
 21
4.8518003407
  0
LINE
  5
2A2
100
AcDbEntity
  8
ALL_ASSEMBLY_MEMBERS
100
AcDbLine
 62
7
  6
CONTINUOUS
 10
4.9872724716
 20
4.8864564792
 11
4.9858972454
 21
4.8773364435
  0
LINE
  5
2A3
100
AcDbEntity
  8
ALL_ASSEMBLY_MEMBERS
100
AcDbLine
 62
7
  6
CONTINUOUS
 10
5.0354053635
 20
4.8609203791
 11
5.0340301432
 21
4.8518003407
  0
LINE
  5
2A4
100
AcDbEntity
  8
ALL_ASSEMBLY_MEMBERS
100
AcDbLine
 62
7
  6
CONTINUOUS
 10
5.0477823935
 20
4.8864564792
 11
5.0464071732
 21
4.8773364435
  0
LINE
  5
2A5
100
AcDbEntity
  8
ALL_ASSEMBLY_MEMBERS
100
AcDbLine
 62
7
  6
CONTINUOUS
 10
5.0959152854
 20
4.8609203791
 11
5.0945400651
 21
4.8518003407
  0
LINE
  5
2A6
100
AcDbEntity
  8
ALL_ASSEMBLY_MEMBERS
100
AcDbLine
 62
7
  6
CONTINUOUS
 10
5.0340301432
 20
4.8518003407
 11
5.032654915
 21
4.8463283193
  0
LINE
  5
2A7
100
AcDbEntity
  8
ALL_ASSEMBLY_MEMBERS
100
AcDbLine
 62
7
  6
CONTINUOUS
 10
5.0491576217
 20
4.8919285058
 11
5.0477823935
 21
4.8864564792
  0
LINE
  5
2A8
100
AcDbEntity
  8
ALL_ASSEMBLY_MEMBERS
100
AcDbLine
 62
7
  6
CONTINUOUS
 10
5.0945400651
 20
4.8518003407
 11
5.0931648448
 21
4.8463283193
  0
LINE
  5
2A9
100
AcDbEntity
  8
ALL_ASSEMBLY_MEMBERS
100
AcDbLine
 62
7
  6
CONTINUOUS
 10
5.0519080702
 20
4.8992245344
 11
5.0491576217
 21
4.8919285058
  0
LINE
  5
2AA
100
AcDbEntity
  8
ALL_ASSEMBLY_MEMBERS
100
AcDbLine
 62
7
  6
CONTINUOUS
 10
5.032654915
 20
4.8463283193
 11
5.0299044665
 21
4.8390322894
  0
LINE
  5
2AB
100
AcDbEntity
  8
ALL_ASSEMBLY_MEMBERS
100
AcDbLine
 62
7
  6
CONTINUOUS
 10
5.0931648448
 20
4.8463283193
 11
5.0904143884
 21
4.8390322894
  0
LINE
  5
2AC
100
AcDbEntity
  8
ALL_ASSEMBLY_MEMBERS
100
AcDbLine
 62
7
  6
CONTINUOUS
 10
4.7485403727
 20
3.7572091199
 11
4.7635403727
 21
3.7967091199
  0
LINE
  5
2AD
100
AcDbEntity
  8
ALL_ASSEMBLY_MEMBERS
100
AcDbLine
 62
7
  6
CONTINUOUS
 10
5.0876639399
 20
4.8518003407
 11
5.0821630351
 21
4.8408562965
  0
LINE
  5
2AE
100
AcDbEntity
  8
ALL_ASSEMBLY_MEMBERS
100
AcDbLine
 62
7
  6
CONTINUOUS
 10
5.0538066386
 20
4.5039591199
 11
5.0326969793
 21
4.5039591199
  0
LINE
  5
2AF
100
AcDbEntity
  8
ALL_ASSEMBLY_MEMBERS
100
AcDbLine
 62
7
  6
CONTINUOUS
 10
5.0218837661
 20
4.5039591199
 11
5.0007741067
 21
4.5039591199
  0
LINE
  5
2B0
100
AcDbEntity
  8
ALL_ASSEMBLY_MEMBERS
100
AcDbLine
 62
7
  6
CONTINUOUS
 10
5.3060403727
 20
3.7572091199
 11
5.2910403727
 21
3.7967091199
  0
LINE
  5
2B1
100
AcDbEntity
  8
ALL_ASSEMBLY_MEMBERS
100
AcDbLine
 62
7
  6
CONTINUOUS
 10
4.9872724716
 20
4.8518003407
 11
4.9858972454
 21
4.8609203791
  0
LINE
  5
2B2
100
AcDbEntity
  8
ALL_ASSEMBLY_MEMBERS
100
AcDbLine
 62
7
  6
CONTINUOUS
 10
4.9941486007
 20
4.8518003407
 11
4.9927733725
 21
4.8627443862
  0
LINE
  5
2B3
100
AcDbEntity
  8
ALL_ASSEMBLY_MEMBERS
100
AcDbLine
 62
7
  6
CONTINUOUS
 10
5.0525281998
 20
4.0172091199
 11
5.0525281998
 21
4.0017091199
  0
LINE
  5
2B4
100
AcDbEntity
  8
ALL_ASSEMBLY_MEMBERS
100
AcDbLine
 62
7
  6
CONTINUOUS
 10
5.0532832984
 20
4.8755124363
 11
5.0532832984
 21
4.8627443862
  0
LINE
  5
2B5
100
AcDbEntity
  8
ALL_ASSEMBLY_MEMBERS
100
AcDbLine
 62
7
  6
CONTINUOUS
 10
5.0540755174
 20
4.0017091199
 11
5.0540755174
 21
4.0172091199
  0
LINE
  5
2B6
100
AcDbEntity
  8
ALL_ASSEMBLY_MEMBERS
100
AcDbLine
 62
7
  6
CONTINUOUS
 10
5.0567903727
 20
4.4971293236
 11
5.0567903727
 21
4.5026573301
  0
LINE
  5
2B7
100
AcDbEntity
  8
ALL_ASSEMBLY_MEMBERS
100
AcDbLine
 62
7
  6
CONTINUOUS
 10
5.0629655162
 20
4.0017091199
 11
5.0629655162
 21
4.0172091199
  0
LINE
  5
2B8
100
AcDbEntity
  8
ALL_ASSEMBLY_MEMBERS
100
AcDbLine
 62
7
  6
CONTINUOUS
 10
5.0723702921
 20
4.0172091199
 11
5.0723702921
 21
4.0017091199
  0
LINE
  5
2B9
100
AcDbEntity
  8
ALL_ASSEMBLY_MEMBERS
100
AcDbLine
 62
7
  6
CONTINUOUS
 10
5.0846622595
 20
4.0172091199
 11
5.0846622595
 21
4.0017091199
  0
LINE
  5
2BA
100
AcDbEntity
  8
ALL_ASSEMBLY_MEMBERS
100
AcDbLine
 62
7
  6
CONTINUOUS
 10
5.0883982099
 20
4.0017091199
 11
5.0883982099
 21
4.0172091199
  0
LINE
  5
2BB
100
AcDbEntity
  8
ALL_ASSEMBLY_MEMBERS
100
AcDbLine
 62
7
  6
CONTINUOUS
 10
5.0890391602
 20
4.8755124363
 11
5.0890391602
 21
4.8627443862
  0
LINE
  5
2BC
100
AcDbEntity
  8
ALL_ASSEMBLY_MEMBERS
100
AcDbLine
 62
7
  6
CONTINUOUS
 10
5.0959152854
 20
4.8773364435
 11
5.0959152854
 21
4.8609203791
  0
LINE
  5
2BD
100
AcDbEntity
  8
ALL_ASSEMBLY_MEMBERS
100
AcDbLine
 62
7
  6
CONTINUOUS
 10
5.0998487395
 20
4.0172091199
 11
5.0998487395
 21
4.0017091199
  0
LINE
  5
2BE
100
AcDbEntity
  8
ALL_ASSEMBLY_MEMBERS
100
AcDbLine
 62
7
  6
CONTINUOUS
 10
5.1080619695
 20
4.0172091199
 11
5.1080619695
 21
4.0017091199
  0
LINE
  5
2BF
100
AcDbEntity
  8
ALL_ASSEMBLY_MEMBERS
100
AcDbLine
 62
7
  6
CONTINUOUS
 10
5.1162808333
 20
4.0172091199
 11
5.1162808333
 21
4.0017091199
  0
LINE
  5
2C0
100
AcDbEntity
  8
ALL_ASSEMBLY_MEMBERS
100
AcDbLine
 62
7
  6
CONTINUOUS
 10
5.1191649361
 20
4.0172091199
 11
5.1191649361
 21
4.0017091199
  0
LINE
  5
2C1
100
AcDbEntity
  8
ALL_ASSEMBLY_MEMBERS
100
AcDbLine
 62
7
  6
CONTINUOUS
 10
5.1682636396
 20
3.9361045571
 11
5.1680614503
 21
3.913014087
  0
LINE
  5
2C2
100
AcDbEntity
  8
ALL_ASSEMBLY_MEMBERS
100
AcDbLine
 62
7
  6
CONTINUOUS
 10
4.9996495016
 20
4.8408562965
 11
4.9941486007
 21
4.8518003407
  0
LINE
  5
2C3
100
AcDbEntity
  8
ALL_ASSEMBLY_MEMBERS
100
AcDbLine
 62
7
  6
CONTINUOUS
 10
4.9913981483
 20
4.8390322894
 11
4.9886476978
 21
4.8463283193
  0
LINE
  5
2C4
100
AcDbEntity
  8
ALL_ASSEMBLY_MEMBERS
100
AcDbLine
 62
7
  6
CONTINUOUS
 10
5.0519080702
 20
4.8390322894
 11
5.0491576217
 21
4.8463283193
  0
LINE
  5
2C5
100
AcDbEntity
  8
ALL_ASSEMBLY_MEMBERS
100
AcDbLine
 62
7
  6
CONTINUOUS
 10
5.032654915
 20
4.8919285058
 11
5.0299044665
 21
4.8992245344
  0
LINE
  5
2C6
100
AcDbEntity
  8
ALL_ASSEMBLY_MEMBERS
100
AcDbLine
 62
7
  6
CONTINUOUS
 10
4.9886476978
 20
4.8463283193
 11
4.9872724716
 21
4.8518003407
  0
LINE
  5
2C7
100
AcDbEntity
  8
ALL_ASSEMBLY_MEMBERS
100
AcDbLine
 62
7
  6
CONTINUOUS
 10
5.0340301432
 20
4.8864564792
 11
5.032654915
 21
4.8919285058
  0
LINE
  5
2C8
100
AcDbEntity
  8
ALL_ASSEMBLY_MEMBERS
100
AcDbLine
 62
7
  6
CONTINUOUS
 10
5.0491576217
 20
4.8463283193
 11
5.0477823935
 21
4.8518003407
  0
LINE
  5
2C9
100
AcDbEntity
  8
ALL_ASSEMBLY_MEMBERS
100
AcDbLine
 62
7
  6
CONTINUOUS
 10
5.0945400651
 20
4.8864564792
 11
5.0931648448
 21
4.8919285058
  0
LINE
  5
2CA
100
AcDbEntity
  8
ALL_ASSEMBLY_MEMBERS
100
AcDbLine
 62
7
  6
CONTINUOUS
 10
5.0354053635
 20
4.8773364435
 11
5.0340301432
 21
4.8864564792
  0
LINE
  5
2CB
100
AcDbEntity
  8
ALL_ASSEMBLY_MEMBERS
100
AcDbLine
 62
7
  6
CONTINUOUS
 10
5.0477823935
 20
4.8518003407
 11
5.0464071732
 21
4.8609203791
  0
LINE
  5
2CC
100
AcDbEntity
  8
ALL_ASSEMBLY_MEMBERS
100
AcDbLine
 62
7
  6
CONTINUOUS
 10
5.0959152854
 20
4.8773364435
 11
5.0945400651
 21
4.8864564792
  0
LINE
  5
2CD
100
AcDbEntity
  8
ALL_ASSEMBLY_MEMBERS
100
AcDbLine
 62
7
  6
CONTINUOUS
 10
5.0285292383
 20
4.8755124363
 11
5.0271540101
 21
4.8864564792
  0
LINE
  5
2CE
100
AcDbEntity
  8
ALL_ASSEMBLY_MEMBERS
100
AcDbLine
 62
7
  6
CONTINUOUS
 10
5.0546585265
 20
4.8518003407
 11
5.0532832984
 21
4.8627443862
  0
LINE
  5
2CF
100
AcDbEntity
  8
ALL_ASSEMBLY_MEMBERS
100
AcDbLine
 62
7
  6
CONTINUOUS
 10
5.0890391602
 20
4.8755124363
 11
5.0876639399
 21
4.8864564792
  0
LINE
  5
2D0
100
AcDbEntity
  8
ALL_ASSEMBLY_MEMBERS
100
AcDbLine
 62
7
  6
CONTINUOUS
 10
5.1990403727
 20
3.8222091199
 11
5.1990403727
 21
4.0017091199
  0
LINE
  5
2D1
100
AcDbEntity
  8
ALL_ASSEMBLY_MEMBERS
100
AcDbLine
 62
7
  6
CONTINUOUS
 10
5.2885403727
 20
3.6222091199
 11
5.2885403727
 21
3.6872091199
  0
LINE
  5
2D2
100
AcDbEntity
  8
ALL_ASSEMBLY_MEMBERS
100
AcDbLine
 62
7
  6
CONTINUOUS
 10
5.2910403727
 20
3.4610670714
 11
5.2910403727
 21
3.4967091199
  0
LINE
  5
2D3
100
AcDbEntity
  8
ALL_ASSEMBLY_MEMBERS
100
AcDbLine
 62
7
  6
CONTINUOUS
 10
5.2933381553
 20
4.9148469152
 11
5.2933381553
 21
4.826264238
  0
LINE
  5
2D4
100
AcDbEntity
  8
ALL_ASSEMBLY_MEMBERS
100
AcDbLine
 62
7
  6
CONTINUOUS
 10
5.2947533975
 20
4.9148469152
 11
5.2947533975
 21
4.826264238
  0
LINE
  5
2D5
100
AcDbEntity
  8
ALL_ASSEMBLY_MEMBERS
100
AcDbLine
 62
7
  6
CONTINUOUS
 10
5.2956352464
 20
3.7240841411
 11
5.2956352499
 21
3.5853342163
  0
LINE
  5
2D6
100
AcDbEntity
  8
ALL_ASSEMBLY_MEMBERS
100
AcDbLine
 62
7
  6
CONTINUOUS
 10
5.3059479595
 20
3.7487805473
 11
5.3059479595
 21
3.5606376926
  0
LINE
  5
2D7
100
AcDbEntity
  8
ALL_ASSEMBLY_MEMBERS
100
AcDbLine
 62
7
  6
CONTINUOUS
 10
5.3157159498
 20
4.9148469152
 11
5.3157159498
 21
4.826264238
  0
LINE
  5
2D8
100
AcDbEntity
  8
ALL_ASSEMBLY_MEMBERS
100
AcDbLine
 62
7
  6
CONTINUOUS
 10
5.1880583841
 20
3.9123136827
 11
5.1882605733
 21
3.9354041529
  0
LINE
  5
2D9
100
AcDbEntity
  8
ALL_ASSEMBLY_MEMBERS
100
AcDbLine
 62
7
  6
CONTINUOUS
 10
4.5422903727
 20
4.7672091199
 11
5.5122903727
 21
4.7672091199
  0
LINE
  5
2DA
100
AcDbEntity
  8
ALL_ASSEMBLY_MEMBERS
100
AcDbLine
 62
7
  6
CONTINUOUS
 10
5.002399954
 20
4.8280882453
 11
4.9955238249
 21
4.8335602673
  0
LINE
  5
2DB
100
AcDbEntity
  8
ALL_ASSEMBLY_MEMBERS
100
AcDbLine
 62
7
  6
CONTINUOUS
 10
5.0629098799
 20
4.8280882453
 11
5.0560337469
 21
4.8335602673
  0
LINE
  5
2DC
100
AcDbEntity
  8
ALL_ASSEMBLY_MEMBERS
100
AcDbLine
 62
7
  6
CONTINUOUS
 10
5.0037751783
 20
4.8372082822
 11
4.9996495016
 21
4.8408562965
  0
LINE
  5
2DD
100
AcDbEntity
  8
ALL_ASSEMBLY_MEMBERS
100
AcDbLine
 62
7
  6
CONTINUOUS
 10
5.0642851002
 20
4.8372082822
 11
5.0601594235
 21
4.8408562965
  0
LINE
  5
2DE
100
AcDbEntity
  8
ALL_ASSEMBLY_MEMBERS
100
AcDbLine
 62
7
  6
CONTINUOUS
 10
5.0216531092
 20
4.8974005273
 11
5.0175274325
 21
4.9010485416
  0
LINE
  5
2DF
100
AcDbEntity
  8
ALL_ASSEMBLY_MEMBERS
100
AcDbLine
 62
7
  6
CONTINUOUS
 10
4.9955238249
 20
4.8335602673
 11
4.9913981483
 21
4.8390322894
  0
LINE
  5
2E0
100
AcDbEntity
  8
ALL_ASSEMBLY_MEMBERS
100
AcDbLine
 62
7
  6
CONTINUOUS
 10
5.0560337469
 20
4.8335602673
 11
5.0519080702
 21
4.8390322894
  0
LINE
  5
2E1
100
AcDbEntity
  8
ALL_ASSEMBLY_MEMBERS
100
AcDbLine
 62
7
  6
CONTINUOUS
 10
5.0299044665
 20
4.8992245344
 11
5.0257787898
 21
4.9046965559
  0
LINE
  5
2E2
100
AcDbEntity
  8
ALL_ASSEMBLY_MEMBERS
100
AcDbLine
 62
7
  6
CONTINUOUS
 10
5.0904143884
 20
4.8992245344
 11
5.0862887117
 21
4.9046965559
  0
LINE
  5
2E3
100
AcDbEntity
  8
ALL_ASSEMBLY_MEMBERS
100
AcDbLine
 62
7
  6
CONTINUOUS
 10
5.0271540101
 20
4.8864564792
 11
5.0216531092
 21
4.8974005273
  0
LINE
  5
2E4
100
AcDbEntity
  8
ALL_ASSEMBLY_MEMBERS
100
AcDbLine
 62
7
  6
CONTINUOUS
 10
5.0601594235
 20
4.8408562965
 11
5.0546585265
 21
4.8518003407
  0
LINE
  5
2E5
100
AcDbEntity
  8
ALL_ASSEMBLY_MEMBERS
100
AcDbLine
 62
7
  6
CONTINUOUS
 10
5.0876639399
 20
4.8864564792
 11
5.0821630351
 21
4.8974005273
  0
LINE
  5
2E6
100
AcDbEntity
  8
ALL_ASSEMBLY_MEMBERS
100
AcDbLine
 62
7
  6
CONTINUOUS
 10
5.0931648448
 20
4.8919285058
 11
5.0904143884
 21
4.8992245344
  0
LINE
  5
2E7
100
AcDbEntity
  8
ALL_ASSEMBLY_MEMBERS
100
AcDbLine
 62
7
  6
CONTINUOUS
 10
5.4316102731
 20
3.5588873377
 11
5.4316102731
 21
3.7505309021
  0
LINE
  5
2E8
100
AcDbEntity
  8
ALL_ASSEMBLY_MEMBERS
100
AcDbLine
 62
7
  6
CONTINUOUS
 10
5.4450972442
 20
3.5647091199
 11
5.4450972442
 21
3.7447091199
  0
LINE
  5
2E9
100
AcDbEntity
  8
ALL_ASSEMBLY_MEMBERS
100
AcDbLine
 62
7
  6
CONTINUOUS
 10
5.4522758958
 20
4.8992245344
 11
5.4522758958
 21
4.8846324721
  0
LINE
  5
2EA
100
AcDbEntity
  8
ALL_ASSEMBLY_MEMBERS
100
AcDbLine
 62
7
  6
CONTINUOUS
 10
5.454617576
 20
4.8992245344
 11
5.454617576
 21
4.8846324721
  0
LINE
  5
2EB
100
AcDbEntity
  8
ALL_ASSEMBLY_MEMBERS
100
AcDbLine
 62
7
  6
CONTINUOUS
 10
5.4572794186
 20
4.891362781
 11
5.4572794186
 21
4.826264238
  0
LINE
  5
2EC
100
AcDbEntity
  8
ALL_ASSEMBLY_MEMBERS
100
AcDbLine
 62
7
  6
CONTINUOUS
 10
5.4574382088
 20
3.5693404412
 11
5.4574382088
 21
3.7400777986
  0
LINE
  5
2ED
100
AcDbEntity
  8
ALL_ASSEMBLY_MEMBERS
100
AcDbLine
 62
7
  6
CONTINUOUS
 10
5.4596141683
 20
4.8974005273
 11
5.4596141683
 21
4.826264238
  0
LINE
  5
2EE
100
AcDbEntity
  8
ALL_ASSEMBLY_MEMBERS
100
AcDbLine
 62
7
  6
CONTINUOUS
 10
5.464383226
 20
4.9119925845
 11
5.464383226
 21
4.826264238
  0
LINE
  5
2EF
100
AcDbEntity
  8
ALL_ASSEMBLY_MEMBERS
100
AcDbLine
 62
7
  6
CONTINUOUS
 10
5.4680675824
 20
4.8992245344
 11
5.4680675824
 21
4.8846324721
  0
LINE
  5
2F0
100
AcDbEntity
  8
ALL_ASSEMBLY_MEMBERS
100
AcDbLine
 62
7
  6
CONTINUOUS
 10
5.4703908433
 20
4.8992245344
 11
5.4703908433
 21
4.8846324721
  0
LINE
  5
2F1
100
AcDbEntity
  8
ALL_ASSEMBLY_MEMBERS
100
AcDbLine
 62
7
  6
CONTINUOUS
 10
5.4723145447
 20
4.890338765
 11
5.4723145447
 21
4.826264238
  0
LINE
  5
2F2
100
AcDbEntity
  8
ALL_ASSEMBLY_MEMBERS
100
AcDbLine
 62
7
  6
CONTINUOUS
 10
5.4746348348
 20
4.8974005273
 11
5.4746348348
 21
4.826264238
  0
LINE
  5
2F3
100
AcDbEntity
  8
ALL_ASSEMBLY_MEMBERS
100
AcDbLine
 62
7
  6
CONTINUOUS
 10
5.4786554727
 20
4.9119925845
 11
5.4786554727
 21
4.826264238
  0
LINE
  5
2F4
100
AcDbEntity
  8
ALL_ASSEMBLY_MEMBERS
100
AcDbLine
 62
7
  6
CONTINUOUS
 10
5.0780373584
 20
4.8372082822
 11
5.0711612332
 21
4.8353842751
  0
LINE
  5
2F5
100
AcDbEntity
  8
ALL_ASSEMBLY_MEMBERS
100
AcDbLine
 62
7
  6
CONTINUOUS
 10
5.0175274325
 20
4.8372082822
 11
5.0106513074
 21
4.8353842751
  0
LINE
  5
2F6
100
AcDbEntity
  8
ALL_ASSEMBLY_MEMBERS
100
AcDbLine
 62
7
  6
CONTINUOUS
 10
5.0711612332
 20
4.9028725487
 11
5.0642851002
 21
4.9010485416
  0
LINE
  5
2F7
100
AcDbEntity
  8
ALL_ASSEMBLY_MEMBERS
100
AcDbLine
 62
7
  6
CONTINUOUS
 10
5.0106513074
 20
4.9028725487
 11
5.0037751783
 21
4.9010485416
  0
LINE
  5
2F8
100
AcDbEntity
  8
ALL_ASSEMBLY_MEMBERS
100
AcDbLine
 62
7
  6
CONTINUOUS
 10
5.0794125866
 20
4.8280882453
 11
5.0711612332
 21
4.826264238
  0
LINE
  5
2F9
100
AcDbEntity
  8
ALL_ASSEMBLY_MEMBERS
100
AcDbLine
 62
7
  6
CONTINUOUS
 10
5.0189026607
 20
4.8280882453
 11
5.0106513074
 21
4.826264238
  0
LINE
  5
2FA
100
AcDbEntity
  8
ALL_ASSEMBLY_MEMBERS
100
AcDbLine
 62
7
  6
CONTINUOUS
 10
5.0711612332
 20
4.9119925845
 11
5.0629098799
 21
4.9101685773
  0
LINE
  5
2FB
100
AcDbEntity
  8
ALL_ASSEMBLY_MEMBERS
100
AcDbLine
 62
7
  6
CONTINUOUS
 10
5.0106513074
 20
4.9119925845
 11
5.002399954
 21
4.9101685773
  0
LINE
  5
2FC
100
AcDbEntity
  8
ALL_ASSEMBLY_MEMBERS
100
AcDbLine
 62
7
  6
CONTINUOUS
 10
5.5120403727
 20
4.826264238
 11
5.5094040741
 21
4.826264238
  0
LINE
  5
2FD
100
AcDbEntity
  8
ALL_ASSEMBLY_MEMBERS
100
AcDbLine
 62
7
  6
CONTINUOUS
 10
5.4949466125
 20
4.826264238
 11
5.4896819819
 21
4.826264238
  0
LINE
  5
2FE
100
AcDbEntity
  8
ALL_ASSEMBLY_MEMBERS
100
AcDbLine
 62
7
  6
CONTINUOUS
 10
5.4786554727
 20
4.826264238
 11
5.4723145447
 21
4.826264238
  0
LINE
  5
2FF
100
AcDbEntity
  8
ALL_ASSEMBLY_MEMBERS
100
AcDbLine
 62
7
  6
CONTINUOUS
 10
5.464383226
 20
4.826264238
 11
5.4572794186
 21
4.826264238
  0
LINE
  5
300
100
AcDbEntity
  8
ALL_ASSEMBLY_MEMBERS
100
AcDbLine
 62
7
  6
CONTINUOUS
 10
5.3157159498
 20
4.826264238
 11
5.2933381553
 21
4.826264238
  0
LINE
  5
301
100
AcDbEntity
  8
ALL_ASSEMBLY_MEMBERS
100
AcDbLine
 62
7
  6
CONTINUOUS
 10
4.9748954416
 20
4.826264238
 11
4.9666440882
 21
4.826264238
  0
LINE
  5
302
100
AcDbEntity
  8
ALL_ASSEMBLY_MEMBERS
100
AcDbLine
 62
7
  6
CONTINUOUS
 10
4.5427092717
 20
4.826264238
 11
4.5451766712
 21
4.826264238
  0
LINE
  5
303
100
AcDbEntity
  8
ALL_ASSEMBLY_MEMBERS
100
AcDbLine
 62
7
  6
CONTINUOUS
 10
4.5621810438
 20
4.826264238
 11
4.5666423988
 21
4.826264238
  0
LINE
  5
304
100
AcDbEntity
  8
ALL_ASSEMBLY_MEMBERS
100
AcDbLine
 62
7
  6
CONTINUOUS
 10
4.5803457878
 20
4.826264238
 11
4.5855876315
 21
4.826264238
  0
LINE
  5
305
100
AcDbEntity
  8
ALL_ASSEMBLY_MEMBERS
100
AcDbLine
 62
7
  6
CONTINUOUS
 10
4.7388647955
 20
4.826264238
 11
4.76124259
 21
4.826264238
  0
LINE
  5
306
100
AcDbEntity
  8
ALL_ASSEMBLY_MEMBERS
100
AcDbLine
 62
7
  6
CONTINUOUS
 10
5.4893808602
 20
4.8280882453
 11
5.4870610088
 21
4.8280882453
  0
LINE
  5
307
100
AcDbEntity
  8
ALL_ASSEMBLY_MEMBERS
100
AcDbLine
 62
7
  6
CONTINUOUS
 10
4.566187221
 20
4.8280882453
 11
4.5685064692
 21
4.8280882453
  0
LINE
  5
308
100
AcDbEntity
  8
ALL_ASSEMBLY_MEMBERS
100
AcDbLine
 62
7
  6
CONTINUOUS
 10
4.5857793113
 20
4.8280882453
 11
4.5881039317
 21
4.8280882453
  0
LINE
  5
309
100
AcDbEntity
  8
ALL_ASSEMBLY_MEMBERS
100
AcDbLine
 62
7
  6
CONTINUOUS
 10
5.486602667
 20
4.8335602673
 11
5.4842842291
 21
4.8335602673
  0
LINE
  5
30A
100
AcDbEntity
  8
ALL_ASSEMBLY_MEMBERS
100
AcDbLine
 62
7
  6
CONTINUOUS
 10
4.5681262717
 20
4.8335602673
 11
4.570444658
 21
4.8335602673
  0
LINE
  5
30B
100
AcDbEntity
  8
ALL_ASSEMBLY_MEMBERS
100
AcDbLine
 62
7
  6
CONTINUOUS
 10
4.5883677697
 20
4.8335602673
 11
4.5906948674
 21
4.8335602673
  0
LINE
  5
30C
100
AcDbEntity
  8
ALL_ASSEMBLY_MEMBERS
100
AcDbLine
 62
7
  6
CONTINUOUS
 10
5.4949466125
 20
4.8353842751
 11
5.4920040439
 21
4.8353842751
  0
LINE
  5
30D
100
AcDbEntity
  8
ALL_ASSEMBLY_MEMBERS
100
AcDbLine
 62
7
  6
CONTINUOUS
 10
4.583265102
 20
4.8353842751
 11
4.5803457878
 21
4.8353842751
  0
LINE
  5
30E
100
AcDbEntity
  8
ALL_ASSEMBLY_MEMBERS
100
AcDbLine
 62
7
  6
CONTINUOUS
 10
4.5639577065
 20
4.8353842751
 11
4.5625304584
 21
4.8353842751
  0
LINE
  5
30F
100
AcDbEntity
  8
ALL_ASSEMBLY_MEMBERS
100
AcDbLine
 62
7
  6
CONTINUOUS
 10
5.4967834403
 20
4.8372082822
 11
5.4944545355
 21
4.8372082822
  0
LINE
  5
310
100
AcDbEntity
  8
ALL_ASSEMBLY_MEMBERS
100
AcDbLine
 62
7
  6
CONTINUOUS
 10
4.5611505773
 20
4.8372082822
 11
4.5634742592
 21
4.8372082822
  0
LINE
  5
311
100
AcDbEntity
  8
ALL_ASSEMBLY_MEMBERS
100
AcDbLine
 62
7
  6
CONTINUOUS
 10
4.5784586848
 20
4.8372082822
 11
4.5807781806
 21
4.8372082822
  0
LINE
  5
312
100
AcDbEntity
  8
ALL_ASSEMBLY_MEMBERS
100
AcDbLine
 62
7
  6
CONTINUOUS
 10
4.5693250626
 20
4.8390322894
 11
4.5716431129
 21
4.8390322894
  0
LINE
  5
313
100
AcDbEntity
  8
ALL_ASSEMBLY_MEMBERS
100
AcDbLine
 62
7
  6
CONTINUOUS
 10
5.4980952225
 20
4.8408562965
 11
5.4957636255
 21
4.8408562965
  0
LINE
  5
314
100
AcDbEntity
  8
ALL_ASSEMBLY_MEMBERS
100
AcDbLine
 62
7
  6
CONTINUOUS
 10
5.4848614683
 20
4.8408562965
 11
5.4825434978
 21
4.8408562965
  0
LINE
  5
315
100
AcDbEntity
  8
ALL_ASSEMBLY_MEMBERS
100
AcDbLine
 62
7
  6
CONTINUOUS
 10
4.5598181598
 20
4.8408562965
 11
4.5621436604
 21
4.8408562965
  0
LINE
  5
316
100
AcDbEntity
  8
ALL_ASSEMBLY_MEMBERS
100
AcDbLine
 62
7
  6
CONTINUOUS
 10
4.5770743397
 20
4.8408562965
 11
4.5793932216
 21
4.8408562965
  0
LINE
  5
317
100
AcDbEntity
  8
ALL_ASSEMBLY_MEMBERS
100
AcDbLine
 62
7
  6
CONTINUOUS
 10
4.5899565831
 20
4.8408562965
 11
4.5922853542
 21
4.8408562965
  0
LINE
  5
318
100
AcDbEntity
  8
ALL_ASSEMBLY_MEMBERS
100
AcDbLine
 62
7
  6
CONTINUOUS
 10
5.4989382867
 20
4.8463283193
 11
5.4966047284
 21
4.8463283193
  0
LINE
  5
319
100
AcDbEntity
  8
ALL_ASSEMBLY_MEMBERS
100
AcDbLine
 62
7
  6
CONTINUOUS
 10
5.4871706905
 20
4.8481523264
 11
5.4813519243
 21
4.8481523264
  0
LINE
  5
31A
100
AcDbEntity
  8
ALL_ASSEMBLY_MEMBERS
100
AcDbLine
 62
7
  6
CONTINUOUS
 10
4.5588500604
 20
4.8481523264
 11
4.5611770878
 21
4.8481523264
  0
LINE
  5
31B
100
AcDbEntity
  8
ALL_ASSEMBLY_MEMBERS
100
AcDbLine
 62
7
  6
CONTINUOUS
 10
4.5701389826
 20
4.8481523264
 11
4.5724568842
 21
4.8481523264
  0
LINE
  5
31C
100
AcDbEntity
  8
ALL_ASSEMBLY_MEMBERS
100
AcDbLine
 62
7
  6
CONTINUOUS
 10
4.5735124294
 20
4.8481523264
 11
4.5784847314
 21
4.8481523264
  0
LINE
  5
31D
100
AcDbEntity
  8
ALL_ASSEMBLY_MEMBERS
100
AcDbLine
 62
7
  6
CONTINUOUS
 10
4.5910307164
 20
4.8499763336
 11
4.5933606817
 21
4.8499763336
  0
LINE
  5
31E
100
AcDbEntity
  8
ALL_ASSEMBLY_MEMBERS
100
AcDbLine
 62
7
  6
CONTINUOUS
 10
5.4993503556
 20
4.8518003407
 11
5.4970157663
 21
4.8518003407
  0
LINE
  5
31F
100
AcDbEntity
  8
ALL_ASSEMBLY_MEMBERS
100
AcDbLine
 62
7
  6
CONTINUOUS
 10
4.5588500604
 20
4.8536243479
 11
4.5611770878
 21
4.8536243479
  0
LINE
  5
320
100
AcDbEntity
  8
ALL_ASSEMBLY_MEMBERS
100
AcDbLine
 62
7
  6
CONTINUOUS
 10
4.5701389826
 20
4.8536243479
 11
4.5724568842
 21
4.8536243479
  0
LINE
  5
321
100
AcDbEntity
  8
ALL_ASSEMBLY_MEMBERS
100
AcDbLine
 62
7
  6
CONTINUOUS
 10
5.4993503556
 20
4.855448355
 11
5.4970157663
 21
4.855448355
  0
LINE
  5
322
100
AcDbEntity
  8
ALL_ASSEMBLY_MEMBERS
100
AcDbLine
 62
7
  6
CONTINUOUS
 10
4.5910307164
 20
4.8572723622
 11
4.5933606817
 21
4.8572723622
  0
LINE
  5
323
100
AcDbEntity
  8
ALL_ASSEMBLY_MEMBERS
100
AcDbLine
 62
7
  6
CONTINUOUS
 10
5.4989382867
 20
4.8609203791
 11
5.4966047284
 21
4.8609203791
  0
LINE
  5
324
100
AcDbEntity
  8
ALL_ASSEMBLY_MEMBERS
100
AcDbLine
 62
7
  6
CONTINUOUS
 10
4.5598181598
 20
4.8609203791
 11
4.5621436604
 21
4.8609203791
  0
LINE
  5
325
100
AcDbEntity
  8
ALL_ASSEMBLY_MEMBERS
100
AcDbLine
 62
7
  6
CONTINUOUS
 10
4.5693250626
 20
4.8627443862
 11
4.5716431129
 21
4.8627443862
  0
LINE
  5
326
100
AcDbEntity
  8
ALL_ASSEMBLY_MEMBERS
100
AcDbLine
 62
7
  6
CONTINUOUS
 10
5.4877325251
 20
4.8645683934
 11
5.4813519243
 21
4.8645683934
  0
LINE
  5
327
100
AcDbEntity
  8
ALL_ASSEMBLY_MEMBERS
100
AcDbLine
 62
7
  6
CONTINUOUS
 10
4.5611505773
 20
4.8645683934
 11
4.5634742592
 21
4.8645683934
  0
LINE
  5
328
100
AcDbEntity
  8
ALL_ASSEMBLY_MEMBERS
100
AcDbLine
 62
7
  6
CONTINUOUS
 10
4.5735124294
 20
4.8645683934
 11
4.5789374952
 21
4.8645683934
  0
LINE
  5
329
100
AcDbEntity
  8
ALL_ASSEMBLY_MEMBERS
100
AcDbLine
 62
7
  6
CONTINUOUS
 10
5.4980952225
 20
4.8663924005
 11
5.4957636255
 21
4.8663924005
  0
LINE
  5
32A
100
AcDbEntity
  8
ALL_ASSEMBLY_MEMBERS
100
AcDbLine
 62
7
  6
CONTINUOUS
 10
4.5639577065
 20
4.8663924005
 11
4.5625304584
 21
4.8663924005
  0
LINE
  5
32B
100
AcDbEntity
  8
ALL_ASSEMBLY_MEMBERS
100
AcDbLine
 62
7
  6
CONTINUOUS
 10
4.5899565831
 20
4.8663924005
 11
4.5922853542
 21
4.8663924005
  0
LINE
  5
32C
100
AcDbEntity
  8
ALL_ASSEMBLY_MEMBERS
100
AcDbLine
 62
7
  6
CONTINUOUS
 10
4.567732567
 20
4.8682164077
 11
4.5700510954
 21
4.8682164077
  0
LINE
  5
32D
100
AcDbEntity
  8
ALL_ASSEMBLY_MEMBERS
100
AcDbLine
 62
7
  6
CONTINUOUS
 10
5.4967834403
 20
4.8700404148
 11
5.4944545355
 21
4.8700404148
  0
LINE
  5
32E
100
AcDbEntity
  8
ALL_ASSEMBLY_MEMBERS
100
AcDbLine
 62
7
  6
CONTINUOUS
 10
4.5669539973
 20
4.8700404148
 11
4.5692728554
 21
4.8700404148
  0
LINE
  5
32F
100
AcDbEntity
  8
ALL_ASSEMBLY_MEMBERS
100
AcDbLine
 62
7
  6
CONTINUOUS
 10
4.5784586848
 20
4.8700404148
 11
4.5807781806
 21
4.8700404148
  0
LINE
  5
330
100
AcDbEntity
  8
ALL_ASSEMBLY_MEMBERS
100
AcDbLine
 62
7
  6
CONTINUOUS
 10
5.4949466125
 20
4.871864422
 11
5.4920040439
 21
4.871864422
  0
LINE
  5
331
100
AcDbEntity
  8
ALL_ASSEMBLY_MEMBERS
100
AcDbLine
 62
7
  6
CONTINUOUS
 10
4.583265102
 20
4.871864422
 11
4.5803457878
 21
4.871864422
  0
LINE
  5
332
100
AcDbEntity
  8
ALL_ASSEMBLY_MEMBERS
100
AcDbLine
 62
7
  6
CONTINUOUS
 10
4.567732567
 20
4.871864422
 11
4.5700510954
 21
4.871864422
  0
LINE
  5
333
100
AcDbEntity
  8
ALL_ASSEMBLY_MEMBERS
100
AcDbLine
 62
7
  6
CONTINUOUS
 10
4.5639577065
 20
4.8736884291
 11
4.5625304584
 21
4.8736884291
  0
LINE
  5
334
100
AcDbEntity
  8
ALL_ASSEMBLY_MEMBERS
100
AcDbLine
 62
7
  6
CONTINUOUS
 10
4.5883677697
 20
4.8736884291
 11
4.5906948674
 21
4.8736884291
  0
LINE
  5
335
100
AcDbEntity
  8
ALL_ASSEMBLY_MEMBERS
100
AcDbLine
 62
7
  6
CONTINUOUS
 10
4.5611505773
 20
4.8755124363
 11
4.5634742592
 21
4.8755124363
  0
LINE
  5
336
100
AcDbEntity
  8
ALL_ASSEMBLY_MEMBERS
100
AcDbLine
 62
7
  6
CONTINUOUS
 10
4.5689225206
 20
4.8773364435
 11
4.5712406678
 21
4.8773364435
  0
LINE
  5
337
100
AcDbEntity
  8
ALL_ASSEMBLY_MEMBERS
100
AcDbLine
 62
7
  6
CONTINUOUS
 10
5.4893808602
 20
4.8791604506
 11
5.4870610088
 21
4.8791604506
  0
LINE
  5
338
100
AcDbEntity
  8
ALL_ASSEMBLY_MEMBERS
100
AcDbLine
 62
7
  6
CONTINUOUS
 10
4.5857793113
 20
4.8791604506
 11
4.5881039317
 21
4.8791604506
  0
LINE
  5
339
100
AcDbEntity
  8
ALL_ASSEMBLY_MEMBERS
100
AcDbLine
 62
7
  6
CONTINUOUS
 10
5.4949466125
 20
4.8809844578
 11
5.4896819819
 21
4.8809844578
  0
LINE
  5
33A
100
AcDbEntity
  8
ALL_ASSEMBLY_MEMBERS
100
AcDbLine
 62
7
  6
CONTINUOUS
 10
4.5598181598
 20
4.8809844578
 11
4.5621436604
 21
4.8809844578
  0
LINE
  5
33B
100
AcDbEntity
  8
ALL_ASSEMBLY_MEMBERS
100
AcDbLine
 62
7
  6
CONTINUOUS
 10
4.5803457878
 20
4.8809844578
 11
4.5855876315
 21
4.8809844578
  0
LINE
  5
33C
100
AcDbEntity
  8
ALL_ASSEMBLY_MEMBERS
100
AcDbLine
 62
7
  6
CONTINUOUS
 10
5.4703908433
 20
4.8846324721
 11
5.4680675824
 21
4.8846324721
  0
LINE
  5
33D
100
AcDbEntity
  8
ALL_ASSEMBLY_MEMBERS
100
AcDbLine
 62
7
  6
CONTINUOUS
 10
5.454617576
 20
4.8846324721
 11
5.4522758958
 21
4.8846324721
  0
LINE
  5
33E
100
AcDbEntity
  8
ALL_ASSEMBLY_MEMBERS
100
AcDbLine
 62
7
  6
CONTINUOUS
 10
4.5697305509
 20
4.8846324721
 11
4.5720485193
 21
4.8846324721
  0
LINE
  5
33F
100
AcDbEntity
  8
ALL_ASSEMBLY_MEMBERS
100
AcDbLine
 62
7
  6
CONTINUOUS
 10
4.5591697837
 20
4.8864564792
 11
4.5614962866
 21
4.8864564792
  0
LINE
  5
340
100
AcDbEntity
  8
ALL_ASSEMBLY_MEMBERS
100
AcDbLine
 62
7
  6
CONTINUOUS
 10
4.5591697837
 20
4.8901044935
 11
4.5614962866
 21
4.8901044935
  0
LINE
  5
341
100
AcDbEntity
  8
ALL_ASSEMBLY_MEMBERS
100
AcDbLine
 62
7
  6
CONTINUOUS
 10
4.5697305509
 20
4.8901044935
 11
4.5720485193
 21
4.8901044935
  0
LINE
  5
342
100
AcDbEntity
  8
ALL_ASSEMBLY_MEMBERS
100
AcDbLine
 62
7
  6
CONTINUOUS
 10
4.5598181598
 20
4.8955765201
 11
4.5621436604
 21
4.8955765201
  0
LINE
  5
343
100
AcDbEntity
  8
ALL_ASSEMBLY_MEMBERS
100
AcDbLine
 62
7
  6
CONTINUOUS
 10
5.4703908433
 20
4.8992245344
 11
5.4680675824
 21
4.8992245344
  0
LINE
  5
344
100
AcDbEntity
  8
ALL_ASSEMBLY_MEMBERS
100
AcDbLine
 62
7
  6
CONTINUOUS
 10
5.454617576
 20
4.8992245344
 11
5.4522758958
 21
4.8992245344
  0
LINE
  5
345
100
AcDbEntity
  8
ALL_ASSEMBLY_MEMBERS
100
AcDbLine
 62
7
  6
CONTINUOUS
 10
4.5689225206
 20
4.8992245344
 11
4.5712406678
 21
4.8992245344
  0
LINE
  5
346
100
AcDbEntity
  8
ALL_ASSEMBLY_MEMBERS
100
AcDbLine
 62
7
  6
CONTINUOUS
 10
4.5611505773
 20
4.9010485416
 11
4.5634742592
 21
4.9010485416
  0
LINE
  5
347
100
AcDbEntity
  8
ALL_ASSEMBLY_MEMBERS
100
AcDbLine
 62
7
  6
CONTINUOUS
 10
5.5005486224
 20
4.9028725487
 11
5.486602667
 21
4.9028725487
  0
LINE
  5
348
100
AcDbEntity
  8
ALL_ASSEMBLY_MEMBERS
100
AcDbLine
 62
7
  6
CONTINUOUS
 10
4.5639577065
 20
4.9028725487
 11
4.5625304584
 21
4.9028725487
  0
LINE
  5
349
100
AcDbEntity
  8
ALL_ASSEMBLY_MEMBERS
100
AcDbLine
 62
7
  6
CONTINUOUS
 10
4.575716528
 20
4.9028725487
 11
4.5922853542
 21
4.9028725487
  0
LINE
  5
34A
100
AcDbEntity
  8
ALL_ASSEMBLY_MEMBERS
100
AcDbLine
 62
7
  6
CONTINUOUS
 10
4.567732567
 20
4.9046965559
 11
4.5700510954
 21
4.9046965559
  0
LINE
  5
34B
100
AcDbEntity
  8
ALL_ASSEMBLY_MEMBERS
100
AcDbLine
 62
7
  6
CONTINUOUS
 10
4.5658082557
 20
4.9101685773
 11
4.5681277216
 21
4.9101685773
  0
LINE
  5
34C
100
AcDbEntity
  8
ALL_ASSEMBLY_MEMBERS
100
AcDbLine
 62
7
  6
CONTINUOUS
 10
5.5005486224
 20
4.9119925845
 11
5.4813519243
 21
4.9119925845
  0
LINE
  5
34D
100
AcDbEntity
  8
ALL_ASSEMBLY_MEMBERS
100
AcDbLine
 62
7
  6
CONTINUOUS
 10
5.4786554727
 20
4.9119925845
 11
5.4723145447
 21
4.9119925845
  0
LINE
  5
34E
100
AcDbEntity
  8
ALL_ASSEMBLY_MEMBERS
100
AcDbLine
 62
7
  6
CONTINUOUS
 10
5.464383226
 20
4.9119925845
 11
5.4572794186
 21
4.9119925845
  0
LINE
  5
34F
100
AcDbEntity
  8
ALL_ASSEMBLY_MEMBERS
100
AcDbLine
 62
7
  6
CONTINUOUS
 10
4.9748954416
 20
4.9119925845
 11
4.9666440882
 21
4.9119925845
  0
LINE
  5
350
100
AcDbEntity
  8
ALL_ASSEMBLY_MEMBERS
100
AcDbLine
 62
7
  6
CONTINUOUS
 10
4.5625304584
 20
4.9119925845
 11
4.5662784889
 21
4.9119925845
  0
LINE
  5
351
100
AcDbEntity
  8
ALL_ASSEMBLY_MEMBERS
100
AcDbLine
 62
7
  6
CONTINUOUS
 10
4.5735124294
 20
4.9119925845
 11
4.5922853542
 21
4.9119925845
  0
LINE
  5
352
100
AcDbEntity
  8
ALL_ASSEMBLY_MEMBERS
100
AcDbLine
 62
7
  6
CONTINUOUS
 10
5.5120403727
 20
4.9148469152
 11
5.5094040741
 21
4.9148469152
  0
LINE
  5
353
100
AcDbEntity
  8
ALL_ASSEMBLY_MEMBERS
100
AcDbLine
 62
7
  6
CONTINUOUS
 10
5.3157159498
 20
4.9148469152
 11
5.2933381553
 21
4.9148469152
  0
LINE
  5
354
100
AcDbEntity
  8
ALL_ASSEMBLY_MEMBERS
100
AcDbLine
 62
7
  6
CONTINUOUS
 10
4.5427092717
 20
4.9148469152
 11
4.5451766712
 21
4.9148469152
  0
LINE
  5
355
100
AcDbEntity
  8
ALL_ASSEMBLY_MEMBERS
100
AcDbLine
 62
7
  6
CONTINUOUS
 10
4.7388647955
 20
4.9148469152
 11
4.76124259
 21
4.9148469152
  0
LINE
  5
356
100
AcDbEntity
  8
ALL_ASSEMBLY_MEMBERS
100
AcDbLine
 62
7
  6
CONTINUOUS
 10
5.0106513074
 20
4.826264238
 11
5.002399954
 21
4.8280882453
  0
LINE
  5
357
100
AcDbEntity
  8
ALL_ASSEMBLY_MEMBERS
100
AcDbLine
 62
7
  6
CONTINUOUS
 10
5.0711612332
 20
4.826264238
 11
5.0629098799
 21
4.8280882453
  0
LINE
  5
358
100
AcDbEntity
  8
ALL_ASSEMBLY_MEMBERS
100
AcDbLine
 62
7
  6
CONTINUOUS
 10
5.0189026607
 20
4.9101685773
 11
5.0106513074
 21
4.9119925845
  0
LINE
  5
359
100
AcDbEntity
  8
ALL_ASSEMBLY_MEMBERS
100
AcDbLine
 62
7
  6
CONTINUOUS
 10
5.0794125866
 20
4.9101685773
 11
5.0711612332
 21
4.9119925845
  0
LINE
  5
35A
100
AcDbEntity
  8
ALL_ASSEMBLY_MEMBERS
100
AcDbLine
 62
7
  6
CONTINUOUS
 10
5.0106513074
 20
4.8353842751
 11
5.0037751783
 21
4.8372082822
  0
LINE
  5
35B
100
AcDbEntity
  8
ALL_ASSEMBLY_MEMBERS
100
AcDbLine
 62
7
  6
CONTINUOUS
 10
5.0711612332
 20
4.8353842751
 11
5.0642851002
 21
4.8372082822
  0
LINE
  5
35C
100
AcDbEntity
  8
ALL_ASSEMBLY_MEMBERS
100
AcDbLine
 62
7
  6
CONTINUOUS
 10
5.0175274325
 20
4.9010485416
 11
5.0106513074
 21
4.9028725487
  0
LINE
  5
35D
100
AcDbEntity
  8
ALL_ASSEMBLY_MEMBERS
100
AcDbLine
 62
7
  6
CONTINUOUS
 10
5.0780373584
 20
4.9010485416
 11
5.0711612332
 21
4.9028725487
  0
LINE
  5
35E
100
AcDbEntity
  8
ALL_ASSEMBLY_MEMBERS
100
AcDbLine
 62
7
  6
CONTINUOUS
 10
5.0257787898
 20
4.9046965559
 11
5.0189026607
 21
4.9101685773
  0
LINE
  5
35F
100
AcDbEntity
  8
ALL_ASSEMBLY_MEMBERS
100
AcDbLine
 62
7
  6
CONTINUOUS
 10
5.0862887117
 20
4.9046965559
 11
5.0794125866
 21
4.9101685773
  0
LINE
  5
360
100
AcDbEntity
  8
ALL_ASSEMBLY_MEMBERS
100
AcDbLine
 62
7
  6
CONTINUOUS
 10
5.0821630351
 20
4.8974005273
 11
5.0780373584
 21
4.9010485416
  0
LINE
  5
361
100
AcDbEntity
  8
ALL_ASSEMBLY_MEMBERS
100
AcDbLine
 62
7
  6
CONTINUOUS
 10
5.4813519243
 20
4.9119925845
 11
5.4813519243
 21
4.8645683934
  0
LINE
  5
362
100
AcDbEntity
  8
ALL_ASSEMBLY_MEMBERS
100
AcDbLine
 62
7
  6
CONTINUOUS
 10
5.4820212438
 20
3.5521907596
 11
5.4820212438
 21
3.7572274803
  0
LINE
  5
363
100
AcDbEntity
  8
ALL_ASSEMBLY_MEMBERS
100
AcDbLine
 62
7
  6
CONTINUOUS
 10
5.4836697415
 20
4.9119925845
 11
5.4836697415
 21
4.8645683934
  0
LINE
  5
364
100
AcDbEntity
  8
ALL_ASSEMBLY_MEMBERS
100
AcDbLine
 62
7
  6
CONTINUOUS
 10
5.486602667
 20
4.9028725487
 11
5.486602667
 21
4.8736884291
  0
LINE
  5
365
100
AcDbEntity
  8
ALL_ASSEMBLY_MEMBERS
100
AcDbLine
 62
7
  6
CONTINUOUS
 10
5.4970157663
 20
4.855448355
 11
5.4970157663
 21
4.8518003407
  0
LINE
  5
366
100
AcDbEntity
  8
ALL_ASSEMBLY_MEMBERS
100
AcDbLine
 62
7
  6
CONTINUOUS
 10
5.4993503556
 20
4.855448355
 11
5.4993503556
 21
4.8518003407
  0
LINE
  5
367
100
AcDbEntity
  8
ALL_ASSEMBLY_MEMBERS
100
AcDbLine
 62
7
  6
CONTINUOUS
 10
5.5005486224
 20
4.9119925845
 11
5.5005486224
 21
4.9028725487
  0
LINE
  5
368
100
AcDbEntity
  8
ALL_ASSEMBLY_MEMBERS
100
AcDbLine
 62
7
  6
CONTINUOUS
 10
5.5013157584
 20
4.8572723622
 11
5.5013157584
 21
4.8499763336
  0
LINE
  5
369
100
AcDbEntity
  8
ALL_ASSEMBLY_MEMBERS
100
AcDbLine
 62
7
  6
CONTINUOUS
 10
5.5094040741
 20
4.9148469152
 11
5.5094040741
 21
4.826264238
  0
LINE
  5
36A
100
AcDbEntity
  8
ALL_ASSEMBLY_MEMBERS
100
AcDbLine
 62
7
  6
CONTINUOUS
 10
5.5095738372
 20
4.9640595136
 11
5.5095738372
 21
4.9148469152
  0
LINE
  5
36B
100
AcDbEntity
  8
ALL_ASSEMBLY_MEMBERS
100
AcDbLine
 62
7
  6
CONTINUOUS
 10
5.5095738372
 20
4.826264238
 11
5.5095738372
 21
4.7672091199
  0
LINE
  5
36C
100
AcDbEntity
  8
ALL_ASSEMBLY_MEMBERS
100
AcDbLine
 62
7
  6
CONTINUOUS
 10
5.5118714736
 20
4.9148469152
 11
5.5118714736
 21
4.826264238
  0
LINE
  5
36D
100
AcDbEntity
  8
ALL_ASSEMBLY_MEMBERS
100
AcDbLine
 62
7
  6
CONTINUOUS
 10
5.5120403727
 20
4.9148469152
 11
5.5120403727
 21
4.826264238
  0
LINE
  5
36E
100
AcDbEntity
  8
ALL_ASSEMBLY_MEMBERS
100
AcDbLine
 62
7
  6
CONTINUOUS
 10
5.5122903727
 20
4.3397451946
 11
5.5122903727
 21
4.7672091199
  0
LINE
  5
36F
100
AcDbEntity
  8
ALL_ASSEMBLY_MEMBERS
100
AcDbLine
 62
7
  6
CONTINUOUS
 10
5.5197903727
 20
4.9640595136
 11
5.5197903727
 21
5.1127543595
  0
LINE
  5
370
100
AcDbEntity
  8
ALL_ASSEMBLY_MEMBERS
100
AcDbLine
 62
7
  6
CONTINUOUS
 10
5.2918865303
 20
3.5122091199
 11
5.3060403727
 21
3.5522091199
  0
LINE
  5
371
100
AcDbEntity
  8
ALL_ASSEMBLY_MEMBERS
100
AcDbLine
 62
7
  6
CONTINUOUS
 10
5.187109941
 20
3.8988977259
 11
5.1855387892
 21
3.8966757817
  0
LINE
  5
372
100
AcDbEntity
  8
ALL_ASSEMBLY_MEMBERS
100
AcDbLine
 62
7
  6
CONTINUOUS
 10
5.1783632011
 20
3.9472995901
 11
5.1682636396
 21
3.9361045571
  0
LINE
  5
373
100
AcDbEntity
  8
ALL_ASSEMBLY_MEMBERS
100
AcDbLine
 62
7
  6
CONTINUOUS
 10
5.1779588225
 20
3.9011186498
 11
5.1880583841
 21
3.9123136827
  0
LINE
  5
374
100
AcDbEntity
  8
ALL_ASSEMBLY_MEMBERS
100
AcDbLine
 62
7
  6
CONTINUOUS
 10
4.5725595015
 20
3.5521907596
 11
4.5971425365
 21
3.5693404412
  0
LINE
  5
375
100
AcDbEntity
  8
ALL_ASSEMBLY_MEMBERS
100
AcDbLine
 62
7
  6
CONTINUOUS
 10
4.7635403727
 20
3.7967091199
 11
4.8420403727
 21
3.8222091199
  0
LINE
  5
376
100
AcDbEntity
  8
ALL_ASSEMBLY_MEMBERS
100
AcDbLine
 62
7
  6
CONTINUOUS
 10
4.5347903727
 20
4.9640595136
 11
5.5197903727
 21
4.9640595136
  0
LINE
  5
377
100
AcDbEntity
  8
ALL_ASSEMBLY_MEMBERS
100
AcDbLine
 62
7
  6
CONTINUOUS
 10
5.0372898573
 20
5.0190595136
 11
5.017290888
 21
5.0190595136
  0
LINE
  5
378
100
AcDbEntity
  8
ALL_ASSEMBLY_MEMBERS
100
AcDbLine
 62
7
  6
CONTINUOUS
 10
4.7635403727
 20
3.4967091199
 11
4.7765403727
 21
3.5042091199
  0
LINE
  5
379
100
AcDbEntity
  8
ALL_ASSEMBLY_MEMBERS
100
AcDbLine
 62
7
  6
CONTINUOUS
 10
5.017290888
 20
5.0990595136
 11
5.0372898573
 21
5.0990595136
  0
LINE
  5
37A
100
AcDbEntity
  8
1_PLATE
100
AcDbLine
 62
7
  6
CONTINUOUS
 10
3.8397903727
 20
5.1127543595
 11
6.2147903727
 21
5.1127543595
  0
LINE
  5
37B
100
AcDbEntity
  8
1_PLATE
100
AcDbLine
 62
7
  6
CONTINUOUS
 10
3.5312903727
 20
5.1439879687
 11
6.5232903727
 21
5.1439879687
  0
LINE
  5
37C
100
AcDbEntity
  8
1_PLATE
100
AcDbLine
 62
7
  6
CONTINUOUS
 10
6.6059543801
 20
5.1752519372
 11
3.4486263652
 21
5.1752519372
  0
LINE
  5
37D
100
AcDbEntity
  8
1_PLATE
100
AcDbLine
 62
7
  6
CONTINUOUS
 10
3.2772903727
 20
5.1904045136
 11
6.7772903727
 21
5.1904045136
  0
LINE
  5
37E
100
AcDbEntity
  8
ALL_ASSEMBLY_MEMBERS
100
AcDbLine
 62
7
  6
CONTINUOUS
 10
5.4820212438
 20
3.7572274803
 11
5.4574382088
 21
3.7400777986
  0
LINE
  5
37F
100
AcDbEntity
  8
1_PLATE
100
AcDbLine
 62
7
  6
CONTINUOUS
 10
6.9022903727
 20
5.3154045136
 11
3.1522903727
 21
5.3154045136
  0
LINE
  5
380
100
AcDbEntity
  8
ALL_ASSEMBLY_MEMBERS
100
AcDbLine
 62
7
  6
CONTINUOUS
 10
5.2799305833
 20
3.449957282
 11
5.2910403727
 21
3.4610670714
  0
LINE
  5
381
100
AcDbEntity
  8
ALL_ASSEMBLY_MEMBERS
100
AcDbLine
 62
7
  6
CONTINUOUS
 10
5.2780403727
 20
3.5042091199
 11
5.2918865303
 21
3.5122091199
  0
LINE
  5
382
100
AcDbEntity
  8
1_PLATE
100
AcDbLine
 62
7
  6
CONTINUOUS
 10
6.9022903727
 20
5.3909045136
 11
3.1522903727
 21
5.3909045136
  0
LINE
  5
383
100
AcDbEntity
  8
ALL_ASSEMBLY_MEMBERS
100
AcDbLine
 62
7
  6
CONTINUOUS
 10
5.2545453507
 20
3.4417091199
 11
5.2799305833
 21
3.449957282
  0
LINE
  5
384
100
AcDbEntity
  8
1_PLATE
100
AcDbLine
 62
7
  6
CONTINUOUS
 10
6.9022903727
 20
5.3909045136
 11
6.9022903727
 21
5.3154045136
  0
ARC
  5
385
100
AcDbEntity
  8
ALL_ASSEMBLY_MEMBERS
100
AcDbCircle
 62
7
  6
CONTINUOUS
 10
4.7437903727
 20
4.3397451946
 40
0.2015
100
AcDbArc
 50
180.0
 51
258.6164589941
  0
ARC
  5
386
100
AcDbEntity
  8
ALL_ASSEMBLY_MEMBERS
100
AcDbCircle
 62
7
  6
CONTINUOUS
 10
4.6731792031
 20
3.9890328834
 40
0.15625
100
AcDbArc
 50
18.8599610433
 51
78.6164589941
  0
ARC
  5
387
100
AcDbEntity
  8
ALL_ASSEMBLY_MEMBERS
100
AcDbCircle
 62
7
  6
CONTINUOUS
 10
4.5010403727
 20
3.6547091199
 40
0.125
100
AcDbArc
 50
55.0995
 51
304.9005
  0
ARC
  5
388
100
AcDbEntity
  8
ALL_ASSEMBLY_MEMBERS
100
AcDbCircle
 62
7
  6
CONTINUOUS
 10
4.6867565117
 20
3.4912091199
 40
0.093
100
AcDbArc
 50
48.2918697479
 51
133.3041758004
  0
ARC
  5
389
100
AcDbEntity
  8
ALL_ASSEMBLY_MEMBERS
100
AcDbCircle
 62
7
  6
CONTINUOUS
 10
4.6867565117
 20
3.8182091199
 40
0.093
100
AcDbArc
 50
226.6958241996
 51
311.7081302521
  0
ARC
  5
38A
100
AcDbEntity
  8
ALL_ASSEMBLY_MEMBERS
100
AcDbCircle
 62
7
  6
CONTINUOUS
 10
4.8522686517
 20
4.0502091199
 40
0.033
100
AcDbArc
 50
198.8599610433
 51
270.0
  0
ARC
  5
38B
100
AcDbEntity
  8
ALL_ASSEMBLY_MEMBERS
100
AcDbCircle
 62
7
  6
CONTINUOUS
 10
4.7589454998
 20
3.5722091199
 40
0.0155
100
AcDbArc
 50
228.2918697479
 51
238.9050788359
  0
ARC
  5
38C
100
AcDbEntity
  8
ALL_ASSEMBLY_MEMBERS
100
AcDbCircle
 62
7
  6
CONTINUOUS
 10
4.7589454998
 20
3.7372091199
 40
0.0155
100
AcDbArc
 50
121.0951765854
 51
131.7081302521
  0
ARC
  5
38D
100
AcDbEntity
  8
ALL_ASSEMBLY_MEMBERS
100
AcDbCircle
 62
7
  6
CONTINUOUS
 10
4.8335403727
 20
3.4418092934
 40
0.015
100
AcDbArc
 50
180.3824036553
 51
255.2369687319
  0
ARC
  5
38E
100
AcDbEntity
  8
ALL_ASSEMBLY_MEMBERS
100
AcDbCircle
 62
7
  6
CONTINUOUS
 10
4.6174835011
 20
3.5647091199
 40
0.008
100
AcDbArc
 50
180.0
 51
313.3041758004
  0
ARC
  5
38F
100
AcDbEntity
  8
ALL_ASSEMBLY_MEMBERS
100
AcDbCircle
 62
7
  6
CONTINUOUS
 10
4.6017197607
 20
3.5627792662
 40
0.008
100
AcDbArc
 50
13.9592487754
 51
124.9005
  0
ARC
  5
390
100
AcDbEntity
  8
ALL_ASSEMBLY_MEMBERS
100
AcDbCircle
 62
7
  6
CONTINUOUS
 10
4.6174835011
 20
3.7447091199
 40
0.008
100
AcDbArc
 50
46.6958241996
 51
180.0
  0
ARC
  5
391
100
AcDbEntity
  8
ALL_ASSEMBLY_MEMBERS
100
AcDbCircle
 62
7
  6
CONTINUOUS
 10
4.6017197607
 20
3.7466389737
 40
0.008
100
AcDbArc
 50
235.0995
 51
346.0407512246
  0
ARC
  5
392
100
AcDbEntity
  8
1_PLATE
100
AcDbCircle
 62
7
  6
CONTINUOUS
 10
3.8397903727
 20
5.3004045136
 40
0.1876501541
100
AcDbArc
 50
236.5042044368
 51
270.0
  0
ARC
  5
393
100
AcDbEntity
  8
1_PLATE
100
AcDbCircle
 62
7
  6
CONTINUOUS
 10
3.3657903727
 20
5.0814045136
 40
0.1251764377
100
AcDbArc
 50
48.5662292994
 51
60.6409205307
  0
ARC
  5
394
100
AcDbEntity
  8
1_PLATE
100
AcDbCircle
 62
7
  6
CONTINUOUS
 10
3.2772903727
 20
5.3154045136
 40
0.125
100
AcDbArc
 50
180.0
 51
270.0
  0
ARC
  5
395
100
AcDbEntity
  8
1_PLATE
100
AcDbCircle
 62
7
  6
CONTINUOUS
 10
3.5312903727
 20
5.2689045136
 40
0.124916545
100
AcDbArc
 50
228.5662292994
 51
270.0
  0
ARC
  5
396
100
AcDbEntity
  8
ALL_ASSEMBLY_MEMBERS
100
AcDbCircle
 62
7
  6
CONTINUOUS
 10
5.0272903727
 20
4.1770441276
 40
0.7753350077
100
AcDbArc
 50
255.2369687319
 51
284.7630312681
  0
ARC
  5
397
100
AcDbEntity
  8
ALL_ASSEMBLY_MEMBERS
100
AcDbCircle
 62
7
  6
CONTINUOUS
 10
5.3107903727
 20
4.3397451946
 40
0.2015
100
AcDbArc
 50
281.3835410059
 51
360.0
  0
ARC
  5
398
100
AcDbEntity
  8
ALL_ASSEMBLY_MEMBERS
100
AcDbCircle
 62
7
  6
CONTINUOUS
 10
5.3814015422
 20
3.9890328834
 40
0.15625
100
AcDbArc
 50
101.3835410059
 51
161.1400389567
  0
ARC
  5
399
100
AcDbEntity
  8
ALL_ASSEMBLY_MEMBERS
100
AcDbCircle
 62
7
  6
CONTINUOUS
 10
5.0421029328
 20
3.926165017
 40
0.1504181965
100
AcDbArc
 50
4.4977235758
 51
4.7265238996
  0
ARC
  5
39A
100
AcDbEntity
  8
ALL_ASSEMBLY_MEMBERS
100
AcDbCircle
 62
7
  6
CONTINUOUS
 10
5.0456606894
 20
3.9264603365
 40
0.1468482043
100
AcDbArc
 50
4.7260726732
 51
5.0026482759
  0
ARC
  5
39B
100
AcDbEntity
  8
ALL_ASSEMBLY_MEMBERS
100
AcDbCircle
 62
7
  6
CONTINUOUS
 10
5.5535403727
 20
3.6547091199
 40
0.125
100
AcDbArc
 50
235.0995
 51
124.9005
  0
ARC
  5
39C
100
AcDbEntity
  8
ALL_ASSEMBLY_MEMBERS
100
AcDbCircle
 62
7
  6
CONTINUOUS
 10
5.3678242336
 20
3.4912091199
 40
0.093
100
AcDbArc
 50
46.6958241996
 51
131.7081302521
  0
ARC
  5
39D
100
AcDbEntity
  8
ALL_ASSEMBLY_MEMBERS
100
AcDbCircle
 62
7
  6
CONTINUOUS
 10
5.3678242336
 20
3.8182091199
 40
0.093
100
AcDbArc
 50
228.2918697479
 51
313.3041758004
  0
ARC
  5
39E
100
AcDbEntity
  8
ALL_ASSEMBLY_MEMBERS
100
AcDbCircle
 62
7
  6
CONTINUOUS
 10
5.2281450096
 20
3.9284975863
 40
0.0740341076
100
AcDbArc
 50
176.7369135574
 51
183.320748276
  0
ARC
  5
39F
100
AcDbEntity
  8
ALL_ASSEMBLY_MEMBERS
100
AcDbCircle
 62
7
  6
CONTINUOUS
 10
5.2184199148
 20
3.9284916941
 40
0.0643274097
100
AcDbArc
 50
176.2710496903
 51
183.8172700307
  0
ARC
  5
3A0
100
AcDbEntity
  8
ALL_ASSEMBLY_MEMBERS
100
AcDbCircle
 62
7
  6
CONTINUOUS
 10
5.1986570451
 20
3.9135750336
 40
0.0459227174
100
AcDbArc
 50
211.4422132538
 51
215.2451583491
  0
ARC
  5
3A1
100
AcDbEntity
  8
ALL_ASSEMBLY_MEMBERS
100
AcDbCircle
 62
7
  6
CONTINUOUS
 10
5.1453543763
 20
3.9151201857
 40
0.0442528148
100
AcDbArc
 50
335.32917337
 51
335.4638873545
  0
ARC
  5
3A2
100
AcDbEntity
  8
ALL_ASSEMBLY_MEMBERS
100
AcDbCircle
 62
7
  6
CONTINUOUS
 10
5.1461843633
 20
3.9147370792
 40
0.043338678
100
AcDbArc
 50
334.0912271
 51
335.33141635
  0
ARC
  5
3A3
100
AcDbEntity
  8
ALL_ASSEMBLY_MEMBERS
100
AcDbCircle
 62
7
  6
CONTINUOUS
 10
5.2023120937
 20
4.0502091199
 40
0.033
100
AcDbArc
 50
270.0
 51
341.1400389567
  0
ARC
  5
3A4
100
AcDbEntity
  8
ALL_ASSEMBLY_MEMBERS
100
AcDbCircle
 62
7
  6
CONTINUOUS
 10
5.16839071
 20
3.9381850675
 40
0.0218287055
100
AcDbArc
 50
35.2454788765
 51
38.7166700354
  0
ARC
  5
3A5
100
AcDbEntity
  8
ALL_ASSEMBLY_MEMBERS
100
AcDbCircle
 62
7
  6
CONTINUOUS
 10
5.2956352455
 20
3.5722091199
 40
0.0155
100
AcDbArc
 50
301.0950242432
 51
311.7081302521
  0
ARC
  5
3A6
100
AcDbEntity
  8
ALL_ASSEMBLY_MEMBERS
100
AcDbCircle
 62
7
  6
CONTINUOUS
 10
5.2956352455
 20
3.7372091199
 40
0.0155
100
AcDbArc
 50
48.2918697479
 51
58.9048135488
  0
ARC
  5
3A7
100
AcDbEntity
  8
ALL_ASSEMBLY_MEMBERS
100
AcDbCircle
 62
7
  6
CONTINUOUS
 10
5.2210403727
 20
3.4418092934
 40
0.015
100
AcDbArc
 50
284.7630312681
 51
359.6175963447
  0
ARC
  5
3A8
100
AcDbEntity
  8
ALL_ASSEMBLY_MEMBERS
100
AcDbCircle
 62
7
  6
CONTINUOUS
 10
5.1710696851
 20
3.8950786471
 40
0.0116990406
100
AcDbArc
 50
265.8699547341
 51
280.3634434942
  0
ARC
  5
3A9
100
AcDbEntity
  8
ALL_ASSEMBLY_MEMBERS
100
AcDbCircle
 62
7
  6
CONTINUOUS
 10
5.4370972442
 20
3.5647091199
 40
0.008
100
AcDbArc
 50
226.6958241996
 51
360.0
  0
ARC
  5
3AA
100
AcDbEntity
  8
ALL_ASSEMBLY_MEMBERS
100
AcDbCircle
 62
7
  6
CONTINUOUS
 10
5.4528609846
 20
3.5627792662
 40
0.008
100
AcDbArc
 50
55.0995
 51
166.0407512246
  0
ARC
  5
3AB
100
AcDbEntity
  8
ALL_ASSEMBLY_MEMBERS
100
AcDbCircle
 62
7
  6
CONTINUOUS
 10
5.4370972442
 20
3.7447091199
 40
0.008
100
AcDbArc
 50
0.0
 51
133.3041758004
  0
ARC
  5
3AC
100
AcDbEntity
  8
ALL_ASSEMBLY_MEMBERS
100
AcDbCircle
 62
7
  6
CONTINUOUS
 10
5.4528609846
 20
3.7466389737
 40
0.008
100
AcDbArc
 50
193.9592487754
 51
304.9005
  0
ARC
  5
3AD
100
AcDbEntity
  8
1_PLATE
100
AcDbCircle
 62
7
  6
CONTINUOUS
 10
6.2147903727
 20
5.3004045136
 40
0.1876501541
100
AcDbArc
 50
270.0
 51
303.4957955632
  0
ARC
  5
3AE
100
AcDbEntity
  8
1_PLATE
100
AcDbCircle
 62
7
  6
CONTINUOUS
 10
6.6887903727
 20
5.0814045136
 40
0.1251764377
100
AcDbArc
 50
119.3590794693
 51
131.4337707006
  0
ARC
  5
3AF
100
AcDbEntity
  8
1_PLATE
100
AcDbCircle
 62
7
  6
CONTINUOUS
 10
6.7772903727
 20
5.3154045136
 40
0.125
100
AcDbArc
 50
270.0
 51
360.0
  0
ARC
  5
3B0
100
AcDbEntity
  8
1_PLATE
100
AcDbCircle
 62
7
  6
CONTINUOUS
 10
6.5232903727
 20
5.2689045136
 40
0.124916545
100
AcDbArc
 50
270.0
 51
311.4337707006
  0
CIRCLE
  5
3B1
100
AcDbEntity
  8
ALL_ASSEMBLY_MEMBERS
100
AcDbCircle
 62
7
  6
CONTINUOUS
 10
5.0272903727
 20
4.4392091199
 40
0.07
  0
CIRCLE
  5
3B2
100
AcDbEntity
  8
ALL_ASSEMBLY_MEMBERS
100
AcDbCircle
 62
7
  6
CONTINUOUS
 10
5.0272903727
 20
4.4392091199
 40
0.065
  0
CIRCLE
  5
3B3
100
AcDbEntity
  8
ALL_ASSEMBLY_MEMBERS
100
AcDbCircle
 62
7
  6
CONTINUOUS
 10
5.0272903727
 20
4.4392091199
 40
0.0445454545
  0
SPLINE
  5
3B4
100
AcDbEntity
  8
ALL_ASSEMBLY_MEMBERS
100
AcDbSpline
 62
7
  6
CONTINUOUS
 70
0
 71
3
 72
14
 73
10
 74
0
 42
0.0000001
 43
0.0000001
 44
0.0000000001
 40
0.0
 40
0.0
 40
0.0
 40
0.0
 40
0.2580499591
 40
0.3859840449
 40
0.5126744849
 40
0.6377644173
 40
0.7609219225
 40
0.881799152
 40
1.0
 40
1.0
 40
1.0
 40
1.0
 10
5.1542352122
 20
3.92420912
 30
0.0
 10
5.1543248067
 20
3.9226629509
 30
0.0
 10
5.1545313041
 20
3.9203534837
 30
0.0
 10
5.1549540891
 20
3.9173053165
 30
0.0
 10
5.1553419346
 20
3.9150591227
 30
0.0
 10
5.1558004637
 20
3.9128555825
 30
0.0
 10
5.1563283785
 20
3.9107034825
 30
0.0
 10
5.1569240761
 20
3.9086121185
 30
0.0
 10
5.1573702414
 20
3.9072478758
 30
0.0
 10
5.1576046708
 20
3.9065783121
 30
0.0
  0
SPLINE
  5
3B5
100
AcDbEntity
  8
ALL_ASSEMBLY_MEMBERS
100
AcDbSpline
 62
7
  6
CONTINUOUS
 70
0
 71
3
 72
37
 73
33
 74
0
 42
0.0000001
 43
0.0000001
 44
0.0000000001
 40
0.0
 40
0.0
 40
0.0
 40
0.0
 40
0.0419518716
 40
0.0830296085
 40
0.1622543768
 40
0.2003126578
 40
0.2372856298
 40
0.27314874
 40
0.3078849403
 40
0.3414867341
 40
0.3739622111
 40
0.4356073199
 40
0.4649015345
 40
0.4932571544
 40
0.5207659156
 40
0.5475402189
 40
0.5737102413
 40
0.5994243225
 40
0.6248451226
 40
0.6501455026
 40
0.6755035295
 40
0.7010964774
 40
0.7270961574
 40
0.7536617252
 40
0.7809384318
 40
0.8090534618
 40
0.838113224
 40
0.8682067391
 40
0.8994013385
 40
0.9317461554
 40
0.9652744145
 40
1.0
 40
1.0
 40
1.0
 40
1.0
 10
5.1576046708
 20
3.9065783121
 30
0.0
 10
5.1577860819
 20
3.9060601763
 30
0.0
 10
5.1581616109
 20
3.9050403445
 30
0.0
 10
5.1589622912
 20
3.9030736027
 30
0.0
 10
5.1598445008
 20
3.9011958693
 30
0.0
 10
5.160811711
 20
3.8994235701
 30
0.0
 10
5.161560389
 20
3.8981799079
 30
0.0
 10
5.1623403373
 20
3.8970074459
 30
0.0
 10
5.1631496587
 20
3.8959093676
 30
0.0
 10
5.1639867218
 20
3.8948887856
 30
0.0
 10
5.1651171061
 20
3.8936569527
 30
0.0
 10
5.1663132764
 20
3.8925638946
 30
0.0
 10
5.1675709609
 20
3.8916371872
 30
0.0
 10
5.1685156178
 20
3.8910439116
 30
0.0
 10
5.1694752661
 20
3.8905428155
 30
0.0
 10
5.1704474656
 20
3.8901353844
 30
0.0
 10
5.1714298217
 20
3.8898232772
 30
0.0
 10
5.1724197472
 20
3.8896077522
 30
0.0
 10
5.1734145573
 20
3.8894896005
 30
0.0
 10
5.1744115363
 20
3.8894697314
 30
0.0
 10
5.1754078645
 20
3.8895482734
 30
0.0
 10
5.1764007642
 20
3.8897251922
 30
0.0
 10
5.1773873988
 20
3.8900002917
 30
0.0
 10
5.1783651128
 20
3.8903726181
 30
0.0
 10
5.1793311965
 20
3.8908413472
 30
0.0
 10
5.1802830313
 20
3.8914052043
 30
0.0
 10
5.1812181918
 20
3.8920625197
 30
0.0
 10
5.1821340583
 20
3.8928117079
 30
0.0
 10
5.1830282932
 20
3.8936506107
 30
0.0
 10
5.1838985342
 20
3.8945769687
 30
0.0
 10
5.1847422972
 20
3.8955883086
 30
0.0
 10
5.1852764215
 20
3.8963047695
 30
0.0
 10
5.1855387853
 20
3.8966757913
 30
0.0
  0
SPLINE
  5
3B6
100
AcDbEntity
  8
ALL_ASSEMBLY_MEMBERS
100
AcDbSpline
 62
7
  6
CONTINUOUS
 70
0
 71
3
 72
24
 73
20
 74
0
 42
0.0000001
 43
0.0000001
 44
0.0000000001
 40
0.0
 40
0.0
 40
0.0
 40
0.0
 40
0.0626147369
 40
0.1270905605
 40
0.1930032417
 40
0.2599738781
 40
0.3275994505
 40
0.39545374
 40
0.4631125067
 40
0.530155601
 40
0.5961708358
 40
0.6607617169
 40
0.7235534879
 40
0.7842027744
 40
0.8424008708
 40
0.8978891313
 40
0.9245547351
 40
0.9504727006
 40
1.0
 40
1.0
 40
1.0
 40
1.0
 10
5.1917180509
 20
3.9392366535
 30
0.0
 10
5.1919505581
 20
3.9383976313
 30
0.0
 10
5.1923745845
 20
3.9366810587
 30
0.0
 10
5.1928828302
 20
3.9340448763
 30
0.0
 10
5.193268982
 20
3.9313268524
 30
0.0
 10
5.193529933
 20
3.9285500527
 30
0.0
 10
5.1936636871
 20
3.9257372184
 30
0.0
 10
5.1936688872
 20
3.9229116544
 30
0.0
 10
5.193545713
 20
3.9200968701
 30
0.0
 10
5.1932949851
 20
3.9173162166
 30
0.0
 10
5.1929189621
 20
3.9145927307
 30
0.0
 10
5.1924206903
 20
3.911948993
 30
0.0
 10
5.1918042666
 20
3.9094069019
 30
0.0
 10
5.1910749526
 20
3.9069874035
 30
0.0
 10
5.1902385277
 20
3.904710603
 30
0.0
 10
5.18944799
 20
3.9029245103
 30
0.0
 10
5.1887655707
 20
3.9015852964
 30
0.0
 10
5.1880733092
 20
3.9003454458
 30
0.0
 10
5.1875075467
 20
3.8994600364
 30
0.0
 10
5.1871099308
 20
3.8988977548
 30
0.0
  0
LINE
  5
3B7
100
AcDbEntity
  8
ALL_ASSEMBLY_MEMBERS
100
AcDbLine
 62
7
  6
CONTINUOUS
 10
5.1854230993
 20
3.9518419776
 11
5.1848394647
 21
3.9527314114
  0
SPLINE
  5
3B8
100
AcDbEntity
  8
ALL_ASSEMBLY_MEMBERS
100
AcDbSpline
 62
7
  6
CONTINUOUS
 70
0
 71
3
 72
14
 73
10
 74
0
 42
0.0000001
 43
0.0000001
 44
0.0000000001
 40
0.0
 40
0.0
 40
0.0
 40
0.0
 40
0.1108650263
 40
0.2260104269
 40
0.3453620857
 40
0.4688118449
 40
0.7273708291
 40
0.862089344
 40
1.0
 40
1.0
 40
1.0
 40
1.0
 10
5.1871099357
 20
3.9495204989
 30
0.0
 10
5.1873514894
 20
3.9491788621
 30
0.0
 10
5.1878240907
 20
3.9484681969
 30
0.0
 10
5.1884889757
 20
3.9473465497
 30
0.0
 10
5.1891212964
 20
3.9461521945
 30
0.0
 10
5.1899308013
 20
3.9444414099
 30
0.0
 10
5.1906515044
 20
3.9426266637
 30
0.0
 10
5.1912875026
 20
3.9407252499
 30
0.0
 10
5.1915790562
 20
3.9397382279
 30
0.0
 10
5.1917180509
 20
3.9392366535
 30
0.0
  0
SPLINE
  5
3B9
100
AcDbEntity
  8
ALL_ASSEMBLY_MEMBERS
100
AcDbSpline
 62
7
  6
CONTINUOUS
 70
0
 71
3
 72
11
 73
7
 74
0
 42
0.0000001
 43
0.0000001
 44
0.0000000001
 40
0.0
 40
0.0
 40
0.0
 40
0.0
 40
0.2742099375
 40
0.5311646087
 40
0.7723637334
 40
1.0
 40
1.0
 40
1.0
 40
1.0
 10
5.1854225239
 20
3.9518382613
 30
0.0
 10
5.1850356533
 20
3.952319892
 30
0.0
 10
5.1842431089
 20
3.9532195676
 30
0.0
 10
5.1829571797
 20
3.9543973739
 30
0.0
 10
5.18162244
 20
3.9553493519
 30
0.0
 10
5.1806821833
 20
3.9558403533
 30
0.0
 10
5.1802103089
 20
3.9560412051
 30
0.0
  0
SPLINE
  5
3BA
100
AcDbEntity
  8
ALL_ASSEMBLY_MEMBERS
100
AcDbSpline
 62
7
  6
CONTINUOUS
 70
0
 71
3
 72
29
 73
25
 74
0
 42
0.0000001
 43
0.0000001
 44
0.0000000001
 40
0.0
 40
0.0
 40
0.0
 40
0.0
 40
0.0767741178
 40
0.1496731984
 40
0.218823853
 40
0.2520660895
 40
0.2844621104
 40
0.3468739867
 40
0.406510677
 40
0.4639220231
 40
0.4920094648
 40
0.5197950551
 40
0.547374499
 40
0.5748467015
 40
0.602312846
 40
0.6298746262
 40
0.657632254
 40
0.6856835489
 40
0.7141230943
 40
0.7430403326
 40
0.8026051077
 40
0.864992549
 40
0.9306723707
 40
1.0
 40
1.0
 40
1.0
 40
1.0
 10
5.1815587576
 20
3.9573710765
 30
0.0
 10
5.1812372158
 20
3.9578258099
 30
0.0
 10
5.1805812472
 20
3.9586923262
 30
0.0
 10
5.1795315118
 20
3.9598850141
 30
0.0
 10
5.1786147857
 20
3.9607688039
 30
0.0
 10
5.1778651976
 20
3.9613971659
 30
0.0
 10
5.1771252303
 20
3.9619591457
 30
0.0
 10
5.1761827941
 20
3.9625691975
 30
0.0
 10
5.1750152004
 20
3.9631513112
 30
0.0
 10
5.1740198568
 20
3.9635039088
 30
0.0
 10
5.1732214293
 20
3.9637006059
 30
0.0
 10
5.1726247855
 20
3.9638058461
 30
0.0
 10
5.1720267985
 20
3.9638696617
 30
0.0
 10
5.1714281341
 20
3.9638919275
 30
0.0
 10
5.1708294984
 20
3.9638724828
 30
0.0
 10
5.1702316013
 20
3.9638113252
 30
0.0
 10
5.1696351414
 20
3.9637085306
 30
0.0
 10
5.169040819
 20
3.963564171
 30
0.0
 10
5.1684493197
 20
3.9633782962
 30
0.0
 10
5.1676577143
 20
3.963072386
 30
0.0
 10
5.1666758131
 20
3.9625825313
 30
0.0
 10
5.165533108
 20
3.9618382111
 30
0.0
 10
5.1644190527
 20
3.9609349938
 30
0.0
 10
5.1637183468
 20
3.9602486154
 30
0.0
 10
5.1633738459
 20
3.9598822273
 30
0.0
  0
SPLINE
  5
3BB
100
AcDbEntity
  8
ALL_ASSEMBLY_MEMBERS
100
AcDbSpline
 62
7
  6
CONTINUOUS
 70
0
 71
3
 72
23
 73
19
 74
0
 42
0.0000001
 43
0.0000001
 44
0.0000000001
 40
0.0
 40
0.0
 40
0.0
 40
0.0
 40
0.0470204081
 40
0.0962883011
 40
0.1478475281
 40
0.2017047684
 40
0.2578431373
 40
0.316217878
 40
0.3767612813
 40
0.4393891671
 40
0.5039946665
 40
0.5704600023
 40
0.6386503818
 40
0.7084196576
 40
0.7796115879
 40
0.8520569199
 40
0.9255813818
 40
1.0
 40
1.0
 40
1.0
 40
1.0
 10
5.1633738459
 20
3.9598822273
 30
0.0
 10
5.1630605148
 20
3.9595489893
 30
0.0
 10
5.1624442114
 20
3.9588424108
 30
0.0
 10
5.1615725866
 20
3.9576972269
 30
0.0
 10
5.1607356636
 20
3.9564456332
 30
0.0
 10
5.1599363028
 20
3.9550916435
 30
0.0
 10
5.159177556
 20
3.9536393278
 30
0.0
 10
5.158462181
 20
3.9520932711
 30
0.0
 10
5.1577928393
 20
3.9504583663
 30
0.0
 10
5.1571722705
 20
3.9487397969
 30
0.0
 10
5.1566027266
 20
3.9469431628
 30
0.0
 10
5.1560866891
 20
3.9450742705
 30
0.0
 10
5.1556261813
 20
3.943139282
 30
0.0
 10
5.155223194
 20
3.9411445911
 30
0.0
 10
5.1548795876
 20
3.9390968563
 30
0.0
 10
5.1545968166
 20
3.937002979
 30
0.0
 10
5.1543764692
 20
3.9348700875
 30
0.0
 10
5.1542724185
 20
3.933434416
 30
0.0
 10
5.1542309338
 20
3.9327116684
 30
0.0
  0
SPLINE
  5
3BC
100
AcDbEntity
  8
ALL_ASSEMBLY_MEMBERS
100
AcDbSpline
 62
7
  6
CONTINUOUS
 70
0
 71
3
 72
48
 73
44
 74
0
 42
0.0000001
 43
0.0000001
 44
0.0000000001
 40
0.0
 40
0.0
 40
0.0
 40
0.0
 40
0.0375728539
 40
0.0761728345
 40
0.1155902695
 40
0.1556411324
 40
0.1961382592
 40
0.2368783502
 40
0.2776558175
 40
0.318266562
 40
0.3585086826
 40
0.3981838241
 40
0.4371008065
 40
0.4750778342
 40
0.5119457788
 40
0.5475501843
 40
0.5817561704
 40
0.6144501878
 40
0.6302047226
 40
0.6455520252
 40
0.6749974242
 40
0.6890979698
 40
0.7027840325
 40
0.7289278601
 40
0.7535218738
 40
0.7767120607
 40
0.7987159181
 40
0.8093670255
 40
0.8198347096
 40
0.830164594
 40
0.8404048485
 40
0.8506057136
 40
0.8608183436
 40
0.8710934322
 40
0.8814805003
 40
0.8920269349
 40
0.9027765436
 40
0.9137694496
 40
0.9250420767
 40
0.9366263039
 40
0.9485488464
 40
0.9734866124
 40
1.0
 40
1.0
 40
1.0
 40
1.0
 10
5.1646039727
 20
3.9091815864
 30
0.0
 10
5.164396056
 20
3.9099318718
 30
0.0
 10
5.1640128415
 20
3.9114637993
 30
0.0
 10
5.1635403164
 20
3.913812711
 30
0.0
 10
5.1631652668
 20
3.9162311342
 30
0.0
 10
5.1628899906
 20
3.918702437
 30
0.0
 10
5.1627164303
 20
3.9212104138
 30
0.0
 10
5.1626455351
 20
3.9237384377
 30
0.0
 10
5.1626780382
 20
3.9262696001
 30
0.0
 10
5.1628135168
 20
3.9287870174
 30
0.0
 10
5.1630512111
 20
3.9312739226
 30
0.0
 10
5.1633894147
 20
3.9337137663
 30
0.0
 10
5.1638259613
 20
3.9360902862
 30
0.0
 10
5.1643578836
 20
3.9383876861
 30
0.0
 10
5.1649816541
 20
3.9405906896
 30
0.0
 10
5.1656931623
 20
3.9426846993
 30
0.0
 10
5.1664876256
 20
3.9446557914
 30
0.0
 10
5.1672234023
 20
3.9462038189
 30
0.0
 10
5.16785069
 20
3.9473677351
 30
0.0
 10
5.1684844226
 20
3.9484507415
 30
0.0
 10
5.1691583542
 20
3.9494699172
 30
0.0
 10
5.1698736749
 20
3.9504162376
 30
0.0
 10
5.1705863008
 20
3.9512774293
 30
0.0
 10
5.1715079407
 20
3.952246378
 30
0.0
 10
5.1726770926
 20
3.9532411687
 30
0.0
 10
5.1738853498
 20
3.9540424782
 30
0.0
 10
5.174930218
 20
3.9545496019
 30
0.0
 10
5.175773325
 20
3.9548478434
 30
0.0
 10
5.1764031357
 20
3.955017781
 30
0.0
 10
5.1770360083
 20
3.9551360265
 30
0.0
 10
5.1776708805
 20
3.9552023137
 30
0.0
 10
5.1783066248
 20
3.9552163903
 30
0.0
 10
5.1789421043
 20
3.9551783599
 30
0.0
 10
5.1795762075
 20
3.9550883299
 30
0.0
 10
5.1802078182
 20
3.9549464054
 30
0.0
 10
5.1808358128
 20
3.9547528
 30
0.0
 10
5.1814591467
 20
3.9545080149
 30
0.0
 10
5.1820767819
 20
3.9542125136
 30
0.0
 10
5.1826876534
 20
3.9538667511
 30
0.0
 10
5.1832907469
 20
3.9534713219
 30
0.0
 10
5.184095212
 20
3.9528699747
 30
0.0
 10
5.1850757059
 20
3.9519921516
 30
0.0
 10
5.1857941209
 20
3.9512019289
 30
0.0
 10
5.1861454977
 20
3.9507795926
 30
0.0
  0
LINE
  5
3BD
100
AcDbEntity
  8
ALL_ASSEMBLY_MEMBERS
100
AcDbLine
 62
7
  6
CONTINUOUS
 10
5.1861722517
 20
3.9507473625
 11
5.1871099357
 21
3.9495204989
  0
LINE
  5
3BE
100
AcDbEntity
  8
ALL_ASSEMBLY_MEMBERS
100
AcDbLine
 62
7
  6
CONTINUOUS
 10
5.1871099308
 20
3.8988977548
 11
5.1854023849
 21
3.8968001896
  0
SPLINE
  5
3BF
100
AcDbEntity
  8
ALL_ASSEMBLY_MEMBERS
100
AcDbSpline
 62
7
  6
CONTINUOUS
 70
0
 71
3
 72
36
 73
32
 74
0
 42
0.0000001
 43
0.0000001
 44
0.0000000001
 40
0.0
 40
0.0
 40
0.0
 40
0.0
 40
0.0309536718
 40
0.0608064808
 40
0.0896147964
 40
0.1174518802
 40
0.1444108525
 40
0.1706008661
 40
0.1961479551
 40
0.2211959598
 40
0.2459011766
 40
0.2704294409
 40
0.2949525953
 40
0.3196419836
 40
0.344664444
 40
0.3701774738
 40
0.3963240665
 40
0.4232324959
 40
0.451014353
 40
0.4797609692
 40
0.5404029799
 40
0.5724301123
 40
0.6056260464
 40
0.6400075409
 40
0.6755759088
 40
0.7123204472
 40
0.7502233586
 40
0.7892598734
 40
0.8293986314
 40
0.9128135187
 40
1.0
 40
1.0
 40
1.0
 40
1.0
 10
5.1854023849
 20
3.8968001896
 30
0.0
 10
5.1851850019
 20
3.8965704763
 30
0.0
 10
5.1847448619
 20
3.8961313599
 30
0.0
 10
5.1840568547
 20
3.8955262497
 30
0.0
 10
5.1833547268
 20
3.894988306
 30
0.0
 10
5.1826400288
 20
3.894518984
 30
0.0
 10
5.1819144851
 20
3.8941193045
 30
0.0
 10
5.1811797528
 20
3.8937902921
 30
0.0
 10
5.1804374901
 20
3.8935330117
 30
0.0
 10
5.1796895477
 20
3.8933480397
 30
0.0
 10
5.1789377548
 20
3.8932358495
 30
0.0
 10
5.1781839719
 20
3.8931969788
 30
0.0
 10
5.1774301428
 20
3.8932314629
 30
0.0
 10
5.1766781595
 20
3.8933390694
 30
0.0
 10
5.1759299229
 20
3.8935196352
 30
0.0
 10
5.1751873041
 20
3.8937726425
 30
0.0
 10
5.1744520284
 20
3.8940972189
 30
0.0
 10
5.1737258549
 20
3.8944925836
 30
0.0
 10
5.1730104961
 20
3.8949578233
 30
0.0
 10
5.1720563478
 20
3.895682298
 30
0.0
 10
5.1711482444
 20
3.8965333183
 30
0.0
 10
5.17028901
 20
3.8974906765
 30
0.0
 10
5.1696512482
 20
3.8982844375
 30
0.0
 10
5.169033665
 20
3.8991389023
 30
0.0
 10
5.1684375446
 20
3.9000520728
 30
0.0
 10
5.167864228
 20
3.9010217238
 30
0.0
 10
5.1673151241
 20
3.9020456473
 30
0.0
 10
5.1667914919
 20
3.9031215125
 30
0.0
 10
5.1661201806
 20
3.9046414311
 30
0.0
 10
5.1653559021
 20
3.9066562791
 30
0.0
 10
5.1648418674
 20
3.9083231227
 30
0.0
 10
5.1646039727
 20
3.9091815864
 30
0.0
  0
SPLINE
  5
3C0
100
AcDbEntity
  8
ALL_ASSEMBLY_MEMBERS
100
AcDbSpline
 62
7
  6
CONTINUOUS
 70
0
 71
3
 72
15
 73
11
 74
0
 42
0.0000001
 43
0.0000001
 44
0.0000000001
 40
0.0
 40
0.0
 40
0.0
 40
0.0
 40
0.1527923752
 40
0.2964113321
 40
0.4311864053
 40
0.5576561718
 40
0.6765949672
 40
0.7890449338
 40
0.8963162169
 40
1.0
 40
1.0
 40
1.0
 40
1.0
 10
5.1848394647
 20
3.9527314114
 30
0.0
 10
5.1846669886
 20
3.9529753049
 30
0.0
 10
5.1843175207
 20
3.9534382269
 30
0.0
 10
5.1837618203
 20
3.9540731965
 30
0.0
 10
5.1831926809
 20
3.9546247496
 30
0.0
 10
5.1826120246
 20
3.9550907159
 30
0.0
 10
5.182021759
 20
3.9554690723
 30
0.0
 10
5.1814237425
 20
3.9557574692
 30
0.0
 10
5.180820706
 20
3.9559539728
 30
0.0
 10
5.1804122149
 20
3.9560231975
 30
0.0
 10
5.1802103089
 20
3.9560412051
 30
0.0
  0
SPLINE
  5
3C1
100
AcDbEntity
  8
ALL_ASSEMBLY_MEMBERS
100
AcDbSpline
 62
7
  6
CONTINUOUS
 70
0
 71
3
 72
29
 73
25
 74
0
 42
0.0000001
 43
0.0000001
 44
0.0000000001
 40
0.0
 40
0.0
 40
0.0
 40
0.0
 40
0.0217363246
 40
0.0440180925
 40
0.0669181663
 40
0.0904973793
 40
0.1148034936
 40
0.1398742878
 40
0.1657361714
 40
0.1924040751
 40
0.2481620737
 40
0.3071155932
 40
0.3377485386
 40
0.3691088195
 40
0.4338564908
 40
0.5010259232
 40
0.53539807
 40
0.5702186592
 40
0.6409635454
 40
0.7127723688
 40
0.7851230184
 40
0.8574754213
 40
0.9292825869
 40
1.0
 40
1.0
 40
1.0
 40
1.0
 10
5.1665131364
 20
3.8924370532
 30
0.0
 10
5.166207278
 20
3.8925566091
 30
0.0
 10
5.1655974755
 20
3.8928239726
 30
0.0
 10
5.1647044703
 20
3.8932998464
 30
0.0
 10
5.1638247071
 20
3.8938539579
 30
0.0
 10
5.1629602098
 20
3.8944848227
 30
0.0
 10
5.1621127166
 20
3.8951906746
 30
0.0
 10
5.1612841471
 20
3.8959698083
 30
0.0
 10
5.160476268
 20
3.8968202429
 30
0.0
 10
5.1594131645
 20
3.8980646231
 30
0.0
 10
5.1581498059
 20
3.8997911401
 30
0.0
 10
5.1570108549
 20
3.9016714937
 30
0.0
 10
5.1561557127
 20
3.9032867164
 30
0.0
 10
5.1553227597
 20
3.9050113064
 30
0.0
 10
5.1543689815
 20
3.9072884572
 30
0.0
 10
5.1535480925
 20
3.9096646133
 30
0.0
 10
5.1529621055
 20
3.9116399449
 30
0.0
 10
5.1524192559
 20
3.913683521
 30
0.0
 10
5.1518405263
 20
3.916301556
 30
0.0
 10
5.1513083661
 20
3.9195058838
 30
0.0
 10
5.150938137
 20
3.9227573605
 30
0.0
 10
5.1507314153
 20
3.9260232578
 30
0.0
 10
5.1506879718
 20
3.9292706317
 30
0.0
 10
5.1507675598
 20
3.931423543
 30
0.0
 10
5.1508348578
 20
3.9324898271
 30
0.0
  0
SPLINE
  5
3C2
100
AcDbEntity
  8
ALL_ASSEMBLY_MEMBERS
100
AcDbSpline
 62
7
  6
CONTINUOUS
 70
0
 71
3
 72
11
 73
7
 74
0
 42
0.0000001
 43
0.0000001
 44
0.0000000001
 40
0.0
 40
0.0
 40
0.0
 40
0.0
 40
0.2676108329
 40
0.5234827655
 40
0.7675723773
 40
1.0
 40
1.0
 40
1.0
 40
1.0
 10
5.1548876528
 20
3.9493426167
 30
0.0
 10
5.1550750389
 20
3.9497146614
 30
0.0
 10
5.155459074
 20
3.9504338208
 30
0.0
 10
5.1560771852
 20
3.9514570383
 30
0.0
 10
5.1567225097
 20
3.9523976665
 30
0.0
 10
5.1571804785
 20
3.9529819987
 30
0.0
 10
5.1574136871
 20
3.9532586126
 30
0.0
  0
SPLINE
  5
3C3
100
AcDbEntity
  8
ALL_ASSEMBLY_MEMBERS
100
AcDbSpline
 62
7
  6
CONTINUOUS
 70
0
 71
3
 72
10
 73
6
 74
0
 42
0.0000001
 43
0.0000001
 44
0.0000000001
 40
0.0
 40
0.0
 40
0.0
 40
0.0
 40
0.2695333779
 40
0.5254915335
 40
1.0
 40
1.0
 40
1.0
 40
1.0
 10
5.1574136871
 20
3.9532586126
 30
0.0
 10
5.157639809
 20
3.9535268209
 30
0.0
 10
5.1580991282
 20
3.9540348104
 30
0.0
 10
5.1590455915
 20
3.9549290148
 30
0.0
 10
5.1598199493
 20
3.9554936727
 30
0.0
 10
5.1603557764
 20
3.9558007713
 30
0.0
  0
SPLINE
  5
3C4
100
AcDbEntity
  8
ALL_ASSEMBLY_MEMBERS
100
AcDbSpline
 62
7
  6
CONTINUOUS
 70
0
 71
3
 72
46
 73
42
 74
0
 42
0.0000001
 43
0.0000001
 44
0.0000000001
 40
0.0
 40
0.0
 40
0.0
 40
0.0
 40
0.2059551021
 40
0.3034808101
 40
0.3966377623
 40
0.4849403958
 40
0.5678965095
 40
0.6450064185
 40
0.7157833474
 40
0.7797405986
 40
0.8090128609
 40
0.8364015872
 40
0.8618474754
 40
0.8852963325
 40
0.9066965299
 40
0.9259962168
 40
0.9431445912
 40
0.9581008194
 40
0.9647456023
 40
0.9708288091
 40
0.9763459176
 40
0.9812924
 40
0.9856638858
 40
0.9894577202
 40
0.9926722872
 40
0.9940618446
 40
0.9953059842
 40
0.9964045056
 40
0.9973572082
 40
0.9981638916
 40
0.9988243553
 40
0.9990996921
 40
0.9993383986
 40
0.99954045
 40
0.999705821
 40
0.9998344866
 40
0.9999264217
 40
0.9999586074
 40
0.9999816012
 40
0.9999953997
 40
1.0
 40
1.0
 40
1.0
 40
1.0
 10
5.2885403727
 20
3.6872091199
 30
0.0
 10
5.2891532081
 20
3.6921353739
 30
0.0
 10
5.2902559237
 20
3.699371414
 30
0.0
 10
5.2920588048
 20
3.7087607807
 30
0.0
 10
5.293481506
 20
3.7153337211
 30
0.0
 10
5.2949644674
 20
3.7215325709
 30
0.0
 10
5.296472393
 20
3.7273264555
 30
0.0
 10
5.2979700719
 20
3.7326854913
 30
0.0
 10
5.2994235486
 20
3.7375806265
 30
0.0
 10
5.3006022485
 20
3.7413540607
 30
0.0
 10
5.3014957262
 20
3.7441206935
 30
0.0
 10
5.3021147852
 20
3.7460004486
 30
0.0
 10
5.3026990248
 20
3.7477438613
 30
0.0
 10
5.3032451362
 20
3.7493477955
 30
0.0
 10
5.3037500108
 20
3.7508092561
 30
0.0
 10
5.3042105742
 20
3.7521253411
 30
0.0
 10
5.3046237562
 20
3.7532934408
 30
0.0
 10
5.3049378808
 20
3.7541730272
 30
0.0
 10
5.3051636535
 20
3.7548009572
 30
0.0
 10
5.3053129727
 20
3.755214601
 30
0.0
 10
5.3054488197
 20
3.7555895874
 30
0.0
 10
5.3055709429
 20
3.7559256631
 30
0.0
 10
5.3056790907
 20
3.7562226228
 30
0.0
 10
5.3057731112
 20
3.7564803001
 30
0.0
 10
5.3058426148
 20
3.7566704131
 30
0.0
 10
5.3058910815
 20
3.7568027824
 30
0.0
 10
5.3059220383
 20
3.7568872476
 30
0.0
 10
5.3059493948
 20
3.7569618175
 30
0.0
 10
5.3059731399
 20
3.7570264811
 30
0.0
 10
5.3059932626
 20
3.7570812266
 30
0.0
 10
5.3060077643
 20
3.7571206437
 30
0.0
 10
5.3060175462
 20
3.7571472092
 30
0.0
 10
5.3060235115
 20
3.757163407
 30
0.0
 10
5.3060285667
 20
3.7571771112
 30
0.0
 10
5.3060326952
 20
3.7571883421
 30
0.0
 10
5.3060359361
 20
3.7571970402
 30
0.0
 10
5.3060380021
 20
3.7572028189
 30
0.0
 10
5.3060392889
 20
3.7572060612
 30
0.0
 10
5.3060397685
 20
3.7572077593
 30
0.0
 10
5.3060402845
 20
3.7572084507
 30
0.0
 10
5.3060402618
 20
3.7572091199
 30
0.0
 10
5.3060403727
 20
3.7572091199
 30
0.0
  0
SPLINE
  5
3C5
100
AcDbEntity
  8
ALL_ASSEMBLY_MEMBERS
100
AcDbSpline
 62
7
  6
CONTINUOUS
 70
0
 71
3
 72
46
 73
42
 74
0
 42
0.0000001
 43
0.0000001
 44
0.0000000001
 40
0.0
 40
0.0
 40
0.0
 40
0.0
 40
0.20595681
 40
0.3034824279
 40
0.3966383055
 40
0.4849404794
 40
0.567896676
 40
0.6450067352
 40
0.7157837078
 40
0.7797408498
 40
0.8090130154
 40
0.8364016508
 40
0.8618474653
 40
0.8852962482
 40
0.9066963798
 40
0.9259960197
 40
0.9431443742
 40
0.9581006052
 40
0.9647453948
 40
0.97082861
 40
0.9763457273
 40
0.9812922178
 40
0.9856637134
 40
0.9894575685
 40
0.9926721639
 40
0.9940617372
 40
0.9953058932
 40
0.996404431
 40
0.9973571496
 40
0.998163848
 40
0.9988243252
 40
0.999099668
 40
0.9993383801
 40
0.9995404364
 40
0.9997058117
 40
0.9998344808
 40
0.9999264187
 40
0.9999586056
 40
0.9999816002
 40
0.9999953993
 40
1.0
 40
1.0
 40
1.0
 40
1.0
 10
4.7660403727
 20
3.6222091199
 30
0.0
 10
4.7654275322
 20
3.6172828251
 30
0.0
 10
4.7643247985
 20
3.6100467485
 30
0.0
 10
4.7625219306
 20
3.6006573659
 30
0.0
 10
4.7610992256
 20
3.5940844663
 30
0.0
 10
4.7596162709
 20
3.587885651
 30
0.0
 10
4.7581083486
 20
3.5820917711
 30
0.0
 10
4.7566106692
 20
3.5767327286
 30
0.0
 10
4.7551571905
 20
3.5718375918
 30
0.0
 10
4.7539784903
 20
3.5680641618
 30
0.0
 10
4.7530850158
 20
3.5652975355
 30
0.0
 10
4.7524659589
 20
3.5634177864
 30
0.0
 10
4.7518817201
 20
3.5616743795
 30
0.0
 10
4.7513356105
 20
3.5600704501
 30
0.0
 10
4.7508307377
 20
3.5586089937
 30
0.0
 10
4.7503701757
 20
3.5572929115
 30
0.0
 10
4.749956994
 20
3.5561248134
 30
0.0
 10
4.7496428692
 20
3.5552452273
 30
0.0
 10
4.7494170961
 20
3.554617297
 30
0.0
 10
4.7492677768
 20
3.5542036526
 30
0.0
 10
4.7491319297
 20
3.5538286656
 30
0.0
 10
4.7490098067
 20
3.5534925892
 30
0.0
 10
4.7489016593
 20
3.5531956284
 30
0.0
 10
4.7488076387
 20
3.5529379496
 30
0.0
 10
4.7487381346
 20
3.552747835
 30
0.0
 10
4.7486896675
 20
3.5526154643
 30
0.0
 10
4.7486587104
 20
3.5525309981
 30
0.0
 10
4.7486313534
 20
3.552456427
 30
0.0
 10
4.7486076078
 20
3.5523917624
 30
0.0
 10
4.7485874847
 20
3.552337016
 30
0.0
 10
4.7485729826
 20
3.5522975981
 30
0.0
 10
4.7485632003
 20
3.5522710321
 30
0.0
 10
4.7485572349
 20
3.5522548339
 30
0.0
 10
4.7485521795
 20
3.5522411294
 30
0.0
 10
4.7485480508
 20
3.5522298983
 30
0.0
 10
4.7485448098
 20
3.5522212
 30
0.0
 10
4.7485427436
 20
3.5522154211
 30
0.0
 10
4.7485414567
 20
3.5522121787
 30
0.0
 10
4.748540977
 20
3.5522104806
 30
0.0
 10
4.748540461
 20
3.5522097891
 30
0.0
 10
4.7485404836
 20
3.5522091199
 30
0.0
 10
4.7485403727
 20
3.5522091199
 30
0.0
  0
SPLINE
  5
3C6
100
AcDbEntity
  8
ALL_ASSEMBLY_MEMBERS
100
AcDbSpline
 62
7
  6
CONTINUOUS
 70
0
 71
3
 72
12
 73
8
 74
0
 42
0.0000001
 43
0.0000001
 44
0.0000000001
 40
0.0
 40
0.0
 40
0.0
 40
0.0
 40
0.1144905715
 40
0.2306437678
 40
0.4706574391
 40
0.7257107959
 40
1.0
 40
1.0
 40
1.0
 40
1.0
 10
5.1702271145
 20
3.8834099871
 30
0.0
 10
5.1698233602
 20
3.8834393097
 30
0.0
 10
5.1690124526
 20
3.8835412425
 30
0.0
 10
5.1673887425
 20
3.8839163231
 30
0.0
 10
5.1653657526
 20
3.8847170031
 30
0.0
 10
5.1630467755
 20
3.8861617607
 30
0.0
 10
5.1616249962
 20
3.8873907262
 30
0.0
 10
5.1609337111
 20
3.8880709523
 30
0.0
  0
LINE
  5
3C7
100
AcDbEntity
  8
ALL_ASSEMBLY_MEMBERS
100
AcDbLine
 62
7
  6
CONTINUOUS
 10
5.1609337111
 20
3.8880709523
 11
5.1594840172
 21
3.8896318406
  0
SPLINE
  5
3C8
100
AcDbEntity
  8
ALL_ASSEMBLY_MEMBERS
100
AcDbSpline
 62
7
  6
CONTINUOUS
 70
0
 71
3
 72
11
 73
7
 74
0
 42
0.0000001
 43
0.0000001
 44
0.0000000001
 40
0.0
 40
0.0
 40
0.0
 40
0.0
 40
0.2722623611
 40
0.5279078332
 40
0.769390053
 40
1.0
 40
1.0
 40
1.0
 40
1.0
 10
5.1583583465
 20
3.9568939887
 30
0.0
 10
5.158740816
 20
3.9572692133
 30
0.0
 10
5.1595201917
 20
3.9579599121
 30
0.0
 10
5.1607679027
 20
3.9588246753
 30
0.0
 10
5.1620480921
 20
3.9594769765
 30
0.0
 10
5.1629345252
 20
3.9597700942
 30
0.0
 10
5.163375714
 20
3.9598764441
 30
0.0
  0
SPLINE
  5
3C9
100
AcDbEntity
  8
ALL_ASSEMBLY_MEMBERS
100
AcDbSpline
 62
7
  6
CONTINUOUS
 70
0
 71
3
 72
22
 73
18
 74
0
 42
0.0000001
 43
0.0000001
 44
0.0000000001
 40
0.0
 40
0.0
 40
0.0
 40
0.0
 40
0.0573413286
 40
0.117095465
 40
0.1788395455
 40
0.2421693005
 40
0.3720417773
 40
0.4379741371
 40
0.5041088931
 40
0.5701259675
 40
0.6357020097
 40
0.7005066125
 40
0.7641909571
 40
0.8263922547
 40
0.886710685
 40
0.9447339705
 40
1.0
 40
1.0
 40
1.0
 40
1.0
 10
5.1594773116
 20
3.8896199829
 30
0.0
 10
5.1587238498
 20
3.8908495079
 30
0.0
 10
5.1572942199
 20
3.8934284242
 30
0.0
 10
5.15542705
 20
3.8975243585
 30
0.0
 10
5.153814523
 20
3.9018884055
 30
0.0
 10
5.1520252632
 20
3.9080493231
 30
0.0
 10
5.1508669791
 20
3.9144873166
 30
0.0
 10
5.1503619265
 20
3.9210588487
 30
0.0
 10
5.1503169885
 20
3.926044202
 30
0.0
 10
5.1506100868
 20
3.9310117728
 30
0.0
 10
5.1512343081
 20
3.9359150759
 30
0.0
 10
5.1521818723
 20
3.9407064754
 30
0.0
 10
5.1534347906
 20
3.9453394436
 30
0.0
 10
5.1549754922
 20
3.9497656296
 30
0.0
 10
5.1567780401
 20
3.953937499
 30
0.0
 10
5.1588152483
 20
3.9578038148
 30
0.0
 10
5.1603499474
 20
3.9602093357
 30
0.0
 10
5.1611524061
 20
3.9613441052
 30
0.0
  0
SPLINE
  5
3CA
100
AcDbEntity
  8
ALL_ASSEMBLY_MEMBERS
100
AcDbSpline
 62
7
  6
CONTINUOUS
 70
0
 71
3
 72
46
 73
42
 74
0
 42
0.0000001
 43
0.0000001
 44
0.0000000001
 40
0.0
 40
0.0
 40
0.0
 40
0.0
 40
0.0000046002
 40
0.0000183988
 40
0.0000413925
 40
0.0000735782
 40
0.0001655132
 40
0.0002941786
 40
0.0004595495
 40
0.0006616007
 40
0.0009003071
 40
0.0011756436
 40
0.0018361069
 40
0.00264279
 40
0.0035954923
 40
0.0046940134
 40
0.0059381527
 40
0.00732771
 40
0.010542277
 40
0.0143361121
 40
0.0187075994
 40
0.0236540864
 40
0.0291712018
 40
0.0352544171
 40
0.0418992086
 40
0.0568554497
 40
0.0740038236
 40
0.0933035075
 40
0.1147037054
 40
0.1381525658
 40
0.1635984596
 40
0.1909871989
 40
0.220259478
 40
0.2842167462
 40
0.3549936575
 40
0.4321035439
 40
0.5150596598
 40
0.6033623136
 40
0.6965192818
 40
0.7940449644
 40
1.0
 40
1.0
 40
1.0
 40
1.0
 10
5.3060403727
 20
3.5522091199
 30
0.0
 10
5.3060402618
 20
3.5522091199
 30
0.0
 10
5.3060402845
 20
3.5522097891
 30
0.0
 10
5.3060397685
 20
3.5522104805
 30
0.0
 10
5.3060392889
 20
3.5522121786
 30
0.0
 10
5.3060380021
 20
3.5522154209
 30
0.0
 10
5.3060359361
 20
3.5522211997
 30
0.0
 10
5.3060326952
 20
3.5522298977
 30
0.0
 10
5.3060285667
 20
3.5522411286
 30
0.0
 10
5.3060235115
 20
3.5522548328
 30
0.0
 10
5.3060175463
 20
3.5522710306
 30
0.0
 10
5.3060077644
 20
3.5522975961
 30
0.0
 10
5.3059932626
 20
3.5523370132
 30
0.0
 10
5.30597314
 20
3.5523917587
 30
0.0
 10
5.3059493949
 20
3.5524564222
 30
0.0
 10
5.3059220383
 20
3.5525309921
 30
0.0
 10
5.3058910816
 20
3.5526154572
 30
0.0
 10
5.3058426149
 20
3.5527478265
 30
0.0
 10
5.3057731112
 20
3.5529379396
 30
0.0
 10
5.3056790907
 20
3.5531956169
 30
0.0
 10
5.3055709429
 20
3.5534925768
 30
0.0
 10
5.3054488196
 20
3.5538286528
 30
0.0
 10
5.3053129723
 20
3.5542036396
 30
0.0
 10
5.3051636529
 20
3.5546172839
 30
0.0
 10
5.3049378798
 20
3.5552452145
 30
0.0
 10
5.304623755
 20
3.5561248014
 30
0.0
 10
5.3042105734
 20
3.5572929014
 30
0.0
 10
5.3037500102
 20
3.5586089865
 30
0.0
 10
5.3032451353
 20
3.5600704471
 30
0.0
 10
5.3026990237
 20
3.5616743814
 30
0.0
 10
5.3021147841
 20
3.5634177946
 30
0.0
 10
5.3014957249
 20
3.5652975505
 30
0.0
 10
5.3006022467
 20
3.5680641844
 30
0.0
 10
5.2994235469
 20
3.571837619
 30
0.0
 10
5.2979700705
 20
3.5767327538
 30
0.0
 10
5.2964723917
 20
3.5820917886
 30
0.0
 10
5.2949644663
 20
3.5878856733
 30
0.0
 10
5.2934815048
 20
3.594084524
 30
0.0
 10
5.292058804
 20
3.6006574647
 30
0.0
 10
5.2902559228
 20
3.6100468296
 30
0.0
 10
5.2891532079
 20
3.6172828675
 30
0.0
 10
5.2885403727
 20
3.6222091199
 30
0.0
  0
SPLINE
  5
3CB
100
AcDbEntity
  8
ALL_ASSEMBLY_MEMBERS
100
AcDbSpline
 62
7
  6
CONTINUOUS
 70
0
 71
3
 72
46
 73
42
 74
0
 42
0.0000001
 43
0.0000001
 44
0.0000000001
 40
0.0
 40
0.0
 40
0.0
 40
0.0
 40
0.0000046016
 40
0.0000184021
 40
0.0000413982
 40
0.0000735869
 40
0.0001655292
 40
0.0002942039
 40
0.0004595857
 40
0.0006616495
 40
0.00090037
 40
0.001175722
 40
0.0018362198
 40
0.0026429414
 40
0.0035956852
 40
0.0046942499
 40
0.0059384341
 40
0.0073280362
 40
0.0105426895
 40
0.0143365997
 40
0.0187081438
 40
0.0236546722
 40
0.0291718181
 40
0.0352550552
 40
0.0418998622
 40
0.0568561247
 40
0.0740045214
 40
0.0933042047
 40
0.1147043705
 40
0.138153176
 40
0.1635989986
 40
0.1909876191
 40
0.2202597532
 40
0.2842168275
 40
0.3549937492
 40
0.432103755
 40
0.5150598554
 40
0.6033618846
 40
0.6965176093
 40
0.7940432054
 40
1.0
 40
1.0
 40
1.0
 40
1.0
 10
4.7485403727
 20
3.7572091199
 30
0.0
 10
4.7485404836
 20
3.7572091199
 30
0.0
 10
4.7485404613
 20
3.7572084507
 30
0.0
 10
4.7485409773
 20
3.7572077592
 30
0.0
 10
4.7485414572
 20
3.7572060611
 30
0.0
 10
4.7485427443
 20
3.7572028186
 30
0.0
 10
4.7485448108
 20
3.7571970395
 30
0.0
 10
4.7485480521
 20
3.7571883408
 30
0.0
 10
4.7485521812
 20
3.7571771094
 30
0.0
 10
4.7485572368
 20
3.7571634044
 30
0.0
 10
4.7485632026
 20
3.7571472057
 30
0.0
 10
4.7485729853
 20
3.7571206388
 30
0.0
 10
4.7485874879
 20
3.7570812198
 30
0.0
 10
4.7486076116
 20
3.7570264717
 30
0.0
 10
4.7486313577
 20
3.7569618054
 30
0.0
 10
4.7486587153
 20
3.7568872325
 30
0.0
 10
4.748689673
 20
3.7568027643
 30
0.0
 10
4.7487381408
 20
3.756670391
 30
0.0
 10
4.7488076456
 20
3.756480273
 30
0.0
 10
4.7489016672
 20
3.7562225904
 30
0.0
 10
4.7490098154
 20
3.7559256263
 30
0.0
 10
4.7491319391
 20
3.7555895472
 30
0.0
 10
4.7492677867
 20
3.755214558
 30
0.0
 10
4.7494171065
 20
3.7548009121
 30
0.0
 10
4.74964288
 20
3.7541729801
 30
0.0
 10
4.7499570057
 20
3.753293392
 30
0.0
 10
4.750370189
 20
3.7521252915
 30
0.0
 10
4.750830752
 20
3.7508092066
 30
0.0
 10
4.7513356252
 20
3.7493477477
 30
0.0
 10
4.7518817347
 20
3.7477438167
 30
0.0
 10
4.7524659736
 20
3.7460004094
 30
0.0
 10
4.7530850299
 20
3.7441206611
 30
0.0
 10
4.7539785028
 20
3.7413540372
 30
0.0
 10
4.755157202
 20
3.7375806106
 30
0.0
 10
4.7566106791
 20
3.7326854777
 30
0.0
 10
4.7581083562
 20
3.7273264395
 30
0.0
 10
4.7596162765
 20
3.7215325665
 30
0.0
 10
4.7610992283
 20
3.7153337602
 30
0.0
 10
4.7625219327
 20
3.7087608684
 30
0.0
 10
4.7643247973
 20
3.6993714898
 30
0.0
 10
4.7654275322
 20
3.6921354144
 30
0.0
 10
4.7660403727
 20
3.6872091199
 30
0.0
  0
SPLINE
  5
3CC
100
AcDbEntity
  8
ALL_ASSEMBLY_MEMBERS
100
AcDbSpline
 62
7
  6
CONTINUOUS
 70
0
 71
3
 72
15
 73
11
 74
0
 42
0.0000001
 43
0.0000001
 44
0.0000000001
 40
0.0
 40
0.0
 40
0.0
 40
0.0
 40
0.1518337395
 40
0.2957214302
 40
0.4314824126
 40
0.5591105048
 40
0.6789319141
 40
0.7916537018
 40
0.8982796705
 40
1.0
 40
1.0
 40
1.0
 40
1.0
 10
5.1851671093
 20
3.895800698
 30
0.0
 10
5.1847772248
 20
3.8949983267
 30
0.0
 10
5.1839681747
 20
3.8934589674
 30
0.0
 10
5.1826332055
 20
3.8913012527
 30
0.0
 10
5.1812202232
 20
3.8893667958
 30
0.0
 10
5.1797374031
 20
3.8876681959
 30
0.0
 10
5.178187652
 20
3.886220885
 30
0.0
 10
5.1765733736
 20
3.8850429184
 30
0.0
 10
5.1749078609
 20
3.8841445635
 30
0.0
 10
5.1737510484
 20
3.8837269115
 30
0.0
 10
5.1731742437
 20
3.8835704594
 30
0.0
  0
SPLINE
  5
3CD
100
AcDbEntity
  8
ALL_ASSEMBLY_MEMBERS
100
AcDbSpline
 62
7
  6
CONTINUOUS
 70
0
 71
3
 72
15
 73
11
 74
0
 42
0.0000001
 43
0.0000001
 44
0.0000000001
 40
0.0
 40
0.0
 40
0.0
 40
0.0
 40
0.1530813999
 40
0.2986781916
 40
0.4361525043
 40
0.5650847745
 40
0.6853516688
 40
0.7972342396
 40
0.9016145913
 40
1.0
 40
1.0
 40
1.0
 40
1.0
 10
5.1611524061
 20
3.9613441052
 30
0.0
 10
5.1617054026
 20
3.9621261062
 30
0.0
 10
5.1628351261
 20
3.9636169455
 30
0.0
 10
5.1646410784
 20
3.9656662446
 30
0.0
 10
5.1665023115
 20
3.9674546082
 30
0.0
 10
5.1684020599
 20
3.9689593378
 30
0.0
 10
5.1703209004
 20
3.9701617636
 30
0.0
 10
5.1722418466
 20
3.9710413364
 30
0.0
 10
5.1741437433
 20
3.9715805622
 30
0.0
 10
5.1754146746
 20
3.9717091199
 30
0.0
 10
5.1760302358
 20
3.9717091199
 30
0.0
  0
SPLINE
  5
3CE
100
AcDbEntity
  8
ALL_ASSEMBLY_MEMBERS
100
AcDbSpline
 62
7
  6
CONTINUOUS
 70
0
 71
3
 72
11
 73
7
 74
0
 42
0.0000001
 43
0.0000001
 44
0.0000000001
 40
0.0
 40
0.0
 40
0.0
 40
0.0
 40
0.2765374398
 40
0.5343602035
 40
0.7745990512
 40
1.0
 40
1.0
 40
1.0
 40
1.0
 10
5.1805242413
 20
3.8915761738
 30
0.0
 10
5.1798632623
 20
3.890689114
 30
0.0
 10
5.1784994807
 20
3.8890365733
 30
0.0
 10
5.1762510331
 20
3.88689211
 30
0.0
 10
5.1738885237
 20
3.8852019282
 30
0.0
 10
5.1722041145
 20
3.8843800596
 30
0.0
 10
5.1713601629
 20
3.8840626188
 30
0.0
  0
SPLINE
  5
3CF
100
AcDbEntity
  8
ALL_ASSEMBLY_MEMBERS
100
AcDbSpline
 62
7
  6
CONTINUOUS
 70
0
 71
3
 72
15
 73
11
 74
0
 42
0.0000001
 43
0.0000001
 44
0.0000000001
 40
0.0
 40
0.0
 40
0.0
 40
0.0
 40
0.1040364713
 40
0.2126272899
 40
0.3268525307
 40
0.4475073182
 40
0.5750624928
 40
0.7097023268
 40
0.8514071658
 40
1.0
 40
1.0
 40
1.0
 40
1.0
 10
5.1760302358
 20
3.8767091199
 30
0.0
 10
5.1755593592
 20
3.8767091199
 30
0.0
 10
5.1745958114
 20
3.8767834703
 30
0.0
 10
5.1731468947
 20
3.8771013383
 30
0.0
 10
5.1716784438
 20
3.8776228996
 30
0.0
 10
5.1702016471
 20
3.8783440169
 30
0.0
 10
5.1687251531
 20
3.8792556849
 30
0.0
 10
5.1672574934
 20
3.8803490348
 30
0.0
 10
5.1658077877
 20
3.8816154716
 30
0.0
 10
5.1648801323
 20
3.8825475397
 30
0.0
 10
5.1644205475
 20
3.8830385533
 30
0.0
  0
LINE
  5
3D0
100
AcDbEntity
  8
ALL_ASSEMBLY_MEMBERS
100
AcDbLine
 62
7
  6
CONTINUOUS
 10
5.1644205475
 20
3.8830385533
 11
5.1611524062
 21
3.8870741273
  0
SPLINE
  5
3D1
100
AcDbEntity
  8
ALL_ASSEMBLY_MEMBERS
100
AcDbSpline
 62
7
  6
CONTINUOUS
 70
0
 71
3
 72
23
 73
19
 74
0
 42
0.0000001
 43
0.0000001
 44
0.0000000001
 40
0.0
 40
0.0
 40
0.0
 40
0.0
 40
0.0437744943
 40
0.0872938044
 40
0.1093509267
 40
0.1317789759
 40
0.1782385722
 40
0.2275818763
 40
0.2803721949
 40
0.3369278413
 40
0.3973497498
 40
0.4615809429
 40
0.5294897936
 40
0.6008720806
 40
0.6754635166
 40
0.7529856123
 40
0.8331370682
 40
1.0
 40
1.0
 40
1.0
 40
1.0
 10
5.1760302358
 20
3.9717091199
 30
0.0
 10
5.1765989003
 20
3.9717091199
 30
0.0
 10
5.1777360474
 20
3.9716026701
 30
0.0
 10
5.1791066308
 20
3.9711958514
 30
0.0
 10
5.1801469252
 20
3.9707182973
 30
0.0
 10
5.1811721875
 20
3.9701282236
 30
0.0
 10
5.1823971015
 20
3.9691892897
 30
0.0
 10
5.183740444
 20
3.9677948935
 30
0.0
 10
5.1849736101
 20
3.9661370792
 30
0.0
 10
5.1860984681
 20
3.9642362712
 30
0.0
 10
5.1871186136
 20
3.9621120505
 30
0.0
 10
5.1880363976
 20
3.9597830241
 30
0.0
 10
5.1888560047
 20
3.9572679534
 30
0.0
 10
5.1895821006
 20
3.9545849646
 30
0.0
 10
5.190219321
 20
3.9517515919
 30
0.0
 10
5.1907719177
 20
3.9487846933
 30
0.0
 10
5.1914099883
 20
3.9446167564
 30
0.0
 10
5.1917604642
 20
3.9414251826
 30
0.0
 10
5.1919495002
 20
3.9392657625
 30
0.0
  0
SPLINE
  5
3D2
100
AcDbEntity
  8
ALL_ASSEMBLY_MEMBERS
100
AcDbSpline
 62
7
  6
CONTINUOUS
 70
0
 71
3
 72
23
 73
19
 74
0
 42
0.0000001
 43
0.0000001
 44
0.0000000001
 40
0.0
 40
0.0
 40
0.0
 40
0.0
 40
0.1667804901
 40
0.2470226316
 40
0.3246992253
 40
0.3994875566
 40
0.4710927777
 40
0.5392322719
 40
0.603676349
 40
0.6642732259
 40
0.7209433368
 40
0.7737614196
 40
0.8230262853
 40
0.8692928441
 40
0.8915836202
 40
0.9134801152
 40
0.9566265829
 40
1.0
 40
1.0
 40
1.0
 40
1.0
 10
5.1920597872
 20
3.910481341
 30
0.0
 10
5.1918844076
 20
3.9082475165
 30
0.0
 10
5.1915523028
 20
3.9049435531
 30
0.0
 10
5.1909349277
 20
3.900624605
 30
0.0
 10
5.190394913
 20
3.897544545
 30
0.0
 10
5.1897673414
 20
3.8945995231
 30
0.0
 10
5.1890477165
 20
3.8918075115
 30
0.0
 10
5.1882311048
 20
3.8891871908
 30
0.0
 10
5.1873124957
 20
3.8867578633
 30
0.0
 10
5.1862870854
 20
3.8845396282
 30
0.0
 10
5.1851521168
 20
3.8825524553
 30
0.0
 10
5.1839038147
 20
3.8808171268
 30
0.0
 10
5.1825395359
 20
3.8793557858
 30
0.0
 10
5.1812910189
 20
3.8783699087
 30
0.0
 10
5.1802439089
 20
3.8777500004
 30
0.0
 10
5.1791813995
 20
3.8772486581
 30
0.0
 10
5.1777787373
 20
3.8768210495
 30
0.0
 10
5.1766129583
 20
3.8767091199
 30
0.0
 10
5.1760302358
 20
3.8767091199
 30
0.0
  0
SPLINE
  5
3D3
100
AcDbEntity
  8
ALL_ASSEMBLY_MEMBERS
100
AcDbSpline
 62
7
  6
CONTINUOUS
 70
0
 71
3
 72
19
 73
15
 74
0
 42
0.0000001
 43
0.0000001
 44
0.0000000001
 40
0.0
 40
0.0
 40
0.0
 40
0.0
 40
0.1249158798
 40
0.1874766357
 40
0.2500078059
 40
0.3749226349
 40
0.4998388355
 40
0.5623760549
 40
0.624922107
 40
0.6874570601
 40
0.7499641082
 40
0.8124888753
 40
0.8750775682
 40
1.0
 40
1.0
 40
1.0
 40
1.0
 10
5.0372898573
 20
5.0990595136
 30
0.0
 10
5.0372898573
 20
5.0997132025
 30
0.0
 10
5.037192743
 20
5.100697795
 30
0.0
 10
5.0368743227
 20
5.1019683042
 30
0.0
 10
5.0364328653
 20
5.1032019118
 30
0.0
 10
5.0356570031
 20
5.1046533178
 30
0.0
 10
5.0346122273
 20
5.1059250704
 30
0.0
 10
5.0336413138
 20
5.1068045324
 30
0.0
 10
5.032851257
 20
5.1073901808
 30
0.0
 10
5.0320078009
 20
5.1078955088
 30
0.0
 10
5.0311184433
 20
5.1083145305
 30
0.0
 10
5.0301919029
 20
5.1086443854
 30
0.0
 10
5.0289221956
 20
5.1089650102
 30
0.0
 10
5.0279378626
 20
5.1090692344
 30
0.0
 10
5.0272841394
 20
5.1090692344
 30
0.0
  0
SPLINE
  5
3D4
100
AcDbEntity
  8
ALL_ASSEMBLY_MEMBERS
100
AcDbSpline
 62
7
  6
CONTINUOUS
 70
0
 71
3
 72
19
 73
15
 74
0
 42
0.0000001
 43
0.0000001
 44
0.0000000001
 40
0.0
 40
0.0
 40
0.0
 40
0.0
 40
0.1249852322
 40
0.1876498082
 40
0.2502234468
 40
0.3127340834
 40
0.3752485557
 40
0.4377807889
 40
0.5003042382
 40
0.6251763742
 40
0.750059398
 40
0.8125725634
 40
0.8751106733
 40
1.0
 40
1.0
 40
1.0
 40
1.0
 10
5.0272841394
 20
5.1090692344
 30
0.0
 10
5.0266305952
 20
5.1090692344
 30
0.0
 10
5.0256461487
 20
5.1089650625
 30
0.0
 10
5.0243771716
 20
5.1086414848
 30
0.0
 10
5.0234515478
 20
5.1083094373
 30
0.0
 10
5.0225631476
 20
5.1078898668
 30
0.0
 10
5.0217208124
 20
5.107384446
 30
0.0
 10
5.0209321724
 20
5.1067985853
 30
0.0
 10
5.0199630632
 20
5.1059192159
 30
0.0
 10
5.0189203559
 20
5.1046480571
 30
0.0
 10
5.018146103
 20
5.1031978252
 30
0.0
 10
5.017705588
 20
5.1019653702
 30
0.0
 10
5.0173877518
 20
5.1006961284
 30
0.0
 10
5.017290888
 20
5.0997125563
 30
0.0
 10
5.017290888
 20
5.0990595136
 30
0.0
  0
SPLINE
  5
3D5
100
AcDbEntity
  8
ALL_ASSEMBLY_MEMBERS
100
AcDbSpline
 62
7
  6
CONTINUOUS
 70
0
 71
3
 72
19
 73
15
 74
0
 42
0.0000001
 43
0.0000001
 44
0.0000000001
 40
0.0
 40
0.0
 40
0.0
 40
0.0
 40
0.1248897374
 40
0.1874284864
 40
0.2499423405
 40
0.3748263175
 40
0.4996987803
 40
0.5622219563
 40
0.6247539668
 40
0.6872683074
 40
0.7497784126
 40
0.8123512284
 40
0.8750150897
 40
1.0
 40
1.0
 40
1.0
 40
1.0
 10
5.017290888
 20
5.0190595136
 30
0.0
 10
5.017290888
 20
5.0184064665
 30
0.0
 10
5.0173877535
 20
5.0174228854
 30
0.0
 10
5.0177055959
 20
5.0161536311
 30
0.0
 10
5.0181461202
 20
5.0149211618
 30
0.0
 10
5.0189203898
 20
5.0134709202
 30
0.0
 10
5.0199631124
 20
5.0121997599
 30
0.0
 10
5.0209322305
 20
5.0113203944
 30
0.0
 10
5.0217208758
 20
5.0107345412
 30
0.0
 10
5.0225632091
 20
5.0102291196
 30
0.0
 10
5.0234516093
 20
5.0098095582
 30
0.0
 10
5.0243772324
 20
5.0094775305
 30
0.0
 10
5.0256462081
 20
5.0091539707
 30
0.0
 10
5.0266306516
 20
5.0090497957
 30
0.0
 10
5.0272841964
 20
5.0090497957
 30
0.0
  0
SPLINE
  5
3D6
100
AcDbEntity
  8
ALL_ASSEMBLY_MEMBERS
100
AcDbSpline
 62
7
  6
CONTINUOUS
 70
0
 71
3
 72
19
 73
15
 74
0
 42
0.0000001
 43
0.0000001
 44
0.0000000001
 40
0.0
 40
0.0
 40
0.0
 40
0.0
 40
0.1249225465
 40
0.1875115499
 40
0.2500366903
 40
0.3125439719
 40
0.3750791332
 40
0.4376254688
 40
0.5001629066
 40
0.625079081
 40
0.7499938268
 40
0.8125248195
 40
0.8750850005
 40
1.0
 40
1.0
 40
1.0
 40
1.0
 10
5.0272841964
 20
5.0090497957
 30
0.0
 10
5.0279379178
 20
5.0090497957
 30
0.0
 10
5.0289222502
 20
5.0091540195
 30
0.0
 10
5.0301919539
 20
5.0094746577
 30
0.0
 10
5.0311184917
 20
5.0098045226
 30
0.0
 10
5.0320078499
 20
5.0102235446
 30
0.0
 10
5.0328513038
 20
5.010728877
 30
0.0
 10
5.0336413581
 20
5.0113145292
 30
0.0
 10
5.0346122629
 20
5.0121939974
 30
0.0
 10
5.0356570311
 20
5.0134657488
 30
0.0
 10
5.0364328822
 20
5.0149171528
 30
0.0
 10
5.03687433
 20
5.0161507539
 30
0.0
 10
5.0371927485
 20
5.0174212499
 30
0.0
 10
5.0372898573
 20
5.0184058317
 30
0.0
 10
5.0372898573
 20
5.0190595136
 30
0.0
  0
SPLINE
  5
3D7
100
AcDbEntity
  8
ALL_ASSEMBLY_MEMBERS
100
AcDbSpline
 62
7
  6
CONTINUOUS
 70
0
 71
3
 72
23
 73
19
 74
0
 42
0.0000001
 43
0.0000001
 44
0.0000000001
 40
0.0
 40
0.0
 40
0.0
 40
0.0
 40
0.0625896051
 40
0.1251105549
 40
0.1875529431
 40
0.2499536192
 40
0.312371529
 40
0.3748505889
 40
0.4374004402
 40
0.4999979437
 40
0.5625956039
 40
0.6251456092
 40
0.6876247296
 40
0.7500420843
 40
0.8124423434
 40
0.8748846849
 40
0.9374075992
 40
1.0
 40
1.0
 40
1.0
 40
1.0
 10
5.0272903727
 20
4.5267091199
 30
0.0
 10
5.032795305
 20
4.5267091199
 30
0.0
 10
5.0438379645
 20
4.5254704573
 30
0.0
 10
5.0595461752
 20
4.5200407764
 30
0.0
 10
5.0737357092
 20
4.5114255174
 30
0.0
 10
5.0858781631
 20
4.5001391116
 30
0.0
 10
5.0956223534
 20
4.4867348884
 30
0.0
 10
5.102732305
 20
4.47175922
 30
0.0
 10
5.1070564496
 20
4.4557435655
 30
0.0
 10
5.1085074814
 20
4.4392096548
 30
0.0
 10
5.1070566377
 20
4.4226757138
 30
0.0
 10
5.1027326637
 20
4.4066599784
 30
0.0
 10
5.0956228875
 20
4.3916842616
 30
0.0
 10
5.0858789197
 20
4.3782799763
 30
0.0
 10
5.0737366804
 20
4.3669934816
 30
0.0
 10
5.0595471953
 20
4.3583778776
 30
0.0
 10
5.0438386222
 20
4.3529479499
 30
0.0
 10
5.0327955509
 20
4.3517091199
 30
0.0
 10
5.0272903727
 20
4.3517091199
 30
0.0
  0
SPLINE
  5
3D8
100
AcDbEntity
  8
ALL_ASSEMBLY_MEMBERS
100
AcDbSpline
 62
7
  6
CONTINUOUS
 70
0
 71
3
 72
23
 73
19
 74
0
 42
0.0000001
 43
0.0000001
 44
0.0000000001
 40
0.0
 40
0.0
 40
0.0
 40
0.0
 40
0.0625893598
 40
0.125110194
 40
0.187552642
 40
0.249953392
 40
0.3123713752
 40
0.3748504743
 40
0.437400375
 40
0.4999979289
 40
0.5625956395
 40
0.6251456932
 40
0.687624854
 40
0.7500422825
 40
0.8124426153
 40
0.874885017
 40
0.937407823
 40
1.0
 40
1.0
 40
1.0
 40
1.0
 10
5.0272903727
 20
4.3517091199
 30
0.0
 10
5.0217854619
 20
4.3517091199
 30
0.0
 10
5.0107428336
 20
4.3529477689
 30
0.0
 10
4.9950346454
 20
4.3583774324
 30
0.0
 10
4.9808450982
 20
4.3669926726
 30
0.0
 10
4.9687026222
 20
4.3782790825
 30
0.0
 10
4.9589584135
 20
4.391683313
 30
0.0
 10
4.9518484501
 20
4.4066589919
 30
0.0
 10
4.947524298
 20
4.4226746573
 30
0.0
 10
4.9460732631
 20
4.4392085812
 30
0.0
 10
4.9475241085
 20
4.4557425355
 30
0.0
 10
4.9518480886
 20
4.4717582821
 30
0.0
 10
4.9589578755
 20
4.4867340101
 30
0.0
 10
4.9687018604
 20
4.5001383036
 30
0.0
 10
4.9808441209
 20
4.5114248036
 30
0.0
 10
4.9950336188
 20
4.5200403906
 30
0.0
 10
5.0107421714
 20
4.5254703034
 30
0.0
 10
5.0217852141
 20
4.5267091199
 30
0.0
 10
5.0272903727
 20
4.5267091199
 30
0.0
  0
ELLIPSE
  5
3D9
100
AcDbEntity
  8
ALL_ASSEMBLY_MEMBERS
100
AcDbEllipse
 62
7
  6
CONTINUOUS
 10
5.0272903727
 20
4.8637666729
 30
0.0
 11
0.4356620756
 21
0.3097087495
 31
0.0
 40
0.6863174071
 41
-3.9803437747
 42
-3.9676270558
  0
ELLIPSE
  5
3DA
100
AcDbEntity
  8
ALL_ASSEMBLY_MEMBERS
100
AcDbEllipse
 62
7
  6
CONTINUOUS
 10
5.0272903727
 20
4.8740291914
 30
0.0
 11
0.4845296417
 21
0.0531218498
 31
0.0
 40
0.2751161207
 41
2.7138845034
 42
2.7266070117
  0
ELLIPSE
  5
3DB
100
AcDbEntity
  8
ALL_ASSEMBLY_MEMBERS
100
AcDbEllipse
 62
7
  6
CONTINUOUS
 10
5.0272903727
 20
4.833219505
 30
0.0
 11
0.4845296416
 21
-0.0531218552
 31
0.0
 40
0.2751161442
 41
-2.726607006
 42
-2.7138844977
  0
ELLIPSE
  5
3DC
100
AcDbEntity
  8
ALL_ASSEMBLY_MEMBERS
100
AcDbEllipse
 62
7
  6
CONTINUOUS
 10
5.0272903727
 20
4.8434820244
 30
0.0
 11
-0.4356620527
 21
0.3097088087
 31
0.0
 40
0.6863174268
 41
0.8260345095
 42
0.8387512283
  0
ELLIPSE
  5
3DD
100
AcDbEntity
  8
ALL_ASSEMBLY_MEMBERS
100
AcDbEllipse
 62
7
  6
CONTINUOUS
 10
5.0272903727
 20
4.8556085869
 30
0.0
 11
-0.2110172983
 21
0.9517381511
 31
0.0
 40
0.4585406789
 41
1.4848993014
 42
1.4925274221
  0
ELLIPSE
  5
3DE
100
AcDbEntity
  8
ALL_ASSEMBLY_MEMBERS
100
AcDbEllipse
 62
7
  6
CONTINUOUS
 10
5.0272903727
 20
4.8629847762
 30
0.0
 11
-0.1839239125
 21
1.4338152941
 31
0.0
 40
0.3128035903
 41
1.5410292945
 42
1.5461141727
  0
ELLIPSE
  5
3DF
100
AcDbEntity
  8
ALL_ASSEMBLY_MEMBERS
100
AcDbEllipse
 62
7
  6
CONTINUOUS
 10
5.0272903727
 20
4.8239541901
 30
0.0
 11
0.4841680723
 21
0.069531332
 31
0.0
 40
0.3415053426
 41
2.6695629887
 42
2.6797561081
  0
ELLIPSE
  5
3E0
100
AcDbEntity
  8
ALL_ASSEMBLY_MEMBERS
100
AcDbEllipse
 62
7
  6
CONTINUOUS
 10
5.0272903727
 20
4.8018640198
 30
0.0
 11
0.4021127937
 21
0.3867250719
 31
0.0
 40
0.7000252448
 41
-4.164805553
 42
-4.15715572
  0
ELLIPSE
  5
3E1
100
AcDbEntity
  8
ALL_ASSEMBLY_MEMBERS
100
AcDbEllipse
 62
7
  6
CONTINUOUS
 10
5.0272903727
 20
4.7531235698
 30
0.0
 11
0.2001645895
 21
1.0730713555
 31
0.0
 40
0.4114299686
 41
1.5606800957
 42
1.5657826121
  0
ELLIPSE
  5
3E2
100
AcDbEntity
  8
ALL_ASSEMBLY_MEMBERS
100
AcDbEllipse
 62
7
  6
CONTINUOUS
 10
5.0272903727
 20
4.6599193971
 30
0.0
 11
0.173492527
 21
2.1521377604
 31
0.0
 40
0.2103210759
 41
1.498485551
 42
1.5010376571
  0
ELLIPSE
  5
3E3
100
AcDbEntity
  8
ALL_ASSEMBLY_MEMBERS
100
AcDbEllipse
 62
7
  6
CONTINUOUS
 10
5.0272903727
 20
5.0473293883
 30
0.0
 11
-0.1734925196
 21
2.1521387659
 31
0.0
 40
0.210320979
 41
-4.6426302942
 42
-4.6400781881
  0
ELLIPSE
  5
3E4
100
AcDbEntity
  8
ALL_ASSEMBLY_MEMBERS
100
AcDbEllipse
 62
7
  6
CONTINUOUS
 10
5.0272903727
 20
4.9541251068
 30
0.0
 11
-0.2001646079
 21
1.0730711015
 31
0.0
 40
0.4114300582
 41
-4.7073753074
 42
-4.7022727909
  0
ELLIPSE
  5
3E5
100
AcDbEntity
  8
ALL_ASSEMBLY_MEMBERS
100
AcDbEllipse
 62
7
  6
CONTINUOUS
 10
5.0272903727
 20
4.9053846773
 30
0.0
 11
-0.4021127937
 21
0.3867250719
 31
0.0
 40
0.7000252448
 41
1.0155630664
 42
1.0232128994
  0
ELLIPSE
  5
3E6
100
AcDbEntity
  8
ALL_ASSEMBLY_MEMBERS
100
AcDbEllipse
 62
7
  6
CONTINUOUS
 10
5.0272903727
 20
4.8832945069
 30
0.0
 11
0.4841680723
 21
-0.069531332
 31
0.0
 40
0.3415053426
 41
-2.6797561081
 42
-2.6695629887
  0
ELLIPSE
  5
3E7
100
AcDbEntity
  8
ALL_ASSEMBLY_MEMBERS
100
AcDbEllipse
 62
7
  6
CONTINUOUS
 10
5.0272903727
 20
4.8827784175
 30
0.0
 11
0.4841680714
 21
0.0695313633
 31
0.0
 40
0.3415054598
 41
2.7840417005
 42
2.7942212431
  0
ELLIPSE
  5
3E8
100
AcDbEntity
  8
ALL_ASSEMBLY_MEMBERS
100
AcDbEllipse
 62
7
  6
CONTINUOUS
 10
5.0272903727
 20
4.8973103877
 30
0.0
 11
0.3546536662
 21
0.4793660332
 31
0.0
 40
0.6893673371
 41
-4.2104130135
 42
-4.2002376741
  0
ELLIPSE
  5
3E9
100
AcDbEntity
  8
ALL_ASSEMBLY_MEMBERS
100
AcDbEllipse
 62
7
  6
CONTINUOUS
 10
5.0272903727
 20
4.9136362943
 30
0.0
 11
0.2001647206
 21
1.0730695455
 31
0.0
 40
0.4114306072
 41
-4.6105355829
 42
-4.6054491537
  0
ELLIPSE
  5
3EA
100
AcDbEntity
  8
ALL_ASSEMBLY_MEMBERS
100
AcDbEllipse
 62
7
  6
CONTINUOUS
 10
5.0272903727
 20
4.862924653
 30
0.0
 11
-0.200164647
 21
1.0730705612
 31
0.0
 40
0.4114302488
 41
1.4638566668
 42
1.468943096
  0
ELLIPSE
  5
3EB
100
AcDbEntity
  8
ALL_ASSEMBLY_MEMBERS
100
AcDbEllipse
 62
7
  6
CONTINUOUS
 10
5.0272903727
 20
4.8792505901
 30
0.0
 11
-0.3546536662
 21
0.4793660332
 31
0.0
 40
0.6893673371
 41
1.0586450205
 42
1.06882036
  0
ELLIPSE
  5
3EC
100
AcDbEntity
  8
ALL_ASSEMBLY_MEMBERS
100
AcDbEllipse
 62
7
  6
CONTINUOUS
 10
5.0272903727
 20
4.8937825604
 30
0.0
 11
0.4841680714
 21
-0.0695313633
 31
0.0
 40
0.3415054598
 41
-2.7942212431
 42
-2.7840417005
  0
ELLIPSE
  5
3ED
100
AcDbEntity
  8
ALL_ASSEMBLY_MEMBERS
100
AcDbEllipse
 62
7
  6
CONTINUOUS
 10
5.0272903727
 20
4.8444742634
 30
0.0
 11
0.4841680714
 21
0.0695313633
 31
0.0
 40
0.3415054598
 41
2.7840417005
 42
2.7942212431
  0
ELLIPSE
  5
3EE
100
AcDbEntity
  8
ALL_ASSEMBLY_MEMBERS
100
AcDbEllipse
 62
7
  6
CONTINUOUS
 10
5.0272903727
 20
4.8517402498
 30
0.0
 11
0.4668511673
 21
0.2089255909
 31
0.0
 40
0.6246664746
 41
2.5502781873
 42
2.5604535267
  0
ELLIPSE
  5
3EF
100
AcDbEntity
  8
ALL_ASSEMBLY_MEMBERS
100
AcDbEllipse
 62
7
  6
CONTINUOUS
 10
5.0272903727
 20
4.8698801702
 30
0.0
 11
0.2110171867
 21
0.9517391668
 31
0.0
 40
0.4585402462
 41
-4.5883562274
 42
-4.5807268405
  0
ELLIPSE
  5
3F0
100
AcDbEntity
  8
ALL_ASSEMBLY_MEMBERS
100
AcDbEllipse
 62
7
  6
CONTINUOUS
 10
5.0272903727
 20
4.8318965003
 30
0.0
 11
-0.211017168
 21
0.9517393376
 31
0.0
 40
0.4585401734
 41
1.4391342299
 42
1.4467636167
  0
ELLIPSE
  5
3F1
100
AcDbEntity
  8
ALL_ASSEMBLY_MEMBERS
100
AcDbEllipse
 62
7
  6
CONTINUOUS
 10
5.0272903727
 20
4.8500364258
 30
0.0
 11
0.4668511673
 21
-0.2089255909
 31
0.0
 40
0.6246664746
 41
-2.5604535267
 42
-2.5502781873
  0
ELLIPSE
  5
3F2
100
AcDbEntity
  8
ALL_ASSEMBLY_MEMBERS
100
AcDbEllipse
 62
7
  6
CONTINUOUS
 10
5.0272903727
 20
4.8573024122
 30
0.0
 11
0.4841680714
 21
-0.0695313633
 31
0.0
 40
0.3415054598
 41
-2.7942212431
 42
-2.7840417005
  0
ELLIPSE
  5
3F3
100
AcDbEntity
  8
ALL_ASSEMBLY_MEMBERS
100
AcDbEllipse
 62
7
  6
CONTINUOUS
 10
5.0272903727
 20
4.8409163971
 30
0.0
 11
0.4668512029
 21
-0.2089254365
 31
0.0
 40
0.6246663258
 41
-2.6063101801
 42
-2.6012078026
  0
ELLIPSE
  5
3F4
100
AcDbEntity
  8
ALL_ASSEMBLY_MEMBERS
100
AcDbEllipse
 62
7
  6
CONTINUOUS
 10
5.0272903727
 20
4.8099683649
 30
0.0
 11
-0.2578960711
 21
0.7014332479
 31
0.0
 40
0.5851642007
 41
1.2648458323
 42
1.272503669
  0
ELLIPSE
  5
3F5
100
AcDbEntity
  8
ALL_ASSEMBLY_MEMBERS
100
AcDbEllipse
 62
7
  6
CONTINUOUS
 10
5.0272903727
 20
4.7426002844
 30
0.0
 11
-0.1839239562
 21
1.4338136914
 31
0.0
 40
0.3128039274
 41
1.4315508783
 42
1.436659149
  0
ELLIPSE
  5
3F6
100
AcDbEntity
  8
ALL_ASSEMBLY_MEMBERS
100
AcDbEllipse
 62
7
  6
CONTINUOUS
 10
5.0272903727
 20
4.9667232976
 30
0.0
 11
0.3259986888
 21
0.53452672
 31
0.0
 40
0.6711697407
 41
-1.3248817727
 42
-1.3025825674
  0
ELLIPSE
  5
3F7
100
AcDbEntity
  8
ALL_ASSEMBLY_MEMBERS
100
AcDbEllipse
 62
7
  6
CONTINUOUS
 10
5.0272903727
 20
5.0676448276
 30
0.0
 11
0.1770586083
 21
1.7931568303
 31
0.0
 40
0.2516550235
 41
-4.5935119134
 42
-4.5884036427
  0
ELLIPSE
  5
3F8
100
AcDbEntity
  8
ALL_ASSEMBLY_MEMBERS
100
AcDbEllipse
 62
7
  6
CONTINUOUS
 10
5.0272903727
 20
4.9665926129
 30
0.0
 11
0.2578960711
 21
0.7014332479
 31
0.0
 40
0.5851642007
 41
-4.4140963225
 42
-4.4064384859
  0
ELLIPSE
  5
3F9
100
AcDbEntity
  8
ALL_ASSEMBLY_MEMBERS
100
AcDbEllipse
 62
7
  6
CONTINUOUS
 10
5.0272903727
 20
4.9418341883
 30
0.0
 11
0.4356621873
 21
0.3097084593
 31
0.0
 40
0.6863173103
 41
-3.8709533301
 42
-3.8582013196
  0
ELLIPSE
  5
3FA
100
AcDbEntity
  8
ALL_ASSEMBLY_MEMBERS
100
AcDbEllipse
 62
7
  6
CONTINUOUS
 10
5.0272903727
 20
4.920723781
 30
0.0
 11
0.4845296421
 21
0.0531218233
 31
0.0
 40
0.2751160055
 41
2.8232569308
 42
2.835996958
  0
ELLIPSE
  5
3FB
100
AcDbEntity
  8
ALL_ASSEMBLY_MEMBERS
100
AcDbEllipse
 62
7
  6
CONTINUOUS
 10
5.0272903727
 20
4.9241631052
 30
0.0
 11
0.3259987817
 21
0.5345265359
 31
0.0
 40
0.671169814
 41
-1.2507643659
 42
-1.2286210799
  0
ELLIPSE
  5
3FC
100
AcDbEntity
  8
ALL_ASSEMBLY_MEMBERS
100
AcDbEllipse
 62
7
  6
CONTINUOUS
 10
5.0272903727
 20
4.8530447896
 30
0.0
 11
0.4630591816
 21
0.2245111552
 31
0.0
 40
0.6386464466
 41
-0.6183052266
 42
-0.6035566623
  0
ELLIPSE
  5
3FD
100
AcDbEntity
  8
ALL_ASSEMBLY_MEMBERS
100
AcDbEllipse
 62
7
  6
CONTINUOUS
 10
5.0272903727
 20
4.8643752105
 30
0.0
 11
0.4846322909
 21
0.0448829864
 31
0.0
 40
0.2379966242
 41
-0.3253141803
 42
-0.3105556307
  0
ELLIPSE
  5
3FE
100
AcDbEntity
  8
ALL_ASSEMBLY_MEMBERS
100
AcDbEllipse
 62
7
  6
CONTINUOUS
 10
5.0272903727
 20
4.8428734866
 30
0.0
 11
0.4846322909
 21
-0.0448829864
 31
0.0
 40
0.2379966242
 41
0.3105556307
 42
0.3253141803
  0
ELLIPSE
  5
3FF
100
AcDbEntity
  8
ALL_ASSEMBLY_MEMBERS
100
AcDbEllipse
 62
7
  6
CONTINUOUS
 10
5.0272903727
 20
4.8523155011
 30
0.0
 11
0.4734427814
 21
-0.1768432279
 31
0.0
 40
0.588594106
 41
0.5196885314
 42
0.5307507159
  0
ELLIPSE
  5
400
100
AcDbEntity
  8
ALL_ASSEMBLY_MEMBERS
100
AcDbEllipse
 62
7
  6
CONTINUOUS
 10
5.0272903727
 20
4.8752338998
 30
0.0
 11
-0.207495773
 21
0.9858241387
 31
0.0
 40
0.4443956471
 41
-1.6987885097
 42
-1.6914161614
  0
ELLIPSE
  5
401
100
AcDbEntity
  8
ALL_ASSEMBLY_MEMBERS
100
AcDbEllipse
 62
7
  6
CONTINUOUS
 10
5.0272903727
 20
4.8180840535
 30
0.0
 11
0.4847035227
 21
0.0351495033
 31
0.0
 40
0.1909698234
 41
-0.2802019056
 42
-0.2617015349
  0
ELLIPSE
  5
402
100
AcDbEntity
  8
ALL_ASSEMBLY_MEMBERS
100
AcDbEllipse
 62
7
  6
CONTINUOUS
 10
5.0272903727
 20
4.7980756699
 30
0.0
 11
0.4782981758
 21
0.1456294577
 31
0.0
 40
0.5412725914
 41
-0.4111891223
 42
-0.3926539211
  0
ELLIPSE
  5
403
100
AcDbEntity
  8
ALL_ASSEMBLY_MEMBERS
100
AcDbEllipse
 62
7
  6
CONTINUOUS
 10
5.0272903727
 20
4.7547056366
 30
0.0
 11
0.2800134072
 21
0.636735321
 31
0.0
 40
0.6214444929
 41
-1.1842741772
 42
-1.1731335909
  0
ELLIPSE
  5
404
100
AcDbEntity
  8
ALL_ASSEMBLY_MEMBERS
100
AcDbEllipse
 62
7
  6
CONTINUOUS
 10
5.0272903727
 20
4.6793241087
 30
0.0
 11
0.190868369
 21
1.2357421379
 31
0.0
 40
0.3605861895
 41
-1.3842710587
 42
-1.3768349866
  0
ELLIPSE
  5
405
100
AcDbEntity
  8
ALL_ASSEMBLY_MEMBERS
100
AcDbEllipse
 62
7
  6
CONTINUOUS
 10
5.0272903727
 20
5.027924611
 30
0.0
 11
-0.1908683611
 21
1.2357423122
 31
0.0
 40
0.3605861413
 41
-1.7647576494
 42
-1.7573215773
  0
ELLIPSE
  5
406
100
AcDbEntity
  8
ALL_ASSEMBLY_MEMBERS
100
AcDbEllipse
 62
7
  6
CONTINUOUS
 10
5.0272903727
 20
4.952543053
 30
0.0
 11
-0.2800134331
 21
0.6367352539
 31
0.0
 40
0.6214445296
 41
-1.968459128
 42
-1.9573185418
  0
ELLIPSE
  5
407
100
AcDbEntity
  8
ALL_ASSEMBLY_MEMBERS
100
AcDbEllipse
 62
7
  6
CONTINUOUS
 10
5.0272903727
 20
4.9091730234
 30
0.0
 11
0.4782981788
 21
-0.1456294353
 31
0.0
 40
0.541272552
 41
0.3926538838
 42
0.411189085
  0
ELLIPSE
  5
408
100
AcDbEntity
  8
ALL_ASSEMBLY_MEMBERS
100
AcDbEllipse
 62
7
  6
CONTINUOUS
 10
5.0272903727
 20
4.8891646415
 30
0.0
 11
0.4847035227
 21
-0.0351495
 31
0.0
 40
0.1909698069
 41
0.2617015324
 42
0.2802019031
  0
ELLIPSE
  5
409
100
AcDbEntity
  8
ALL_ASSEMBLY_MEMBERS
100
AcDbEllipse
 62
7
  6
CONTINUOUS
 10
5.0272903727
 20
4.8171682391
 30
0.0
 11
0.484529642
 21
-0.0531218287
 31
0.0
 40
0.275116029
 41
-2.8385463295
 42
-2.8258040739
  0
ELLIPSE
  5
40A
100
AcDbEntity
  8
ALL_ASSEMBLY_MEMBERS
100
AcDbEllipse
 62
7
  6
CONTINUOUS
 10
5.0272903727
 20
4.7953282244
 30
0.0
 11
-0.4356621459
 21
0.3097085669
 31
0.0
 40
0.6863173461
 41
0.7140568349
 42
0.7268114943
  0
ELLIPSE
  5
40B
100
AcDbEntity
  8
ALL_ASSEMBLY_MEMBERS
100
AcDbEllipse
 62
7
  6
CONTINUOUS
 10
5.0272903727
 20
4.7698401916
 30
0.0
 11
-0.2578960294
 21
0.701433387
 31
0.0
 40
0.5851641221
 41
1.2622921148
 42
1.2699517446
  0
ELLIPSE
  5
40C
100
AcDbEntity
  8
ALL_ASSEMBLY_MEMBERS
100
AcDbEllipse
 62
7
  6
CONTINUOUS
 10
5.0272903727
 20
4.6660520564
 30
0.0
 11
-0.1770586193
 21
1.7931559956
 31
0.0
 40
0.2516551382
 41
1.4442558639
 42
1.4493654161
  0
ELLIPSE
  5
40D
100
AcDbEntity
  8
ALL_ASSEMBLY_MEMBERS
100
AcDbEllipse
 62
7
  6
CONTINUOUS
 10
5.0272903727
 20
5.0357246435
 30
0.0
 11
0.177058616
 21
1.7931562471
 31
0.0
 40
0.2516551037
 41
-4.5909580771
 42
-4.5858485249
  0
ELLIPSE
  5
40E
100
AcDbEntity
  8
ALL_ASSEMBLY_MEMBERS
100
AcDbEllipse
 62
7
  6
CONTINUOUS
 10
5.0272903727
 20
4.9146384512
 30
0.0
 11
0.3546537589
 21
0.4793658574
 31
0.0
 40
0.6893673822
 41
-4.1543810131
 42
-4.1441693573
  0
ELLIPSE
  5
40F
100
AcDbEntity
  8
ALL_ASSEMBLY_MEMBERS
100
AcDbEllipse
 62
7
  6
CONTINUOUS
 10
5.0272903727
 20
4.8991644325
 30
0.0
 11
0.4668512029
 21
0.2089254365
 31
0.0
 40
0.6246663258
 41
2.6012078026
 42
2.6063101801
  0
ELLIPSE
  5
410
100
AcDbEntity
  8
ALL_ASSEMBLY_MEMBERS
100
AcDbEllipse
 62
7
  6
CONTINUOUS
 10
5.0272903727
 20
4.844078363
 30
0.0
 11
0.4817044942
 21
-0.0691776629
 31
0.0
 40
0.3415058114
 41
-2.7050160301
 42
-2.6947853447
  0
ELLIPSE
  5
411
100
AcDbEntity
  8
ALL_ASSEMBLY_MEMBERS
100
AcDbEllipse
 62
7
  6
CONTINUOUS
 10
5.0272903727
 20
4.8117322736
 30
0.0
 11
0.4644757236
 21
-0.2078624458
 31
0.0
 40
0.6246664002
 41
-2.6016242452
 42
-2.5913732513
  0
ELLIPSE
  5
412
100
AcDbEntity
  8
ALL_ASSEMBLY_MEMBERS
100
AcDbEllipse
 62
7
  6
CONTINUOUS
 10
5.0272903727
 20
4.8117322736
 30
0.0
 11
0.4668511851
 21
-0.2089255137
 31
0.0
 40
0.6246664002
 41
-2.601207666
 42
-2.5910091369
  0
ELLIPSE
  5
413
100
AcDbEntity
  8
ALL_ASSEMBLY_MEMBERS
100
AcDbEllipse
 62
7
  6
CONTINUOUS
 10
5.0272903727
 20
4.8244702802
 30
0.0
 11
0.4817044969
 21
-0.0691775694
 31
0.0
 40
0.3415054598
 41
-2.8149612884
 42
-2.8098396765
  0
ELLIPSE
  5
414
100
AcDbEntity
  8
ALL_ASSEMBLY_MEMBERS
100
AcDbEllipse
 62
7
  6
CONTINUOUS
 10
5.0272903727
 20
4.8244702802
 30
0.0
 11
0.4841680714
 21
-0.0695313633
 31
0.0
 40
0.3415054598
 41
-2.8145971741
 42
-2.804406043
  0
ELLIPSE
  5
415
100
AcDbEntity
  8
ALL_ASSEMBLY_MEMBERS
100
AcDbEllipse
 62
7
  6
CONTINUOUS
 10
5.0272903727
 20
4.844078363
 30
0.0
 11
0.4841680686
 21
-0.0695314572
 31
0.0
 40
0.3415058114
 41
-2.7052120566
 42
-2.6950335265
  0
ELLIPSE
  5
416
100
AcDbEntity
  8
ALL_ASSEMBLY_MEMBERS
100
AcDbEllipse
 62
7
  6
CONTINUOUS
 10
5.0272903727
 20
4.9813153271
 30
0.0
 11
0.3259988447
 21
0.534526411
 31
0.0
 40
0.6711698637
 41
-1.3248813381
 42
-1.3025821329
  0
ELLIPSE
  5
417
100
AcDbEntity
  8
ALL_ASSEMBLY_MEMBERS
100
AcDbEllipse
 62
7
  6
CONTINUOUS
 10
5.0272903727
 20
4.9813153271
 30
0.0
 11
0.3243400769
 21
0.5318066001
 31
0.0
 40
0.6711698637
 41
-1.3256157268
 42
-1.3032004624
  0
ELLIPSE
  5
418
100
AcDbEntity
  8
ALL_ASSEMBLY_MEMBERS
100
AcDbEllipse
 62
7
  6
CONTINUOUS
 10
5.0272903727
 20
4.8901285231
 30
0.0
 11
0.4820642286
 21
-0.0528514816
 31
0.0
 40
0.2751158134
 41
-2.6982804374
 42
-2.6854723786
  0
ELLIPSE
  5
419
100
AcDbEntity
  8
ALL_ASSEMBLY_MEMBERS
100
AcDbEllipse
 62
7
  6
CONTINUOUS
 10
5.0272903727
 20
4.8901285231
 30
0.0
 11
0.4845296428
 21
-0.0531217792
 31
0.0
 40
0.2751158134
 41
-2.6986070031
 42
-2.6858644385
  0
ELLIPSE
  5
41A
100
AcDbEntity
  8
ALL_ASSEMBLY_MEMBERS
100
AcDbEllipse
 62
7
  6
CONTINUOUS
 10
5.0272903727
 20
4.9120647057
 30
0.0
 11
-0.4334453124
 21
0.30813287
 31
0.0
 40
0.6863174071
 41
0.879885828
 42
0.8927065257
  0
ELLIPSE
  5
41B
100
AcDbEntity
  8
ALL_ASSEMBLY_MEMBERS
100
AcDbEllipse
 62
7
  6
CONTINUOUS
 10
5.0272903727
 20
4.9120647057
 30
0.0
 11
-0.4356620756
 21
0.3097087495
 31
0.0
 40
0.6863174071
 41
0.879493768
 42
0.8922487784
  0
ELLIPSE
  5
41C
100
AcDbEntity
  8
ALL_ASSEMBLY_MEMBERS
100
AcDbEllipse
 62
7
  6
CONTINUOUS
 10
5.0272903727
 20
4.9589690112
 30
0.0
 11
-0.2099434945
 21
0.9468962978
 31
0.0
 40
0.4585403189
 41
1.5591997581
 42
1.5668991476
  0
ELLIPSE
  5
41D
100
AcDbEntity
  8
ALL_ASSEMBLY_MEMBERS
100
AcDbEllipse
 62
7
  6
CONTINUOUS
 10
5.0272903727
 20
4.9589690112
 30
0.0
 11
-0.2110172055
 21
0.951738996
 31
0.0
 40
0.4585403189
 41
1.5587420108
 42
1.5664018812
  0
ELLIPSE
  5
41E
100
AcDbEntity
  8
ALL_ASSEMBLY_MEMBERS
100
AcDbEllipse
 62
7
  6
CONTINUOUS
 10
5.0272903727
 20
4.9387551518
 30
0.0
 11
0.3259989376
 21
0.5345262269
 31
0.0
 40
0.6711699369
 41
-1.2507639313
 42
-1.2286206453
  0
ELLIPSE
  5
41F
100
AcDbEntity
  8
ALL_ASSEMBLY_MEMBERS
100
AcDbEllipse
 62
7
  6
CONTINUOUS
 10
5.0272903727
 20
4.9387551518
 30
0.0
 11
0.3243401693
 21
0.5318064169
 31
0.0
 40
0.6711699369
 41
-1.2511147927
 42
-1.2288578778
  0
ELLIPSE
  5
420
100
AcDbEntity
  8
ALL_ASSEMBLY_MEMBERS
100
AcDbEllipse
 62
7
  6
CONTINUOUS
 10
5.0272903727
 20
4.863170334
 30
0.0
 11
0.4817044942
 21
0.0691776629
 31
0.0
 40
0.3415058114
 41
8.9779706519
 42
8.9882013373
  0
ELLIPSE
  5
421
100
AcDbEntity
  8
ALL_ASSEMBLY_MEMBERS
100
AcDbEllipse
 62
7
  6
CONTINUOUS
 10
5.0272903727
 20
4.9047205922
 30
0.0
 11
0.4820642278
 21
-0.0528515343
 31
0.0
 40
0.2751160439
 41
-2.8133316337
 42
-2.8005427031
  0
ELLIPSE
  5
422
100
AcDbEntity
  8
ALL_ASSEMBLY_MEMBERS
100
AcDbEllipse
 62
7
  6
CONTINUOUS
 10
5.0272903727
 20
4.863170334
 30
0.0
 11
0.4841680686
 21
0.0695314572
 31
0.0
 40
0.3415058114
 41
2.6950335265
 42
2.7052120566
  0
ELLIPSE
  5
423
100
AcDbEntity
  8
ALL_ASSEMBLY_MEMBERS
100
AcDbEllipse
 62
7
  6
CONTINUOUS
 10
5.0272903727
 20
4.9047205922
 30
0.0
 11
0.484529642
 21
-0.0531218322
 31
0.0
 40
0.2751160439
 41
-2.8130721217
 42
-2.8003483937
  0
ELLIPSE
  5
424
100
AcDbEntity
  8
ALL_ASSEMBLY_MEMBERS
100
AcDbEllipse
 62
7
  6
CONTINUOUS
 10
5.0272903727
 20
4.8494302019
 30
0.0
 11
0.3528493905
 21
0.4769263331
 31
0.0
 40
0.6893674814
 41
-4.2792623293
 42
-4.2690356602
  0
ELLIPSE
  5
425
100
AcDbEntity
  8
ALL_ASSEMBLY_MEMBERS
100
AcDbEllipse
 62
7
  6
CONTINUOUS
 10
5.0272903727
 20
4.8938246267
 30
0.0
 11
-0.4334454607
 21
0.308132485
 31
0.0
 40
0.686317278
 41
0.7648147469
 42
0.777597438
  0
ELLIPSE
  5
426
100
AcDbEntity
  8
ALL_ASSEMBLY_MEMBERS
100
AcDbEllipse
 62
7
  6
CONTINUOUS
 10
5.0272903727
 20
4.8938246267
 30
0.0
 11
-0.4356622246
 21
0.3097083626
 31
0.0
 40
0.686317278
 41
0.7650090563
 42
0.7777266395
  0
ELLIPSE
  5
427
100
AcDbEntity
  8
ALL_ASSEMBLY_MEMBERS
100
AcDbEllipse
 62
7
  6
CONTINUOUS
 10
5.0272903727
 20
4.8494302019
 30
0.0
 11
0.3546539631
 21
0.4793654706
 31
0.0
 40
0.6893674814
 41
-4.2790663028
 42
-4.2688917277
  0
ELLIPSE
  5
428
100
AcDbEntity
  8
ALL_ASSEMBLY_MEMBERS
100
AcDbEllipse
 62
7
  6
CONTINUOUS
 10
5.0272903727
 20
4.8865766705
 30
0.0
 11
-0.2565838281
 21
0.6978641712
 31
0.0
 40
0.5851642007
 41
1.3334926163
 42
1.3411601046
  0
ELLIPSE
  5
429
100
AcDbEntity
  8
ALL_ASSEMBLY_MEMBERS
100
AcDbEllipse
 62
7
  6
CONTINUOUS
 10
5.0272903727
 20
5.0399737597
 30
0.0
 11
-0.176157672
 21
1.7840339535
 31
0.0
 40
0.251654861
 41
-4.6398114528
 42
-4.6346753393
  0
ELLIPSE
  5
42A
100
AcDbEntity
  8
ALL_ASSEMBLY_MEMBERS
100
AcDbEllipse
 62
7
  6
CONTINUOUS
 10
5.0272903727
 20
4.8865766705
 30
0.0
 11
-0.2578960711
 21
0.7014332479
 31
0.0
 40
0.5851642007
 41
1.3336218178
 42
1.3412502738
  0
ELLIPSE
  5
42B
100
AcDbEntity
  8
ALL_ASSEMBLY_MEMBERS
100
AcDbEllipse
 62
7
  6
CONTINUOUS
 10
5.0272903727
 20
4.8820896576
 30
0.0
 11
0.4846322902
 21
-0.0448830582
 31
0.0
 40
0.2379969588
 41
0.2735943692
 42
0.2883920801
  0
ELLIPSE
  5
42C
100
AcDbEntity
  8
ALL_ASSEMBLY_MEMBERS
100
AcDbEllipse
 62
7
  6
CONTINUOUS
 10
5.0272903727
 20
4.8820896576
 30
0.0
 11
0.4821663537
 21
-0.0446546814
 31
0.0
 40
0.2379969588
 41
6.5562793864
 42
6.5711534012
  0
ELLIPSE
  5
42D
100
AcDbEntity
  8
ALL_ASSEMBLY_MEMBERS
100
AcDbEllipse
 62
7
  6
CONTINUOUS
 10
5.0272903727
 20
4.867604872
 30
0.0
 11
-0.1761576992
 21
1.7840318986
 31
0.0
 40
0.2516551449
 41
1.5282335062
 42
1.533344561
  0
ELLIPSE
  5
42E
100
AcDbEntity
  8
ALL_ASSEMBLY_MEMBERS
100
AcDbEllipse
 62
7
  6
CONTINUOUS
 10
5.0272903727
 20
4.9021716981
 30
0.0
 11
0.4734427814
 21
-0.1768432279
 31
0.0
 40
0.588594106
 41
0.4568564648
 42
0.4679686539
  0
ELLIPSE
  5
42F
100
AcDbEntity
  8
ALL_ASSEMBLY_MEMBERS
100
AcDbEllipse
 62
7
  6
CONTINUOUS
 10
5.0272903727
 20
4.9021716981
 30
0.0
 11
0.47103378
 21
-0.175943403
 31
0.0
 40
0.588594106
 41
0.4562987307
 42
0.467468364
  0
ELLIPSE
  5
430
100
AcDbEntity
  8
ALL_ASSEMBLY_MEMBERS
100
AcDbEllipse
 62
7
  6
CONTINUOUS
 10
5.0272903727
 20
4.9468956666
 30
0.0
 11
-0.2501318493
 21
0.728790877
 31
0.0
 40
0.569753021
 41
-1.8799443451
 42
-1.8725288025
  0
ELLIPSE
  5
431
100
AcDbEntity
  8
ALL_ASSEMBLY_MEMBERS
100
AcDbEllipse
 62
7
  6
CONTINUOUS
 10
5.0272903727
 20
4.9468956666
 30
0.0
 11
-0.2488591127
 21
0.7250825974
 31
0.0
 40
0.569753021
 41
-1.880540491
 42
-1.8730865367
  0
ELLIPSE
  5
432
100
AcDbEntity
  8
ALL_ASSEMBLY_MEMBERS
100
AcDbEllipse
 62
7
  6
CONTINUOUS
 10
5.0272903727
 20
5.0328720183
 30
0.0
 11
-0.1826258381
 21
1.484169538
 31
0.0
 40
0.3025481177
 41
-1.7277547305
 42
-1.7240446013
  0
ELLIPSE
  5
433
100
AcDbEntity
  8
ALL_ASSEMBLY_MEMBERS
100
AcDbEllipse
 62
7
  6
CONTINUOUS
 10
5.0272903727
 20
5.0328720183
 30
0.0
 11
-0.1816965899
 21
1.4766176932
 31
0.0
 40
0.3025481177
 41
-1.7283701194
 42
-1.7246407472
  0
ELLIPSE
  5
434
100
AcDbEntity
  8
ALL_ASSEMBLY_MEMBERS
100
AcDbEllipse
 62
7
  6
CONTINUOUS
 10
5.0272903727
 20
4.6743767603
 30
0.0
 11
0.1826258551
 21
1.4841688429
 31
0.0
 40
0.3025482548
 41
-1.4175480146
 42
-1.4138378854
  0
ELLIPSE
  5
435
100
AcDbEntity
  8
ALL_ASSEMBLY_MEMBERS
100
AcDbEllipse
 62
7
  6
CONTINUOUS
 10
5.0272903727
 20
4.6743767603
 30
0.0
 11
0.1816966067
 21
1.4766170017
 31
0.0
 40
0.3025482548
 41
-1.4169518687
 42
-1.4132224965
  0
ELLIPSE
  5
436
100
AcDbEntity
  8
ALL_ASSEMBLY_MEMBERS
100
AcDbEllipse
 62
7
  6
CONTINUOUS
 10
5.0272903727
 20
4.7603530117
 30
0.0
 11
0.250131799
 21
0.7287910644
 31
0.0
 40
0.5697529161
 41
-1.269063972
 42
-1.2616484294
  0
ELLIPSE
  5
437
100
AcDbEntity
  8
ALL_ASSEMBLY_MEMBERS
100
AcDbEllipse
 62
7
  6
CONTINUOUS
 10
5.0272903727
 20
4.7603530117
 30
0.0
 11
0.2488590627
 21
0.7250827838
 31
0.0
 40
0.5697529161
 41
-1.2685062378
 42
-1.2610522835
  0
ELLIPSE
  5
438
100
AcDbEntity
  8
ALL_ASSEMBLY_MEMBERS
100
AcDbEllipse
 62
7
  6
CONTINUOUS
 10
5.0272903727
 20
4.8050769989
 30
0.0
 11
0.4734427814
 21
0.1768432279
 31
0.0
 40
0.588594106
 41
-0.4679686539
 42
-0.4568564648
  0
ELLIPSE
  5
439
100
AcDbEntity
  8
ALL_ASSEMBLY_MEMBERS
100
AcDbEllipse
 62
7
  6
CONTINUOUS
 10
5.0272903727
 20
4.8050769989
 30
0.0
 11
0.47103378
 21
0.175943403
 31
0.0
 40
0.588594106
 41
-0.467468364
 42
-0.4562987307
  0
ELLIPSE
  5
43A
100
AcDbEntity
  8
ALL_ASSEMBLY_MEMBERS
100
AcDbEllipse
 62
7
  6
CONTINUOUS
 10
5.0272903727
 20
4.8251590395
 30
0.0
 11
0.4846322902
 21
0.0448830582
 31
0.0
 40
0.2379969588
 41
-0.2883920801
 42
-0.2735943692
  0
ELLIPSE
  5
43B
100
AcDbEntity
  8
ALL_ASSEMBLY_MEMBERS
100
AcDbEllipse
 62
7
  6
CONTINUOUS
 10
5.0272903727
 20
4.8251590395
 30
0.0
 11
0.4821663537
 21
0.0446546814
 31
0.0
 40
0.2379969588
 41
-0.287968094
 42
-0.2730940792
  0
ELLIPSE
  5
43C
100
AcDbEntity
  8
ALL_ASSEMBLY_MEMBERS
100
AcDbEllipse
 62
7
  6
CONTINUOUS
 10
5.0272903727
 20
5.0399737597
 30
0.0
 11
-0.1770585927
 21
1.7931580129
 31
0.0
 40
0.251654861
 41
-4.6403087193
 42
-4.6351990007
  0
ELLIPSE
  5
43D
100
AcDbEntity
  8
ALL_ASSEMBLY_MEMBERS
100
AcDbEllipse
 62
7
  6
CONTINUOUS
 10
5.0272903727
 20
4.867604872
 30
0.0
 11
-0.17705862
 21
1.7931559474
 31
0.0
 40
0.2516551449
 41
1.5283236754
 42
1.5334087178
  0
ELLIPSE
  5
43E
100
AcDbEntity
  8
ALL_ASSEMBLY_MEMBERS
100
AcDbEllipse
 62
7
  6
CONTINUOUS
 10
5.0272903727
 20
4.9026321592
 30
0.0
 11
0.182988122
 21
1.4265173665
 31
0.0
 40
0.3128040763
 41
-4.6596770866
 42
-4.6545660318
  0
ELLIPSE
  5
43F
100
AcDbEntity
  8
ALL_ASSEMBLY_MEMBERS
100
AcDbEllipse
 62
7
  6
CONTINUOUS
 10
5.0272903727
 20
4.9137865436
 30
0.0
 11
0.4817044969
 21
0.0691775694
 31
0.0
 40
0.3415054598
 41
9.0930249837
 42
9.0981465956
  0
ELLIPSE
  5
440
100
AcDbEntity
  8
ALL_ASSEMBLY_MEMBERS
100
AcDbEllipse
 62
7
  6
CONTINUOUS
 10
5.0272903727
 20
4.9026321592
 30
0.0
 11
0.1839239755
 21
1.4338129838
 31
0.0
 40
0.3128040763
 41
-4.6597412434
 42
-4.654656201
  0
ELLIPSE
  5
441
100
AcDbEntity
  8
ALL_ASSEMBLY_MEMBERS
100
AcDbEllipse
 62
7
  6
CONTINUOUS
 10
5.0272903727
 20
4.9137865436
 30
0.0
 11
0.4841680714
 21
0.0695313633
 31
0.0
 40
0.3415054598
 41
2.804406043
 42
2.8145971741
  0
ELLIPSE
  5
442
100
AcDbEntity
  8
ALL_ASSEMBLY_MEMBERS
100
AcDbEllipse
 62
7
  6
CONTINUOUS
 10
5.0272903727
 20
4.8899843074
 30
0.0
 11
0.2565838281
 21
0.6978641712
 31
0.0
 40
0.5851642007
 41
-4.4827527582
 42
-4.4750852699
  0
ELLIPSE
  5
443
100
AcDbEntity
  8
ALL_ASSEMBLY_MEMBERS
100
AcDbEllipse
 62
7
  6
CONTINUOUS
 10
5.0272903727
 20
4.8899843074
 30
0.0
 11
0.2578960711
 21
0.7014332479
 31
0.0
 40
0.5851642007
 41
-4.4828429274
 42
-4.4752144714
  0
ELLIPSE
  5
444
100
AcDbEntity
  8
ALL_ASSEMBLY_MEMBERS
100
AcDbEllipse
 62
7
  6
CONTINUOUS
 10
5.0272903727
 20
4.8533458205
 30
0.0
 11
-0.207495773
 21
0.9858241387
 31
0.0
 40
0.4443956471
 41
-1.6766755349
 42
-1.6693064443
  0
ELLIPSE
  5
445
100
AcDbEntity
  8
ALL_ASSEMBLY_MEMBERS
100
AcDbEllipse
 62
7
  6
CONTINUOUS
 10
5.0272903727
 20
4.8533458205
 30
0.0
 11
-0.2064399799
 21
0.9808080064
 31
0.0
 40
0.4443956471
 41
-1.676740052
 42
-1.6693332706
  0
ELLIPSE
  5
446
100
AcDbEntity
  8
ALL_ASSEMBLY_MEMBERS
100
AcDbEllipse
 62
7
  6
CONTINUOUS
 10
5.0272903727
 20
4.8491826491
 30
0.0
 11
-0.2800134072
 21
0.636735321
 31
0.0
 40
0.6214444929
 41
-1.8612406191
 42
-1.8501855787
  0
ELLIPSE
  5
447
100
AcDbEntity
  8
ALL_ASSEMBLY_MEMBERS
100
AcDbEllipse
 62
7
  6
CONTINUOUS
 10
5.0272903727
 20
4.8491826491
 30
0.0
 11
-0.2785886254
 21
0.6334954443
 31
0.0
 40
0.6214444929
 41
-1.8613616941
 42
-1.8502500958
  0
ELLIPSE
  5
448
100
AcDbEntity
  8
ALL_ASSEMBLY_MEMBERS
100
AcDbEllipse
 62
7
  6
CONTINUOUS
 10
5.0272903727
 20
4.8405903418
 30
0.0
 11
0.4782981758
 21
-0.1456294577
 31
0.0
 40
0.5412725914
 41
0.4702996175
 42
0.4887317785
  0
ELLIPSE
  5
449
100
AcDbEntity
  8
ALL_ASSEMBLY_MEMBERS
100
AcDbEllipse
 62
7
  6
CONTINUOUS
 10
5.0272903727
 20
4.8405903418
 30
0.0
 11
0.475864469
 21
-0.1448884567
 31
0.0
 40
0.5412725914
 41
0.4700841696
 42
0.4886107035
  0
ELLIPSE
  5
44A
100
AcDbEntity
  8
ALL_ASSEMBLY_MEMBERS
100
AcDbEllipse
 62
7
  6
CONTINUOUS
 10
5.0272903727
 20
4.8322556061
 30
0.0
 11
0.4847035229
 21
-0.0351494601
 31
0.0
 40
0.1909696071
 41
0.3023654898
 42
0.3208119973
  0
ELLIPSE
  5
44B
100
AcDbEntity
  8
ALL_ASSEMBLY_MEMBERS
100
AcDbEllipse
 62
7
  6
CONTINUOUS
 10
5.0272903727
 20
4.8322556061
 30
0.0
 11
0.482237224
 21
-0.0349706104
 31
0.0
 40
0.1909696071
 41
0.3020554476
 42
0.3205965494
  0
ELLIPSE
  5
44C
100
AcDbEntity
  8
ALL_ASSEMBLY_MEMBERS
100
AcDbEllipse
 62
7
  6
CONTINUOUS
 10
5.0272903727
 20
4.9392625545
 30
0.0
 11
0.3528491689
 21
0.4769267529
 31
0.0
 40
0.6893673732
 41
-4.1693178615
 42
-4.1590668675
  0
ELLIPSE
  5
44D
100
AcDbEntity
  8
ALL_ASSEMBLY_MEMBERS
100
AcDbEllipse
 62
7
  6
CONTINUOUS
 10
5.0272903727
 20
4.8809243604
 30
0.0
 11
0.4644757768
 21
0.2078622154
 31
0.0
 40
0.6246661769
 41
2.545321506
 42
2.5504339689
  0
ELLIPSE
  5
44E
100
AcDbEntity
  8
ALL_ASSEMBLY_MEMBERS
100
AcDbEllipse
 62
7
  6
CONTINUOUS
 10
5.0272903727
 20
4.8809243604
 30
0.0
 11
0.4668512386
 21
0.2089252821
 31
0.0
 40
0.6246661769
 41
2.5451923044
 42
2.5502787336
  0
ELLIPSE
  5
44F
100
AcDbEntity
  8
ALL_ASSEMBLY_MEMBERS
100
AcDbEllipse
 62
7
  6
CONTINUOUS
 10
5.0272903727
 20
4.9392625545
 30
0.0
 11
0.3546537404
 21
0.4793658925
 31
0.0
 40
0.6893673732
 41
-4.1696819759
 42
-4.1594834467
  0
ELLIPSE
  5
450
100
AcDbEntity
  8
ALL_ASSEMBLY_MEMBERS
100
AcDbEllipse
 62
7
  6
CONTINUOUS
 10
5.0272903727
 20
4.8591564693
 30
0.0
 11
0.4644757768
 21
-0.2078622154
 31
0.0
 40
0.6246661769
 41
-2.5504339689
 42
-2.545321506
  0
ELLIPSE
  5
451
100
AcDbEntity
  8
ALL_ASSEMBLY_MEMBERS
100
AcDbEllipse
 62
7
  6
CONTINUOUS
 10
5.0272903727
 20
4.8591564693
 30
0.0
 11
0.4668512386
 21
-0.2089252821
 31
0.0
 40
0.6246661769
 41
-2.5502787336
 42
-2.5451923044
  0
ELLIPSE
  5
452
100
AcDbEntity
  8
ALL_ASSEMBLY_MEMBERS
100
AcDbEllipse
 62
7
  6
CONTINUOUS
 10
5.0272903727
 20
4.8546264904
 30
0.0
 11
-0.3528490951
 21
0.4769268928
 31
0.0
 40
0.6893673371
 41
1.0737775876
 42
1.0840006492
  0
ELLIPSE
  5
453
100
AcDbEntity
  8
ALL_ASSEMBLY_MEMBERS
100
AcDbEllipse
 62
7
  6
CONTINUOUS
 10
5.0272903727
 20
4.8546264904
 30
0.0
 11
-0.3546536662
 21
0.4793660332
 31
0.0
 40
0.6893673371
 41
1.0739067891
 42
1.0840778115
  0
ELLIPSE
  5
454
100
AcDbEntity
  8
ALL_ASSEMBLY_MEMBERS
100
AcDbEllipse
 62
7
  6
CONTINUOUS
 10
5.0272903727
 20
4.9829486548
 30
0.0
 11
0.1991461286
 21
1.0676108832
 31
0.0
 40
0.4114301116
 41
-4.5541034629
 42
-4.5489748047
  0
ELLIPSE
  5
455
100
AcDbEntity
  8
ALL_ASSEMBLY_MEMBERS
100
AcDbEllipse
 62
7
  6
CONTINUOUS
 10
5.0272903727
 20
4.8356847453
 30
0.0
 11
-0.1761577058
 21
1.7840313981
 31
0.0
 40
0.251655214
 41
1.5307890648
 42
1.5358999382
  0
ELLIPSE
  5
456
100
AcDbEntity
  8
ALL_ASSEMBLY_MEMBERS
100
AcDbEllipse
 62
7
  6
CONTINUOUS
 10
5.0272903727
 20
4.9829486548
 30
0.0
 11
0.2001646188
 21
1.0730709503
 31
0.0
 40
0.4114301116
 41
-4.5545200421
 42
-4.5494176646
  0
ELLIPSE
  5
457
100
AcDbEntity
  8
ALL_ASSEMBLY_MEMBERS
100
AcDbEllipse
 62
7
  6
CONTINUOUS
 10
5.0272903727
 20
4.8356847453
 30
0.0
 11
-0.1770586266
 21
1.7931554444
 31
0.0
 40
0.251655214
 41
1.530866227
 42
1.5359510908
  0
ELLIPSE
  5
458
100
AcDbEntity
  8
ALL_ASSEMBLY_MEMBERS
100
AcDbEllipse
 62
7
  6
CONTINUOUS
 10
5.0272903727
 20
4.8660919265
 30
0.0
 11
0.1761577091
 21
1.7840311479
 31
0.0
 40
0.2516552486
 41
1.6056927228
 42
1.6108035962
  0
ELLIPSE
  5
459
100
AcDbEntity
  8
ALL_ASSEMBLY_MEMBERS
100
AcDbEllipse
 62
7
  6
CONTINUOUS
 10
5.0272903727
 20
4.8660919265
 30
0.0
 11
0.1770586299
 21
1.7931551929
 31
0.0
 40
0.2516552486
 41
-4.677543737
 42
-4.6724588732
  0
ELLIPSE
  5
45A
100
AcDbEntity
  8
ALL_ASSEMBLY_MEMBERS
100
AcDbEllipse
 62
7
  6
CONTINUOUS
 10
5.0272903727
 20
4.8498561491
 30
0.0
 11
0.2565838006
 21
0.6978642627
 31
0.0
 40
0.5851641487
 41
-4.4853083988
 42
-4.4776413078
  0
ELLIPSE
  5
45B
100
AcDbEntity
  8
ALL_ASSEMBLY_MEMBERS
100
AcDbEllipse
 62
7
  6
CONTINUOUS
 10
5.0272903727
 20
4.8498561491
 30
0.0
 11
0.2578960435
 21
0.70143334
 31
0.0
 40
0.5851641487
 41
-4.485385561
 42
-4.4777574963
  0
ELLIPSE
  5
45C
100
AcDbEntity
  8
ALL_ASSEMBLY_MEMBERS
100
AcDbEllipse
 62
7
  6
CONTINUOUS
 10
5.0272903727
 20
4.8749930903
 30
0.0
 11
0.4847035229
 21
0.0351494568
 31
0.0
 40
0.1909695906
 41
-0.3208119948
 42
-0.3023654873
  0
ELLIPSE
  5
45D
100
AcDbEntity
  8
ALL_ASSEMBLY_MEMBERS
100
AcDbEllipse
 62
7
  6
CONTINUOUS
 10
5.0272903727
 20
4.8749930903
 30
0.0
 11
0.482237224
 21
0.0349706071
 31
0.0
 40
0.1909695906
 41
-0.3205965469
 42
-0.3020554451
  0
ELLIPSE
  5
45E
100
AcDbEntity
  8
ALL_ASSEMBLY_MEMBERS
100
AcDbEllipse
 62
7
  6
CONTINUOUS
 10
5.0272903727
 20
4.8666583553
 30
0.0
 11
0.4782981788
 21
0.1456294353
 31
0.0
 40
0.541272552
 41
-0.4887317412
 42
-0.4702995801
  0
ELLIPSE
  5
45F
100
AcDbEntity
  8
ALL_ASSEMBLY_MEMBERS
100
AcDbEllipse
 62
7
  6
CONTINUOUS
 10
5.0272903727
 20
4.8666583553
 30
0.0
 11
0.4758644719
 21
0.1448884344
 31
0.0
 40
0.541272552
 41
-0.4732157386
 42
-0.4700841322
  0
ELLIPSE
  5
460
100
AcDbEntity
  8
ALL_ASSEMBLY_MEMBERS
100
AcDbEllipse
 62
7
  6
CONTINUOUS
 10
5.0272903727
 20
4.8433377998
 30
0.0
 11
0.4334452897
 21
0.3081329288
 31
0.0
 40
0.6863174268
 41
-3.9217468707
 42
-3.9089651839
  0
ELLIPSE
  5
461
100
AcDbEntity
  8
ALL_ASSEMBLY_MEMBERS
100
AcDbEllipse
 62
7
  6
CONTINUOUS
 10
5.0272903727
 20
4.8433377998
 30
0.0
 11
0.4356620527
 21
0.3097088087
 31
0.0
 40
0.6863174268
 41
-3.9218630593
 42
-3.9091464651
  0
ELLIPSE
  5
462
100
AcDbEntity
  8
ALL_ASSEMBLY_MEMBERS
100
AcDbEllipse
 62
7
  6
CONTINUOUS
 10
5.0272903727
 20
4.7936124047
 30
0.0
 11
-0.1991462019
 21
1.0676098726
 31
0.0
 40
0.41143047
 41
1.4073819844
 42
1.4125106426
  0
ELLIPSE
  5
463
100
AcDbEntity
  8
ALL_ASSEMBLY_MEMBERS
100
AcDbEllipse
 62
7
  6
CONTINUOUS
 10
5.0272903727
 20
4.7936124047
 30
0.0
 11
-0.2001646924
 21
1.0730699345
 31
0.0
 40
0.41143047
 41
1.4078248443
 42
1.4129272218
  0
ELLIPSE
  5
464
100
AcDbEntity
  8
ALL_ASSEMBLY_MEMBERS
100
AcDbEllipse
 62
7
  6
CONTINUOUS
 10
5.0272903727
 20
4.8331714273
 30
0.0
 11
0.482064228
 21
0.0528515221
 31
0.0
 40
0.2751159905
 41
2.797985741
 42
2.8107732586
  0
ELLIPSE
  5
465
100
AcDbEntity
  8
ALL_ASSEMBLY_MEMBERS
100
AcDbEllipse
 62
7
  6
CONTINUOUS
 10
5.0272903727
 20
4.8331714273
 30
0.0
 11
0.4845296422
 21
0.0531218199
 31
0.0
 40
0.2751159905
 41
2.7978044598
 42
2.8105267963
  0
ELLIPSE
  5
466
100
AcDbEntity
  8
ALL_ASSEMBLY_MEMBERS
100
AcDbEllipse
 62
7
  6
CONTINUOUS
 10
5.0272903727
 20
4.6672749616
 30
0.0
 11
0.1761576753
 21
1.7840337033
 31
0.0
 40
0.2516548955
 41
1.4930826931
 42
1.4982188066
  0
ELLIPSE
  5
467
100
AcDbEntity
  8
ALL_ASSEMBLY_MEMBERS
100
AcDbEllipse
 62
7
  6
CONTINUOUS
 10
5.0272903727
 20
4.8372984234
 30
0.0
 11
-0.3528491689
 21
0.4769267529
 31
0.0
 40
0.6893673732
 41
1.017474214
 42
1.0277252079
  0
ELLIPSE
  5
468
100
AcDbEntity
  8
ALL_ASSEMBLY_MEMBERS
100
AcDbEllipse
 62
7
  6
CONTINUOUS
 10
5.0272903727
 20
4.8372984234
 30
0.0
 11
-0.3546537404
 21
0.4793658925
 31
0.0
 40
0.6893673732
 41
1.0178907931
 42
1.0280893223
  0
ELLIPSE
  5
469
100
AcDbEntity
  8
ALL_ASSEMBLY_MEMBERS
100
AcDbEllipse
 62
7
  6
CONTINUOUS
 10
5.0272903727
 20
4.8627744343
 30
0.0
 11
0.4817044969
 21
-0.0691775694
 31
0.0
 40
0.3415054598
 41
-2.8149612884
 42
-2.8098396765
  0
ELLIPSE
  5
46A
100
AcDbEntity
  8
ALL_ASSEMBLY_MEMBERS
100
AcDbEllipse
 62
7
  6
CONTINUOUS
 10
5.0272903727
 20
4.6672749616
 30
0.0
 11
0.177058596
 21
1.7931577614
 31
0.0
 40
0.2516548955
 41
1.4936063544
 42
1.498716073
  0
ELLIPSE
  5
46B
100
AcDbEntity
  8
ALL_ASSEMBLY_MEMBERS
100
AcDbEllipse
 62
7
  6
CONTINUOUS
 10
5.0272903727
 20
4.8627744343
 30
0.0
 11
0.4841680714
 21
-0.0695313633
 31
0.0
 40
0.3415054598
 41
-2.8145971741
 42
-2.804406043
  0
ELLIPSE
  5
46C
100
AcDbEntity
  8
ALL_ASSEMBLY_MEMBERS
100
AcDbEllipse
 62
7
  6
CONTINUOUS
 10
5.0272903727
 20
4.7482796777
 30
0.0
 11
0.2099434851
 21
0.9468963828
 31
0.0
 40
0.4585402825
 41
-4.7084918227
 42
-4.7007924332
  0
ELLIPSE
  5
46D
100
AcDbEntity
  8
ALL_ASSEMBLY_MEMBERS
100
AcDbEllipse
 62
7
  6
CONTINUOUS
 10
5.0272903727
 20
4.7482796777
 30
0.0
 11
0.2110171961
 21
0.9517390814
 31
0.0
 40
0.4585402825
 41
-4.7079945563
 42
-4.7003346858
  0
ELLIPSE
  5
46E
100
AcDbEntity
  8
ALL_ASSEMBLY_MEMBERS
100
AcDbEllipse
 62
7
  6
CONTINUOUS
 10
5.0272903727
 20
4.7951839874
 30
0.0
 11
0.4334452897
 21
0.3081329288
 31
0.0
 40
0.6863174268
 41
-4.0342992866
 42
-4.0214785888
  0
ELLIPSE
  5
46F
100
AcDbEntity
  8
ALL_ASSEMBLY_MEMBERS
100
AcDbEllipse
 62
7
  6
CONTINUOUS
 10
5.0272903727
 20
4.7951839874
 30
0.0
 11
0.4356620527
 21
0.3097088087
 31
0.0
 40
0.6863174268
 41
-4.0338415392
 42
-4.0210865289
  0
ELLIPSE
  5
470
100
AcDbEntity
  8
ALL_ASSEMBLY_MEMBERS
100
AcDbEllipse
 62
7
  6
CONTINUOUS
 10
5.0272903727
 20
4.8171201719
 30
0.0
 11
0.4820642285
 21
0.052851487
 31
0.0
 40
0.2751158369
 41
2.6854723729
 42
2.6982804317
  0
ELLIPSE
  5
471
100
AcDbEntity
  8
ALL_ASSEMBLY_MEMBERS
100
AcDbEllipse
 62
7
  6
CONTINUOUS
 10
5.0272903727
 20
4.8171201719
 30
0.0
 11
0.4845296427
 21
0.0531217846
 31
0.0
 40
0.2751158369
 41
2.6858644329
 42
2.6986069975
  0
ELLIPSE
  5
472
100
AcDbEntity
  8
ALL_ASSEMBLY_MEMBERS
100
AcDbEllipse
 62
7
  6
CONTINUOUS
 10
5.0272903727
 20
4.8773063954
 30
0.0
 11
0.4817044969
 21
0.0691775694
 31
0.0
 40
0.3415054598
 41
9.0930249837
 42
9.0981465956
  0
ELLIPSE
  5
473
100
AcDbEntity
  8
ALL_ASSEMBLY_MEMBERS
100
AcDbEllipse
 62
7
  6
CONTINUOUS
 10
5.0272903727
 20
4.8848727713
 30
0.0
 11
-0.182988171
 21
1.4265155693
 31
0.0
 40
0.3128044563
 41
1.5564159305
 42
1.5615284492
  0
ELLIPSE
  5
474
100
AcDbEntity
  8
ALL_ASSEMBLY_MEMBERS
100
AcDbEllipse
 62
7
  6
CONTINUOUS
 10
5.0272903727
 20
4.8773063954
 30
0.0
 11
0.4841680714
 21
0.0695313633
 31
0.0
 40
0.3415054598
 41
2.804406043
 42
2.8145971741
  0
ELLIPSE
  5
475
100
AcDbEntity
  8
ALL_ASSEMBLY_MEMBERS
100
AcDbEllipse
 62
7
  6
CONTINUOUS
 10
5.0272903727
 20
4.8848727713
 30
0.0
 11
-0.1839240248
 21
1.4338111775
 31
0.0
 40
0.3128044563
 41
1.556285014
 42
1.5613714981
  0
ELLIPSE
  5
476
100
AcDbEntity
  8
ALL_ASSEMBLY_MEMBERS
100
AcDbEllipse
 62
7
  6
CONTINUOUS
 10
5.0272903727
 20
4.890044402
 30
0.0
 11
0.4644757236
 21
0.2078624458
 31
0.0
 40
0.6246664002
 41
2.5913732513
 42
2.6016242452
  0
ELLIPSE
  5
477
100
AcDbEntity
  8
ALL_ASSEMBLY_MEMBERS
100
AcDbEllipse
 62
7
  6
CONTINUOUS
 10
5.0272903727
 20
4.890044402
 30
0.0
 11
0.4668511851
 21
0.2089255137
 31
0.0
 40
0.6246664002
 41
2.5910091369
 42
2.601207666
  0
ELLIPSE
  5
478
100
AcDbEntity
  8
ALL_ASSEMBLY_MEMBERS
100
AcDbEllipse
 62
7
  6
CONTINUOUS
 10
5.0272903727
 20
4.9385844534
 30
0.0
 11
0.2099434699
 21
0.946896522
 31
0.0
 40
0.4585402229
 41
-4.5293809328
 42
-4.5216870953
  0
ELLIPSE
  5
479
100
AcDbEntity
  8
ALL_ASSEMBLY_MEMBERS
100
AcDbEllipse
 62
7
  6
CONTINUOUS
 10
5.0272903727
 20
4.9385844534
 30
0.0
 11
0.2110171808
 21
0.9517392213
 31
0.0
 40
0.4585402229
 41
-4.529797512
 42
-4.5221431086
  0
ELLIPSE
  5
47A
100
AcDbEntity
  8
ALL_ASSEMBLY_MEMBERS
100
AcDbEllipse
 62
7
  6
CONTINUOUS
 10
5.0272903727
 20
4.8555284802
 30
0.0
 11
-0.4000667381
 21
0.3847573131
 31
0.0
 40
0.7000252448
 41
0.972439552
 42
0.9801098693
  0
ELLIPSE
  5
47B
100
AcDbEntity
  8
ALL_ASSEMBLY_MEMBERS
100
AcDbEllipse
 62
7
  6
CONTINUOUS
 10
5.0272903727
 20
4.7631922358
 30
0.0
 11
-0.2099434885
 21
0.9468963521
 31
0.0
 40
0.4585402957
 41
1.3800943987
 42
1.3877882363
  0
ELLIPSE
  5
47C
100
AcDbEntity
  8
ALL_ASSEMBLY_MEMBERS
100
AcDbEllipse
 62
7
  6
CONTINUOUS
 10
5.0272903727
 20
4.8555284802
 30
0.0
 11
-0.4021127937
 21
0.3867250719
 31
0.0
 40
0.7000252448
 41
0.9722826009
 42
0.9799138428
  0
ELLIPSE
  5
47D
100
AcDbEntity
  8
ALL_ASSEMBLY_MEMBERS
100
AcDbEllipse
 62
7
  6
CONTINUOUS
 10
5.0272903727
 20
4.7631922358
 30
0.0
 11
-0.2110171995
 21
0.9517390505
 31
0.0
 40
0.4585402957
 41
1.380550412
 42
1.3882048155
  0
ENDSEC
  0
SECTION
  2
OBJECTS
  0
DICTIONARY
  5
C
100
AcDbDictionary
280
0
281
1
  3
ACAD_GROUP
350
D
  3
ACAD_MLINESTYLE
350
17
  3
ACAD_LAYOUT
350
1A
  3
ACAD_PLOTSETTINGS
350
19
  3
ACAD_PLOTSTYLENAME
350
E
  0
DICTIONARY
  5
D
102
{ACAD_REACTORS
330
C
102
}
100
AcDbDictionary
280
0
281
1
  0
ACDBDICTIONARYWDFLT
  5
E
102
{ACAD_REACTORS
330
C
102
}
100
AcDbDictionary
281
1
  3
Normal
350
F
100
AcDbDictionaryWithDefault
340
F
  0
DICTIONARY
  5
17
102
{ACAD_REACTORS
330
C
102
}
100
AcDbDictionary
280
0
281
1
  3
Standard
350
18
  0
DICTIONARY
  5
19
102
{ACAD_REACTORS
330
C
102
}
100
AcDbDictionary
281
1
  0
DICTIONARY
  5
1A
102
{ACAD_REACTORS
330
C
102
}
100
AcDbDictionary
281
1
  3
Model
350
47E
  3
Layout1
350
47F
  0
ACDBPLACEHOLDER
  5
F
102
{ACAD_REACTORS
330
E
102
}
  0
MLINESTYLE
  5
18
102
{ACAD_REACTORS
330
17
102
}
100
AcDbMlineStyle
  2
STANDARD
 70
0
  3

 62
256
 51
90.0
 52
90.0
 71
2
 49
0.5
 62
256
  6
BYLAYER
 49
-0.5
 62
256
  6
BYLAYER
  0
LAYOUT
  5
47E
102
{ACAD_REACTORS
330
1A
102
}
100
AcDbPlotSettings
  1

  2
none_device
  4
ANSI_A_(11.00_x_8.50_Inches)
  6

 40
0.0
 41
0.0
 42
0.0
 43
0.0
 44
279.4
 45
215.9
 46
0.0
 47
0.0
 48
0.0
 49
0.0
140
0.0
141
0.0
142
1.0
143
1.0
 70
1024
 72
0
 73
0
 74
0
  7

 75
0
147
1.0
148
0.0
149
0.0
100
AcDbLayout
  1
Model
 70
0
 71
0
 10
0.0
 20
0.0
 11
11.0
 21
8.5
 12
0.0
 22
0.0
 32
0.0
 14
0.0
 24
0.0
 34
0.0
 15
0.0
 25
0.0
 35
0.0
146
0.0
 13
0.0
 23
0.0
 33
0.0
 16
1.0
 26
0.0
 36
0.0
 17
0.0
 27
1.0
 37
0.0
 76
0
330
21E
345
0
346
0
  0
LAYOUT
  5
47F
102
{ACAD_REACTORS
330
1A
102
}
100
AcDbPlotSettings
  1

  2
none_device
  4
ANSI_A_(11.00_x_8.50_Inches)
  6

 40
0.0
 41
0.0
 42
0.0
 43
0.0
 44
279.4
 45
215.9
 46
0.0
 47
0.0
 48
0.0
 49
0.0
140
0.0
141
0.0
142
1.0
143
1.0
 70
0
 72
0
 73
0
 74
0
  7

 75
0
147
1.0
148
0.0
149
0.0
100
AcDbLayout
  1
Layout1
 70
0
 71
1
 10
0.0
 20
0.0
 11
11.0
 21
8.5
 12
0.0
 22
0.0
 32
0.0
 14
0.0
 24
0.0
 34
0.0
 15
0.0
 25
0.0
 35
0.0
146
0.0
 13
0.0
 23
0.0
 33
0.0
 16
1.0
 26
0.0
 36
0.0
 17
0.0
 27
1.0
 37
0.0
 76
0
330
21F
345
0
346
0
  0
ENDSEC
  0
EOF
