999
DXF file: 3-1034ts_RIGHT.dxf
999
Pro/ENGINEER 2018400 by Parametric Technology Corporation
  0
SECTION
  2
HEADER
  9
$ACADVER
  1
AC1027
  9
$DWGCODEPAGE
  3
ANSI_1252
  9
$EXTMAX
 10
11.0
 20
8.5
 30
0.0
  9
$EXTMIN
 10
0.0
 20
0.0
 30
0.0
  9
$LIMMIN
 10
0.0
 20
0.0
  9
$LIMMAX
 10
11.0
 20
8.5
  9
$VIEWCTR
 10
5.5
 20
4.25
  9
$VIEWSIZE
 40
8.5
  9
$CLAYER
  8
0
  9
$LTSCALE
 40
0.605
  9
$CELTYPE
  6
BYLAYER
  9
$DIMSCALE
 40
1.0
  9
$DIMASZ
 40
0.1
  9
$DIMEXO
 40
0.0625
  9
$DIMDLI
 40
0.418
  9
$DIMEXE
 40
0.125
  9
$DIMCEN
 40
0.099
  9
$DIMLFAC
 40
1.0
  9
$DIMBLK
  1
_FILLED
  9
$DIMALT
 70
1
  9
$DIMALTD
 70
2
  9
$DIMALTTD
 70
2
  9
$DIMALTF
 40
25.4
  9
$DIMTXT
 40
0.08
  9
$DIMTOL
 70
1
  9
$DIMLIM
 70
0
  9
$DIMTFAC
 40
1.0
  9
$DIMTP
 40
0.001
  9
$DIMTM
 40
0.001
  9
$DIMGAP
 40
0.09
  9
$DIMDSEP
 70
46
  9
$AUNITS
 70
0
  9
$PDMODE
 70
3
  9
$PDSIZE
 40
0.3125
  9
$HANDSEED
  5
471
  9
$TILEMODE
 70
1
  9
$MEASUREMENT
 70
0
  9
$INSUNITS
 70
1
  0
ENDSEC
  0
SECTION
  2
CLASSES
  0
CLASS
  1
ACDBDICTIONARYWDFLT
  2
AcDbDictionaryWithDefault
  3
AutoCAD 2000
 90
0
 91
1
280
0
281
0
  0
CLASS
  1
ACDBPLACEHOLDER
  2
AcDbPlaceHolder
  3
AutoCAD 2000
 90
0
 91
1
280
0
281
0
  0
CLASS
  1
LAYOUT
  2
AcDbLayout
  3
AutoCAD 2000
 90
0
 91
0
280
0
281
0
  0
ENDSEC
  0
SECTION
  2
TABLES
  0
TABLE
  2
VPORT
  5
8
100
AcDbSymbolTable
 70
2
  0
VPORT
  5
1F4
100
AcDbSymbolTableRecord
100
AcDbViewportTableRecord
  2
*ACTIVE
 70
0
 10
0.0
 20
0.0
 11
1.0
 21
1.0
 12
5.5
 22
4.25
 13
0.0
 23
0.0
 14
1.0
 24
1.0
 15
0.0
 25
0.0
 16
0.0
 26
0.0
 36
1.0
 17
0.0
 27
0.0
 37
0.0
 40
8.5
 41
1.2941176471
 42
50.0
 43
0.0
 44
0.0
 50
0.0
 51
0.0
 71
0
 72
100
 73
1
 74
1
 75
0
 76
0
 77
0
 78
0
  0
ENDTAB
  0
TABLE
  2
LTYPE
  5
5
100
AcDbSymbolTable
 70
6
  0
LTYPE
  5
14
100
AcDbSymbolTableRecord
100
AcDbLinetypeTableRecord
  2
BYBLOCK
 70
0
  3

 72
65
 73
0
 40
0.0
  0
LTYPE
  5
15
100
AcDbSymbolTableRecord
100
AcDbLinetypeTableRecord
  2
BYLAYER
 70
0
  3

 72
65
 73
0
 40
0.0
  0
LTYPE
  5
16
100
AcDbSymbolTableRecord
100
AcDbLinetypeTableRecord
  2
CONTINUOUS
 70
64
  3
Solid line
 72
65
 73
0
 40
0.0
  0
LTYPE
  5
1F5
100
AcDbSymbolTableRecord
100
AcDbLinetypeTableRecord
  2
CENTER
 70
64
  3
____ _ ____ _ ____ _ ____ _ ____ _ ____ _ ____
 72
65
 73
4
 40
0.6
 49
0.375
 74
0
 49
-0.075
 74
0
 49
0.075
 74
0
 49
-0.075
 74
0
  0
LTYPE
  5
1F6
100
AcDbSymbolTableRecord
100
AcDbLinetypeTableRecord
  2
HIDDEN
 70
64
  3
- - - - - - - - - - - - - - - - - - - -
 72
65
 73
2
 40
0.2
 49
0.1
 74
0
 49
-0.1
 74
0
  0
LTYPE
  5
1F7
100
AcDbSymbolTableRecord
100
AcDbLinetypeTableRecord
  2
PHANTOM
 70
64
  3
_____ _ _ _____ _ _ _____ _ _ _____
 72
65
 73
6
 40
0.8
 49
0.45
 74
0
 49
-0.05
 74
0
 49
0.1
 74
0
 49
-0.05
 74
0
 49
0.1
 74
0
 49
-0.05
 74
0
  0
LTYPE
  5
1F8
100
AcDbSymbolTableRecord
100
AcDbLinetypeTableRecord
  2
DOT
 70
64
  3
. . . . . . . . . . . . . . . . . . . .
 72
65
 73
2
 40
0.2
 49
0.1
 74
0
 49
-0.1
 74
0
  0
LTYPE
  5
1F9
100
AcDbSymbolTableRecord
100
AcDbLinetypeTableRecord
  2
DASHED
 70
64
  3
- - - - - - - - - - - - - - - - - - - -
 72
65
 73
2
 40
0.2
 49
0.1
 74
0
 49
-0.1
 74
0
  0
ENDTAB
  0
TABLE
  2
LAYER
  5
2
100
AcDbSymbolTable
 70
36
  0
LAYER
  5
10
100
AcDbSymbolTableRecord
100
AcDbLayerTableRecord
  2
0
 70
0
 62
7
  6
CONTINUOUS
370
-3
390
F
  0
LAYER
  5
1FA
100
AcDbSymbolTableRecord
100
AcDbLayerTableRecord
  2
DEFAULT_1
 70
0
 62
7
  6
CENTER
370
-3
390
F
  0
LAYER
  5
1FB
100
AcDbSymbolTableRecord
100
AcDbLayerTableRecord
  2
DEFAULT_2
 70
0
 62
8
  6
HIDDEN
370
-3
390
F
  0
LAYER
  5
1FC
100
AcDbSymbolTableRecord
100
AcDbLayerTableRecord
  2
DEFAULT_3
 70
0
 62
7
  6
PHANTOM
370
-3
390
F
  0
LAYER
  5
1FD
100
AcDbSymbolTableRecord
100
AcDbLayerTableRecord
  2
2-265_ASSY_PLANES
 70
0
 62
7
  6
CONTINUOUS
370
-3
390
F
  0
LAYER
  5
1FE
100
AcDbSymbolTableRecord
100
AcDbLayerTableRecord
  2
AA
 70
0
 62
7
  6
CONTINUOUS
370
-3
390
F
  0
LAYER
  5
1FF
100
AcDbSymbolTableRecord
100
AcDbLayerTableRecord
  2
ALL_ASSEMBLY_MEMBERS
 70
0
 62
7
  6
CONTINUOUS
370
-3
390
F
  0
LAYER
  5
200
100
AcDbSymbolTableRecord
100
AcDbLayerTableRecord
  2
ALL_FEATURES
 70
0
 62
7
  6
CONTINUOUS
370
-3
390
F
  0
LAYER
  5
201
100
AcDbSymbolTableRecord
100
AcDbLayerTableRecord
  2
AXES_FEATURES
 70
0
 62
7
  6
CONTINUOUS
370
-3
390
F
  0
LAYER
  5
202
100
AcDbSymbolTableRecord
100
AcDbLayerTableRecord
  2
CHAMFER_FEATURES
 70
0
 62
7
  6
CONTINUOUS
370
-3
390
F
  0
LAYER
  5
203
100
AcDbSymbolTableRecord
100
AcDbLayerTableRecord
  2
CURVE
 70
0
 62
7
  6
CONTINUOUS
370
-3
390
F
  0
LAYER
  5
204
100
AcDbSymbolTableRecord
100
AcDbLayerTableRecord
  2
CUT_FEATURES
 70
0
 62
7
  6
CONTINUOUS
370
-3
390
F
  0
LAYER
  5
205
100
AcDbSymbolTableRecord
100
AcDbLayerTableRecord
  2
DATUM_CURVES
 70
0
 62
7
  6
CONTINUOUS
370
-3
390
F
  0
LAYER
  5
206
100
AcDbSymbolTableRecord
100
AcDbLayerTableRecord
  2
DATUM_PLANES
 70
0
 62
7
  6
CONTINUOUS
370
-3
390
F
  0
LAYER
  5
207
100
AcDbSymbolTableRecord
100
AcDbLayerTableRecord
  2
DATUM_POINTS
 70
0
 62
7
  6
CONTINUOUS
370
-3
390
F
  0
LAYER
  5
208
100
AcDbSymbolTableRecord
100
AcDbLayerTableRecord
  2
DEFAULT_COORDINATE_SYSTEM
 70
0
 62
7
  6
CONTINUOUS
370
-3
390
F
  0
LAYER
  5
209
100
AcDbSymbolTableRecord
100
AcDbLayerTableRecord
  2
DEFAULT_DATUM_AXES
 70
0
 62
7
  6
CONTINUOUS
370
-3
390
F
  0
LAYER
  5
20A
100
AcDbSymbolTableRecord
100
AcDbLayerTableRecord
  2
DEFAULT_DATUM_CURVES
 70
0
 62
7
  6
CONTINUOUS
370
-3
390
F
  0
LAYER
  5
20B
100
AcDbSymbolTableRecord
100
AcDbLayerTableRecord
  2
DEFAULT_DATUM_PLANES
 70
0
 62
7
  6
CONTINUOUS
370
-3
390
F
  0
LAYER
  5
20C
100
AcDbSymbolTableRecord
100
AcDbLayerTableRecord
  2
DEFAULT_SURFACES
 70
0
 62
7
  6
CONTINUOUS
370
-3
390
F
  0
LAYER
  5
20D
100
AcDbSymbolTableRecord
100
AcDbLayerTableRecord
  2
DIMENSIONS
 70
0
 62
7
  6
CONTINUOUS
370
-3
390
F
  0
LAYER
  5
20E
100
AcDbSymbolTableRecord
100
AcDbLayerTableRecord
  2
HOLE_FEATURES
 70
0
 62
7
  6
CONTINUOUS
370
-3
390
F
  0
LAYER
  5
20F
100
AcDbSymbolTableRecord
100
AcDbLayerTableRecord
  2
LAY0001
 70
0
 62
7
  6
CONTINUOUS
370
-3
390
F
  0
LAYER
  5
210
100
AcDbSymbolTableRecord
100
AcDbLayerTableRecord
  2
NOTES
 70
0
 62
7
  6
CONTINUOUS
370
-3
390
F
  0
LAYER
  5
211
100
AcDbSymbolTableRecord
100
AcDbLayerTableRecord
  2
PART_REFERENCE_DIMENSIONS
 70
0
 62
7
  6
CONTINUOUS
370
-3
390
F
  0
LAYER
  5
212
100
AcDbSymbolTableRecord
100
AcDbLayerTableRecord
  2
PLATED_AREA
 70
0
 62
7
  6
CONTINUOUS
370
-3
390
F
  0
LAYER
  5
213
100
AcDbSymbolTableRecord
100
AcDbLayerTableRecord
  2
PLATED_SURFACE_AREA
 70
0
 62
7
  6
CONTINUOUS
370
-3
390
F
  0
LAYER
  5
214
100
AcDbSymbolTableRecord
100
AcDbLayerTableRecord
  2
POINTS
 70
0
 62
7
  6
CONTINUOUS
370
-3
390
F
  0
LAYER
  5
215
100
AcDbSymbolTableRecord
100
AcDbLayerTableRecord
  2
PROTRUSION
 70
0
 62
7
  6
CONTINUOUS
370
-3
390
F
  0
LAYER
  5
216
100
AcDbSymbolTableRecord
100
AcDbLayerTableRecord
  2
PROTRUSION_FEATURES
 70
0
 62
7
  6
CONTINUOUS
370
-3
390
F
  0
LAYER
  5
217
100
AcDbSymbolTableRecord
100
AcDbLayerTableRecord
  2
QUILT
 70
0
 62
7
  6
CONTINUOUS
370
-3
390
F
  0
LAYER
  5
218
100
AcDbSymbolTableRecord
100
AcDbLayerTableRecord
  2
QUILTS
 70
0
 62
7
  6
CONTINUOUS
370
-3
390
F
  0
LAYER
  5
219
100
AcDbSymbolTableRecord
100
AcDbLayerTableRecord
  2
REFERENCE_DIMENSIONS
 70
0
 62
7
  6
CONTINUOUS
370
-3
390
F
  0
LAYER
  5
21A
100
AcDbSymbolTableRecord
100
AcDbLayerTableRecord
  2
ROUND_FEATURES
 70
0
 62
7
  6
CONTINUOUS
370
-3
390
F
  0
LAYER
  5
21B
100
AcDbSymbolTableRecord
100
AcDbLayerTableRecord
  2
SHELL_FEATURES
 70
0
 62
7
  6
CONTINUOUS
370
-3
390
F
  0
LAYER
  5
21C
100
AcDbSymbolTableRecord
100
AcDbLayerTableRecord
  2
SIZE_REF
 70
0
 62
7
  6
CONTINUOUS
370
-3
390
F
  0
LAYER
  5
21D
100
AcDbSymbolTableRecord
100
AcDbLayerTableRecord
  2
XSEC_DATUMS
 70
0
 62
7
  6
CONTINUOUS
370
-3
390
F
  0
ENDTAB
  0
TABLE
  2
STYLE
  5
3
100
AcDbSymbolTable
 70
1
  0
STYLE
  5
11
100
AcDbSymbolTableRecord
100
AcDbTextStyleTableRecord
  2
STANDARD
 70
0
 40
0.0
 41
0.8
 50
0.0
 71
0
 42
0.2
  3
txt
  4

  0
STYLE
  5
21E
100
AcDbSymbolTableRecord
100
AcDbTextStyleTableRecord
  2
TEXTSTYLE_1
 70
0
 40
0.0
 41
0.8
 50
0.0
 71
0
 42
0.2
  3
gdt
  4

  0
ENDTAB
  0
TABLE
  2
VIEW
  5
6
100
AcDbSymbolTable
 70
0
  0
ENDTAB
  0
TABLE
  2
UCS
  5
7
100
AcDbSymbolTable
 70
0
  0
ENDTAB
  0
TABLE
  2
APPID
  5
9
100
AcDbSymbolTable
 70
1
  0
APPID
  5
21F
100
AcDbSymbolTableRecord
100
AcDbRegAppTableRecord
  2
ACAD
 70
0
  0
ENDTAB
  0
TABLE
  2
BLOCK_RECORD
  5
1
100
AcDbSymbolTable
 70
0
  0
BLOCK_RECORD
  5
220
100
AcDbSymbolTableRecord
100
AcDbBlockTableRecord
  2
*Model_Space
  0
BLOCK_RECORD
  5
221
100
AcDbSymbolTableRecord
100
AcDbBlockTableRecord
  2
*Paper_Space
  0
BLOCK_RECORD
  5
222
100
AcDbSymbolTableRecord
100
AcDbBlockTableRecord
  2
_FILLED
  0
ENDTAB
  0
TABLE
  2
DIMSTYLE
  5
A
100
AcDbSymbolTable
 70
1
100
AcDbDimStyleTable
 71
0
  0
DIMSTYLE
105
223
100
AcDbSymbolTableRecord
100
AcDbDimStyleTableRecord
  2
STANDARD
 70
0
  3

  4

 40
1.0
 41
0.1
 42
0.0625
 43
0.38
 44
0.125
 45
0.0
 46
0.0
 47
0.001
 48
0.001
140
0.08
141
0.09
142
0.0
143
25.4
144
1.0
145
0.0
146
1.0
147
0.09
 71
1.0
 72
0.0
 73
1
 74
1
 75
0
 76
0
 77
0
 78
4
 79
1
170
1
171
2
172
0
173
0
174
0
175
0
176
0
177
0
178
0
270
2
179
3
271
3
272
3
273
2
274
2
275
0
280
0
281
0
282
0
283
1
284
4
285
0
286
0
287
3
288
0
340
11
278
46
341
222
342
222
343
222
344
222
  0
ENDTAB
  0
ENDSEC
  0
SECTION
  2
BLOCKS
  0
BLOCK
  5
20
100
AcDbEntity
  8
0
100
AcDbBlockBegin
  2
*Model_Space
 70
0
 10
0.0
 20
0.0
 30
0.0
  3
*Model_Space
  1

  0
ENDBLK
  5
21
100
AcDbEntity
  8
0
100
AcDbBlockEnd
  0
BLOCK
  5
1C
100
AcDbEntity
  8
0
100
AcDbBlockBegin
  2
*Paper_Space
 70
0
 10
0.0
 20
0.0
 30
0.0
  3
*Paper_Space
  1

  0
ENDBLK
  5
1D
100
AcDbEntity
  8
0
100
AcDbBlockEnd
  0
BLOCK
  5
224
100
AcDbEntity
  8
0
100
AcDbBlockBegin
  2
_FILLED
 70
64
 10
0.0
 20
0.0
  3
_FILLED
  1

  0
SOLID
  5
225
100
AcDbEntity
  8
0
  6
BYBLOCK
 62
0
100
AcDbTrace
 10
0.0
 20
0.0
 11
-1.0
 21
0.2
 12
-1.0
 22
-0.2
 13
-1.0
 23
-0.2
  0
ENDBLK
  5
226
100
AcDbEntity
  8
0
  6
BYBLOCK
 62
0
100
AcDbBlockEnd
  0
ENDSEC
  0
SECTION
  2
ENTITIES
  0
MTEXT
  5
227
100
AcDbEntity
  8
0
100
AcDbMText
 62
2
  6
CONTINUOUS
  7
STANDARD
 71
3
 72
1
 10
4.8312888199
 20
2.7663548137
 30
0.0
 11
1.0
 21
0.0
 31
0.0
 73
2
 44
0.9
  1
SCALE  .500
 40
0.08
 41
0.704
  0
LINE
  5
228
100
AcDbEntity
  8
0
100
AcDbLine
 62
7
  6
CONTINUOUS
 10
0.0
 20
0.0
 11
0.0
 21
8.5
  0
LINE
  5
229
100
AcDbEntity
  8
0
100
AcDbLine
 62
7
  6
CONTINUOUS
 10
0.0
 20
0.0
 11
11.0
 21
0.0
  0
LINE
  5
22A
100
AcDbEntity
  8
0
100
AcDbLine
 62
7
  6
CONTINUOUS
 10
0.0
 20
8.5
 11
11.0
 21
8.5
  0
LINE
  5
22B
100
AcDbEntity
  8
0
100
AcDbLine
 62
7
  6
CONTINUOUS
 10
11.0
 20
0.0
 11
11.0
 21
8.5
  0
LINE
  5
22C
100
AcDbEntity
  8
ALL_ASSEMBLY_MEMBERS
100
AcDbLine
 62
7
  6
CONTINUOUS
 10
5.6305890167
 20
2.8613548137
 11
5.7245890167
 21
2.8613548137
  0
LINE
  5
22D
100
AcDbEntity
  8
ALL_ASSEMBLY_MEMBERS
100
AcDbLine
 62
7
  6
CONTINUOUS
 10
3.7607089764
 20
4.2887824854
 11
3.7607089764
 21
4.6839271419
  0
LINE
  5
22E
100
AcDbEntity
  8
ALL_ASSEMBLY_MEMBERS
100
AcDbLine
 62
7
  6
CONTINUOUS
 10
3.775113623
 20
4.7136097917
 11
3.775113623
 21
4.2590998356
  0
LINE
  5
22F
100
AcDbEntity
  8
ALL_ASSEMBLY_MEMBERS
100
AcDbLine
 62
7
  6
CONTINUOUS
 10
3.7833617851
 20
4.7389950243
 11
3.7833617851
 21
4.2337146031
  0
LINE
  5
230
100
AcDbEntity
  8
ALL_ASSEMBLY_MEMBERS
100
AcDbLine
 62
7
  6
CONTINUOUS
 10
3.7944715745
 20
4.7501048137
 11
3.7944715745
 21
4.2226048137
  0
LINE
  5
231
100
AcDbEntity
  8
ALL_ASSEMBLY_MEMBERS
100
AcDbLine
 62
7
  6
CONTINUOUS
 10
3.7833617851
 20
4.7389950243
 11
3.775113623
 21
4.7136097917
  0
LINE
  5
232
100
AcDbEntity
  8
ALL_ASSEMBLY_MEMBERS
100
AcDbLine
 62
7
  6
CONTINUOUS
 10
3.7833617851
 20
4.2337146031
 11
3.775113623
 21
4.2590998356
  0
LINE
  5
233
100
AcDbEntity
  8
ALL_ASSEMBLY_MEMBERS
100
AcDbLine
 62
7
  6
CONTINUOUS
 10
3.830113623
 20
4.7501048137
 11
3.830113623
 21
4.2226048137
  0
LINE
  5
234
100
AcDbEntity
  8
ALL_ASSEMBLY_MEMBERS
100
AcDbLine
 62
7
  6
CONTINUOUS
 10
3.837613623
 20
4.7371048137
 11
3.837613623
 21
4.2356048137
  0
LINE
  5
235
100
AcDbEntity
  8
ALL_ASSEMBLY_MEMBERS
100
AcDbLine
 62
7
  6
CONTINUOUS
 10
3.845613623
 20
4.7509509713
 11
3.845613623
 21
4.221758656
  0
LINE
  5
236
100
AcDbEntity
  8
ALL_ASSEMBLY_MEMBERS
100
AcDbLine
 62
7
  6
CONTINUOUS
 10
3.885613623
 20
4.7651048137
 11
3.885613623
 21
4.5578180227
  0
LINE
  5
237
100
AcDbEntity
  8
ALL_ASSEMBLY_MEMBERS
100
AcDbLine
 62
7
  6
CONTINUOUS
 10
3.885613623
 20
4.4148916046
 11
3.885613623
 21
4.2076048137
  0
LINE
  5
238
100
AcDbEntity
  8
ALL_ASSEMBLY_MEMBERS
100
AcDbLine
 62
7
  6
CONTINUOUS
 10
3.845613623
 20
4.7509509713
 11
3.837613623
 21
4.7371048137
  0
LINE
  5
239
100
AcDbEntity
  8
ALL_ASSEMBLY_MEMBERS
100
AcDbLine
 62
7
  6
CONTINUOUS
 10
3.7944715745
 20
4.7501048137
 11
3.7833617851
 21
4.7389950243
  0
LINE
  5
23A
100
AcDbEntity
  8
ALL_ASSEMBLY_MEMBERS
100
AcDbLine
 62
7
  6
CONTINUOUS
 10
3.7944715745
 20
4.2226048137
 11
3.7833617851
 21
4.2337146031
  0
LINE
  5
23B
100
AcDbEntity
  8
ALL_ASSEMBLY_MEMBERS
100
AcDbLine
 62
7
  6
CONTINUOUS
 10
3.845613623
 20
4.221758656
 11
3.837613623
 21
4.2356048137
  0
LINE
  5
23C
100
AcDbEntity
  8
ALL_ASSEMBLY_MEMBERS
100
AcDbLine
 62
7
  6
CONTINUOUS
 10
4.090613623
 20
4.7651048137
 11
4.090613623
 21
4.5578180227
  0
LINE
  5
23D
100
AcDbEntity
  8
ALL_ASSEMBLY_MEMBERS
100
AcDbLine
 62
7
  6
CONTINUOUS
 10
4.090613623
 20
4.4148916046
 11
4.090613623
 21
4.2076048137
  0
LINE
  5
23E
100
AcDbEntity
  8
ALL_ASSEMBLY_MEMBERS
100
AcDbLine
 62
7
  6
CONTINUOUS
 10
4.130113623
 20
4.7501048137
 11
4.130113623
 21
4.2226048137
  0
LINE
  5
23F
100
AcDbEntity
  8
ALL_ASSEMBLY_MEMBERS
100
AcDbLine
 62
7
  6
CONTINUOUS
 10
4.155613623
 20
4.6716048137
 11
4.155613623
 21
4.3011048137
  0
LINE
  5
240
100
AcDbEntity
  8
ALL_ASSEMBLY_MEMBERS
100
AcDbLine
 62
7
  6
CONTINUOUS
 10
3.837613623
 20
4.2356048137
 11
3.830113623
 21
4.2226048137
  0
LINE
  5
241
100
AcDbEntity
  8
ALL_ASSEMBLY_MEMBERS
100
AcDbLine
 62
7
  6
CONTINUOUS
 10
3.837613623
 20
4.7371048137
 11
3.830113623
 21
4.7501048137
  0
LINE
  5
242
100
AcDbEntity
  8
ALL_ASSEMBLY_MEMBERS
100
AcDbLine
 62
7
  6
CONTINUOUS
 10
4.2464185901
 20
4.5909529715
 11
4.2464185901
 21
4.5722029715
  0
LINE
  5
243
100
AcDbEntity
  8
ALL_ASSEMBLY_MEMBERS
100
AcDbLine
 62
7
  6
CONTINUOUS
 10
4.2558933409
 20
4.3790768394
 11
4.2558933409
 21
4.3978268394
  0
LINE
  5
244
100
AcDbEntity
  8
ALL_ASSEMBLY_MEMBERS
100
AcDbLine
 62
7
  6
CONTINUOUS
 10
4.2695090602
 20
4.5906027693
 11
4.2695090602
 21
4.5718527693
  0
LINE
  5
245
100
AcDbEntity
  8
ALL_ASSEMBLY_MEMBERS
100
AcDbLine
 62
7
  6
CONTINUOUS
 10
4.2766979166
 20
4.3877588451
 11
4.2766979166
 21
4.4065088451
  0
LINE
  5
246
100
AcDbEntity
  8
ALL_ASSEMBLY_MEMBERS
100
AcDbLine
 62
7
  6
CONTINUOUS
 10
4.2385293295
 20
4.4102837029
 11
4.2368090474
 21
4.3903392683
  0
LINE
  5
247
100
AcDbEntity
  8
ALL_ASSEMBLY_MEMBERS
100
AcDbLine
 62
7
  6
CONTINUOUS
 10
4.2766979166
 20
4.4065088451
 11
4.2768792752
 21
4.408611462
  0
LINE
  5
248
100
AcDbEntity
  8
ALL_ASSEMBLY_MEMBERS
100
AcDbLine
 62
7
  6
CONTINUOUS
 10
4.2766979166
 20
4.3877588451
 11
4.2784181987
 21
4.4077032798
  0
LINE
  5
249
100
AcDbEntity
  8
ALL_ASSEMBLY_MEMBERS
100
AcDbLine
 62
7
  6
CONTINUOUS
 10
4.155613623
 20
4.3011048137
 11
4.130113623
 21
4.2226048137
  0
LINE
  5
24A
100
AcDbEntity
  8
ALL_ASSEMBLY_MEMBERS
100
AcDbLine
 62
7
  6
CONTINUOUS
 10
4.2464185901
 20
4.5909529715
 11
4.2345231529
 21
4.5738102199
  0
LINE
  5
24B
100
AcDbEntity
  8
ALL_ASSEMBLY_MEMBERS
100
AcDbLine
 62
7
  6
CONTINUOUS
 10
4.2464185901
 20
4.5722029715
 11
4.2407654878
 21
4.5640561731
  0
LINE
  5
24C
100
AcDbEntity
  8
ALL_ASSEMBLY_MEMBERS
100
AcDbLine
 62
7
  6
CONTINUOUS
 10
4.155613623
 20
4.6716048137
 11
4.130113623
 21
4.7501048137
  0
LINE
  5
24D
100
AcDbEntity
  8
ALL_ASSEMBLY_MEMBERS
100
AcDbLine
 62
7
  6
CONTINUOUS
 10
4.335113623
 20
4.6581048137
 11
4.335113623
 21
4.3146048137
  0
LINE
  5
24E
100
AcDbEntity
  8
ALL_ASSEMBLY_MEMBERS
100
AcDbLine
 62
7
  6
CONTINUOUS
 10
4.350613623
 20
4.6613765347
 11
4.350613623
 21
4.3113330927
  0
LINE
  5
24F
100
AcDbEntity
  8
ALL_ASSEMBLY_MEMBERS
100
AcDbLine
 62
7
  6
CONTINUOUS
 10
4.3729461683
 20
4.6926048137
 11
4.3729461683
 21
4.2801048137
  0
LINE
  5
250
100
AcDbEntity
  8
ALL_ASSEMBLY_MEMBERS
100
AcDbLine
 62
7
  6
CONTINUOUS
 10
4.268808656
 20
4.5559670641
 11
4.2807040932
 21
4.5731098157
  0
LINE
  5
251
100
AcDbEntity
  8
ALL_ASSEMBLY_MEMBERS
100
AcDbLine
 62
7
  6
CONTINUOUS
 10
5.2974640167
 20
3.9938548137
 11
5.4885890167
 21
3.9938548137
  0
LINE
  5
252
100
AcDbEntity
  8
ALL_ASSEMBLY_MEMBERS
100
AcDbLine
 62
7
  6
CONTINUOUS
 10
5.100613623
 20
4.0013548137
 11
4.6731496977
 21
4.0013548137
  0
LINE
  5
253
100
AcDbEntity
  8
ALL_ASSEMBLY_MEMBERS
100
AcDbLine
 62
7
  6
CONTINUOUS
 10
5.2453970876
 20
4.0016048137
 11
5.2344530447
 21
4.0016048137
  0
LINE
  5
254
100
AcDbEntity
  8
ALL_ASSEMBLY_MEMBERS
100
AcDbLine
 62
7
  6
CONTINUOUS
 10
5.2107409466
 20
4.0016327629
 11
5.1997969036
 21
4.0016327629
  0
LINE
  5
255
100
AcDbEntity
  8
ALL_ASSEMBLY_MEMBERS
100
AcDbLine
 62
7
  6
CONTINUOUS
 10
5.2344530447
 20
4.0033385211
 11
5.2107409466
 21
4.0033385211
  0
LINE
  5
256
100
AcDbEntity
  8
ALL_ASSEMBLY_MEMBERS
100
AcDbLine
 62
7
  6
CONTINUOUS
 10
5.1997969036
 20
4.0033385211
 11
5.1596687411
 21
4.0033385211
  0
LINE
  5
257
100
AcDbEntity
  8
ALL_ASSEMBLY_MEMBERS
100
AcDbLine
 62
7
  6
CONTINUOUS
 10
5.100613623
 20
4.0040713491
 11
5.1596687411
 21
4.0040713491
  0
LINE
  5
258
100
AcDbEntity
  8
ALL_ASSEMBLY_MEMBERS
100
AcDbLine
 62
7
  6
CONTINUOUS
 10
5.2453970876
 20
4.0040713491
 11
5.2974640167
 21
4.0040713491
  0
LINE
  5
259
100
AcDbEntity
  8
ALL_ASSEMBLY_MEMBERS
100
AcDbLine
 62
7
  6
CONTINUOUS
 10
5.2453970876
 20
4.0041093547
 11
5.1596687411
 21
4.0041093547
  0
LINE
  5
25A
100
AcDbEntity
  8
ALL_ASSEMBLY_MEMBERS
100
AcDbLine
 62
7
  6
CONTINUOUS
 10
5.2176997876
 20
4.0065887661
 11
5.1596687411
 21
4.0065887661
  0
LINE
  5
25B
100
AcDbEntity
  8
ALL_ASSEMBLY_MEMBERS
100
AcDbLine
 62
7
  6
CONTINUOUS
 10
4.2368090474
 20
4.3903392683
 11
4.2558933409
 21
4.3790768394
  0
LINE
  5
25C
100
AcDbEntity
  8
ALL_ASSEMBLY_MEMBERS
100
AcDbLine
 62
7
  6
CONTINUOUS
 10
4.2345231529
 20
4.5738102199
 11
4.2457181858
 21
4.5563172663
  0
LINE
  5
25D
100
AcDbEntity
  8
ALL_ASSEMBLY_MEMBERS
100
AcDbLine
 62
7
  6
CONTINUOUS
 10
4.2744617583
 20
4.5641138625
 11
4.2695090602
 21
4.5718527693
  0
LINE
  5
25E
100
AcDbEntity
  8
ALL_ASSEMBLY_MEMBERS
100
AcDbLine
 62
7
  6
CONTINUOUS
 10
4.2807040932
 20
4.5731098157
 11
4.2695090602
 21
4.5906027693
  0
LINE
  5
25F
100
AcDbEntity
  8
ALL_ASSEMBLY_MEMBERS
100
AcDbLine
 62
7
  6
CONTINUOUS
 10
4.475613623
 20
4.8096260245
 11
4.475613623
 21
4.1630836029
  0
LINE
  5
260
100
AcDbEntity
  8
ALL_ASSEMBLY_MEMBERS
100
AcDbLine
 62
7
  6
CONTINUOUS
 10
4.2705260359
 20
4.5382374927
 11
4.2705536297
 21
4.5382527108
  0
LINE
  5
261
100
AcDbEntity
  8
ALL_ASSEMBLY_MEMBERS
100
AcDbLine
 62
7
  6
CONTINUOUS
 10
4.2705236415
 20
4.5382413737
 11
4.2705515065
 21
4.5382561455
  0
LINE
  5
262
100
AcDbEntity
  8
ALL_ASSEMBLY_MEMBERS
100
AcDbLine
 62
7
  6
CONTINUOUS
 10
5.4885890167
 20
5.0163548137
 11
5.5680890167
 21
5.0463548137
  0
LINE
  5
263
100
AcDbEntity
  8
ALL_ASSEMBLY_MEMBERS
100
AcDbLine
 62
7
  6
CONTINUOUS
 10
3.885613623
 20
4.2076048137
 11
4.090613623
 21
4.2076048137
  0
LINE
  5
264
100
AcDbEntity
  8
ALL_ASSEMBLY_MEMBERS
100
AcDbLine
 62
7
  6
CONTINUOUS
 10
3.830113623
 20
4.2226048137
 11
3.7944715745
 21
4.2226048137
  0
LINE
  5
265
100
AcDbEntity
  8
ALL_ASSEMBLY_MEMBERS
100
AcDbLine
 62
7
  6
CONTINUOUS
 10
5.4885890167
 20
3.9563548137
 11
5.5680890167
 21
3.9263548137
  0
LINE
  5
266
100
AcDbEntity
  8
ALL_ASSEMBLY_MEMBERS
100
AcDbLine
 62
7
  6
CONTINUOUS
 10
4.2383479709
 20
4.408181086
 11
4.2558933409
 21
4.3978268394
  0
LINE
  5
267
100
AcDbEntity
  8
ALL_ASSEMBLY_MEMBERS
100
AcDbLine
 62
7
  6
CONTINUOUS
 10
4.2784181987
 20
4.4077032798
 11
4.2593339051
 21
4.4189657086
  0
LINE
  5
268
100
AcDbEntity
  8
ALL_ASSEMBLY_MEMBERS
100
AcDbLine
 62
7
  6
CONTINUOUS
 10
4.6731496977
 20
4.9713548137
 11
4.6731496977
 21
4.0013548137
  0
LINE
  5
269
100
AcDbEntity
  8
ALL_ASSEMBLY_MEMBERS
100
AcDbLine
 62
7
  6
CONTINUOUS
 10
4.707613623
 20
4.9683434949
 11
4.707613623
 21
5.0821380817
  0
LINE
  5
26A
100
AcDbEntity
  8
ALL_ASSEMBLY_MEMBERS
100
AcDbLine
 62
7
  6
CONTINUOUS
 10
4.2593339051
 20
4.4189657086
 11
4.2385293295
 21
4.4102837029
  0
LINE
  5
26B
100
AcDbEntity
  8
ALL_ASSEMBLY_MEMBERS
100
AcDbLine
 62
7
  6
CONTINUOUS
 10
4.2558933409
 20
4.3978268394
 11
4.2766979166
 21
4.4065088451
  0
LINE
  5
26C
100
AcDbEntity
  8
ALL_ASSEMBLY_MEMBERS
100
AcDbLine
 62
7
  6
CONTINUOUS
 10
4.2558933409
 20
4.3790768394
 11
4.2766979166
 21
4.3877588451
  0
LINE
  5
26D
100
AcDbEntity
  8
ALL_ASSEMBLY_MEMBERS
100
AcDbLine
 62
7
  6
CONTINUOUS
 10
5.2107409466
 20
4.2577440079
 11
5.1943248822
 21
4.2577440079
  0
LINE
  5
26E
100
AcDbEntity
  8
ALL_ASSEMBLY_MEMBERS
100
AcDbLine
 62
7
  6
CONTINUOUS
 10
5.2089169394
 20
4.2638862896
 11
5.1961488893
 21
4.2638862896
  0
LINE
  5
26F
100
AcDbEntity
  8
ALL_ASSEMBLY_MEMBERS
100
AcDbLine
 62
7
  6
CONTINUOUS
 10
5.2089169394
 20
4.264736859
 11
5.1961488893
 21
4.264736859
  0
LINE
  5
270
100
AcDbEntity
  8
ALL_ASSEMBLY_MEMBERS
100
AcDbLine
 62
7
  6
CONTINUOUS
 10
5.2089169394
 20
4.2963737098
 11
5.1961488893
 21
4.2963737098
  0
LINE
  5
271
100
AcDbEntity
  8
ALL_ASSEMBLY_MEMBERS
100
AcDbLine
 62
7
  6
CONTINUOUS
 10
5.2107409466
 20
4.3027256071
 11
5.1943248822
 21
4.3027256071
  0
LINE
  5
272
100
AcDbEntity
  8
ALL_ASSEMBLY_MEMBERS
100
AcDbLine
 62
7
  6
CONTINUOUS
 10
5.2107409466
 20
4.3035698721
 11
5.1943248822
 21
4.3035698721
  0
LINE
  5
273
100
AcDbEntity
  8
ALL_ASSEMBLY_MEMBERS
100
AcDbLine
 62
7
  6
CONTINUOUS
 10
5.2253330089
 20
4.3129581855
 11
5.2216849895
 21
4.3129581855
  0
LINE
  5
274
100
AcDbEntity
  8
ALL_ASSEMBLY_MEMBERS
100
AcDbLine
 62
7
  6
CONTINUOUS
 10
5.1687887782
 20
4.3129581855
 11
5.1596687411
 21
4.3129581855
  0
LINE
  5
275
100
AcDbEntity
  8
ALL_ASSEMBLY_MEMBERS
100
AcDbLine
 62
7
  6
CONTINUOUS
 10
4.335113623
 20
4.3146048137
 11
4.155613623
 21
4.3146048137
  0
LINE
  5
276
100
AcDbEntity
  8
ALL_ASSEMBLY_MEMBERS
100
AcDbLine
 62
7
  6
CONTINUOUS
 10
5.2253330089
 20
4.3206886946
 11
5.2216849895
 21
4.3206886946
  0
LINE
  5
277
100
AcDbEntity
  8
ALL_ASSEMBLY_MEMBERS
100
AcDbLine
 62
7
  6
CONTINUOUS
 10
5.2253330089
 20
4.3215322994
 11
5.2216849895
 21
4.3215322994
  0
LINE
  5
278
100
AcDbEntity
  8
ALL_ASSEMBLY_MEMBERS
100
AcDbLine
 62
7
  6
CONTINUOUS
 10
5.1687887782
 20
4.3600629213
 11
5.1596687411
 21
4.3600629213
  0
LINE
  5
279
100
AcDbEntity
  8
ALL_ASSEMBLY_MEMBERS
100
AcDbLine
 62
7
  6
CONTINUOUS
 10
5.1687887782
 20
4.3609096345
 11
5.1596687411
 21
4.3609096345
  0
LINE
  5
27A
100
AcDbEntity
  8
ALL_ASSEMBLY_MEMBERS
100
AcDbLine
 62
7
  6
CONTINUOUS
 10
5.2453970876
 20
4.3707669861
 11
5.1596687411
 21
4.3707669861
  0
LINE
  5
27B
100
AcDbEntity
  8
ALL_ASSEMBLY_MEMBERS
100
AcDbLine
 62
7
  6
CONTINUOUS
 10
4.837613623
 20
4.9683439696
 11
4.837613623
 21
5.0821380817
  0
LINE
  5
27C
100
AcDbEntity
  8
ALL_ASSEMBLY_MEMBERS
100
AcDbLine
 62
7
  6
CONTINUOUS
 10
5.2308050304
 20
4.3788520471
 11
5.1596687411
 21
4.3788520471
  0
LINE
  5
27D
100
AcDbEntity
  8
ALL_ASSEMBLY_MEMBERS
100
AcDbLine
 62
7
  6
CONTINUOUS
 10
5.229466934
 20
4.3797023671
 11
5.1596687411
 21
4.3797023671
  0
LINE
  5
27E
100
AcDbEntity
  8
ALL_ASSEMBLY_MEMBERS
100
AcDbLine
 62
7
  6
CONTINUOUS
 10
5.2326290375
 20
4.3869863003
 11
5.2180369752
 21
4.3869863003
  0
LINE
  5
27F
100
AcDbEntity
  8
ALL_ASSEMBLY_MEMBERS
100
AcDbLine
 62
7
  6
CONTINUOUS
 10
5.2326290375
 20
4.3878386022
 11
5.2180369752
 21
4.3878386022
  0
LINE
  5
280
100
AcDbEntity
  8
ALL_ASSEMBLY_MEMBERS
100
AcDbLine
 62
7
  6
CONTINUOUS
 10
4.350613623
 20
4.3944802502
 11
4.335113623
 21
4.3944802502
  0
LINE
  5
281
100
AcDbEntity
  8
ALL_ASSEMBLY_MEMBERS
100
AcDbLine
 62
7
  6
CONTINUOUS
 10
4.350613623
 20
4.397364353
 11
4.335113623
 21
4.397364353
  0
LINE
  5
282
100
AcDbEntity
  8
ALL_ASSEMBLY_MEMBERS
100
AcDbLine
 62
7
  6
CONTINUOUS
 10
4.350613623
 20
4.4055832168
 11
4.335113623
 21
4.4055832168
  0
LINE
  5
283
100
AcDbEntity
  8
ALL_ASSEMBLY_MEMBERS
100
AcDbLine
 62
7
  6
CONTINUOUS
 10
4.350613623
 20
4.4137964468
 11
4.335113623
 21
4.4137964468
  0
LINE
  5
284
100
AcDbEntity
  8
ALL_ASSEMBLY_MEMBERS
100
AcDbLine
 62
7
  6
CONTINUOUS
 10
4.335113623
 20
4.4252469765
 11
4.350613623
 21
4.4252469765
  0
LINE
  5
285
100
AcDbEntity
  8
ALL_ASSEMBLY_MEMBERS
100
AcDbLine
 62
7
  6
CONTINUOUS
 10
4.350613623
 20
4.4289829268
 11
4.335113623
 21
4.4289829268
  0
LINE
  5
286
100
AcDbEntity
  8
ALL_ASSEMBLY_MEMBERS
100
AcDbLine
 62
7
  6
CONTINUOUS
 10
4.350613623
 20
4.4412748942
 11
4.335113623
 21
4.4412748942
  0
LINE
  5
287
100
AcDbEntity
  8
ALL_ASSEMBLY_MEMBERS
100
AcDbLine
 62
7
  6
CONTINUOUS
 10
4.335113623
 20
4.4506796701
 11
4.350613623
 21
4.4506796701
  0
LINE
  5
288
100
AcDbEntity
  8
ALL_ASSEMBLY_MEMBERS
100
AcDbLine
 62
7
  6
CONTINUOUS
 10
4.335113623
 20
4.4595696689
 11
4.350613623
 21
4.4595696689
  0
LINE
  5
289
100
AcDbEntity
  8
ALL_ASSEMBLY_MEMBERS
100
AcDbLine
 62
7
  6
CONTINUOUS
 10
4.350613623
 20
4.4611169865
 11
4.335113623
 21
4.4611169865
  0
LINE
  5
28A
100
AcDbEntity
  8
ALL_ASSEMBLY_MEMBERS
100
AcDbLine
 62
7
  6
CONTINUOUS
 10
5.2482514183
 20
4.4735595381
 11
5.1596687411
 21
4.4735595381
  0
LINE
  5
28B
100
AcDbEntity
  8
ALL_ASSEMBLY_MEMBERS
100
AcDbLine
 62
7
  6
CONTINUOUS
 10
4.350613623
 20
4.4756163507
 11
4.335113623
 21
4.4756163507
  0
LINE
  5
28C
100
AcDbEntity
  8
ALL_ASSEMBLY_MEMBERS
100
AcDbLine
 62
7
  6
CONTINUOUS
 10
4.335113623
 20
4.481543581
 11
4.350613623
 21
4.481543581
  0
LINE
  5
28D
100
AcDbEntity
  8
ALL_ASSEMBLY_MEMBERS
100
AcDbLine
 62
7
  6
CONTINUOUS
 10
4.335113623
 20
4.4911660463
 11
4.350613623
 21
4.4911660463
  0
LINE
  5
28E
100
AcDbEntity
  8
ALL_ASSEMBLY_MEMBERS
100
AcDbLine
 62
7
  6
CONTINUOUS
 10
4.350613623
 20
4.4970932766
 11
4.335113623
 21
4.4970932766
  0
LINE
  5
28F
100
AcDbEntity
  8
ALL_ASSEMBLY_MEMBERS
100
AcDbLine
 62
7
  6
CONTINUOUS
 10
5.2482514183
 20
4.4991500893
 11
5.1596687411
 21
4.4991500893
  0
LINE
  5
290
100
AcDbEntity
  8
ALL_ASSEMBLY_MEMBERS
100
AcDbLine
 62
7
  6
CONTINUOUS
 10
4.350613623
 20
4.5115926408
 11
4.335113623
 21
4.5115926408
  0
LINE
  5
291
100
AcDbEntity
  8
ALL_ASSEMBLY_MEMBERS
100
AcDbLine
 62
7
  6
CONTINUOUS
 10
4.335113623
 20
4.5131399584
 11
4.350613623
 21
4.5131399584
  0
LINE
  5
292
100
AcDbEntity
  8
ALL_ASSEMBLY_MEMBERS
100
AcDbLine
 62
7
  6
CONTINUOUS
 10
4.335113623
 20
4.5220299572
 11
4.350613623
 21
4.5220299572
  0
LINE
  5
293
100
AcDbEntity
  8
ALL_ASSEMBLY_MEMBERS
100
AcDbLine
 62
7
  6
CONTINUOUS
 10
4.350613623
 20
4.5314347331
 11
4.335113623
 21
4.5314347331
  0
LINE
  5
294
100
AcDbEntity
  8
ALL_ASSEMBLY_MEMBERS
100
AcDbLine
 62
7
  6
CONTINUOUS
 10
4.350613623
 20
4.5437267005
 11
4.335113623
 21
4.5437267005
  0
LINE
  5
295
100
AcDbEntity
  8
ALL_ASSEMBLY_MEMBERS
100
AcDbLine
 62
7
  6
CONTINUOUS
 10
4.335113623
 20
4.5474626509
 11
4.350613623
 21
4.5474626509
  0
LINE
  5
296
100
AcDbEntity
  8
ALL_ASSEMBLY_MEMBERS
100
AcDbLine
 62
7
  6
CONTINUOUS
 10
4.350613623
 20
4.5589131805
 11
4.335113623
 21
4.5589131805
  0
LINE
  5
297
100
AcDbEntity
  8
ALL_ASSEMBLY_MEMBERS
100
AcDbLine
 62
7
  6
CONTINUOUS
 10
4.350613623
 20
4.5671264105
 11
4.335113623
 21
4.5671264105
  0
LINE
  5
298
100
AcDbEntity
  8
ALL_ASSEMBLY_MEMBERS
100
AcDbLine
 62
7
  6
CONTINUOUS
 10
4.350613623
 20
4.5753452743
 11
4.335113623
 21
4.5753452743
  0
LINE
  5
299
100
AcDbEntity
  8
ALL_ASSEMBLY_MEMBERS
100
AcDbLine
 62
7
  6
CONTINUOUS
 10
4.350613623
 20
4.5782293771
 11
4.335113623
 21
4.5782293771
  0
LINE
  5
29A
100
AcDbEntity
  8
ALL_ASSEMBLY_MEMBERS
100
AcDbLine
 62
7
  6
CONTINUOUS
 10
5.1906768653
 20
4.5869056751
 11
5.1833808367
 21
4.5869056751
  0
LINE
  5
29B
100
AcDbEntity
  8
ALL_ASSEMBLY_MEMBERS
100
AcDbLine
 62
7
  6
CONTINUOUS
 10
5.1906768653
 20
4.5877574576
 11
5.1833808367
 21
4.5877574576
  0
LINE
  5
29C
100
AcDbEntity
  8
ALL_ASSEMBLY_MEMBERS
100
AcDbLine
 62
7
  6
CONTINUOUS
 10
5.2453970876
 20
4.5904285879
 11
5.2362770518
 21
4.5904285879
  0
LINE
  5
29D
100
AcDbEntity
  8
ALL_ASSEMBLY_MEMBERS
100
AcDbLine
 62
7
  6
CONTINUOUS
 10
5.2453970876
 20
4.5912795085
 11
5.2362770518
 21
4.5912795085
  0
LINE
  5
29E
100
AcDbEntity
  8
ALL_ASSEMBLY_MEMBERS
100
AcDbLine
 62
7
  6
CONTINUOUS
 10
5.1888528582
 20
4.5965452626
 11
5.1852048438
 21
4.5965452626
  0
LINE
  5
29F
100
AcDbEntity
  8
ALL_ASSEMBLY_MEMBERS
100
AcDbLine
 62
7
  6
CONTINUOUS
 10
4.2457181858
 20
4.5563172663
 11
4.268808656
 21
4.5559670641
  0
LINE
  5
2A0
100
AcDbEntity
  8
ALL_ASSEMBLY_MEMBERS
100
AcDbLine
 62
7
  6
CONTINUOUS
 10
4.2695090602
 20
4.5718527693
 11
4.2464185901
 21
4.5722029715
  0
LINE
  5
2A1
100
AcDbEntity
  8
ALL_ASSEMBLY_MEMBERS
100
AcDbLine
 62
7
  6
CONTINUOUS
 10
4.2695090602
 20
4.5906027693
 11
4.2464185901
 21
4.5909529715
  0
LINE
  5
2A2
100
AcDbEntity
  8
ALL_ASSEMBLY_MEMBERS
100
AcDbLine
 62
7
  6
CONTINUOUS
 10
5.100613623
 20
4.9713548137
 11
5.100613623
 21
4.0013548137
  0
LINE
  5
2A3
100
AcDbEntity
  8
ALL_ASSEMBLY_MEMBERS
100
AcDbLine
 62
7
  6
CONTINUOUS
 10
5.2362770518
 20
4.6404779961
 11
5.2076381917
 21
4.6404779961
  0
LINE
  5
2A4
100
AcDbEntity
  8
ALL_ASSEMBLY_MEMBERS
100
AcDbLine
 62
7
  6
CONTINUOUS
 10
5.2362770518
 20
4.6413218385
 11
5.2070929322
 21
4.6413218385
  0
LINE
  5
2A5
100
AcDbEntity
  8
ALL_ASSEMBLY_MEMBERS
100
AcDbLine
 62
7
  6
CONTINUOUS
 10
5.2453970876
 20
4.6497574887
 11
5.1979728965
 21
4.6497574887
  0
LINE
  5
2A6
100
AcDbEntity
  8
ALL_ASSEMBLY_MEMBERS
100
AcDbLine
 62
7
  6
CONTINUOUS
 10
4.335113623
 20
4.6581048137
 11
4.155613623
 21
4.6581048137
  0
LINE
  5
2A7
100
AcDbEntity
  8
ALL_ASSEMBLY_MEMBERS
100
AcDbLine
 62
7
  6
CONTINUOUS
 10
5.2453970876
 20
4.6622936201
 11
5.1596687411
 21
4.6622936201
  0
LINE
  5
2A8
100
AcDbEntity
  8
ALL_ASSEMBLY_MEMBERS
100
AcDbLine
 62
7
  6
CONTINUOUS
 10
5.2453970876
 20
4.6631374739
 11
5.1596687411
 21
4.6631374739
  0
LINE
  5
2A9
100
AcDbEntity
  8
ALL_ASSEMBLY_MEMBERS
100
AcDbLine
 62
7
  6
CONTINUOUS
 10
5.2308050304
 20
4.6730778565
 11
5.1596687411
 21
4.6730778565
  0
LINE
  5
2AA
100
AcDbEntity
  8
ALL_ASSEMBLY_MEMBERS
100
AcDbLine
 62
7
  6
CONTINUOUS
 10
5.2326290375
 20
4.6829369477
 11
5.2180369752
 21
4.6829369477
  0
LINE
  5
2AB
100
AcDbEntity
  8
ALL_ASSEMBLY_MEMBERS
100
AcDbLine
 62
7
  6
CONTINUOUS
 10
5.2453970876
 20
4.6951076871
 11
5.1596687411
 21
4.6951076871
  0
LINE
  5
2AC
100
AcDbEntity
  8
ALL_ASSEMBLY_MEMBERS
100
AcDbLine
 62
7
  6
CONTINUOUS
 10
5.2453970876
 20
4.6959553864
 11
5.1596687411
 21
4.6959553864
  0
LINE
  5
2AD
100
AcDbEntity
  8
ALL_ASSEMBLY_MEMBERS
100
AcDbLine
 62
7
  6
CONTINUOUS
 10
5.2308050304
 20
4.7056233665
 11
5.1596687411
 21
4.7056233665
  0
LINE
  5
2AE
100
AcDbEntity
  8
ALL_ASSEMBLY_MEMBERS
100
AcDbLine
 62
7
  6
CONTINUOUS
 10
5.2326290375
 20
4.7152085307
 11
5.2180369752
 21
4.7152085307
  0
LINE
  5
2AF
100
AcDbEntity
  8
ALL_ASSEMBLY_MEMBERS
100
AcDbLine
 62
7
  6
CONTINUOUS
 10
3.830113623
 20
4.7501048137
 11
3.7944715745
 21
4.7501048137
  0
LINE
  5
2B0
100
AcDbEntity
  8
ALL_ASSEMBLY_MEMBERS
100
AcDbLine
 62
7
  6
CONTINUOUS
 10
4.090613623
 20
4.7651048137
 11
3.885613623
 21
4.7651048137
  0
LINE
  5
2B1
100
AcDbEntity
  8
ALL_ASSEMBLY_MEMBERS
100
AcDbLine
 62
7
  6
CONTINUOUS
 10
5.1596687411
 20
4.9708191612
 11
5.1596687411
 21
4.9666387794
  0
LINE
  5
2B2
100
AcDbEntity
  8
ALL_ASSEMBLY_MEMBERS
100
AcDbLine
 62
7
  6
CONTINUOUS
 10
5.1596687411
 20
4.0033385211
 11
5.1596687411
 21
4.0065887661
  0
LINE
  5
2B3
100
AcDbEntity
  8
ALL_ASSEMBLY_MEMBERS
100
AcDbLine
 62
7
  6
CONTINUOUS
 10
5.1596687411
 20
4.3129581855
 11
5.1596687411
 21
4.3609096345
  0
LINE
  5
2B4
100
AcDbEntity
  8
ALL_ASSEMBLY_MEMBERS
100
AcDbLine
 62
7
  6
CONTINUOUS
 10
5.1596687411
 20
4.3707669861
 11
5.1596687411
 21
4.3797023671
  0
LINE
  5
2B5
100
AcDbEntity
  8
ALL_ASSEMBLY_MEMBERS
100
AcDbLine
 62
7
  6
CONTINUOUS
 10
5.1596687411
 20
4.4735595381
 11
5.1596687411
 21
4.4991500893
  0
LINE
  5
2B6
100
AcDbEntity
  8
ALL_ASSEMBLY_MEMBERS
100
AcDbLine
 62
7
  6
CONTINUOUS
 10
5.1596687411
 20
4.6139487158
 11
5.1596687411
 21
4.6242814835
  0
LINE
  5
2B7
100
AcDbEntity
  8
ALL_ASSEMBLY_MEMBERS
100
AcDbLine
 62
7
  6
CONTINUOUS
 10
5.1596687411
 20
4.6622936201
 11
5.1596687411
 21
4.6730778565
  0
LINE
  5
2B8
100
AcDbEntity
  8
ALL_ASSEMBLY_MEMBERS
100
AcDbLine
 62
7
  6
CONTINUOUS
 10
5.1596687411
 20
4.6951076871
 11
5.1596687411
 21
4.7056233665
  0
LINE
  5
2B9
100
AcDbEntity
  8
ALL_ASSEMBLY_MEMBERS
100
AcDbLine
 62
7
  6
CONTINUOUS
 10
5.1596687411
 20
4.8739401692
 11
5.1596687411
 21
4.8906394817
  0
LINE
  5
2BA
100
AcDbEntity
  8
ALL_ASSEMBLY_MEMBERS
100
AcDbLine
 62
7
  6
CONTINUOUS
 10
5.1614927484
 20
4.9682944752
 11
5.1614927484
 21
4.9658134824
  0
LINE
  5
2BB
100
AcDbEntity
  8
ALL_ASSEMBLY_MEMBERS
100
AcDbLine
 62
7
  6
CONTINUOUS
 10
5.1614927484
 20
4.9710322412
 11
5.1614927484
 21
4.9697943789
  0
LINE
  5
2BC
100
AcDbEntity
  8
ALL_ASSEMBLY_MEMBERS
100
AcDbLine
 62
7
  6
CONTINUOUS
 10
5.1614927484
 20
4.6052755607
 11
5.1614927484
 21
4.6044275942
  0
LINE
  5
2BD
100
AcDbEntity
  8
ALL_ASSEMBLY_MEMBERS
100
AcDbLine
 62
7
  6
CONTINUOUS
 10
5.1614927484
 20
4.2875373562
 11
5.1614927484
 21
4.2883832595
  0
LINE
  5
2BE
100
AcDbEntity
  8
ALL_ASSEMBLY_MEMBERS
100
AcDbLine
 62
7
  6
CONTINUOUS
 10
5.1669647704
 20
4.96750111
 11
5.1669647704
 21
4.9650160051
  0
LINE
  5
2BF
100
AcDbEntity
  8
ALL_ASSEMBLY_MEMBERS
100
AcDbLine
 62
7
  6
CONTINUOUS
 10
5.1669647704
 20
4.9711024569
 11
5.1669647704
 21
4.9702518905
  0
LINE
  5
2C0
100
AcDbEntity
  8
ALL_ASSEMBLY_MEMBERS
100
AcDbLine
 62
7
  6
CONTINUOUS
 10
5.1669647704
 20
4.5965452626
 11
5.1669647704
 21
4.5956955416
  0
LINE
  5
2C1
100
AcDbEntity
  8
ALL_ASSEMBLY_MEMBERS
100
AcDbLine
 62
7
  6
CONTINUOUS
 10
5.1669647704
 20
4.2938423295
 11
5.1669647704
 21
4.2946874289
  0
LINE
  5
2C2
100
AcDbEntity
  8
ALL_ASSEMBLY_MEMBERS
100
AcDbLine
 62
7
  6
CONTINUOUS
 10
5.1687887782
 20
4.3129581855
 11
5.1687887782
 21
4.3494452115
  0
LINE
  5
2C3
100
AcDbEntity
  8
ALL_ASSEMBLY_MEMBERS
100
AcDbLine
 62
7
  6
CONTINUOUS
 10
5.1687887782
 20
4.3600629213
 11
5.1687887782
 21
4.3609096345
  0
LINE
  5
2C4
100
AcDbEntity
  8
ALL_ASSEMBLY_MEMBERS
100
AcDbLine
 62
7
  6
CONTINUOUS
 10
5.1687887782
 20
4.6139487158
 11
5.1687887782
 21
4.6242814835
  0
LINE
  5
2C5
100
AcDbEntity
  8
ALL_ASSEMBLY_MEMBERS
100
AcDbLine
 62
7
  6
CONTINUOUS
 10
5.1706127853
 20
4.9696910865
 11
5.1706127853
 21
4.9684412229
  0
LINE
  5
2C6
100
AcDbEntity
  8
ALL_ASSEMBLY_MEMBERS
100
AcDbLine
 62
7
  6
CONTINUOUS
 10
5.1706127853
 20
4.6311247133
 11
5.1706127853
 21
4.6302802188
  0
LINE
  5
2C7
100
AcDbEntity
  8
ALL_ASSEMBLY_MEMBERS
100
AcDbLine
 62
7
  6
CONTINUOUS
 10
5.1706127853
 20
4.2737849829
 11
5.1706127853
 21
4.2746332727
  0
LINE
  5
2C8
100
AcDbEntity
  8
ALL_ASSEMBLY_MEMBERS
100
AcDbLine
 62
7
  6
CONTINUOUS
 10
5.1724367925
 20
4.9710977651
 11
5.1724367925
 21
4.9704793136
  0
LINE
  5
2C9
100
AcDbEntity
  8
ALL_ASSEMBLY_MEMBERS
100
AcDbLine
 62
7
  6
CONTINUOUS
 10
5.1724367925
 20
4.9669772446
 11
5.1724367925
 21
4.9644894169
  0
LINE
  5
2CA
100
AcDbEntity
  8
ALL_ASSEMBLY_MEMBERS
100
AcDbLine
 62
7
  6
CONTINUOUS
 10
5.1724367925
 20
4.2976414141
 11
5.1724367925
 21
4.2984861145
  0
LINE
  5
2CB
100
AcDbEntity
  8
ALL_ASSEMBLY_MEMBERS
100
AcDbLine
 62
7
  6
CONTINUOUS
 10
5.1742607996
 20
4.9699891673
 11
5.1742607996
 21
4.9679890664
  0
LINE
  5
2CC
100
AcDbEntity
  8
ALL_ASSEMBLY_MEMBERS
100
AcDbLine
 62
7
  6
CONTINUOUS
 10
5.1742607996
 20
4.6362334223
 11
5.1742607996
 21
4.635389306
  0
LINE
  5
2CD
100
AcDbEntity
  8
ALL_ASSEMBLY_MEMBERS
100
AcDbLine
 62
7
  6
CONTINUOUS
 10
5.1742607996
 20
4.5912795085
 11
5.1742607996
 21
4.5904285879
  0
LINE
  5
2CE
100
AcDbEntity
  8
ALL_ASSEMBLY_MEMBERS
100
AcDbLine
 62
7
  6
CONTINUOUS
 10
5.1742607996
 20
4.2700627616
 11
5.1742607996
 21
4.2709118519
  0
LINE
  5
2CF
100
AcDbEntity
  8
ALL_ASSEMBLY_MEMBERS
100
AcDbLine
 62
7
  6
CONTINUOUS
 10
5.1797328224
 20
4.9710751291
 11
5.1797328224
 21
4.9706113427
  0
LINE
  5
2D0
100
AcDbEntity
  8
ALL_ASSEMBLY_MEMBERS
100
AcDbLine
 62
7
  6
CONTINUOUS
 10
5.1797328224
 20
4.9666079932
 11
5.1797328224
 21
4.9641182427
  0
LINE
  5
2D1
100
AcDbEntity
  8
ALL_ASSEMBLY_MEMBERS
100
AcDbLine
 62
7
  6
CONTINUOUS
 10
5.1797328224
 20
4.3001808337
 11
5.1797328224
 21
4.3010253025
  0
LINE
  5
2D2
100
AcDbEntity
  8
ALL_ASSEMBLY_MEMBERS
100
AcDbLine
 62
7
  6
CONTINUOUS
 10
5.1815568295
 20
4.6387840326
 11
5.1815568295
 21
4.6497574887
  0
LINE
  5
2D3
100
AcDbEntity
  8
ALL_ASSEMBLY_MEMBERS
100
AcDbLine
 62
7
  6
CONTINUOUS
 10
5.1833808367
 20
4.5877574576
 11
5.1833808367
 21
4.5869056751
  0
LINE
  5
2D4
100
AcDbEntity
  8
ALL_ASSEMBLY_MEMBERS
100
AcDbLine
 62
7
  6
CONTINUOUS
 10
5.1852048438
 20
4.9710579579
 11
5.1852048438
 21
4.9706714865
  0
LINE
  5
2D5
100
AcDbEntity
  8
ALL_ASSEMBLY_MEMBERS
100
AcDbLine
 62
7
  6
CONTINUOUS
 10
5.1852048438
 20
4.9703316175
 11
5.1852048438
 21
4.9678611214
  0
LINE
  5
2D6
100
AcDbEntity
  8
ALL_ASSEMBLY_MEMBERS
100
AcDbLine
 62
7
  6
CONTINUOUS
 10
5.1852048438
 20
4.9664173527
 11
5.1852048438
 21
4.9639266083
  0
LINE
  5
2D7
100
AcDbEntity
  8
ALL_ASSEMBLY_MEMBERS
100
AcDbLine
 62
7
  6
CONTINUOUS
 10
5.1852048438
 20
4.2651188505
 11
5.1852048438
 21
4.2659691096
  0
LINE
  5
2D8
100
AcDbEntity
  8
ALL_ASSEMBLY_MEMBERS
100
AcDbLine
 62
7
  6
CONTINUOUS
 10
5.1852048438
 20
4.301452555
 11
5.1852048438
 21
4.3022969185
  0
LINE
  5
2D9
100
AcDbEntity
  8
ALL_ASSEMBLY_MEMBERS
100
AcDbLine
 62
7
  6
CONTINUOUS
 10
5.1906768653
 20
4.5877574576
 11
5.1906768653
 21
4.5869056751
  0
LINE
  5
2DA
100
AcDbEntity
  8
ALL_ASSEMBLY_MEMBERS
100
AcDbLine
 62
7
  6
CONTINUOUS
 10
5.1943248822
 20
4.9710368841
 11
5.1943248822
 21
4.970727718
  0
LINE
  5
2DB
100
AcDbEntity
  8
ALL_ASSEMBLY_MEMBERS
100
AcDbLine
 62
7
  6
CONTINUOUS
 10
5.1943248822
 20
4.9662226953
 11
5.1943248822
 21
4.9637309353
  0
LINE
  5
2DC
100
AcDbEntity
  8
ALL_ASSEMBLY_MEMBERS
100
AcDbLine
 62
7
  6
CONTINUOUS
 10
5.1943248822
 20
4.3027256071
 11
5.1943248822
 21
4.3035698721
  0
LINE
  5
2DD
100
AcDbEntity
  8
ALL_ASSEMBLY_MEMBERS
100
AcDbLine
 62
7
  6
CONTINUOUS
 10
5.1961488893
 20
4.9704074248
 11
5.1961488893
 21
4.9679373175
  0
LINE
  5
2DE
100
AcDbEntity
  8
ALL_ASSEMBLY_MEMBERS
100
AcDbLine
 62
7
  6
CONTINUOUS
 10
5.1961488893
 20
4.2638862896
 11
5.1961488893
 21
4.264736859
  0
LINE
  5
2DF
100
AcDbEntity
  8
ALL_ASSEMBLY_MEMBERS
100
AcDbLine
 62
7
  6
CONTINUOUS
 10
5.1979728965
 20
4.6370877996
 11
5.1979728965
 21
4.6497574887
  0
LINE
  5
2E0
100
AcDbEntity
  8
ALL_ASSEMBLY_MEMBERS
100
AcDbLine
 62
7
  6
CONTINUOUS
 10
5.1997969036
 20
4.5912795085
 11
5.1997969036
 21
4.5904285879
  0
LINE
  5
2E1
100
AcDbEntity
  8
ALL_ASSEMBLY_MEMBERS
100
AcDbLine
 62
7
  6
CONTINUOUS
 10
5.1997969036
 20
4.0016327629
 11
5.1997969036
 21
4.0033385211
  0
LINE
  5
2E2
100
AcDbEntity
  8
ALL_ASSEMBLY_MEMBERS
100
AcDbLine
 62
7
  6
CONTINUOUS
 10
5.2034449179
 20
4.6311247133
 11
5.2034449179
 21
4.6302802188
  0
LINE
  5
2E3
100
AcDbEntity
  8
ALL_ASSEMBLY_MEMBERS
100
AcDbLine
 62
7
  6
CONTINUOUS
 10
5.2052689251
 20
4.6139487158
 11
5.2052689251
 21
4.6242814835
  0
LINE
  5
2E4
100
AcDbEntity
  8
ALL_ASSEMBLY_MEMBERS
100
AcDbLine
 62
7
  6
CONTINUOUS
 10
5.2070929322
 20
4.5965452626
 11
5.2070929322
 21
4.5956955416
  0
LINE
  5
2E5
100
AcDbEntity
  8
ALL_ASSEMBLY_MEMBERS
100
AcDbLine
 62
7
  6
CONTINUOUS
 10
5.2089169394
 20
4.9704074248
 11
5.2089169394
 21
4.9679373175
  0
LINE
  5
2E6
100
AcDbEntity
  8
ALL_ASSEMBLY_MEMBERS
100
AcDbLine
 62
7
  6
CONTINUOUS
 10
5.2089169394
 20
4.2638862896
 11
5.2089169394
 21
4.264736859
  0
LINE
  5
2E7
100
AcDbEntity
  8
ALL_ASSEMBLY_MEMBERS
100
AcDbLine
 62
7
  6
CONTINUOUS
 10
5.2107409466
 20
4.9710368841
 11
5.2107409466
 21
4.970727718
  0
LINE
  5
2E8
100
AcDbEntity
  8
ALL_ASSEMBLY_MEMBERS
100
AcDbLine
 62
7
  6
CONTINUOUS
 10
5.2107409466
 20
4.9662226953
 11
5.2107409466
 21
4.9637309353
  0
LINE
  5
2E9
100
AcDbEntity
  8
ALL_ASSEMBLY_MEMBERS
100
AcDbLine
 62
7
  6
CONTINUOUS
 10
5.2107409466
 20
4.0016327629
 11
5.2107409466
 21
4.0033385211
  0
LINE
  5
2EA
100
AcDbEntity
  8
ALL_ASSEMBLY_MEMBERS
100
AcDbLine
 62
7
  6
CONTINUOUS
 10
5.2107409466
 20
4.3027256071
 11
5.2107409466
 21
4.3035698721
  0
LINE
  5
2EB
100
AcDbEntity
  8
ALL_ASSEMBLY_MEMBERS
100
AcDbLine
 62
7
  6
CONTINUOUS
 10
5.2125649537
 20
4.6052755607
 11
5.2125649537
 21
4.6044275942
  0
LINE
  5
2EC
100
AcDbEntity
  8
ALL_ASSEMBLY_MEMBERS
100
AcDbLine
 62
7
  6
CONTINUOUS
 10
5.2143889609
 20
4.3232762042
 11
5.2143889609
 21
4.324119824
  0
LINE
  5
2ED
100
AcDbEntity
  8
ALL_ASSEMBLY_MEMBERS
100
AcDbLine
 62
7
  6
CONTINUOUS
 10
5.2143889609
 20
4.6139487158
 11
5.2143889609
 21
4.6242814835
  0
LINE
  5
2EE
100
AcDbEntity
  8
ALL_ASSEMBLY_MEMBERS
100
AcDbLine
 62
7
  6
CONTINUOUS
 10
5.2147868514
 20
4.0105425316
 11
5.2147868514
 21
4.0080426247
  0
LINE
  5
2EF
100
AcDbEntity
  8
ALL_ASSEMBLY_MEMBERS
100
AcDbLine
 62
7
  6
CONTINUOUS
 10
5.2180369752
 20
4.7152085307
 11
5.2180369752
 21
4.7143562288
  0
LINE
  5
2F0
100
AcDbEntity
  8
ALL_ASSEMBLY_MEMBERS
100
AcDbLine
 62
7
  6
CONTINUOUS
 10
5.2180369752
 20
4.6829369477
 11
5.2180369752
 21
4.6820913499
  0
LINE
  5
2F1
100
AcDbEntity
  8
ALL_ASSEMBLY_MEMBERS
100
AcDbLine
 62
7
  6
CONTINUOUS
 10
5.2180369752
 20
4.3869863003
 11
5.2180369752
 21
4.3878386022
  0
LINE
  5
2F2
100
AcDbEntity
  8
ALL_ASSEMBLY_MEMBERS
100
AcDbLine
 62
7
  6
CONTINUOUS
 10
5.2198609823
 20
4.9710579579
 11
5.2198609823
 21
4.9706714865
  0
LINE
  5
2F3
100
AcDbEntity
  8
ALL_ASSEMBLY_MEMBERS
100
AcDbLine
 62
7
  6
CONTINUOUS
 10
5.2198609823
 20
4.9664173527
 11
5.2198609823
 21
4.9639266083
  0
LINE
  5
2F4
100
AcDbEntity
  8
ALL_ASSEMBLY_MEMBERS
100
AcDbLine
 62
7
  6
CONTINUOUS
 10
5.2198609823
 20
4.9703316175
 11
5.2198609823
 21
4.9678611214
  0
LINE
  5
2F5
100
AcDbEntity
  8
ALL_ASSEMBLY_MEMBERS
100
AcDbLine
 62
7
  6
CONTINUOUS
 10
5.2198609823
 20
4.2651188505
 11
5.2198609823
 21
4.2659691096
  0
LINE
  5
2F6
100
AcDbEntity
  8
ALL_ASSEMBLY_MEMBERS
100
AcDbLine
 62
7
  6
CONTINUOUS
 10
5.2198609823
 20
4.301452555
 11
5.2198609823
 21
4.3022969185
  0
LINE
  5
2F7
100
AcDbEntity
  8
ALL_ASSEMBLY_MEMBERS
100
AcDbLine
 62
7
  6
CONTINUOUS
 10
5.2216849895
 20
4.3206886946
 11
5.2216849895
 21
4.3215322994
  0
LINE
  5
2F8
100
AcDbEntity
  8
ALL_ASSEMBLY_MEMBERS
100
AcDbLine
 62
7
  6
CONTINUOUS
 10
5.2253330089
 20
4.9710751291
 11
5.2253330089
 21
4.9706113427
  0
LINE
  5
2F9
100
AcDbEntity
  8
ALL_ASSEMBLY_MEMBERS
100
AcDbLine
 62
7
  6
CONTINUOUS
 10
5.2253330089
 20
4.9666079932
 11
5.2253330089
 21
4.9641182427
  0
LINE
  5
2FA
100
AcDbEntity
  8
ALL_ASSEMBLY_MEMBERS
100
AcDbLine
 62
7
  6
CONTINUOUS
 10
5.2253330089
 20
4.3001808337
 11
5.2253330089
 21
4.3010253025
  0
LINE
  5
2FB
100
AcDbEntity
  8
ALL_ASSEMBLY_MEMBERS
100
AcDbLine
 62
7
  6
CONTINUOUS
 10
5.2253330089
 20
4.3206886946
 11
5.2253330089
 21
4.3215322994
  0
LINE
  5
2FC
100
AcDbEntity
  8
ALL_ASSEMBLY_MEMBERS
100
AcDbLine
 62
7
  6
CONTINUOUS
 10
5.2253330089
 20
4.352091567
 11
5.2253330089
 21
4.3595775037
  0
LINE
  5
2FD
100
AcDbEntity
  8
ALL_ASSEMBLY_MEMBERS
100
AcDbLine
 62
7
  6
CONTINUOUS
 10
5.2308050304
 20
4.9699891673
 11
5.2308050304
 21
4.9679890664
  0
LINE
  5
2FE
100
AcDbEntity
  8
ALL_ASSEMBLY_MEMBERS
100
AcDbLine
 62
7
  6
CONTINUOUS
 10
5.2308050304
 20
4.2700627616
 11
5.2308050304
 21
4.2709118519
  0
LINE
  5
2FF
100
AcDbEntity
  8
ALL_ASSEMBLY_MEMBERS
100
AcDbLine
 62
7
  6
CONTINUOUS
 10
5.2308050304
 20
4.3232762042
 11
5.2308050304
 21
4.324119824
  0
LINE
  5
300
100
AcDbEntity
  8
ALL_ASSEMBLY_MEMBERS
100
AcDbLine
 62
7
  6
CONTINUOUS
 10
5.2326290375
 20
4.9710977651
 11
5.2326290375
 21
4.9704793136
  0
LINE
  5
301
100
AcDbEntity
  8
ALL_ASSEMBLY_MEMBERS
100
AcDbLine
 62
7
  6
CONTINUOUS
 10
5.2326290375
 20
4.9669772446
 11
5.2326290375
 21
4.9644894169
  0
LINE
  5
302
100
AcDbEntity
  8
ALL_ASSEMBLY_MEMBERS
100
AcDbLine
 62
7
  6
CONTINUOUS
 10
5.2326290375
 20
4.2976414141
 11
5.2326290375
 21
4.2984861145
  0
LINE
  5
303
100
AcDbEntity
  8
ALL_ASSEMBLY_MEMBERS
100
AcDbLine
 62
7
  6
CONTINUOUS
 10
5.2326290375
 20
4.357400416
 11
5.2326290375
 21
4.358246728
  0
LINE
  5
304
100
AcDbEntity
  8
ALL_ASSEMBLY_MEMBERS
100
AcDbLine
 62
7
  6
CONTINUOUS
 10
5.2326290375
 20
4.3869863003
 11
5.2326290375
 21
4.3878386022
  0
LINE
  5
305
100
AcDbEntity
  8
ALL_ASSEMBLY_MEMBERS
100
AcDbLine
 62
7
  6
CONTINUOUS
 10
5.2344530447
 20
4.9696910865
 11
5.2344530447
 21
4.9684412229
  0
LINE
  5
306
100
AcDbEntity
  8
ALL_ASSEMBLY_MEMBERS
100
AcDbLine
 62
7
  6
CONTINUOUS
 10
5.2344530447
 20
4.0016048191
 11
5.2344530447
 21
4.0033385211
  0
LINE
  5
307
100
AcDbEntity
  8
ALL_ASSEMBLY_MEMBERS
100
AcDbLine
 62
7
  6
CONTINUOUS
 10
5.2344530447
 20
4.2737849829
 11
5.2344530447
 21
4.2746332727
  0
LINE
  5
308
100
AcDbEntity
  8
ALL_ASSEMBLY_MEMBERS
100
AcDbLine
 62
7
  6
CONTINUOUS
 10
5.2362770518
 20
4.3336796429
 11
5.2362770518
 21
4.3389134178
  0
LINE
  5
309
100
AcDbEntity
  8
ALL_ASSEMBLY_MEMBERS
100
AcDbLine
 62
7
  6
CONTINUOUS
 10
5.2362770518
 20
4.5904285879
 11
5.2362770518
 21
4.6413218385
  0
LINE
  5
30A
100
AcDbEntity
  8
ALL_ASSEMBLY_MEMBERS
100
AcDbLine
 62
7
  6
CONTINUOUS
 10
5.238101059
 20
4.9711024569
 11
5.238101059
 21
4.9702518905
  0
LINE
  5
30B
100
AcDbEntity
  8
ALL_ASSEMBLY_MEMBERS
100
AcDbLine
 62
7
  6
CONTINUOUS
 10
5.238101059
 20
4.96750111
 11
5.238101059
 21
4.9650160051
  0
LINE
  5
30C
100
AcDbEntity
  8
ALL_ASSEMBLY_MEMBERS
100
AcDbLine
 62
7
  6
CONTINUOUS
 10
5.238101059
 20
4.2938423295
 11
5.238101059
 21
4.2946874289
  0
LINE
  5
30D
100
AcDbEntity
  8
ALL_ASSEMBLY_MEMBERS
100
AcDbLine
 62
7
  6
CONTINUOUS
 10
5.2399250661
 20
4.352091567
 11
5.2399250661
 21
4.3529371605
  0
LINE
  5
30E
100
AcDbEntity
  8
ALL_ASSEMBLY_MEMBERS
100
AcDbLine
 62
7
  6
CONTINUOUS
 10
5.2482514183
 20
4.8739401692
 11
5.1596687411
 21
4.8739401692
  0
LINE
  5
30F
100
AcDbEntity
  8
ALL_ASSEMBLY_MEMBERS
100
AcDbLine
 62
7
  6
CONTINUOUS
 10
5.2482514183
 20
4.8759613446
 11
5.1596687411
 21
4.8759613446
  0
LINE
  5
310
100
AcDbEntity
  8
ALL_ASSEMBLY_MEMBERS
100
AcDbLine
 62
7
  6
CONTINUOUS
 10
5.2482514183
 20
4.8906394817
 11
5.1596687411
 21
4.8906394817
  0
LINE
  5
311
100
AcDbEntity
  8
ALL_ASSEMBLY_MEMBERS
100
AcDbLine
 62
7
  6
CONTINUOUS
 10
5.2435730804
 20
4.9710322412
 11
5.2435730804
 21
4.9697943789
  0
LINE
  5
312
100
AcDbEntity
  8
ALL_ASSEMBLY_MEMBERS
100
AcDbLine
 62
7
  6
CONTINUOUS
 10
5.2435730804
 20
4.9682944752
 11
5.2435730804
 21
4.9658134824
  0
LINE
  5
313
100
AcDbEntity
  8
ALL_ASSEMBLY_MEMBERS
100
AcDbLine
 62
7
  6
CONTINUOUS
 10
5.2435730804
 20
4.2875373562
 11
5.2435730804
 21
4.2883832595
  0
LINE
  5
314
100
AcDbEntity
  8
ALL_ASSEMBLY_MEMBERS
100
AcDbLine
 62
7
  6
CONTINUOUS
 10
5.2435730804
 20
4.3468042213
 11
5.2435730804
 21
4.347649208
  0
LINE
  5
315
100
AcDbEntity
  8
ALL_ASSEMBLY_MEMBERS
100
AcDbLine
 62
7
  6
CONTINUOUS
 10
5.2453970876
 20
4.9708191612
 11
5.2453970876
 21
4.9666387794
  0
LINE
  5
316
100
AcDbEntity
  8
ALL_ASSEMBLY_MEMBERS
100
AcDbLine
 62
7
  6
CONTINUOUS
 10
5.2453970876
 20
4.0016048232
 11
5.2453970876
 21
4.0065887661
  0
LINE
  5
317
100
AcDbEntity
  8
ALL_ASSEMBLY_MEMBERS
100
AcDbLine
 62
7
  6
CONTINUOUS
 10
5.2453970876
 20
4.3323745373
 11
5.2453970876
 21
4.3376029697
  0
LINE
  5
318
100
AcDbEntity
  8
ALL_ASSEMBLY_MEMBERS
100
AcDbLine
 62
7
  6
CONTINUOUS
 10
5.2453970876
 20
4.3707669861
 11
5.2453970876
 21
4.3797023671
  0
LINE
  5
319
100
AcDbEntity
  8
ALL_ASSEMBLY_MEMBERS
100
AcDbLine
 62
7
  6
CONTINUOUS
 10
5.2453970876
 20
4.5904285879
 11
5.2453970876
 21
4.6497574887
  0
LINE
  5
31A
100
AcDbEntity
  8
ALL_ASSEMBLY_MEMBERS
100
AcDbLine
 62
7
  6
CONTINUOUS
 10
5.2453970876
 20
4.6622936201
 11
5.2453970876
 21
4.6730778565
  0
LINE
  5
31B
100
AcDbEntity
  8
ALL_ASSEMBLY_MEMBERS
100
AcDbLine
 62
7
  6
CONTINUOUS
 10
5.2453970876
 20
4.6951076871
 11
5.2453970876
 21
4.7056233665
  0
LINE
  5
31C
100
AcDbEntity
  8
ALL_ASSEMBLY_MEMBERS
100
AcDbLine
 62
7
  6
CONTINUOUS
 10
5.2482514183
 20
4.0105425316
 11
5.2482514183
 21
4.0080426247
  0
LINE
  5
31D
100
AcDbEntity
  8
ALL_ASSEMBLY_MEMBERS
100
AcDbLine
 62
7
  6
CONTINUOUS
 10
5.2482514183
 20
4.4735595381
 11
5.2482514183
 21
4.4991500893
  0
LINE
  5
31E
100
AcDbEntity
  8
ALL_ASSEMBLY_MEMBERS
100
AcDbLine
 62
7
  6
CONTINUOUS
 10
5.2482514183
 20
4.8739401692
 11
5.2482514183
 21
4.8906394817
  0
LINE
  5
31F
100
AcDbEntity
  8
ALL_ASSEMBLY_MEMBERS
100
AcDbLine
 62
7
  6
CONTINUOUS
 10
5.2974640167
 20
4.9788548137
 11
5.2974640167
 21
3.9938548137
  0
LINE
  5
320
100
AcDbEntity
  8
ALL_ASSEMBLY_MEMBERS
100
AcDbLine
 62
7
  6
CONTINUOUS
 10
5.4424737375
 20
4.9788548136
 11
5.4420977361
 21
4.9788475122
  0
LINE
  5
321
100
AcDbEntity
  8
ALL_ASSEMBLY_MEMBERS
100
AcDbLine
 62
7
  6
CONTINUOUS
 10
5.4421028765
 20
4.9788476298
 11
5.4424737375
 21
4.9788548136
  0
LINE
  5
322
100
AcDbEntity
  8
ALL_ASSEMBLY_MEMBERS
100
AcDbLine
 62
7
  6
CONTINUOUS
 10
5.2107409466
 20
4.9637309353
 11
5.1943248822
 21
4.9637309353
  0
LINE
  5
323
100
AcDbEntity
  8
ALL_ASSEMBLY_MEMBERS
100
AcDbLine
 62
7
  6
CONTINUOUS
 10
5.2107409466
 20
4.9662226953
 11
5.1943248822
 21
4.9662226953
  0
LINE
  5
324
100
AcDbEntity
  8
ALL_ASSEMBLY_MEMBERS
100
AcDbLine
 62
7
  6
CONTINUOUS
 10
5.2089169394
 20
4.9671558637
 11
5.1961488893
 21
4.9671558637
  0
LINE
  5
325
100
AcDbEntity
  8
ALL_ASSEMBLY_MEMBERS
100
AcDbLine
 62
7
  6
CONTINUOUS
 10
5.2089169394
 20
4.9679373175
 11
5.1961488893
 21
4.9679373175
  0
LINE
  5
326
100
AcDbEntity
  8
ALL_ASSEMBLY_MEMBERS
100
AcDbLine
 62
7
  6
CONTINUOUS
 10
5.100613623
 20
4.9686382782
 11
5.1596687411
 21
4.9686382782
  0
LINE
  5
327
100
AcDbEntity
  8
ALL_ASSEMBLY_MEMBERS
100
AcDbLine
 62
7
  6
CONTINUOUS
 10
5.2453970876
 20
4.9686382782
 11
5.2974640167
 21
4.9686382782
  0
LINE
  5
328
100
AcDbEntity
  8
ALL_ASSEMBLY_MEMBERS
100
AcDbLine
 62
7
  6
CONTINUOUS
 10
5.2089169394
 20
4.9704074248
 11
5.1961488893
 21
4.9704074248
  0
LINE
  5
329
100
AcDbEntity
  8
ALL_ASSEMBLY_MEMBERS
100
AcDbLine
 62
7
  6
CONTINUOUS
 10
5.2107409466
 20
4.970727718
 11
5.1943248822
 21
4.970727718
  0
LINE
  5
32A
100
AcDbEntity
  8
ALL_ASSEMBLY_MEMBERS
100
AcDbLine
 62
7
  6
CONTINUOUS
 10
5.2107409466
 20
4.9710368841
 11
5.1943248822
 21
4.9710368841
  0
LINE
  5
32B
100
AcDbEntity
  8
ALL_ASSEMBLY_MEMBERS
100
AcDbLine
 62
7
  6
CONTINUOUS
 10
5.100613623
 20
4.9713548137
 11
4.860113623
 21
4.9713548137
  0
LINE
  5
32C
100
AcDbEntity
  8
ALL_ASSEMBLY_MEMBERS
100
AcDbLine
 62
7
  6
CONTINUOUS
 10
4.685113623
 20
4.9713548137
 11
4.6731496977
 21
4.9713548137
  0
LINE
  5
32D
100
AcDbEntity
  8
ALL_ASSEMBLY_MEMBERS
100
AcDbLine
 62
7
  6
CONTINUOUS
 10
5.4324640167
 20
4.9787532908
 11
5.3524640167
 21
4.9787532908
  0
LINE
  5
32E
100
AcDbEntity
  8
ALL_ASSEMBLY_MEMBERS
100
AcDbLine
 62
7
  6
CONTINUOUS
 10
5.2974640167
 20
4.9788548137
 11
5.3424640167
 21
4.9788548137
  0
LINE
  5
32F
100
AcDbEntity
  8
ALL_ASSEMBLY_MEMBERS
100
AcDbLine
 62
7
  6
CONTINUOUS
 10
5.4424640167
 20
4.9788548137
 11
5.4885890167
 21
4.9788548137
  0
LINE
  5
330
100
AcDbEntity
  8
ALL_ASSEMBLY_MEMBERS
100
AcDbLine
 62
7
  6
CONTINUOUS
 10
5.342454301
 20
4.9788548137
 11
5.3428239632
 21
4.978847653
  0
LINE
  5
331
100
AcDbEntity
  8
ALL_ASSEMBLY_MEMBERS
100
AcDbLine
 62
7
  6
CONTINUOUS
 10
5.342829586
 20
4.9788475294
 11
5.3424542988
 21
4.9788548136
  0
LINE
  5
332
100
AcDbEntity
  8
ALL_ASSEMBLY_MEMBERS
100
AcDbLine
 62
7
  6
CONTINUOUS
 10
5.4885890167
 20
3.9563558332
 11
5.4885890167
 21
5.0163537941
  0
LINE
  5
333
100
AcDbEntity
  8
ALL_ASSEMBLY_MEMBERS
100
AcDbLine
 62
7
  6
CONTINUOUS
 10
4.707613623
 20
5.0821380817
 11
4.837613623
 21
5.0821380817
  0
LINE
  5
334
100
AcDbEntity
  8
ALL_ASSEMBLY_MEMBERS
100
AcDbLine
 62
7
  6
CONTINUOUS
 10
4.8171590776
 20
5.110578973
 11
4.7280681685
 21
5.110578973
  0
LINE
  5
335
100
AcDbEntity
  8
ALL_ASSEMBLY_MEMBERS
100
AcDbLine
 62
7
  6
CONTINUOUS
 10
5.5680890167
 20
2.9188548137
 11
5.5680890167
 21
6.0538548137
  0
LINE
  5
336
100
AcDbEntity
  8
ALL_ASSEMBLY_MEMBERS
100
AcDbLine
 62
7
  6
CONTINUOUS
 10
5.6305890167
 20
2.8613548137
 11
5.6305890167
 21
6.1113548137
  0
LINE
  5
337
100
AcDbEntity
  8
ALL_ASSEMBLY_MEMBERS
100
AcDbLine
 62
7
  6
CONTINUOUS
 10
5.7245890167
 20
2.8613548137
 11
5.7245890167
 21
6.1113548137
  0
LINE
  5
338
100
AcDbEntity
  8
ALL_ASSEMBLY_MEMBERS
100
AcDbLine
 62
7
  6
CONTINUOUS
 10
5.6305890167
 20
6.1113548137
 11
5.7245890167
 21
6.1113548137
  0
ARC
  5
339
100
AcDbEntity
  8
ALL_ASSEMBLY_MEMBERS
100
AcDbCircle
 62
7
  6
CONTINUOUS
 10
3.8690727153
 20
4.1222054233
 40
0.68
100
AcDbArc
 50
67.4255442891
 51
70.9862257999
  0
ARC
  5
33A
100
AcDbEntity
  8
ALL_ASSEMBLY_MEMBERS
100
AcDbCircle
 62
7
  6
CONTINUOUS
 10
4.0923366289
 20
4.1172887913
 40
0.68
100
AcDbArc
 50
107.6982774827
 51
111.2739720086
  0
ARC
  5
33B
100
AcDbEntity
  8
ALL_ASSEMBLY_MEMBERS
100
AcDbCircle
 62
7
  6
CONTINUOUS
 10
4.3224373865
 20
4.1322436441
 40
0.15625
100
AcDbArc
 50
11.3835410059
 51
71.1400389567
  0
ARC
  5
33C
100
AcDbEntity
  8
ALL_ASSEMBLY_MEMBERS
100
AcDbCircle
 62
7
  6
CONTINUOUS
 10
4.2590445985
 20
4.4157358867
 40
0.0473645802
100
AcDbArc
 50
263.4002384511
 51
274.7443791974
  0
ARC
  5
33D
100
AcDbEntity
  8
ALL_ASSEMBLY_MEMBERS
100
AcDbCircle
 62
7
  6
CONTINUOUS
 10
4.2576811368
 20
4.4148888321
 40
0.0466624364
100
AcDbArc
 50
276.509710246
 51
276.79722715
  0
ARC
  5
33E
100
AcDbEntity
  8
ALL_ASSEMBLY_MEMBERS
100
AcDbCircle
 62
7
  6
CONTINUOUS
 10
4.266734083
 20
4.4149822609
 40
0.0465619055
100
AcDbArc
 50
263.8776212202
 51
265.3032349012
  0
ARC
  5
33F
100
AcDbEntity
  8
ALL_ASSEMBLY_MEMBERS
100
AcDbCircle
 62
7
  6
CONTINUOUS
 10
4.2667262589
 20
4.4148910527
 40
0.046470363
100
AcDbArc
 50
265.3036411269
 51
265.652942069
  0
ARC
  5
340
100
AcDbEntity
  8
ALL_ASSEMBLY_MEMBERS
100
AcDbCircle
 62
7
  6
CONTINUOUS
 10
4.2591069752
 20
4.4148052004
 40
0.046431926
100
AcDbArc
 50
274.7626598207
 51
275.0620956621
  0
ARC
  5
341
100
AcDbEntity
  8
ALL_ASSEMBLY_MEMBERS
100
AcDbCircle
 62
7
  6
CONTINUOUS
 10
4.2551758161
 20
4.4094550961
 40
0.0406947648
100
AcDbArc
 50
234.5632266332
 51
236.0551038914
  0
ARC
  5
342
100
AcDbEntity
  8
ALL_ASSEMBLY_MEMBERS
100
AcDbCircle
 62
7
  6
CONTINUOUS
 10
4.2500209407
 20
4.4052206728
 40
0.0334119621
100
AcDbArc
 50
189.6440170939
 51
192.4771666414
  0
ARC
  5
343
100
AcDbEntity
  8
ALL_ASSEMBLY_MEMBERS
100
AcDbCircle
 62
7
  6
CONTINUOUS
 10
4.383613623
 20
4.3113330927
 40
0.033
100
AcDbArc
 50
180.0
 51
251.1400389567
  0
ARC
  5
344
100
AcDbEntity
  8
ALL_ASSEMBLY_MEMBERS
100
AcDbCircle
 62
7
  6
CONTINUOUS
 10
4.248939757
 20
4.4024492286
 40
0.0321402452
100
AcDbArc
 50
181.5118685089
 51
186.3924565828
  0
ARC
  5
345
100
AcDbEntity
  8
ALL_ASSEMBLY_MEMBERS
100
AcDbCircle
 62
7
  6
CONTINUOUS
 10
4.2488922366
 20
4.4024240565
 40
0.0320936971
100
AcDbArc
 50
172.740124977
 51
173.4180221261
  0
ARC
  5
346
100
AcDbEntity
  8
ALL_ASSEMBLY_MEMBERS
100
AcDbCircle
 62
7
  6
CONTINUOUS
 10
4.2488002748
 20
4.4024343853
 40
0.0320011575
100
AcDbArc
 50
173.4175201615
 51
175.1644732923
  0
ARC
  5
347
100
AcDbEntity
  8
ALL_ASSEMBLY_MEMBERS
100
AcDbCircle
 62
7
  6
CONTINUOUS
 10
4.2487966624
 20
4.4024430188
 40
0.0319970367
100
AcDbArc
 50
177.5012236806
 51
181.5075130515
  0
ARC
  5
348
100
AcDbEntity
  8
ALL_ASSEMBLY_MEMBERS
100
AcDbCircle
 62
7
  6
CONTINUOUS
 10
4.2486393094
 20
4.4024480297
 40
0.0318396148
100
AcDbArc
 50
175.1645221724
 51
177.4978872729
  0
ARC
  5
349
100
AcDbEntity
  8
ALL_ASSEMBLY_MEMBERS
100
AcDbCircle
 62
7
  6
CONTINUOUS
 10
4.2654916014
 20
4.4000810756
 40
0.0312410153
100
AcDbArc
 50
35.9953342985
 51
36.7254807413
  0
ARC
  5
34A
100
AcDbEntity
  8
ALL_ASSEMBLY_MEMBERS
100
AcDbCircle
 62
7
  6
CONTINUOUS
 10
4.2657831346
 20
4.4002891889
 40
0.030882834
100
AcDbArc
 50
33.1457107553
 51
36.0008305164
  0
ARC
  5
34B
100
AcDbEntity
  8
ALL_ASSEMBLY_MEMBERS
100
AcDbCircle
 62
7
  6
CONTINUOUS
 10
4.2654427567
 20
4.4069120388
 40
0.0281572125
100
AcDbArc
 50
21.3882140106
 51
31.2575660679
  0
ARC
  5
34C
100
AcDbEntity
  8
ALL_ASSEMBLY_MEMBERS
100
AcDbCircle
 62
7
  6
CONTINUOUS
 10
3.7752137965
 20
4.2926048137
 40
0.015
100
AcDbArc
 50
194.7630312681
 51
269.6172289742
  0
ARC
  5
34D
100
AcDbEntity
  8
ALL_ASSEMBLY_MEMBERS
100
AcDbCircle
 62
7
  6
CONTINUOUS
 10
4.5104486308
 20
4.4863548137
 40
0.7753350077
100
AcDbArc
 50
165.2369687319
 51
194.7630312681
  0
ARC
  5
34E
100
AcDbEntity
  8
ALL_ASSEMBLY_MEMBERS
100
AcDbCircle
 62
7
  6
CONTINUOUS
 10
3.8690727153
 20
4.8505042041
 40
0.68
100
AcDbArc
 50
289.0137742001
 51
292.5744557109
  0
ARC
  5
34F
100
AcDbEntity
  8
ALL_ASSEMBLY_MEMBERS
100
AcDbCircle
 62
7
  6
CONTINUOUS
 10
4.0923366289
 20
4.855420836
 40
0.68
100
AcDbArc
 50
248.7260279914
 51
252.3017225173
  0
ARC
  5
350
100
AcDbEntity
  8
ALL_ASSEMBLY_MEMBERS
100
AcDbCircle
 62
7
  6
CONTINUOUS
 10
4.3224373865
 20
4.8404659832
 40
0.15625
100
AcDbArc
 50
288.8599610433
 51
348.6164589941
  0
CIRCLE
  5
351
100
AcDbEntity
  8
ALL_ASSEMBLY_MEMBERS
100
AcDbCircle
 62
7
  6
CONTINUOUS
 10
3.988113623
 20
4.4863548137
 40
0.125
  0
ARC
  5
352
100
AcDbEntity
  8
ALL_ASSEMBLY_MEMBERS
100
AcDbCircle
 62
7
  6
CONTINUOUS
 10
4.2576447373
 20
4.5860932713
 40
0.0530681439
100
AcDbArc
 50
273.9368767271
 51
289.061795576
  0
ARC
  5
353
100
AcDbEntity
  8
ALL_ASSEMBLY_MEMBERS
100
AcDbCircle
 62
7
  6
CONTINUOUS
 10
4.2581150353
 20
4.5847966334
 40
0.0516890154
100
AcDbArc
 50
289.0384688088
 51
301.1587533477
  0
ARC
  5
354
100
AcDbEntity
  8
ALL_ASSEMBLY_MEMBERS
100
AcDbCircle
 62
7
  6
CONTINUOUS
 10
4.2587549531
 20
4.5836611167
 40
0.050386227
100
AcDbArc
 50
301.2041563543
 51
301.3584465543
  0
ARC
  5
355
100
AcDbEntity
  8
ALL_ASSEMBLY_MEMBERS
100
AcDbCircle
 62
7
  6
CONTINUOUS
 10
4.2486521954
 20
4.5788064692
 40
0.0461225058
100
AcDbArc
 50
280.565820138
 51
286.8980697836
  0
ARC
  5
356
100
AcDbEntity
  8
ALL_ASSEMBLY_MEMBERS
100
AcDbCircle
 62
7
  6
CONTINUOUS
 10
4.2488322615
 20
4.5781777033
 40
0.0454685494
100
AcDbArc
 50
286.9112656909
 51
287.8487931735
  0
ARC
  5
357
100
AcDbEntity
  8
ALL_ASSEMBLY_MEMBERS
100
AcDbCircle
 62
7
  6
CONTINUOUS
 10
4.2493024844
 20
4.5768536864
 40
0.0440641527
100
AcDbArc
 50
287.7944786136
 51
298.7932991991
  0
ARC
  5
358
100
AcDbEntity
  8
ALL_ASSEMBLY_MEMBERS
100
AcDbCircle
 62
7
  6
CONTINUOUS
 10
4.2500470799
 20
4.5754030596
 40
0.0424342668
100
AcDbArc
 50
298.8981743151
 51
299.1791069058
  0
ARC
  5
359
100
AcDbEntity
  8
ALL_ASSEMBLY_MEMBERS
100
AcDbCircle
 62
7
  6
CONTINUOUS
 10
4.2543097793
 20
4.5597713675
 40
0.041012494
100
AcDbArc
 50
112.0128927163
 51
113.913683156
  0
ARC
  5
35A
100
AcDbEntity
  8
ALL_ASSEMBLY_MEMBERS
100
AcDbCircle
 62
7
  6
CONTINUOUS
 10
4.254224172
 20
4.5599655136
 40
0.0408003122
100
AcDbArc
 50
113.9143018062
 51
114.4179615433
  0
ARC
  5
35B
100
AcDbEntity
  8
ALL_ASSEMBLY_MEMBERS
100
AcDbCircle
 62
7
  6
CONTINUOUS
 10
4.2565723621
 20
4.5654638784
 40
0.0368104757
100
AcDbArc
 50
116.7869747555
 51
118.61160191
  0
ARC
  5
35C
100
AcDbEntity
  8
ALL_ASSEMBLY_MEMBERS
100
AcDbCircle
 62
7
  6
CONTINUOUS
 10
4.383613623
 20
4.6613765347
 40
0.033
100
AcDbArc
 50
108.8599610433
 51
180.0
  0
ARC
  5
35D
100
AcDbEntity
  8
ALL_ASSEMBLY_MEMBERS
100
AcDbCircle
 62
7
  6
CONTINUOUS
 10
4.2462791314
 20
4.5675568055
 40
0.0294956341
100
AcDbArc
 50
185.0085896795
 51
186.5318899647
  0
ARC
  5
35E
100
AcDbEntity
  8
ALL_ASSEMBLY_MEMBERS
100
AcDbCircle
 62
7
  6
CONTINUOUS
 10
4.2461038286
 20
4.5675431095
 40
0.0293198049
100
AcDbArc
 50
177.3877999871
 51
185.0118358289
  0
ARC
  5
35F
100
AcDbEntity
  8
ALL_ASSEMBLY_MEMBERS
100
AcDbCircle
 62
7
  6
CONTINUOUS
 10
4.246054629
 20
4.5675379564
 40
0.0292708923
100
AcDbArc
 50
170.1233214101
 51
177.3733344066
  0
ARC
  5
360
100
AcDbEntity
  8
ALL_ASSEMBLY_MEMBERS
100
AcDbCircle
 62
7
  6
CONTINUOUS
 10
4.2487285939
 20
4.5732915833
 40
0.0258978783
100
AcDbArc
 50
203.1288605384
 51
203.7264571423
  0
ARC
  5
361
100
AcDbEntity
  8
ALL_ASSEMBLY_MEMBERS
100
AcDbCircle
 62
7
  6
CONTINUOUS
 10
4.2486440343
 20
4.5732556267
 40
0.0258059915
100
AcDbArc
 50
202.1994324543
 51
203.129190249
  0
ARC
  5
362
100
AcDbEntity
  8
ALL_ASSEMBLY_MEMBERS
100
AcDbCircle
 62
7
  6
CONTINUOUS
 10
4.2485082807
 20
4.5732008364
 40
0.0256595992
100
AcDbArc
 50
200.57577701
 51
202.2006898033
  0
ARC
  5
363
100
AcDbEntity
  8
ALL_ASSEMBLY_MEMBERS
100
AcDbCircle
 62
7
  6
CONTINUOUS
 10
4.2482456622
 20
4.5731046307
 40
0.0253799227
100
AcDbArc
 50
197.3957100177
 51
200.580805826
  0
ARC
  5
364
100
AcDbEntity
  8
ALL_ASSEMBLY_MEMBERS
100
AcDbCircle
 62
7
  6
CONTINUOUS
 10
3.7752137965
 20
4.6801048137
 40
0.015
100
AcDbArc
 50
90.3827710258
 51
165.2369687319
  0
ARC
  5
365
100
AcDbEntity
  8
ALL_ASSEMBLY_MEMBERS
100
AcDbCircle
 62
7
  6
CONTINUOUS
 10
4.6731496977
 20
4.2028548137
 40
0.2015
100
AcDbArc
 50
191.3835410059
 51
270.0
  0
ARC
  5
366
100
AcDbEntity
  8
ALL_ASSEMBLY_MEMBERS
100
AcDbCircle
 62
7
  6
CONTINUOUS
 10
5.5680890167
 20
2.8561374224
 40
0.0627173913
100
AcDbArc
 50
4.7718880608
 51
90.0
  0
ARC
  5
367
100
AcDbEntity
  8
ALL_ASSEMBLY_MEMBERS
100
AcDbCircle
 62
7
  6
CONTINUOUS
 10
5.2315190244
 20
4.0523834514
 40
0.0454241773
100
AcDbArc
 50
270.0001392818
 51
270.9972673083
  0
ARC
  5
368
100
AcDbEntity
  8
ALL_ASSEMBLY_MEMBERS
100
AcDbCircle
 62
7
  6
CONTINUOUS
 10
5.4324635294
 20
5.4712641983
 40
0.4925109075
100
AcDbArc
 50
270.000056693
 51
271.1214557203
  0
ARC
  5
369
100
AcDbEntity
  8
ALL_ASSEMBLY_MEMBERS
100
AcDbCircle
 62
7
  6
CONTINUOUS
 10
5.352457348
 20
5.4705338487
 40
0.4917805579
100
AcDbArc
 50
268.8775733666
 51
270.0007769503
  0
ARC
  5
36A
100
AcDbEntity
  8
ALL_ASSEMBLY_MEMBERS
100
AcDbCircle
 62
7
  6
CONTINUOUS
 10
4.6731496977
 20
4.7698548137
 40
0.2015
100
AcDbArc
 50
90.0
 51
168.6164589941
  0
ARC
  5
36B
100
AcDbEntity
  8
ALL_ASSEMBLY_MEMBERS
100
AcDbCircle
 62
7
  6
CONTINUOUS
 10
4.772613623
 20
4.9778548137
 40
0.14
100
AcDbArc
 50
71.446995465
 51
108.553004535
  0
ARC
  5
36C
100
AcDbEntity
  8
ALL_ASSEMBLY_MEMBERS
100
AcDbCircle
 62
7
  6
CONTINUOUS
 10
5.5680890167
 20
6.116572205
 40
0.0627173913
100
AcDbArc
 50
270.0
 51
355.2281119392
  0
ARC
  5
36D
100
AcDbEntity
  8
ALL_ASSEMBLY_MEMBERS
100
AcDbCircle
 62
7
  6
CONTINUOUS
 10
4.737613623
 20
5.0821380817
 40
0.03
100
AcDbArc
 50
108.553004535
 51
180.0
  0
ARC
  5
36E
100
AcDbEntity
  8
ALL_ASSEMBLY_MEMBERS
100
AcDbCircle
 62
7
  6
CONTINUOUS
 10
4.807613623
 20
5.0821380817
 40
0.03
100
AcDbArc
 50
0.0
 51
71.446995465
  0
SPLINE
  5
36F
100
AcDbEntity
  8
ALL_ASSEMBLY_MEMBERS
100
AcDbSpline
 62
7
  6
CONTINUOUS
 70
0
 71
3
 72
9
 73
5
 74
0
 42
0.0000001
 43
0.0000001
 44
0.0000000001
 40
0.0
 40
0.0
 40
0.0
 40
0.0
 40
0.5037128946
 40
1.0
 40
1.0
 40
1.0
 40
1.0
 10
4.2389449431
 20
4.5977792807
 30
0.0
 10
4.2379999755
 20
4.5972637609
 30
0.0
 10
4.236168102
 20
4.5961570113
 30
0.0
 10
4.2344452107
 20
4.5948867536
 30
0.0
 10
4.2336225754
 20
4.5942173633
 30
0.0
  0
SPLINE
  5
370
100
AcDbEntity
  8
ALL_ASSEMBLY_MEMBERS
100
AcDbSpline
 62
7
  6
CONTINUOUS
 70
0
 71
3
 72
24
 73
20
 74
0
 42
0.0000001
 43
0.0000001
 44
0.0000000001
 40
0.0
 40
0.0
 40
0.0
 40
0.0
 40
0.0662125844
 40
0.131726161
 40
0.1965481167
 40
0.2606955361
 40
0.3242012215
 40
0.3871102654
 40
0.4494785939
 40
0.5113718177
 40
0.5728662814
 40
0.6340464657
 40
0.695005167
 40
0.7558401183
 40
0.8166536573
 40
0.8775483774
 40
0.9080645539
 40
0.9386391835
 40
1.0
 40
1.0
 40
1.0
 40
1.0
 10
4.2336225754
 20
4.5942173633
 30
0.0
 10
4.233071774
 20
4.5937691681
 30
0.0
 10
4.2320041525
 20
4.5928421736
 30
0.0
 10
4.2305058611
 20
4.591357334
 30
0.0
 10
4.2291252535
 20
4.5897916977
 30
0.0
 10
4.2278689689
 20
4.5881516505
 30
0.0
 10
4.2267424522
 20
4.5864443496
 30
0.0
 10
4.2257511475
 20
4.5846769296
 30
0.0
 10
4.2248995473
 20
4.5828571323
 30
0.0
 10
4.224191931
 20
4.5809928222
 30
0.0
 10
4.2236318048
 20
4.5790922573
 30
0.0
 10
4.2232220557
 20
4.577163902
 30
0.0
 10
4.2229650975
 20
4.5752164201
 30
0.0
 10
4.2228623503
 20
4.5732586442
 30
0.0
 10
4.2229150029
 20
4.5712996118
 30
0.0
 10
4.2230882337
 20
4.5696743928
 30
0.0
 10
4.2233040833
 20
4.5683837462
 30
0.0
 10
4.2235717577
 20
4.5670978008
 30
0.0
 10
4.223829823
 20
4.5661447989
 30
0.0
 10
4.2240265483
 20
4.5655168119
 30
0.0
  0
SPLINE
  5
371
100
AcDbEntity
  8
ALL_ASSEMBLY_MEMBERS
100
AcDbSpline
 62
7
  6
CONTINUOUS
 70
0
 71
3
 72
22
 73
18
 74
0
 42
0.0000001
 43
0.0000001
 44
0.0000000001
 40
0.0
 40
0.0
 40
0.0
 40
0.0
 40
0.0580678977
 40
0.1166345465
 40
0.1757515972
 40
0.2354634472
 40
0.2958021458
 40
0.3567913942
 40
0.41844181
 40
0.4807545968
 40
0.5437207876
 40
0.60732209
 40
0.6715291163
 40
0.7363002921
 40
0.8673084388
 40
0.9335020923
 40
1.0
 40
1.0
 40
1.0
 40
1.0
 10
4.2250196848
 20
4.5628710397
 30
0.0
 10
4.2252750074
 20
4.5622901242
 30
0.0
 10
4.2258309346
 20
4.5611417242
 30
0.0
 10
4.2267913472
 20
4.5594767379
 30
0.0
 10
4.2278778286
 20
4.5578693166
 30
0.0
 10
4.2290863818
 20
4.5563269465
 30
0.0
 10
4.2304119444
 20
4.5548562773
 30
0.0
 10
4.2318494583
 20
4.5534642561
 30
0.0
 10
4.2333928432
 20
4.552157053
 30
0.0
 10
4.2350359027
 20
4.5509409555
 30
0.0
 10
4.236771719
 20
4.5498215905
 30
0.0
 10
4.2385930203
 20
4.5488044322
 30
0.0
 10
4.2404921426
 20
4.5478944438
 30
0.0
 10
4.2431261812
 20
4.5468262
 30
0.0
 10
4.2458744537
 20
4.5459952552
 30
0.0
 10
4.2486973238
 20
4.5454105798
 30
0.0
 10
4.2501331852
 20
4.5452008725
 30
0.0
 10
4.2508550188
 20
4.5451171766
 30
0.0
  0
SPLINE
  5
372
100
AcDbEntity
  8
ALL_ASSEMBLY_MEMBERS
100
AcDbSpline
 62
7
  6
CONTINUOUS
 70
0
 71
3
 72
23
 73
19
 74
0
 42
0.0000001
 43
0.0000001
 44
0.0000000001
 40
0.0
 40
0.0
 40
0.0
 40
0.0
 40
0.0653812977
 40
0.1302931184
 40
0.194693667
 40
0.2585851199
 40
0.3219949232
 40
0.3849521503
 40
0.4474866755
 40
0.5096379455
 40
0.5714543782
 40
0.6329915227
 40
0.6943095981
 40
0.7554738155
 40
0.8165532024
 40
0.8776191745
 40
0.9387442568
 40
1.0
 40
1.0
 40
1.0
 40
1.0
 10
4.2843721417
 20
4.5415576711
 30
0.0
 10
4.2849805535
 20
4.5420640118
 30
0.0
 10
4.2861634527
 20
4.5431092238
 30
0.0
 10
4.2878335899
 20
4.5447744667
 30
0.0
 10
4.2893861854
 20
4.5465259571
 30
0.0
 10
4.2908147885
 20
4.5483569851
 30
0.0
 10
4.292113735
 20
4.5502611105
 30
0.0
 10
4.2932778743
 20
4.5522315056
 30
0.0
 10
4.2943024394
 20
4.5542609537
 30
0.0
 10
4.2951828431
 20
4.5563420232
 30
0.0
 10
4.295915603
 20
4.5584668249
 30
0.0
 10
4.2964971042
 20
4.5606274924
 30
0.0
 10
4.2969250795
 20
4.562815715
 30
0.0
 10
4.2971970422
 20
4.5650231931
 30
0.0
 10
4.2973118448
 20
4.5672413463
 30
0.0
 10
4.2972683952
 20
4.5694616145
 30
0.0
 10
4.2970666224
 20
4.5716751498
 30
0.0
 10
4.2968271243
 20
4.5731387844
 30
0.0
 10
4.2966814491
 20
4.5738659359
 30
0.0
  0
SPLINE
  5
373
100
AcDbEntity
  8
ALL_ASSEMBLY_MEMBERS
100
AcDbSpline
 62
7
  6
CONTINUOUS
 70
0
 71
3
 72
35
 73
31
 74
0
 42
0.0000001
 43
0.0000001
 44
0.0000000001
 40
0.0
 40
0.0
 40
0.0
 40
0.0
 40
0.0289726939
 40
0.0580582752
 40
0.087281598
 40
0.1166645961
 40
0.1462272928
 40
0.175986636
 40
0.2059564946
 40
0.2361478656
 40
0.2665675947
 40
0.2972198652
 40
0.3281041831
 40
0.3592171435
 40
0.4220719408
 40
0.4538150297
 40
0.48573899
 40
0.5178250115
 40
0.550050754
 40
0.6147992549
 40
0.6472905533
 40
0.6798134116
 40
0.7123368961
 40
0.7448301478
 40
0.7772621063
 40
0.8096020693
 40
0.8738548331
 40
0.9373840239
 40
0.9688286556
 40
1.0
 40
1.0
 40
1.0
 40
1.0
 10
4.2966814491
 20
4.5738659359
 30
0.0
 10
4.2965471497
 20
4.5745363036
 30
0.0
 10
4.2962339948
 20
4.5758712505
 30
0.0
 10
4.2956340399
 20
4.5778430099
 30
0.0
 10
4.2949045053
 20
4.5797810162
 30
0.0
 10
4.2940479904
 20
4.5816786586
 30
0.0
 10
4.2930669005
 20
4.5835293102
 30
0.0
 10
4.2919645641
 20
4.585326638
 30
0.0
 10
4.2907445428
 20
4.5870643892
 30
0.0
 10
4.2894107718
 20
4.5887363864
 30
0.0
 10
4.2879679006
 20
4.5903369212
 30
0.0
 10
4.2864205851
 20
4.5918600527
 30
0.0
 10
4.2847742603
 20
4.5933006499
 30
0.0
 10
4.2824473573
 20
4.595109828
 30
0.0
 10
4.2799512975
 20
4.5967268381
 30
0.0
 10
4.277317883
 20
4.5981359872
 30
0.0
 10
4.2752688219
 20
4.5990911613
 30
0.0
 10
4.2731599852
 20
4.5999369123
 30
0.0
 10
4.2702750213
 20
4.6009162275
 30
0.0
 10
4.2673052941
 20
4.6016627404
 30
0.0
 10
4.2642843901
 20
4.6021698353
 30
0.0
 10
4.2619962418
 20
4.6024294166
 30
0.0
 10
4.2596975611
 20
4.6025668142
 30
0.0
 10
4.2573969542
 20
4.6025810885
 30
0.0
 10
4.255103141
 20
4.602472357
 30
0.0
 10
4.25207287
 20
4.6021640913
 30
0.0
 10
4.2483493332
 20
4.6014764076
 30
0.0
 10
4.2447445985
 20
4.6003862679
 30
0.0
 10
4.2419786758
 20
4.5992824284
 30
0.0
 10
4.2406394458
 20
4.5986556722
 30
0.0
 10
4.2399828152
 20
4.5983241592
 30
0.0
  0
SPLINE
  5
374
100
AcDbEntity
  8
ALL_ASSEMBLY_MEMBERS
100
AcDbSpline
 62
7
  6
CONTINUOUS
 70
0
 71
3
 72
51
 73
47
 74
0
 42
0.0000001
 43
0.0000001
 44
0.0000000001
 40
0.0
 40
0.0
 40
0.0
 40
0.0
 40
0.0326158258
 40
0.0490547615
 40
0.0655596479
 40
0.0987259903
 40
0.132062008
 40
0.1654920786
 40
0.1822203622
 40
0.1989415873
 40
0.21564578
 40
0.2323231921
 40
0.2489641921
 40
0.2655592734
 40
0.2985682097
 40
0.3312913282
 40
0.3475316244
 40
0.3636800649
 40
0.3956720455
 40
0.42724392
 40
0.4583788308
 40
0.4737865029
 40
0.4890861908
 40
0.5193635204
 40
0.5492543962
 40
0.5640756221
 40
0.5788204044
 40
0.6081050379
 40
0.6226754473
 40
0.6372082426
 40
0.6517144815
 40
0.6662054794
 40
0.6951767706
 40
0.7096917191
 40
0.7242375509
 40
0.753453557
 40
0.7829172637
 40
0.7977694816
 40
0.8127084994
 40
0.8428615883
 40
0.8734270021
 40
0.9044244269
 40
0.9358603796
 40
0.9517480972
 40
0.9677425248
 40
1.0
 40
1.0
 40
1.0
 40
1.0
 10
4.2726411566
 20
4.5499785373
 30
0.0
 10
4.2717496581
 20
4.5495506355
 30
0.0
 10
4.270378563
 20
4.5489676745
 30
0.0
 10
4.2685016273
 20
4.5483120971
 30
0.0
 10
4.2665815899
 20
4.5477347434
 30
0.0
 10
4.26412599
 20
4.5471682036
 30
0.0
 10
4.2611226619
 20
4.5467425231
 30
0.0
 10
4.2585917898
 20
4.546601425
 30
0.0
 10
4.2565636509
 20
4.5466178993
 30
0.0
 10
4.2550445155
 20
4.5466947877
 30
0.0
 10
4.253531587
 20
4.5468361118
 30
0.0
 10
4.2520284894
 20
4.5470416383
 30
0.0
 10
4.2505387901
 20
4.5473107011
 30
0.0
 10
4.2485789822
 20
4.5477524929
 30
0.0
 10
4.2461815348
 20
4.5484591418
 30
0.0
 10
4.2438652624
 20
4.5493696106
 30
0.0
 10
4.2420803291
 20
4.5502143065
 30
0.0
 10
4.2403550568
 20
4.5511284888
 30
0.0
 10
4.2382990318
 20
4.5524059593
 30
0.0
 10
4.2360099848
 20
4.5541459685
 30
0.0
 10
4.2342688224
 20
4.5557575425
 30
0.0
 10
4.2329913666
 20
4.557130957
 30
0.0
 10
4.2318016565
 20
4.5585472353
 30
0.0
 10
4.2304653778
 20
4.5604099193
 30
0.0
 10
4.2293394169
 20
4.5623904086
 30
0.0
 10
4.2285777222
 20
4.5640251306
 30
0.0
 10
4.22791311
 20
4.5656817541
 30
0.0
 10
4.2273880881
 20
4.5673836399
 30
0.0
 10
4.2270099484
 20
4.5691137644
 30
0.0
 10
4.2268005361
 20
4.5704200002
 30
0.0
 10
4.2266653227
 20
4.5717335754
 30
0.0
 10
4.2265845586
 20
4.5734899705
 30
0.0
 10
4.2266536246
 20
4.5752509107
 30
0.0
 10
4.2268713537
 20
4.5769975923
 30
0.0
 10
4.2271885886
 20
4.5787366178
 30
0.0
 10
4.2277704925
 20
4.5808841964
 30
0.0
 10
4.2285897856
 20
4.5829626749
 30
0.0
 10
4.229382045
 20
4.5845759217
 30
0.0
 10
4.2302699598
 20
4.5861625726
 30
0.0
 10
4.23154843
 20
4.5880726073
 30
0.0
 10
4.2333283822
 20
4.5902151191
 30
0.0
 10
4.2353414329
 20
4.592195898
 30
0.0
 10
4.2371914173
 20
4.5936909071
 30
0.0
 10
4.2387668033
 20
4.594789046
 30
0.0
 10
4.2404129463
 20
4.5958253133
 30
0.0
 10
4.2417043859
 20
4.5965182979
 30
0.0
 10
4.2425860895
 20
4.5969414983
 30
0.0
  0
SPLINE
  5
375
100
AcDbEntity
  8
ALL_ASSEMBLY_MEMBERS
100
AcDbSpline
 62
7
  6
CONTINUOUS
 70
0
 71
3
 72
15
 73
11
 74
0
 42
0.0000001
 43
0.0000001
 44
0.0000000001
 40
0.0
 40
0.0
 40
0.0
 40
0.0
 40
0.1255379696
 40
0.2514310463
 40
0.3773915534
 40
0.5031930771
 40
0.6285821174
 40
0.753315767
 40
0.8771993514
 40
1.0
 40
1.0
 40
1.0
 40
1.0
 10
4.2508550188
 20
4.5451171766
 30
0.0
 10
4.2518053964
 20
4.5449424446
 30
0.0
 10
4.2537233902
 20
4.5446670386
 30
0.0
 10
4.2566249198
 20
4.5444781718
 30
0.0
 10
4.2595345703
 20
4.544514293
 30
0.0
 10
4.2624288171
 20
4.5447749616
 30
0.0
 10
4.2652847561
 20
4.5452582711
 30
0.0
 10
4.2680798229
 20
4.5459602899
 30
0.0
 10
4.2707913469
 20
4.5468755241
 30
0.0
 10
4.2725379502
 20
4.547626731
 30
0.0
 10
4.2733901094
 20
4.5480357507
 30
0.0
  0
SPLINE
  5
376
100
AcDbEntity
  8
ALL_ASSEMBLY_MEMBERS
100
AcDbSpline
 62
7
  6
CONTINUOUS
 70
0
 71
3
 72
22
 73
18
 74
0
 42
0.0000001
 43
0.0000001
 44
0.0000000001
 40
0.0
 40
0.0
 40
0.0
 40
0.0
 40
0.1285807962
 40
0.1925526066
 40
0.2562613575
 40
0.3196868426
 40
0.3828169591
 40
0.4456433432
 40
0.5081680164
 40
0.5703980956
 40
0.6323506225
 40
0.6940469895
 40
0.755514274
 40
0.8167944211
 40
0.8779433837
 40
0.9390098091
 40
1.0
 40
1.0
 40
1.0
 40
1.0
 10
4.270735538
 20
4.5383537047
 30
0.0
 10
4.2720681745
 20
4.539097854
 30
0.0
 10
4.2740060677
 20
4.5403214558
 30
0.0
 10
4.2764328244
 20
4.542157603
 30
0.0
 10
4.2781613604
 20
4.5436288805
 30
0.0
 10
4.2797933223
 20
4.545192093
 30
0.0
 10
4.2813213302
 20
4.5468429332
 30
0.0
 10
4.2827384828
 20
4.5485761362
 30
0.0
 10
4.2840375884
 20
4.5503864385
 30
0.0
 10
4.2852123249
 20
4.552267664
 30
0.0
 10
4.2862561376
 20
4.5542134925
 30
0.0
 10
4.2871632441
 20
4.556216814
 30
0.0
 10
4.2879281814
 20
4.5582701704
 30
0.0
 10
4.2885457858
 20
4.5603658231
 30
0.0
 10
4.2890116584
 20
4.5624955676
 30
0.0
 10
4.2893215161
 20
4.5646499843
 30
0.0
 10
4.2894223363
 20
4.5660969197
 30
0.0
 10
4.2894457082
 20
4.5668205312
 30
0.0
  0
SPLINE
  5
377
100
AcDbEntity
  8
ALL_ASSEMBLY_MEMBERS
100
AcDbSpline
 62
7
  6
CONTINUOUS
 70
0
 71
3
 72
21
 73
17
 74
0
 42
0.0000001
 43
0.0000001
 44
0.0000000001
 40
0.0
 40
0.0
 40
0.0
 40
0.0
 40
0.1313093098
 40
0.2608443279
 40
0.3249174389
 40
0.3885081965
 40
0.4516121719
 40
0.5142307514
 40
0.5763741294
 40
0.6380575909
 40
0.6993006524
 40
0.7601269386
 40
0.8205710722
 40
0.8806770778
 40
0.940481174
 40
1.0
 40
1.0
 40
1.0
 40
1.0
 10
4.2733901094
 20
4.5480357507
 30
0.0
 10
4.2743973826
 20
4.548519222
 30
0.0
 10
4.2763527651
 20
4.5495781157
 30
0.0
 10
4.2786431443
 20
4.5511355782
 30
0.0
 10
4.2803519424
 20
4.5525042284
 30
0.0
 10
4.281564254
 20
4.5535848278
 30
0.0
 10
4.2827082861
 20
4.5547199473
 30
0.0
 10
4.283780652
 20
4.5559064877
 30
0.0
 10
4.2847784056
 20
4.5571409389
 30
0.0
 10
4.2856985607
 20
4.5584199
 30
0.0
 10
4.2865385937
 20
4.559739609
 30
0.0
 10
4.2872960417
 20
4.5610963484
 30
0.0
 10
4.2879687497
 20
4.5624863111
 30
0.0
 10
4.288554805
 20
4.563905602
 30
0.0
 10
4.2890523667
 20
4.5653499074
 30
0.0
 10
4.2893248485
 20
4.5663287264
 30
0.0
 10
4.2894457082
 20
4.5668205312
 30
0.0
  0
SPLINE
  5
378
100
AcDbEntity
  8
ALL_ASSEMBLY_MEMBERS
100
AcDbSpline
 62
7
  6
CONTINUOUS
 70
0
 71
3
 72
51
 73
47
 74
0
 42
0.0000001
 43
0.0000001
 44
0.0000000001
 40
0.0
 40
0.0
 40
0.0
 40
0.0
 40
0.0326158258
 40
0.0490547615
 40
0.0655596479
 40
0.0987259903
 40
0.132062008
 40
0.1654920786
 40
0.1822203622
 40
0.1989415873
 40
0.21564578
 40
0.2323231921
 40
0.2489641921
 40
0.2655592734
 40
0.2985682097
 40
0.3312913282
 40
0.3475316244
 40
0.3636800649
 40
0.3956720455
 40
0.42724392
 40
0.4583788308
 40
0.4737865029
 40
0.4890861908
 40
0.5193635204
 40
0.5492543962
 40
0.5640756221
 40
0.5788204044
 40
0.6081050379
 40
0.6226754473
 40
0.6372082426
 40
0.6517144815
 40
0.6662054794
 40
0.6951767706
 40
0.7096917191
 40
0.7242375509
 40
0.753453557
 40
0.7829172637
 40
0.7977694816
 40
0.8127084994
 40
0.8428615883
 40
0.8734270021
 40
0.9044244269
 40
0.9358603796
 40
0.9517480972
 40
0.9677425248
 40
1.0
 40
1.0
 40
1.0
 40
1.0
 10
4.2425860895
 20
4.5969414983
 30
0.0
 10
4.243477588
 20
4.5973694001
 30
0.0
 10
4.2448486831
 20
4.5979523611
 30
0.0
 10
4.2467256187
 20
4.5986079385
 30
0.0
 10
4.2486456562
 20
4.5991852922
 30
0.0
 10
4.251101256
 20
4.599751832
 30
0.0
 10
4.2541045842
 20
4.6001775125
 30
0.0
 10
4.2566354562
 20
4.6003186106
 30
0.0
 10
4.2586635952
 20
4.6003021363
 30
0.0
 10
4.2601827306
 20
4.6002252479
 30
0.0
 10
4.2616956591
 20
4.6000839238
 30
0.0
 10
4.2631987567
 20
4.5998783973
 30
0.0
 10
4.264688456
 20
4.5996093345
 30
0.0
 10
4.2666482638
 20
4.5991675427
 30
0.0
 10
4.2690457113
 20
4.5984608938
 30
0.0
 10
4.2713619836
 20
4.597550425
 30
0.0
 10
4.2731469169
 20
4.5967057291
 30
0.0
 10
4.2748721893
 20
4.5957915468
 30
0.0
 10
4.2769282142
 20
4.5945140763
 30
0.0
 10
4.2792172613
 20
4.5927740671
 30
0.0
 10
4.2809584237
 20
4.5911624931
 30
0.0
 10
4.2822358795
 20
4.5897890786
 30
0.0
 10
4.2834255896
 20
4.5883728003
 30
0.0
 10
4.2847618682
 20
4.5865101163
 30
0.0
 10
4.2858878292
 20
4.584529627
 30
0.0
 10
4.2866495238
 20
4.5828949049
 30
0.0
 10
4.287314136
 20
4.5812382815
 30
0.0
 10
4.2878391579
 20
4.5795363957
 30
0.0
 10
4.2882172977
 20
4.5778062712
 30
0.0
 10
4.2884267099
 20
4.5765000354
 30
0.0
 10
4.2885619234
 20
4.5751864602
 30
0.0
 10
4.2886426875
 20
4.5734300651
 30
0.0
 10
4.2885736214
 20
4.5716691249
 30
0.0
 10
4.2883558923
 20
4.5699224433
 30
0.0
 10
4.2880386575
 20
4.5681834178
 30
0.0
 10
4.2874567535
 20
4.5660358392
 30
0.0
 10
4.2866374605
 20
4.5639573607
 30
0.0
 10
4.285845201
 20
4.5623441139
 30
0.0
 10
4.2849572862
 20
4.560757463
 30
0.0
 10
4.2836788161
 20
4.5588474283
 30
0.0
 10
4.2818988639
 20
4.5567049165
 30
0.0
 10
4.2798858131
 20
4.5547241376
 30
0.0
 10
4.2780358288
 20
4.5532291285
 30
0.0
 10
4.2764604428
 20
4.5521309896
 30
0.0
 10
4.2748142998
 20
4.5510947223
 30
0.0
 10
4.2735228602
 20
4.5504017377
 30
0.0
 10
4.2726411566
 20
4.5499785373
 30
0.0
  0
SPLINE
  5
379
100
AcDbEntity
  8
ALL_ASSEMBLY_MEMBERS
100
AcDbSpline
 62
7
  6
CONTINUOUS
 70
0
 71
3
 72
40
 73
36
 74
0
 42
0.0000001
 43
0.0000001
 44
0.0000000001
 40
0.0
 40
0.0
 40
0.0
 40
0.0
 40
0.0298345782
 40
0.0598482912
 40
0.0900523299
 40
0.1204787332
 40
0.1511555987
 40
0.182096369
 40
0.2133074736
 40
0.2447888304
 40
0.2765333657
 40
0.3085258703
 40
0.3407449473
 40
0.3731625863
 40
0.4057456621
 40
0.4384557972
 40
0.4712509986
 40
0.50408574
 40
0.5369125998
 40
0.569682431
 40
0.6023460911
 40
0.6348545659
 40
0.6671608447
 40
0.6992199004
 40
0.7309907291
 40
0.7624361405
 40
0.7935249017
 40
0.8242313542
 40
0.8545374989
 40
0.8695394975
 40
0.8844381991
 40
0.9139201699
 40
0.9429956076
 40
0.9716805504
 40
1.0
 40
1.0
 40
1.0
 40
1.0
 10
4.2894457082
 20
4.5668205312
 30
0.0
 10
4.2892702494
 20
4.5660743471
 30
0.0
 10
4.2888543128
 20
4.5645917588
 30
0.0
 10
4.2880444083
 20
4.5624217245
 30
0.0
 10
4.2870509986
 20
4.5603123742
 30
0.0
 10
4.2858807725
 20
4.5582762066
 30
0.0
 10
4.2845405464
 20
4.5563247484
 30
0.0
 10
4.2830386725
 20
4.5544688722
 30
0.0
 10
4.2813839467
 20
4.552719423
 30
0.0
 10
4.2795866201
 20
4.5510860735
 30
0.0
 10
4.2776573563
 20
4.5495781759
 30
0.0
 10
4.2756078885
 20
4.5482039995
 30
0.0
 10
4.2734504559
 20
4.5469713045
 30
0.0
 10
4.2711980739
 20
4.5458867766
 30
0.0
 10
4.2688642443
 20
4.5449563481
 30
0.0
 10
4.2664629685
 20
4.5441849969
 30
0.0
 10
4.2640086675
 20
4.5435766877
 30
0.0
 10
4.2615160307
 20
4.5431345774
 30
0.0
 10
4.2590000285
 20
4.5428605649
 30
0.0
 10
4.2564757178
 20
4.5427559137
 30
0.0
 10
4.2539582382
 20
4.5428204167
 30
0.0
 10
4.2514626823
 20
4.5430534073
 30
0.0
 10
4.249003977
 20
4.5434525888
 30
0.0
 10
4.2465969143
 20
4.5440153676
 30
0.0
 10
4.2442558364
 20
4.5447374314
 30
0.0
 10
4.2419949052
 20
4.5456142986
 30
0.0
 10
4.2398275132
 20
4.5466397799
 30
0.0
 10
4.2377669318
 20
4.547807542
 30
0.0
 10
4.2361431821
 20
4.5488965008
 30
0.0
 10
4.2349104006
 20
4.5498314726
 30
0.0
 10
4.233731389
 20
4.5508003512
 30
0.0
 10
4.2323449326
 20
4.5520840366
 30
0.0
 10
4.2308274445
 20
4.5537371616
 30
0.0
 10
4.2294707601
 20
4.5554869582
 30
0.0
 10
4.22867419
 20
4.5567185686
 30
0.0
 10
4.228306186
 20
4.5573462513
 30
0.0
  0
SPLINE
  5
37A
100
AcDbEntity
  8
ALL_ASSEMBLY_MEMBERS
100
AcDbSpline
 62
7
  6
CONTINUOUS
 70
0
 71
3
 72
18
 73
14
 74
0
 42
0.0000001
 43
0.0000001
 44
0.0000000001
 40
0.0
 40
0.0
 40
0.0
 40
0.0
 40
0.1293898423
 40
0.1936336022
 40
0.2575315382
 40
0.3842620219
 40
0.5096618543
 40
0.5718982979
 40
0.6338287063
 40
0.756803994
 40
0.8787827261
 40
0.9394774061
 40
1.0
 40
1.0
 40
1.0
 40
1.0
 10
4.2325881629
 20
4.3758957561
 30
0.0
 10
4.2316213019
 20
4.3765779919
 30
0.0
 10
4.2302163897
 20
4.3776606984
 30
0.0
 10
4.2284474996
 20
4.3792165779
 30
0.0
 10
4.2267658283
 20
4.3808316035
 30
0.0
 10
4.224815303
 20
4.3829698961
 30
0.0
 10
4.2230752568
 20
4.3852639661
 30
0.0
 10
4.2218252031
 20
4.387174481
 30
0.0
 10
4.2206772576
 20
4.3891223228
 30
0.0
 10
4.2194246077
 20
4.3916388936
 30
0.0
 10
4.2184242363
 20
4.3942541303
 30
0.0
 10
4.2177840568
 20
4.3963848846
 30
0.0
 10
4.2175176743
 20
4.3974615655
 30
0.0
 10
4.2173980962
 20
4.3980020008
 30
0.0
  0
SPLINE
  5
37B
100
AcDbEntity
  8
ALL_ASSEMBLY_MEMBERS
100
AcDbSpline
 62
7
  6
CONTINUOUS
 70
0
 71
3
 72
40
 73
36
 74
0
 42
0.0000001
 43
0.0000001
 44
0.0000000001
 40
0.0
 40
0.0
 40
0.0
 40
0.0
 40
0.0333142497
 40
0.0666661173
 40
0.1332103953
 40
0.1663615111
 40
0.1993693117
 40
0.2647759317
 40
0.2971531237
 40
0.3292690794
 40
0.3611070963
 40
0.3926565123
 40
0.4239139014
 40
0.4394367478
 40
0.4548886006
 40
0.4855803639
 40
0.5160132697
 40
0.5462128416
 40
0.5762109489
 40
0.6060456928
 40
0.6357603131
 40
0.6654022368
 40
0.6950219053
 40
0.7246706722
 40
0.7543999683
 40
0.7842583044
 40
0.8142917049
 40
0.829390498
 40
0.8445482127
 40
0.8597687109
 40
0.8750552753
 40
0.905832296
 40
0.9369105041
 40
0.9683070644
 40
1.0
 40
1.0
 40
1.0
 40
1.0
 10
4.260322857
 20
4.4331164409
 30
0.0
 10
4.2594511283
 20
4.4331211469
 30
0.0
 10
4.2577058084
 20
4.4330759378
 30
0.0
 10
4.2542320711
 20
4.4327685075
 30
0.0
 10
4.2507974156
 20
4.4321346216
 30
0.0
 10
4.2474568802
 20
4.4311792503
 30
0.0
 10
4.2442131717
 20
4.4300201336
 30
0.0
 10
4.2411079047
 20
4.4285524003
 30
0.0
 10
4.2381977297
 20
4.4267919606
 30
0.0
 10
4.2361348879
 20
4.4253394685
 30
0.0
 10
4.2341972772
 20
4.4237578105
 30
0.0
 10
4.2323958468
 20
4.4220551145
 30
0.0
 10
4.231013673
 20
4.4205387391
 30
0.0
 10
4.2299870263
 20
4.4192742382
 30
0.0
 10
4.2290187862
 20
4.4179829432
 30
0.0
 10
4.2279108009
 20
4.4163106521
 30
0.0
 10
4.2267524696
 20
4.414217562
 30
0.0
 10
4.2257752457
 20
4.4120537684
 30
0.0
 10
4.2249857809
 20
4.4098311778
 30
0.0
 10
4.2243891137
 20
4.4075623006
 30
0.0
 10
4.223989831
 20
4.4052599109
 30
0.0
 10
4.2237906601
 20
4.4029372633
 30
0.0
 10
4.2237939322
 20
4.400607788
 30
0.0
 10
4.2239999497
 20
4.3982851371
 30
0.0
 10
4.224408588
 20
4.395983091
 30
0.0
 10
4.2250176341
 20
4.3937154632
 30
0.0
 10
4.2256889102
 20
4.3918687718
 30
0.0
 10
4.2263214491
 20
4.3904230904
 30
0.0
 10
4.2268444576
 20
4.3893537646
 30
0.0
 10
4.2274143438
 20
4.3883030863
 30
0.0
 10
4.228237273
 20
4.3869262521
 30
0.0
 10
4.2293803621
 20
4.3852594906
 30
0.0
 10
4.2309216463
 20
4.3833643417
 30
0.0
 10
4.232626583
 20
4.3815818343
 30
0.0
 10
4.233859413
 20
4.3804809004
 30
0.0
 10
4.2344988604
 20
4.379952817
 30
0.0
  0
SPLINE
  5
37C
100
AcDbEntity
  8
ALL_ASSEMBLY_MEMBERS
100
AcDbSpline
 62
7
  6
CONTINUOUS
 70
0
 71
3
 72
15
 73
11
 74
0
 42
0.0000001
 43
0.0000001
 44
0.0000000001
 40
0.0
 40
0.0
 40
0.0
 40
0.0
 40
0.1206997876
 40
0.2429105841
 40
0.3665091904
 40
0.4913920944
 40
0.6173895748
 40
0.7442998793
 40
0.8719290098
 40
1.0
 40
1.0
 40
1.0
 40
1.0
 10
4.2344988604
 20
4.379952817
 30
0.0
 10
4.2351857395
 20
4.3793526551
 30
0.0
 10
4.2366227281
 20
4.3782058975
 30
0.0
 10
4.2389311861
 20
4.3766696189
 30
0.0
 10
4.241388674
 20
4.3753180225
 30
0.0
 10
4.2439751396
 20
4.3741618647
 30
0.0
 10
4.246670152
 20
4.3732103426
 30
0.0
 10
4.2494523218
 20
4.3724707895
 30
0.0
 10
4.2522991803
 20
4.3719492913
 30
0.0
 10
4.2542235081
 20
4.3717497617
 30
0.0
 10
4.255189333
 20
4.3716872822
 30
0.0
  0
SPLINE
  5
37D
100
AcDbEntity
  8
ALL_ASSEMBLY_MEMBERS
100
AcDbSpline
 62
7
  6
CONTINUOUS
 70
0
 71
3
 72
15
 73
11
 74
0
 42
0.0000001
 43
0.0000001
 44
0.0000000001
 40
0.0
 40
0.0
 40
0.0
 40
0.0
 40
0.1266581022
 40
0.2534412851
 40
0.3799967228
 40
0.506055089
 40
0.631324877
 40
0.7555406184
 40
0.8785075857
 40
1.0
 40
1.0
 40
1.0
 40
1.0
 10
4.2629459141
 20
4.3688158057
 30
0.0
 10
4.2616118579
 20
4.3686642615
 30
0.0
 10
4.2589280494
 20
4.3684752988
 30
0.0
 10
4.254895716
 20
4.3685349637
 30
0.0
 10
4.2508891048
 20
4.3689371024
 30
0.0
 10
4.2469473609
 20
4.3696775414
 30
0.0
 10
4.2431082401
 20
4.3707495175
 30
0.0
 10
4.2394084055
 20
4.3721426353
 30
0.0
 10
4.2358842453
 20
4.3738436214
 30
0.0
 10
4.233659412
 20
4.3751808759
 30
0.0
 10
4.2325881629
 20
4.3758957561
 30
0.0
  0
SPLINE
  5
37E
100
AcDbEntity
  8
ALL_ASSEMBLY_MEMBERS
100
AcDbSpline
 62
7
  6
CONTINUOUS
 70
0
 71
3
 72
15
 73
11
 74
0
 42
0.0000001
 43
0.0000001
 44
0.0000000001
 40
0.0
 40
0.0
 40
0.0
 40
0.0
 40
0.1276513264
 40
0.2552028888
 40
0.382277407
 40
0.5085440396
 40
0.6336879784
 40
0.7574396521
 40
0.8795974572
 40
1.0
 40
1.0
 40
1.0
 40
1.0
 10
4.255189333
 20
4.3716872822
 30
0.0
 10
4.2563457004
 20
4.3716124765
 30
0.0
 10
4.2586658875
 20
4.3715700851
 30
0.0
 10
4.2621312628
 20
4.3718276998
 30
0.0
 10
4.2655457476
 20
4.372403686
 30
0.0
 10
4.2688701616
 20
4.373291396
 30
0.0
 10
4.2720668459
 20
4.3744810209
 30
0.0
 10
4.2750996556
 20
4.3759591562
 30
0.0
 10
4.2779335747
 20
4.3777090371
 30
0.0
 10
4.2796826545
 20
4.3790543512
 30
0.0
 10
4.2805123601
 20
4.3797658274
 30
0.0
  0
SPLINE
  5
37F
100
AcDbEntity
  8
ALL_ASSEMBLY_MEMBERS
100
AcDbSpline
 62
7
  6
CONTINUOUS
 70
0
 71
3
 72
28
 73
24
 74
0
 42
0.0000001
 43
0.0000001
 44
0.0000000001
 40
0.0
 40
0.0
 40
0.0
 40
0.0
 40
0.0672522274
 40
0.1341340649
 40
0.2005102709
 40
0.2663106699
 40
0.2989806509
 40
0.3314821621
 40
0.3959385168
 40
0.4596425299
 40
0.5225629997
 40
0.5846849047
 40
0.6460112861
 40
0.6763893499
 40
0.7065788658
 40
0.7365860095
 40
0.7664180435
 40
0.8255772366
 40
0.8841530104
 40
0.9132603645
 40
0.9422606738
 40
0.9711686726
 40
1.0
 40
1.0
 40
1.0
 40
1.0
 10
4.2629459141
 20
4.3688158057
 30
0.0
 10
4.2639806029
 20
4.368948404
 30
0.0
 10
4.2660360756
 20
4.3692823428
 30
0.0
 10
4.2690673012
 20
4.3699887704
 30
0.0
 10
4.2720211034
 20
4.37089627
 30
0.0
 10
4.2744087385
 20
4.3718177206
 30
0.0
 10
4.2762622006
 20
4.3726503544
 30
0.0
 10
4.2780656309
 20
4.3735402411
 30
0.0
 10
4.2802387104
 20
4.3747650981
 30
0.0
 10
4.282706635
 20
4.3764114183
 30
0.0
 10
4.2850120886
 20
4.3782207462
 30
0.0
 10
4.2871402761
 20
4.3801815656
 30
0.0
 10
4.2887596306
 20
4.3819379563
 30
0.0
 10
4.2899516476
 20
4.3834061569
 30
0.0
 10
4.2907903357
 20
4.3845338103
 30
0.0
 10
4.2915750285
 20
4.385689472
 30
0.0
 10
4.2925447774
 20
4.3872605573
 30
0.0
 10
4.293617382
 20
4.3892862384
 30
0.0
 10
4.2944986147
 20
4.3913902164
 30
0.0
 10
4.2950805753
 20
4.3931045573
 30
0.0
 10
4.2954546576
 20
4.3944019211
 30
0.0
 10
4.2957665263
 20
4.3957111765
 30
0.0
 10
4.2959327128
 20
4.396591625
 30
0.0
 10
4.296005158
 20
4.3970329214
 30
0.0
  0
SPLINE
  5
380
100
AcDbEntity
  8
ALL_ASSEMBLY_MEMBERS
100
AcDbSpline
 62
7
  6
CONTINUOUS
 70
0
 71
3
 72
17
 73
13
 74
0
 42
0.0000001
 43
0.0000001
 44
0.0000000001
 40
0.0
 40
0.0
 40
0.0
 40
0.0
 40
0.1237996255
 40
0.1856138202
 40
0.2474082038
 40
0.3710492453
 40
0.4330030132
 40
0.4950826501
 40
0.6197221183
 40
0.7452672209
 40
0.8719564935
 40
1.0
 40
1.0
 40
1.0
 40
1.0
 10
4.296005158
 20
4.3970329214
 30
0.0
 10
4.2961461395
 20
4.3978917023
 30
0.0
 10
4.2962978846
 20
4.399190165
 30
0.0
 10
4.29637798
 20
4.4009280013
 30
0.0
 10
4.2963763268
 20
4.402666628
 30
0.0
 10
4.2962517746
 20
4.4044042916
 30
0.0
 10
4.2960050775
 20
4.4061283233
 30
0.0
 10
4.2956763297
 20
4.4078458106
 30
0.0
 10
4.2951123705
 20
4.4099708343
 30
0.0
 10
4.2941965632
 20
4.4124607995
 30
0.0
 10
4.2930465372
 20
4.4148779604
 30
0.0
 10
4.2921329268
 20
4.4164213372
 30
0.0
 10
4.2916407993
 20
4.4171749998
 30
0.0
  0
SPLINE
  5
381
100
AcDbEntity
  8
ALL_ASSEMBLY_MEMBERS
100
AcDbSpline
 62
7
  6
CONTINUOUS
 70
0
 71
3
 72
21
 73
17
 74
0
 42
0.0000001
 43
0.0000001
 44
0.0000000001
 40
0.0
 40
0.0
 40
0.0
 40
0.0
 40
0.0585484335
 40
0.1176584805
 40
0.1773485004
 40
0.2376269051
 40
0.2984949207
 40
0.3599458751
 40
0.4219642659
 40
0.4845294507
 40
0.5476128934
 40
0.6111813479
 40
0.7395435582
 40
0.8692923468
 40
0.9345792235
 40
1.0
 40
1.0
 40
1.0
 40
1.0
 10
4.290531581
 20
4.4187626296
 30
0.0
 10
4.2901273581
 20
4.4193044431
 30
0.0
 10
4.2892795656
 20
4.4203672817
 30
0.0
 10
4.2879031394
 20
4.4218849982
 30
0.0
 10
4.2864203275
 20
4.4233278328
 30
0.0
 10
4.2848365535
 20
4.4246903034
 30
0.0
 10
4.2831572385
 20
4.4259669627
 30
0.0
 10
4.281388362
 20
4.4271527329
 30
0.0
 10
4.2795363072
 20
4.4282429787
 30
0.0
 10
4.277607635
 20
4.4292330119
 30
0.0
 10
4.2756093852
 20
4.4301190291
 30
0.0
 10
4.2728535966
 20
4.4311594239
 30
0.0
 10
4.2692736959
 20
4.4321784112
 30
0.0
 10
4.2655844704
 20
4.4328032177
 30
0.0
 10
4.2625874142
 20
4.4330632609
 30
0.0
 10
4.2610781791
 20
4.4331123634
 30
0.0
 10
4.260322857
 20
4.4331164409
 30
0.0
  0
SPLINE
  5
382
100
AcDbEntity
  8
ALL_ASSEMBLY_MEMBERS
100
AcDbSpline
 62
7
  6
CONTINUOUS
 70
0
 71
3
 72
55
 73
51
 74
0
 42
0.0000001
 43
0.0000001
 44
0.0000000001
 40
0.0
 40
0.0
 40
0.0
 40
0.0
 40
0.0333747824
 40
0.0666262922
 40
0.0831756915
 40
0.0996616884
 40
0.1324091781
 40
0.148664377
 40
0.1648285388
 40
0.1808960751
 40
0.1968626153
 40
0.2127244317
 40
0.2284788196
 40
0.2596502361
 40
0.2750758828
 40
0.2903933576
 40
0.3056050684
 40
0.3207144221
 40
0.3357262078
 40
0.3506460635
 40
0.3654804884
 40
0.3802372052
 40
0.3949247088
 40
0.4095521301
 40
0.438655978
 40
0.4531653421
 40
0.4676575661
 40
0.4966252688
 40
0.5256631966
 40
0.5402422666
 40
0.5548717988
 40
0.5843101831
 40
0.6140601994
 40
0.6441783683
 40
0.6593940394
 40
0.67471555
 40
0.690145319
 40
0.7056848714
 40
0.721334327
 40
0.7370928455
 40
0.7689205641
 40
0.8011505915
 40
0.8174086763
 40
0.8337512685
 40
0.8666540366
 40
0.8998015056
 40
0.9164487321
 40
0.9331318487
 40
0.96656426
 40
1.0
 40
1.0
 40
1.0
 40
1.0
 10
4.2553044206
 20
4.3722490741
 30
0.0
 10
4.2542946077
 20
4.3723143992
 30
0.0
 10
4.2522832801
 20
4.3725307531
 30
0.0
 10
4.2498048442
 20
4.3730140321
 30
0.0
 10
4.2478608177
 20
4.3735263723
 30
0.0
 10
4.2459556063
 20
4.374118224
 30
0.0
 10
4.244099322
 20
4.3748318538
 30
0.0
 10
4.2423063663
 20
4.3756633261
 30
0.0
 10
4.2410015538
 20
4.3763417897
 30
0.0
 10
4.2397368109
 20
4.377074952
 30
0.0
 10
4.2385150565
 20
4.3778608984
 30
0.0
 10
4.2373392241
 20
4.3786978591
 30
0.0
 10
4.2358422246
 20
4.3798747762
 30
0.0
 10
4.2344412737
 20
4.3811495424
 30
0.0
 10
4.2331507139
 20
4.3825136547
 30
0.0
 10
4.2322448199
 20
4.3835731534
 30
0.0
 10
4.231399983
 20
4.384669834
 30
0.0
 10
4.2306183657
 20
4.3858012161
 30
0.0
 10
4.2299017703
 20
4.3869644873
 30
0.0
 10
4.2292518428
 20
4.3881568085
 30
0.0
 10
4.2286703233
 20
4.3893754037
 30
0.0
 10
4.2281585894
 20
4.390617285
 30
0.0
 10
4.2277177284
 20
4.3918794848
 30
0.0
 10
4.2272269576
 20
4.3935821004
 30
0.0
 10
4.226880542
 20
4.3953181644
 30
0.0
 10
4.2266831482
 20
4.3970695858
 30
0.0
 10
4.2265854641
 20
4.3988253378
 30
0.0
 10
4.2266501227
 20
4.4010275353
 30
0.0
 10
4.2269641746
 20
4.4032107947
 30
0.0
 10
4.2273615923
 20
4.4049323548
 30
0.0
 10
4.2278578947
 20
4.4066406985
 30
0.0
 10
4.2286605012
 20
4.4087352859
 30
0.0
 10
4.2299005785
 20
4.4111480129
 30
0.0
 10
4.2311524095
 20
4.4130549347
 30
0.0
 10
4.2322779866
 20
4.4145101407
 30
0.0
 10
4.2331861223
 20
4.4155682005
 30
0.0
 10
4.2341530536
 20
4.4165863298
 30
0.0
 10
4.2351765492
 20
4.4175620325
 30
0.0
 10
4.2362540204
 20
4.4184931137
 30
0.0
 10
4.2377639254
 20
4.4196757586
 30
0.0
 10
4.2397742188
 20
4.4210299326
 30
0.0
 10
4.2419141685
 20
4.4221996111
 30
0.0
 10
4.2436993367
 20
4.4230237836
 30
0.0
 10
4.2455384255
 20
4.4237751367
 30
0.0
 10
4.2479121084
 20
4.424564779
 30
0.0
 10
4.2503542753
 20
4.4251473708
 30
0.0
 10
4.2523414549
 20
4.4254878792
 30
0.0
 10
4.254349961
 20
4.4257442465
 30
0.0
 10
4.2568814011
 20
4.4259035153
 30
0.0
 10
4.2589111681
 20
4.4258589184
 30
0.0
 10
4.2599228254
 20
4.4257934739
 30
0.0
  0
SPLINE
  5
383
100
AcDbEntity
  8
ALL_ASSEMBLY_MEMBERS
100
AcDbSpline
 62
7
  6
CONTINUOUS
 70
0
 71
3
 72
29
 73
25
 74
0
 42
0.0000001
 43
0.0000001
 44
0.0000000001
 40
0.0
 40
0.0
 40
0.0
 40
0.0
 40
0.0652482298
 40
0.1307385244
 40
0.1635328647
 40
0.1963395124
 40
0.2291471638
 40
0.2619430423
 40
0.3274198764
 40
0.392643036
 40
0.4574688962
 40
0.489693671
 40
0.5217634394
 40
0.5853513607
 40
0.6480954165
 40
0.709853467
 40
0.7403281855
 40
0.7705089168
 40
0.8003806521
 40
0.8299300274
 40
0.8880061162
 40
0.9165401125
 40
0.944728437
 40
1.0
 40
1.0
 40
1.0
 40
1.0
 10
4.2325881629
 20
4.3758957561
 30
0.0
 10
4.233562927
 20
4.3753396093
 30
0.0
 10
4.2355577797
 20
4.374296761
 30
0.0
 10
4.2381411873
 20
4.3731777735
 30
0.0
 10
4.2402566287
 20
4.3723962758
 30
0.0
 10
4.2418651034
 20
4.3718680192
 30
0.0
 10
4.2434918924
 20
4.3713990566
 30
0.0
 10
4.2456801369
 20
4.3708545562
 30
0.0
 10
4.2484450987
 20
4.3703265601
 30
0.0
 10
4.2517892104
 20
4.369943222
 30
0.0
 10
4.2545811767
 20
4.3698352956
 30
0.0
 10
4.2568021003
 20
4.3698781937
 30
0.0
 10
4.2589984007
 20
4.3700061905
 30
0.0
 10
4.2617073165
 20
4.3703253444
 30
0.0
 10
4.2648824012
 20
4.3709636304
 30
0.0
 10
4.2674458145
 20
4.3717075697
 30
0.0
 10
4.2694254622
 20
4.3724262749
 30
0.0
 10
4.2708642917
 20
4.3730228194
 30
0.0
 10
4.2722600013
 20
4.3736777344
 30
0.0
 10
4.2740478318
 20
4.3746211236
 30
0.0
 10
4.2757467505
 20
4.375679814
 30
0.0
 10
4.2773384295
 20
4.3768495875
 30
0.0
 10
4.2788292761
 20
4.3780703131
 30
0.0
 10
4.2798665496
 20
4.3790681984
 30
0.0
 10
4.2805123601
 20
4.3797658274
 30
0.0
  0
SPLINE
  5
384
100
AcDbEntity
  8
ALL_ASSEMBLY_MEMBERS
100
AcDbSpline
 62
7
  6
CONTINUOUS
 70
0
 71
3
 72
55
 73
51
 74
0
 42
0.0000001
 43
0.0000001
 44
0.0000000001
 40
0.0
 40
0.0
 40
0.0
 40
0.0
 40
0.0333747824
 40
0.0666262922
 40
0.0831756915
 40
0.0996616884
 40
0.1324091781
 40
0.148664377
 40
0.1648285388
 40
0.1808960751
 40
0.1968626153
 40
0.2127244317
 40
0.2284788196
 40
0.2596502361
 40
0.2750758828
 40
0.2903933576
 40
0.3056050684
 40
0.3207144221
 40
0.3357262078
 40
0.3506460635
 40
0.3654804884
 40
0.3802372052
 40
0.3949247088
 40
0.4095521301
 40
0.438655978
 40
0.4531653421
 40
0.4676575661
 40
0.4966252688
 40
0.5256631966
 40
0.5402422666
 40
0.5548717988
 40
0.5843101831
 40
0.6140601994
 40
0.6441783683
 40
0.6593940394
 40
0.67471555
 40
0.690145319
 40
0.7056848714
 40
0.721334327
 40
0.7370928455
 40
0.7689205641
 40
0.8011505915
 40
0.8174086763
 40
0.8337512685
 40
0.8666540366
 40
0.8998015056
 40
0.9164487321
 40
0.9331318487
 40
0.96656426
 40
1.0
 40
1.0
 40
1.0
 40
1.0
 10
4.2599228254
 20
4.4257934739
 30
0.0
 10
4.2609326384
 20
4.4257281488
 30
0.0
 10
4.2629439659
 20
4.4255117949
 30
0.0
 10
4.2654224018
 20
4.425028516
 30
0.0
 10
4.2673664283
 20
4.4245161758
 30
0.0
 10
4.2692716397
 20
4.423924324
 30
0.0
 10
4.271127924
 20
4.4232106942
 30
0.0
 10
4.2729208797
 20
4.422379222
 30
0.0
 10
4.2742256923
 20
4.4217007583
 30
0.0
 10
4.2754904352
 20
4.4209675961
 30
0.0
 10
4.2767121896
 20
4.4201816496
 30
0.0
 10
4.2778880219
 20
4.419344689
 30
0.0
 10
4.2793850215
 20
4.4181677719
 30
0.0
 10
4.2807859724
 20
4.4168930057
 30
0.0
 10
4.2820765321
 20
4.4155288934
 30
0.0
 10
4.2829824261
 20
4.4144693947
 30
0.0
 10
4.2838272631
 20
4.413372714
 30
0.0
 10
4.2846088804
 20
4.4122413319
 30
0.0
 10
4.2853254757
 20
4.4110780608
 30
0.0
 10
4.2859754032
 20
4.4098857395
 30
0.0
 10
4.2865569228
 20
4.4086671443
 30
0.0
 10
4.2870686567
 20
4.407425263
 30
0.0
 10
4.2875095176
 20
4.4061630633
 30
0.0
 10
4.2880002884
 20
4.4044604476
 30
0.0
 10
4.2883467041
 20
4.4027243837
 30
0.0
 10
4.2885440979
 20
4.4009729623
 30
0.0
 10
4.288641782
 20
4.3992172102
 30
0.0
 10
4.2885771233
 20
4.3970150127
 30
0.0
 10
4.2882630714
 20
4.3948317533
 30
0.0
 10
4.2878656538
 20
4.3931101933
 30
0.0
 10
4.2873693513
 20
4.3914018496
 30
0.0
 10
4.2865667448
 20
4.3893072621
 30
0.0
 10
4.2853266676
 20
4.3868945352
 30
0.0
 10
4.2840748366
 20
4.3849876133
 30
0.0
 10
4.2829492594
 20
4.3835324073
 30
0.0
 10
4.2820411237
 20
4.3824743475
 30
0.0
 10
4.2810741924
 20
4.3814562182
 30
0.0
 10
4.2800506969
 20
4.3804805155
 30
0.0
 10
4.2789732256
 20
4.3795494344
 30
0.0
 10
4.2774633206
 20
4.3783667895
 30
0.0
 10
4.2754530273
 20
4.3770126155
 30
0.0
 10
4.2733130776
 20
4.3758429369
 30
0.0
 10
4.2715279094
 20
4.3750187644
 30
0.0
 10
4.2696888205
 20
4.3742674114
 30
0.0
 10
4.2673151376
 20
4.3734777691
 30
0.0
 10
4.2648729708
 20
4.3728951773
 30
0.0
 10
4.2628857911
 20
4.3725546688
 30
0.0
 10
4.2608772851
 20
4.3722983016
 30
0.0
 10
4.258345845
 20
4.3721390327
 30
0.0
 10
4.2563160779
 20
4.3721836297
 30
0.0
 10
4.2553044206
 20
4.3722490741
 30
0.0
  0
SPLINE
  5
385
100
AcDbEntity
  8
ALL_ASSEMBLY_MEMBERS
100
AcDbSpline
 62
7
  6
CONTINUOUS
 70
0
 71
3
 72
20
 73
16
 74
0
 42
0.0000001
 43
0.0000001
 44
0.0000000001
 40
0.0
 40
0.0
 40
0.0
 40
0.0
 40
0.0161728331
 40
0.0258036186
 40
0.0369209756
 40
0.0643334836
 40
0.0992315881
 40
0.1417947005
 40
0.1919721843
 40
0.2494665808
 40
0.313814204
 40
0.4610154349
 40
0.6286948361
 40
0.8109417894
 40
1.0
 40
1.0
 40
1.0
 40
1.0
 10
5.2384086283
 20
4.008042642
 30
0.0
 10
5.2384086267
 20
4.0080811943
 30
0.0
 10
5.2383877411
 20
4.0081429696
 30
0.0
 10
5.2383343651
 20
4.0082130334
 30
0.0
 10
5.2382507918
 20
4.0082924861
 30
0.0
 10
5.2381022615
 20
4.0083872947
 30
0.0
 10
5.2378751183
 20
4.0084924625
 30
0.0
 10
5.2375881758
 20
4.0085947
 30
0.0
 10
5.2372435769
 20
4.0086927874
 30
0.0
 10
5.2368440444
 20
4.0087856756
 30
0.0
 10
5.2362141052
 20
4.0089066959
 30
0.0
 10
5.2353184662
 20
4.009033167
 30
0.0
 10
5.234138281
 20
4.0091437962
 30
0.0
 10
5.2328549852
 20
4.0092122074
 30
0.0
 10
5.231969806
 20
4.0092279133
 30
0.0
 10
5.2315191348
 20
4.0092279133
 30
0.0
  0
SPLINE
  5
386
100
AcDbEntity
  8
ALL_ASSEMBLY_MEMBERS
100
AcDbSpline
 62
7
  6
CONTINUOUS
 70
0
 71
3
 72
23
 73
19
 74
0
 42
0.0000001
 43
0.0000001
 44
0.0000000001
 40
0.0
 40
0.0
 40
0.0
 40
0.0
 40
0.0078034152
 40
0.0161641464
 40
0.0256081261
 40
0.0365034451
 40
0.0490751587
 40
0.0634558353
 40
0.0979038589
 40
0.1401458142
 40
0.1900907423
 40
0.247437934
 40
0.3118120388
 40
0.3826710245
 40
0.459367591
 40
0.6275128975
 40
0.8101911166
 40
1.0
 40
1.0
 40
1.0
 40
1.0
 10
5.2482511951
 20
4.0080426655
 30
0.0
 10
5.248251197
 20
4.0079977085
 30
0.0
 10
5.2482368595
 20
4.0079040717
 30
0.0
 10
5.2481737231
 20
4.0077690086
 30
0.0
 10
5.2480709085
 20
4.0076381143
 30
0.0
 10
5.2479294071
 20
4.007510897
 30
0.0
 10
5.24774968
 20
4.0073866613
 30
0.0
 10
5.2474402383
 20
4.0072144169
 30
0.0
 10
5.2469541133
 20
4.0070131336
 30
0.0
 10
5.2462568371
 20
4.0067967522
 30
0.0
 10
5.2454188721
 20
4.0065947301
 30
0.0
 10
5.24444736
 20
4.0064082035
 30
0.0
 10
5.2433506479
 20
4.0062389682
 30
0.0
 10
5.2421389395
 20
4.0060877725
 30
0.0
 10
5.2403291287
 20
4.0059056512
 30
0.0
 10
5.2378714395
 20
4.0057348371
 30
0.0
 10
5.2347587482
 20
4.0056139958
 30
0.0
 10
5.232612661
 20
4.0055871088
 30
0.0
 10
5.2315191348
 20
4.0055871088
 30
0.0
  0
SPLINE
  5
387
100
AcDbEntity
  8
ALL_ASSEMBLY_MEMBERS
100
AcDbSpline
 62
7
  6
CONTINUOUS
 70
0
 71
3
 72
20
 73
16
 74
0
 42
0.0000001
 43
0.0000001
 44
0.0000000001
 40
0.0
 40
0.0
 40
0.0
 40
0.0
 40
0.189057575
 40
0.3713042276
 40
0.5389848736
 40
0.6861864316
 40
0.7505333508
 40
0.8080268943
 40
0.8582038084
 40
0.9007670648
 40
0.9356657355
 40
0.9630788201
 40
0.9741963456
 40
0.9838271894
 40
1.0
 40
1.0
 40
1.0
 40
1.0
 10
5.2315191348
 20
4.0092279133
 30
0.0
 10
5.2310684652
 20
4.0092279133
 30
0.0
 10
5.2301832882
 20
4.0092122083
 30
0.0
 10
5.2288999917
 20
4.0091437963
 30
0.0
 10
5.2277198037
 20
4.0090331656
 30
0.0
 10
5.2268241623
 20
4.0089066964
 30
0.0
 10
5.2261942258
 20
4.0087856772
 30
0.0
 10
5.2257946983
 20
4.0086927899
 30
0.0
 10
5.2254501027
 20
4.0085947022
 30
0.0
 10
5.22516316
 20
4.0084924643
 30
0.0
 10
5.2249360137
 20
4.0083872959
 30
0.0
 10
5.2247874799
 20
4.008292487
 30
0.0
 10
5.2247039044
 20
4.0082130339
 30
0.0
 10
5.2246505277
 20
4.0081429699
 30
0.0
 10
5.2246296425
 20
4.0080811943
 30
0.0
 10
5.2246296412
 20
4.008042642
 30
0.0
  0
SPLINE
  5
388
100
AcDbEntity
  8
ALL_ASSEMBLY_MEMBERS
100
AcDbSpline
 62
7
  6
CONTINUOUS
 70
0
 71
3
 72
23
 73
19
 74
0
 42
0.0000001
 43
0.0000001
 44
0.0000000001
 40
0.0
 40
0.0
 40
0.0
 40
0.0
 40
0.1898090382
 40
0.3724871401
 40
0.5406320978
 40
0.6173287805
 40
0.6881879839
 40
0.752562232
 40
0.8099093563
 40
0.859854115
 40
0.9020959549
 40
0.9365440101
 40
0.9509247321
 40
0.9634964936
 40
0.9743918508
 40
0.9838358491
 40
0.9921965845
 40
1.0
 40
1.0
 40
1.0
 40
1.0
 10
5.2315191348
 20
4.0055871088
 30
0.0
 10
5.2304256078
 20
4.0055871088
 30
0.0
 10
5.2282795204
 20
4.0056139962
 30
0.0
 10
5.2251668309
 20
4.0057348366
 30
0.0
 10
5.2227091437
 20
4.005905651
 30
0.0
 10
5.2208993331
 20
4.0060877727
 30
0.0
 10
5.2196876219
 20
4.0062389686
 30
0.0
 10
5.218590908
 20
4.0064082036
 30
0.0
 10
5.2176193965
 20
4.0065947296
 30
0.0
 10
5.2167814334
 20
4.0067967515
 30
0.0
 10
5.2160841588
 20
4.0070131331
 30
0.0
 10
5.2155980341
 20
4.0072144164
 30
0.0
 10
5.2152885916
 20
4.0073866608
 30
0.0
 10
5.2151088636
 20
4.0075108966
 30
0.0
 10
5.2149673615
 20
4.007638114
 30
0.0
 10
5.2148645465
 20
4.0077690084
 30
0.0
 10
5.21480141
 20
4.0079040716
 30
0.0
 10
5.2147870726
 20
4.0079977085
 30
0.0
 10
5.2147870745
 20
4.0080426655
 30
0.0
  0
LINE
  5
389
100
AcDbEntity
  8
ALL_ASSEMBLY_MEMBERS
100
AcDbLine
 62
7
  6
CONTINUOUS
 10
5.2315191348
 20
4.0110995396
 11
5.2391294062
 21
4.0107353905
  0
SPLINE
  5
38A
100
AcDbEntity
  8
ALL_ASSEMBLY_MEMBERS
100
AcDbSpline
 62
7
  6
CONTINUOUS
 70
0
 71
3
 72
19
 73
15
 74
0
 42
0.0000001
 43
0.0000001
 44
0.0000000001
 40
0.0
 40
0.0
 40
0.0
 40
0.0
 40
0.20355588
 40
0.388916636
 40
0.5529760947
 40
0.6930837406
 40
0.7535900277
 40
0.8074763989
 40
0.8546516999
 40
0.8951680966
 40
0.9292150896
 40
0.95723513
 40
0.9801956094
 40
1.0
 40
1.0
 40
1.0
 40
1.0
 10
5.2391294062
 20
4.0107353905
 30
0.0
 10
5.2397902564
 20
4.0106689531
 30
0.0
 10
5.2410510305
 20
4.0105222483
 30
0.0
 10
5.2428348516
 20
4.0102479819
 30
0.0
 10
5.2444021164
 20
4.0099370743
 30
0.0
 10
5.2455558318
 20
4.0096418823
 30
0.0
 10
5.2463468382
 20
4.0093883345
 30
0.0
 10
5.24684085
 20
4.0092035856
 30
0.0
 10
5.2472633414
 20
4.0090158868
 30
0.0
 10
5.2476130138
 20
4.0088263071
 30
0.0
 10
5.2478891866
 20
4.008635622
 30
0.0
 10
5.2480915417
 20
4.0084435155
 30
0.0
 10
5.2482195225
 20
4.0082475971
 30
0.0
 10
5.2482511925
 20
4.0081072851
 30
0.0
 10
5.2482511951
 20
4.0080426655
 30
0.0
  0
SPLINE
  5
38B
100
AcDbEntity
  8
ALL_ASSEMBLY_MEMBERS
100
AcDbSpline
 62
7
  6
CONTINUOUS
 70
0
 71
3
 72
18
 73
14
 74
0
 42
0.0000001
 43
0.0000001
 44
0.0000000001
 40
0.0
 40
0.0
 40
0.0
 40
0.0
 40
0.0196331412
 40
0.0421488034
 40
0.0696179638
 40
0.1031481057
 40
0.143227933
 40
0.1900563012
 40
0.3040558468
 40
0.4444578624
 40
0.6090795544
 40
0.7953332078
 40
1.0
 40
1.0
 40
1.0
 40
1.0
 10
5.2246296412
 20
4.008042642
 30
0.0
 10
5.2246296404
 20
4.00801612
 30
0.0
 10
5.2246425892
 20
4.0079587783
 30
0.0
 10
5.2246961222
 20
4.0078797519
 30
0.0
 10
5.2247808053
 20
4.0078041293
 30
0.0
 10
5.2248964076
 20
4.0077307224
 30
0.0
 10
5.2250427585
 20
4.0076591203
 30
0.0
 10
5.2252955477
 20
4.0075597635
 30
0.0
 10
5.2256872384
 20
4.00744677
 30
0.0
 10
5.2262412174
 20
4.0073293734
 30
0.0
 10
5.2268968464
 20
4.0072248979
 30
0.0
 10
5.227642128
 20
4.0071356708
 30
0.0
 10
5.2281682537
 20
4.007089226
 30
0.0
 10
5.2284439482
 20
4.0070683965
 30
0.0
  0
LINE
  5
38C
100
AcDbEntity
  8
ALL_ASSEMBLY_MEMBERS
100
AcDbLine
 62
7
  6
CONTINUOUS
 10
5.2284439482
 20
4.0070683965
 11
5.2315191348
 21
4.006959274
  0
SPLINE
  5
38D
100
AcDbEntity
  8
ALL_ASSEMBLY_MEMBERS
100
AcDbSpline
 62
7
  6
CONTINUOUS
 70
0
 71
3
 72
23
 73
19
 74
0
 42
0.0000001
 43
0.0000001
 44
0.0000000001
 40
0.0
 40
0.0
 40
0.0
 40
0.0
 40
0.0078812127
 40
0.0164536615
 40
0.0261985843
 40
0.0374419714
 40
0.0503770288
 40
0.0651150352
 40
0.1002079959
 40
0.1429471231
 40
0.1932146859
 40
0.2507048315
 40
0.3150490248
 40
0.385731092
 40
0.4621336633
 40
0.6294611839
 40
0.8111746924
 40
1.0
 40
1.0
 40
1.0
 40
1.0
 10
5.2482511929
 20
4.010542573
 30
0.0
 10
5.2482511905
 20
4.0105883298
 30
0.0
 10
5.2482364203
 20
4.0106842923
 30
0.0
 10
5.2481731211
 20
4.0108241461
 30
0.0
 10
5.2480703182
 20
4.0109628023
 30
0.0
 10
5.2479288119
 20
4.0111006652
 30
0.0
 10
5.2477490407
 20
4.0112381941
 30
0.0
 10
5.2474402464
 20
4.0114324039
 30
0.0
 10
5.2469552877
 20
4.0116672971
 30
0.0
 10
5.2462589906
 20
4.0119301564
 30
0.0
 10
5.2454226754
 20
4.012184949
 30
0.0
 10
5.2444533232
 20
4.0124285635
 30
0.0
 10
5.2433590004
 20
4.0126572714
 30
0.0
 10
5.2421495303
 20
4.0128681269
 30
0.0
 10
5.2403426984
 20
4.0131294087
 30
0.0
 10
5.2378848856
 20
4.0133854683
 30
0.0
 10
5.2347669663
 20
4.0135730013
 30
0.0
 10
5.2326154191
 20
4.0136156116
 30
0.0
 10
5.2315191348
 20
4.0136156116
 30
0.0
  0
SPLINE
  5
38E
100
AcDbEntity
  8
ALL_ASSEMBLY_MEMBERS
100
AcDbSpline
 62
7
  6
CONTINUOUS
 70
0
 71
3
 72
19
 73
15
 74
0
 42
0.0000001
 43
0.0000001
 44
0.0000000001
 40
0.0
 40
0.0
 40
0.0
 40
0.0
 40
0.0198049523
 40
0.0427658196
 40
0.0707860016
 40
0.1048329554
 40
0.1453492186
 40
0.1925243779
 40
0.2464106673
 40
0.3069168988
 40
0.4470242174
 40
0.6110828505
 40
0.7964431978
 40
1.0
 40
1.0
 40
1.0
 40
1.0
 10
5.2147870745
 20
4.0080426655
 30
0.0
 10
5.2147870773
 20
4.0081072822
 30
0.0
 10
5.2148187444
 20
4.0082475871
 30
0.0
 10
5.2149467133
 20
4.0084434969
 30
0.0
 10
5.2151490503
 20
4.0086355955
 30
0.0
 10
5.2154251988
 20
4.0088262725
 30
0.0
 10
5.2157748414
 20
4.0090158444
 30
0.0
 10
5.216197298
 20
4.0092035359
 30
0.0
 10
5.2166912703
 20
4.009388278
 30
0.0
 10
5.2174822143
 20
4.0096418175
 30
0.0
 10
5.218635838
 20
4.0099370019
 30
0.0
 10
5.2202029799
 20
4.010247905
 30
0.0
 10
5.2219866671
 20
4.0105221706
 30
0.0
 10
5.2232473495
 20
4.0106688786
 30
0.0
 10
5.2239081538
 20
4.0107353188
 30
0.0
  0
LINE
  5
38F
100
AcDbEntity
  8
ALL_ASSEMBLY_MEMBERS
100
AcDbLine
 62
7
  6
CONTINUOUS
 10
5.2239081538
 20
4.0107353188
 11
5.2315191348
 21
4.0110995396
  0
LINE
  5
390
100
AcDbEntity
  8
ALL_ASSEMBLY_MEMBERS
100
AcDbLine
 62
7
  6
CONTINUOUS
 10
5.2323096195
 20
4.0069661546
 11
5.2345942472
 21
4.0070683916
  0
SPLINE
  5
391
100
AcDbEntity
  8
ALL_ASSEMBLY_MEMBERS
100
AcDbSpline
 62
7
  6
CONTINUOUS
 70
0
 71
3
 72
18
 73
14
 74
0
 42
0.0000001
 43
0.0000001
 44
0.0000000001
 40
0.0
 40
0.0
 40
0.0
 40
0.0
 40
0.2046682898
 40
0.3909226323
 40
0.5555427642
 40
0.6959425846
 40
0.8099416072
 40
0.856770528
 40
0.8968510988
 40
0.9303819048
 40
0.9578513979
 40
0.9803670226
 40
1.0
 40
1.0
 40
1.0
 40
1.0
 10
5.2345942472
 20
4.0070683916
 30
0.0
 10
5.2348699488
 20
4.0070892211
 30
0.0
 10
5.2353960871
 20
4.0071356661
 30
0.0
 10
5.2361413836
 20
4.0072248917
 30
0.0
 10
5.2367970209
 20
4.0073293658
 30
0.0
 10
5.2373510048
 20
4.0074467626
 30
0.0
 10
5.2377426997
 20
4.0075597575
 30
0.0
 10
5.237995495
 20
4.007659115
 30
0.0
 10
5.2381418517
 20
4.0077307182
 30
0.0
 10
5.2382574591
 20
4.0078041259
 30
0.0
 10
5.2383421461
 20
4.0078797494
 30
0.0
 10
5.2383956808
 20
4.007958777
 30
0.0
 10
5.2384086294
 20
4.0080161198
 30
0.0
 10
5.2384086283
 20
4.008042642
 30
0.0
  0
SPLINE
  5
392
100
AcDbEntity
  8
ALL_ASSEMBLY_MEMBERS
100
AcDbSpline
 62
7
  6
CONTINUOUS
 70
0
 71
3
 72
23
 73
19
 74
0
 42
0.0000001
 43
0.0000001
 44
0.0000000001
 40
0.0
 40
0.0
 40
0.0
 40
0.0
 40
0.1888229036
 40
0.3705327349
 40
0.5378605567
 40
0.6142646738
 40
0.6849485675
 40
0.7492938873
 40
0.8067841067
 40
0.8570512933
 40
0.899790283
 40
0.9348837029
 40
0.9496220702
 40
0.9625575115
 40
0.9738012536
 40
0.9835463683
 40
0.9921188286
 40
1.0
 40
1.0
 40
1.0
 40
1.0
 10
5.2315191348
 20
4.0136156116
 30
0.0
 10
5.2304228645
 20
4.0136156116
 30
0.0
 10
5.2282713526
 20
4.013573006
 30
0.0
 10
5.225153467
 20
4.0133854734
 30
0.0
 10
5.2226956642
 20
4.0131294204
 30
0.0
 10
5.2208888113
 20
4.012868135
 30
0.0
 10
5.219679315
 20
4.0126572782
 30
0.0
 10
5.2185849741
 20
4.012428571
 30
0.0
 10
5.2176156165
 20
4.0121849583
 30
0.0
 10
5.2167793035
 20
4.011930167
 30
0.0
 10
5.2160830073
 20
4.0116673063
 30
0.0
 10
5.2155980453
 20
4.0114324112
 30
0.0
 10
5.215289244
 20
4.0112381994
 30
0.0
 10
5.2151094664
 20
4.0111006684
 30
0.0
 10
5.2149679537
 20
4.0109628044
 30
0.0
 10
5.2148651463
 20
4.0108241474
 30
0.0
 10
5.214801847
 20
4.0106842922
 30
0.0
 10
5.2147870785
 20
4.0105883296
 30
0.0
 10
5.214787077
 20
4.010542573
 30
0.0
  0
SPLINE
  5
393
100
AcDbEntity
  8
ALL_ASSEMBLY_MEMBERS
100
AcDbSpline
 62
7
  6
CONTINUOUS
 70
0
 71
3
 72
19
 73
15
 74
0
 42
0.0000001
 43
0.0000001
 44
0.0000000001
 40
0.0
 40
0.0
 40
0.0
 40
0.0
 40
0.1186654935
 40
0.1784477704
 40
0.2385803677
 40
0.2991357073
 40
0.3601797182
 40
0.4217549194
 40
0.483883278
 40
0.6097710772
 40
0.7379077489
 40
0.8028017163
 40
0.8681635656
 40
1.0
 40
1.0
 40
1.0
 40
1.0
 10
4.2170558287
 20
4.4064797351
 30
0.0
 10
4.2172693842
 20
4.4081561301
 30
0.0
 10
4.2177909508
 20
4.4106574358
 30
0.0
 10
4.2188702073
 20
4.413881563
 30
0.0
 10
4.2198731628
 20
4.4162509096
 30
0.0
 10
4.2210623096
 20
4.4185523841
 30
0.0
 10
4.2224330513
 20
4.4207747333
 30
0.0
 10
4.2239784708
 20
4.4229070962
 30
0.0
 10
4.226270493
 20
4.4256274106
 30
0.0
 10
4.2295404691
 20
4.4287460868
 30
0.0
 10
4.2332428569
 20
4.4314024506
 30
0.0
 10
4.2364362853
 20
4.4332358261
 30
0.0
 10
4.2397912903
 20
4.4348761445
 30
0.0
 10
4.242434076
 20
4.4358568914
 30
0.0
 10
4.2442325908
 20
4.4363957786
 30
0.0
  0
SPLINE
  5
394
100
AcDbEntity
  8
ALL_ASSEMBLY_MEMBERS
100
AcDbSpline
 62
7
  6
CONTINUOUS
 70
0
 71
3
 72
20
 73
16
 74
0
 42
0.0000001
 43
0.0000001
 44
0.0000000001
 40
0.0
 40
0.0
 40
0.0
 40
0.0
 40
0.064792503
 40
0.1297930984
 40
0.2598639706
 40
0.3247829246
 40
0.3894306424
 40
0.5173443871
 40
0.5804875848
 40
0.6429275984
 40
0.765304884
 40
0.8252654607
 40
0.8843516909
 40
0.9425824896
 40
1.0
 40
1.0
 40
1.0
 40
1.0
 10
4.2442325908
 20
4.4363957786
 30
0.0
 10
4.2452897727
 20
4.436712541
 30
0.0
 10
4.2474325054
 20
4.4372674669
 30
0.0
 10
4.2517915224
 20
4.4380527356
 30
0.0
 10
4.2562300138
 20
4.4383477687
 30
0.0
 10
4.2606510954
 20
4.4381419895
 30
0.0
 10
4.2650075402
 20
4.4376083761
 30
0.0
 10
4.2692620092
 20
4.4365828553
 30
0.0
 10
4.2733134115
 20
4.4350780256
 30
0.0
 10
4.2771433799
 20
4.4332893675
 30
0.0
 10
4.2806951309
 20
4.4310594665
 30
0.0
 10
4.2838594264
 20
4.4284262721
 30
0.0
 10
4.2859992084
 20
4.4262892291
 30
0.0
 10
4.2879001659
 20
4.423993606
 30
0.0
 10
4.2890060981
 20
4.4223589501
 30
0.0
 10
4.2895127628
 20
4.4215224263
 30
0.0
  0
SPLINE
  5
395
100
AcDbEntity
  8
ALL_ASSEMBLY_MEMBERS
100
AcDbSpline
 62
7
  6
CONTINUOUS
 70
0
 71
3
 72
15
 73
11
 74
0
 42
0.0000001
 43
0.0000001
 44
0.0000000001
 40
0.0
 40
0.0
 40
0.0
 40
0.0
 40
0.1186301414
 40
0.2384308941
 40
0.3598438662
 40
0.4832717896
 40
0.6089378819
 40
0.7369613504
 40
0.8673484989
 40
1.0
 40
1.0
 40
1.0
 40
1.0
 10
4.217217554
 20
4.5725587372
 30
0.0
 10
4.2174412321
 20
4.5738456697
 30
0.0
 10
4.2180630625
 20
4.5764056129
 30
0.0
 10
4.2194998555
 20
4.5801095769
 30
0.0
 10
4.2214250919
 20
4.5836454742
 30
0.0
 10
4.223817108
 20
4.5869631098
 30
0.0
 10
4.2266434403
 20
4.5900188442
 30
0.0
 10
4.2298701838
 20
4.5927674777
 30
0.0
 10
4.2334524075
 20
4.5951724788
 30
0.0
 10
4.2360277679
 20
4.5965125998
 30
0.0
 10
4.2373577351
 20
4.5971164057
 30
0.0
  0
SPLINE
  5
396
100
AcDbEntity
  8
ALL_ASSEMBLY_MEMBERS
100
AcDbSpline
 62
7
  6
CONTINUOUS
 70
0
 71
3
 72
22
 73
18
 74
0
 42
0.0000001
 43
0.0000001
 44
0.0000000001
 40
0.0
 40
0.0
 40
0.0
 40
0.0
 40
0.0659830685
 40
0.132116371
 40
0.2637477202
 40
0.3290914868
 40
0.3939120657
 40
0.4580553065
 40
0.5214086095
 40
0.5839219848
 40
0.645572059
 40
0.7063965179
 40
0.7664590506
 40
0.8257959476
 40
0.8844435025
 40
0.9424849985
 40
1.0
 40
1.0
 40
1.0
 40
1.0
 10
4.2631300202
 20
4.5337931358
 30
0.0
 10
4.2618003976
 20
4.5336368484
 30
0.0
 10
4.2591230294
 20
4.5334385191
 30
0.0
 10
4.2537675834
 20
4.5334944325
 30
0.0
 10
4.2484486301
 20
4.5342317695
 30
0.0
 10
4.2433205498
 20
4.5356358794
 30
0.0
 10
4.2396184627
 20
4.5370070968
 30
0.0
 10
4.2360901535
 20
4.5386859726
 30
0.0
 10
4.2327719684
 20
4.5406597295
 30
0.0
 10
4.2296936497
 20
4.5429053559
 30
0.0
 10
4.2268837805
 20
4.5454027158
 30
0.0
 10
4.2243654952
 20
4.5481266489
 30
0.0
 10
4.2221599176
 20
4.5510511286
 30
0.0
 10
4.2202891142
 20
4.5541492317
 30
0.0
 10
4.2187787461
 20
4.5573937454
 30
0.0
 10
4.2176510118
 20
4.5607509557
 30
0.0
 10
4.2171556157
 20
4.5630486003
 30
0.0
 10
4.2169749625
 20
4.5642014941
 30
0.0
  0
SPLINE
  5
397
100
AcDbEntity
  8
ALL_ASSEMBLY_MEMBERS
100
AcDbSpline
 62
7
  6
CONTINUOUS
 70
0
 71
3
 72
14
 73
10
 74
0
 42
0.0000001
 43
0.0000001
 44
0.0000000001
 40
0.0
 40
0.0
 40
0.0
 40
0.0
 40
0.1266320398
 40
0.2535263279
 40
0.5060142299
 40
0.631296842
 40
0.7555440735
 40
0.8785087926
 40
1.0
 40
1.0
 40
1.0
 40
1.0
 10
4.2629713318
 20
4.3685272445
 30
0.0
 10
4.261630005
 20
4.3683741883
 30
0.0
 10
4.2589296368
 20
4.3681840248
 30
0.0
 10
4.2535310959
 20
4.3682637593
 30
0.0
 10
4.2481739589
 20
4.3690366829
 30
0.0
 10
4.2430169179
 20
4.3704875609
 30
0.0
 10
4.2392986341
 20
4.3718980681
 30
0.0
 10
4.2357589351
 20
4.3736189587
 30
0.0
 10
4.2335265265
 20
4.3749724764
 30
0.0
 10
4.2324520498
 20
4.375695737
 30
0.0
  0
SPLINE
  5
398
100
AcDbEntity
  8
ALL_ASSEMBLY_MEMBERS
100
AcDbSpline
 62
7
  6
CONTINUOUS
 70
0
 71
3
 72
15
 73
11
 74
0
 42
0.0000001
 43
0.0000001
 44
0.0000000001
 40
0.0
 40
0.0
 40
0.0
 40
0.0
 40
0.1304722744
 40
0.2592230667
 40
0.3862523306
 40
0.5116136992
 40
0.6354664827
 40
0.758034377
 40
0.8795109543
 40
1.0
 40
1.0
 40
1.0
 40
1.0
 10
4.2315808199
 20
4.376298799
 30
0.0
 10
4.2306034419
 20
4.3769943861
 30
0.0
 10
4.2287219681
 20
4.3784638631
 30
0.0
 10
4.2261331388
 20
4.3809021734
 30
0.0
 10
4.2238158972
 20
4.3835383254
 30
0.0
 10
4.2217922587
 20
4.3863509609
 30
0.0
 10
4.2200787767
 20
4.3893155329
 30
0.0
 10
4.2186914485
 20
4.3924073041
 30
0.0
 10
4.2176433531
 20
4.3955970552
 30
0.0
 10
4.2171738542
 20
4.3977767887
 30
0.0
 10
4.216999341
 20
4.398870795
 30
0.0
  0
SPLINE
  5
399
100
AcDbEntity
  8
ALL_ASSEMBLY_MEMBERS
100
AcDbSpline
 62
7
  6
CONTINUOUS
 70
0
 71
3
 72
37
 73
33
 74
0
 42
0.0000001
 43
0.0000001
 44
0.0000000001
 40
0.0
 40
0.0
 40
0.0
 40
0.0
 40
0.0293406348
 40
0.0584318726
 40
0.0873888812
 40
0.1164093267
 40
0.1456636877
 40
0.1753081256
 40
0.2054406816
 40
0.2361326801
 40
0.2674230867
 40
0.2993093862
 40
0.3317674448
 40
0.3647410879
 40
0.3981545623
 40
0.4319142019
 40
0.4999982532
 40
0.5680822313
 40
0.6018417382
 40
0.6352550421
 40
0.6682285834
 40
0.7006865319
 40
0.7325728157
 40
0.7638632783
 40
0.7945551302
 40
0.8246878602
 40
0.854331858
 40
0.8835863158
 40
0.9126073379
 40
0.9415655979
 40
0.970658737
 40
1.0
 40
1.0
 40
1.0
 40
1.0
 10
4.210113623
 20
4.5722298137
 30
0.0
 10
4.210113623
 20
4.5734957287
 30
0.0
 10
4.2102877708
 20
4.5760203146
 30
0.0
 10
4.2110686339
 20
4.5797211332
 30
0.0
 10
4.2123567774
 20
4.5832629822
 30
0.0
 10
4.2141134878
 20
4.5866039351
 30
0.0
 10
4.2163041934
 20
4.5897129211
 30
0.0
 10
4.21888384
 20
4.5925706973
 30
0.0
 10
4.2218106123
 20
4.5951645344
 30
0.0
 10
4.225043758
 20
4.5974866866
 30
0.0
 10
4.2285437244
 20
4.5995352033
 30
0.0
 10
4.2322743897
 20
4.6013089236
 30
0.0
 10
4.236200774
 20
4.6028081861
 30
0.0
 10
4.240289353
 20
4.6040336829
 30
0.0
 10
4.2445074304
 20
4.604986051
 30
0.0
 10
4.2502755096
 20
4.6058946938
 30
0.0
 10
4.2576133897
 20
4.6063442177
 30
0.0
 10
4.2649512663
 20
4.6058947399
 30
0.0
 10
4.2707193364
 20
4.6049861438
 30
0.0
 10
4.2749374036
 20
4.60403381
 30
0.0
 10
4.2790259769
 20
4.6028083524
 30
0.0
 10
4.2829523675
 20
4.6013091342
 30
0.0
 10
4.2866830473
 20
4.5995354512
 30
0.0
 10
4.2901830348
 20
4.5974869817
 30
0.0
 10
4.2934162185
 20
4.5951648724
 30
0.0
 10
4.2963429853
 20
4.5925710621
 30
0.0
 10
4.2989227474
 20
4.5897133967
 30
0.0
 10
4.30111343
 20
4.5866043816
 30
0.0
 10
4.3028703087
 20
4.5832634279
 30
0.0
 10
4.3041585358
 20
4.5797214281
 30
0.0
 10
4.3049393878
 20
4.576020445
 30
0.0
 10
4.305113623
 20
4.5734957558
 30
0.0
 10
4.305113623
 20
4.5722298137
 30
0.0
  0
SPLINE
  5
39A
100
AcDbEntity
  8
ALL_ASSEMBLY_MEMBERS
100
AcDbSpline
 62
7
  6
CONTINUOUS
 70
0
 71
3
 72
15
 73
11
 74
0
 42
0.0000001
 43
0.0000001
 44
0.0000000001
 40
0.0
 40
0.0
 40
0.0
 40
0.0
 40
0.1189303192
 40
0.2391036709
 40
0.3608830208
 40
0.4845132553
 40
0.610164386
 40
0.7379603759
 40
0.8679265164
 40
1.0
 40
1.0
 40
1.0
 40
1.0
 10
4.2173845984
 20
4.5734906685
 30
0.0
 10
4.2176455476
 20
4.574596999
 30
0.0
 10
4.2182995542
 20
4.5767929016
 30
0.0
 10
4.2196588582
 20
4.5799706688
 30
0.0
 10
4.2213886159
 20
4.583014851
 30
0.0
 10
4.2234673544
 20
4.5858964416
 30
0.0
 10
4.2258758697
 20
4.5885862092
 30
0.0
 10
4.2285932821
 20
4.5910541224
 30
0.0
 10
4.2315892226
 20
4.5932785422
 30
0.0
 10
4.23373699
 20
4.5945752622
 30
0.0
 10
4.2348466944
 20
4.5951769036
 30
0.0
  0
SPLINE
  5
39B
100
AcDbEntity
  8
ALL_ASSEMBLY_MEMBERS
100
AcDbSpline
 62
7
  6
CONTINUOUS
 70
0
 71
3
 72
18
 73
14
 74
0
 42
0.0000001
 43
0.0000001
 44
0.0000000001
 40
0.0
 40
0.0
 40
0.0
 40
0.0
 40
0.1168127987
 40
0.1762579721
 40
0.2363484525
 40
0.2970915703
 40
0.3584878835
 40
0.4205126662
 40
0.4831297941
 40
0.6099535236
 40
0.7386137475
 40
0.8687396341
 40
1.0
 40
1.0
 40
1.0
 40
1.0
 10
4.305113623
 20
4.5722298137
 30
0.0
 10
4.305113623
 20
4.5707075644
 30
0.0
 10
4.3049228369
 20
4.5684058853
 30
0.0
 10
4.3043186788
 20
4.5653838939
 30
0.0
 10
4.3036852348
 20
4.5631191045
 30
0.0
 10
4.3028805426
 20
4.5608828046
 30
0.0
 10
4.3019123323
 20
4.5586848017
 30
0.0
 10
4.3007876854
 20
4.5565350236
 30
0.0
 10
4.2990822496
 20
4.5537345654
 30
0.0
 10
4.296597917
 20
4.55040239
 30
0.0
 10
4.2931396622
 20
4.5467421519
 30
0.0
 10
4.2892567176
 20
4.5434474685
 30
0.0
 10
4.2864361293
 20
4.5415250251
 30
0.0
 10
4.2849754651
 20
4.5406348849
 30
0.0
  0
SPLINE
  5
39C
100
AcDbEntity
  8
ALL_ASSEMBLY_MEMBERS
100
AcDbSpline
 62
7
  6
CONTINUOUS
 70
0
 71
3
 72
13
 73
9
 74
0
 42
0.0000001
 43
0.0000001
 44
0.0000000001
 40
0.0
 40
0.0
 40
0.0
 40
0.0
 40
0.1256992004
 40
0.2513864191
 40
0.3769890123
 40
0.5024310618
 40
0.7522167894
 40
1.0
 40
1.0
 40
1.0
 40
1.0
 10
4.2612882584
 20
4.5331503525
 30
0.0
 10
4.2597991742
 20
4.5330473797
 30
0.0
 10
4.2568109442
 20
4.5329664774
 30
0.0
 10
4.2523366907
 20
4.5332225946
 30
0.0
 10
4.2479019734
 20
4.5338517421
 30
0.0
 10
4.242099174
 20
4.5351813159
 30
0.0
 10
4.2351185571
 20
4.5377395547
 30
0.0
 10
4.2299685829
 20
4.5407061364
 30
0.0
 10
4.2275601688
 20
4.5423963946
 30
0.0
  0
SPLINE
  5
39D
100
AcDbEntity
  8
ALL_ASSEMBLY_MEMBERS
100
AcDbSpline
 62
7
  6
CONTINUOUS
 70
0
 71
3
 72
14
 73
10
 74
0
 42
0.0000001
 43
0.0000001
 44
0.0000000001
 40
0.0
 40
0.0
 40
0.0
 40
0.0
 40
0.2610101807
 40
0.3895720287
 40
0.516262102
 40
0.6407935203
 40
0.7629547131
 40
0.8827039463
 40
1.0
 40
1.0
 40
1.0
 40
1.0
 10
4.2275601688
 20
4.5423963946
 30
0.0
 10
4.2250062395
 20
4.5441887775
 30
0.0
 10
4.2214329032
 20
4.547238904
 30
0.0
 10
4.2174165098
 20
4.551935923
 30
0.0
 10
4.214855072
 20
4.5556968511
 30
0.0
 10
4.2127892249
 20
4.5596655674
 30
0.0
 10
4.2112641645
 20
4.5637855806
 30
0.0
 10
4.210330029
 20
4.5679901829
 30
0.0
 10
4.210113623
 20
4.5708276517
 30
0.0
 10
4.210113623
 20
4.5722298137
 30
0.0
  0
SPLINE
  5
39E
100
AcDbEntity
  8
ALL_ASSEMBLY_MEMBERS
100
AcDbSpline
 62
7
  6
CONTINUOUS
 70
0
 71
3
 72
15
 73
11
 74
0
 42
0.0000001
 43
0.0000001
 44
0.0000000001
 40
0.0
 40
0.0
 40
0.0
 40
0.0
 40
0.1177475934
 40
0.2377383259
 40
0.3599305469
 40
0.4843253596
 40
0.610767947
 40
0.7390632119
 40
0.8688962986
 40
1.0
 40
1.0
 40
1.0
 40
1.0
 10
4.210113623
 20
4.4004798137
 30
0.0
 10
4.210113623
 20
4.4017543385
 30
0.0
 10
4.2102922929
 20
4.4043305621
 30
0.0
 10
4.2110656484
 20
4.4081592411
 30
0.0
 10
4.2123339104
 20
4.4119293966
 30
0.0
 10
4.2140603349
 20
4.4155888904
 30
0.0
 10
4.2162121474
 20
4.4190924138
 30
0.0
 10
4.2187476107
 20
4.4224026222
 30
0.0
 10
4.221626822
 20
4.4254867787
 30
0.0
 10
4.2237413595
 20
4.4273661915
 30
0.0
 10
4.2248428858
 20
4.4282608803
 30
0.0
  0
SPLINE
  5
39F
100
AcDbEntity
  8
ALL_ASSEMBLY_MEMBERS
100
AcDbSpline
 62
7
  6
CONTINUOUS
 70
0
 71
3
 72
27
 73
23
 74
0
 42
0.0000001
 43
0.0000001
 44
0.0000000001
 40
0.0
 40
0.0
 40
0.0
 40
0.0
 40
0.0631273183
 40
0.1267850137
 40
0.1907977011
 40
0.2550314077
 40
0.3193789937
 40
0.3515840939
 40
0.3837866241
 40
0.4481115165
 40
0.5122959585
 40
0.5762256604
 40
0.6397537348
 40
0.7026975692
 40
0.7648121892
 40
0.7954981594
 40
0.8258633169
 40
0.8558772107
 40
0.8855144667
 40
0.9147534923
 40
0.9435950775
 40
1.0
 40
1.0
 40
1.0
 40
1.0
 10
4.2248428858
 20
4.4282608803
 30
0.0
 10
4.2265282155
 20
4.4296297495
 30
0.0
 10
4.2301046045
 20
4.432151144
 30
0.0
 10
4.2359275138
 20
4.4352139015
 30
0.0
 10
4.2421275329
 20
4.4375290473
 30
0.0
 10
4.2485902197
 20
4.4390571976
 30
0.0
 10
4.2541040208
 20
4.4396510822
 30
0.0
 10
4.258534488
 20
4.4397129204
 30
0.0
 10
4.2629593794
 20
4.439497993
 30
0.0
 10
4.2684469082
 20
4.4387149925
 30
0.0
 10
4.2748477449
 20
4.4369651577
 30
0.0
 10
4.2809546746
 20
4.4344386096
 30
0.0
 10
4.2866543464
 20
4.4311767803
 30
0.0
 10
4.2918295524
 20
4.427235693
 30
0.0
 10
4.2956204026
 20
4.4234228383
 30
0.0
 10
4.2982583501
 20
4.4201038998
 30
0.0
 10
4.3000160004
 20
4.4175074693
 30
0.0
 10
4.301541375
 20
4.4148092334
 30
0.0
 10
4.3028180171
 20
4.4120272352
 30
0.0
 10
4.3038319128
 20
4.409180817
 30
0.0
 10
4.3048031004
 20
4.4053611818
 30
0.0
 10
4.305113623
 20
4.4024198097
 30
0.0
 10
4.305113623
 20
4.4004798137
 30
0.0
  0
SPLINE
  5
3A0
100
AcDbEntity
  8
ALL_ASSEMBLY_MEMBERS
100
AcDbSpline
 62
7
  6
CONTINUOUS
 70
0
 71
3
 72
37
 73
33
 74
0
 42
0.0000001
 43
0.0000001
 44
0.0000000001
 40
0.0
 40
0.0
 40
0.0
 40
0.0
 40
0.0293406348
 40
0.0584318726
 40
0.0873888812
 40
0.1164093267
 40
0.1456636877
 40
0.1753081256
 40
0.2054406816
 40
0.2361326801
 40
0.2674230867
 40
0.2993093862
 40
0.3317674448
 40
0.3647410879
 40
0.3981545623
 40
0.4319142019
 40
0.4999982532
 40
0.5680822313
 40
0.6018417382
 40
0.6352550421
 40
0.6682285834
 40
0.7006865319
 40
0.7325728157
 40
0.7638632783
 40
0.7945551302
 40
0.8246878602
 40
0.854331858
 40
0.8835863158
 40
0.9126073379
 40
0.9415655979
 40
0.970658737
 40
1.0
 40
1.0
 40
1.0
 40
1.0
 10
4.305113623
 20
4.4004798137
 30
0.0
 10
4.305113623
 20
4.3992138986
 30
0.0
 10
4.3049394753
 20
4.3966893127
 30
0.0
 10
4.3041586121
 20
4.3929884941
 30
0.0
 10
4.3028704686
 20
4.3894466452
 30
0.0
 10
4.3011137583
 20
4.3861056923
 30
0.0
 10
4.2989230526
 20
4.3829967062
 30
0.0
 10
4.2963434061
 20
4.38013893
 30
0.0
 10
4.2934166338
 20
4.377545093
 30
0.0
 10
4.290183488
 20
4.3752229407
 30
0.0
 10
4.2866835217
 20
4.373174424
 30
0.0
 10
4.2829528563
 20
4.3714007037
 30
0.0
 10
4.2790264721
 20
4.3699014412
 30
0.0
 10
4.274937893
 20
4.3686759444
 30
0.0
 10
4.2707198156
 20
4.3677235763
 30
0.0
 10
4.2649517365
 20
4.3668149335
 30
0.0
 10
4.2576138564
 20
4.3663654096
 30
0.0
 10
4.2502759797
 20
4.3668148874
 30
0.0
 10
4.2445079097
 20
4.3677234835
 30
0.0
 10
4.2402898425
 20
4.3686758173
 30
0.0
 10
4.2362012692
 20
4.369901275
 30
0.0
 10
4.2322748786
 20
4.3714004931
 30
0.0
 10
4.2285441988
 20
4.3731741761
 30
0.0
 10
4.2250442112
 20
4.3752226457
 30
0.0
 10
4.2218110276
 20
4.3775447549
 30
0.0
 10
4.2188842608
 20
4.3801385652
 30
0.0
 10
4.2163044987
 20
4.3829962306
 30
0.0
 10
4.2141138161
 20
4.3861052457
 30
0.0
 10
4.2123569373
 20
4.3894461994
 30
0.0
 10
4.2110687103
 20
4.3929881992
 30
0.0
 10
4.2102878582
 20
4.3966891824
 30
0.0
 10
4.210113623
 20
4.3992138715
 30
0.0
 10
4.210113623
 20
4.4004798137
 30
0.0
  0
SPLINE
  5
3A1
100
AcDbEntity
  8
ALL_ASSEMBLY_MEMBERS
100
AcDbSpline
 62
7
  6
CONTINUOUS
 70
0
 71
3
 72
15
 73
11
 74
0
 42
0.0000001
 43
0.0000001
 44
0.0000000001
 40
0.0
 40
0.0
 40
0.0
 40
0.0
 40
0.0414433687
 40
0.1545443019
 40
0.3155767614
 40
0.4999968917
 40
0.6844178382
 40
0.8454508257
 40
0.9585536103
 40
1.0
 40
1.0
 40
1.0
 40
1.0
 10
4.860113623
 20
4.9713548137
 30
0.0
 10
4.8577146465
 20
4.9709881412
 30
0.0
 10
4.8487605691
 20
4.9696732592
 30
0.0
 10
4.8304185181
 20
4.9673943712
 30
0.0
 10
4.8036471423
 20
4.965176338
 30
0.0
 10
4.7726141215
 20
4.9642741677
 30
0.0
 10
4.7415810677
 20
4.965176278
 30
0.0
 10
4.7148095017
 20
4.9673942839
 30
0.0
 10
4.6964671344
 20
4.9696731933
 30
0.0
 10
4.6875127743
 20
4.9709881142
 30
0.0
 10
4.685113623
 20
4.9713548137
 30
0.0
  0
ELLIPSE
  5
3A2
100
AcDbEntity
  8
ALL_ASSEMBLY_MEMBERS
100
AcDbEllipse
 62
7
  6
CONTINUOUS
 10
5.1633468986
 20
4.4863548137
 30
0.0
 11
0.0
 21
0.48475
 31
0.0
 40
0.2210555332
 41
6.3004893413
 42
6.3175170955
  0
ELLIPSE
  5
3A3
100
AcDbEntity
  8
ALL_ASSEMBLY_MEMBERS
100
AcDbEllipse
 62
7
  6
CONTINUOUS
 10
5.1681676877
 20
4.4863548137
 30
0.0
 11
0.0
 21
0.48475
 31
0.0
 40
0.7957997678
 41
6.2863035852
 42
6.3004893413
  0
ELLIPSE
  5
3A4
100
AcDbEntity
  8
ALL_ASSEMBLY_MEMBERS
100
AcDbEllipse
 62
7
  6
CONTINUOUS
 10
5.2368981418
 20
4.4863548137
 30
0.0
 11
0.0
 21
0.48475
 31
0.0
 40
0.7957996981
 41
-0.0173040341
 42
-0.0031182781
  0
ELLIPSE
  5
3A5
100
AcDbEntity
  8
ALL_ASSEMBLY_MEMBERS
100
AcDbEllipse
 62
7
  6
CONTINUOUS
 10
5.2417189305
 20
4.4863548137
 30
0.0
 11
0.0
 21
0.48475
 31
0.0
 40
0.2210555139
 41
-0.0343317884
 42
-0.0173040341
  0
ELLIPSE
  5
3A6
100
AcDbEntity
  8
ALL_ASSEMBLY_MEMBERS
100
AcDbEllipse
 62
7
  6
CONTINUOUS
 10
5.3211016262
 20
4.4863548137
 30
0.0
 11
3.2147129739
 21
-0.0
 31
0.0
 40
0.1507910672
 41
1.6102429677
 42
1.6130823074
  0
ELLIPSE
  5
3A7
100
AcDbEntity
  8
ALL_ASSEMBLY_MEMBERS
100
AcDbEllipse
 62
7
  6
CONTINUOUS
 10
5.2667424238
 20
4.4863548137
 30
0.0
 11
1.9288162072
 21
-0.0
 31
0.0
 40
0.2513199538
 41
1.6130823074
 42
1.6159220045
  0
ELLIPSE
  5
3A8
100
AcDbEntity
  8
ALL_ASSEMBLY_MEMBERS
100
AcDbEllipse
 62
7
  6
CONTINUOUS
 10
5.2377393995
 20
4.4863548137
 30
0.0
 11
1.2858813755
 21
0.0
 31
0.0
 40
0.3769787861
 41
1.6159220045
 42
1.621602498
  0
ELLIPSE
  5
3A9
100
AcDbEntity
  8
ALL_ASSEMBLY_MEMBERS
100
AcDbEllipse
 62
7
  6
CONTINUOUS
 10
5.2050880629
 20
4.4863548137
 30
0.0
 11
0.6429400371
 21
0.0
 31
0.0
 40
0.7539583352
 41
1.621602498
 42
1.6301263818
  0
ELLIPSE
  5
3AA
100
AcDbEntity
  8
ALL_ASSEMBLY_MEMBERS
100
AcDbEllipse
 62
7
  6
CONTINUOUS
 10
5.1898387278
 20
4.4863548137
 30
0.0
 11
0.0
 21
0.48475
 31
0.0
 40
0.7957993124
 41
0.059330055
 42
0.0735464445
  0
ELLIPSE
  5
3AB
100
AcDbEntity
  8
ALL_ASSEMBLY_MEMBERS
100
AcDbEllipse
 62
7
  6
CONTINUOUS
 10
5.1693666376
 20
4.4863548137
 30
0.0
 11
-0.0
 21
0.48475
 31
0.0
 40
0.2210555332
 41
0.0735464445
 42
0.0906260353
  0
ELLIPSE
  5
3AC
100
AcDbEntity
  8
ALL_ASSEMBLY_MEMBERS
100
AcDbEllipse
 62
7
  6
CONTINUOUS
 10
5.235699192
 20
4.4863548137
 30
0.0
 11
-0.0
 21
0.48475
 31
0.0
 40
0.2210555139
 41
-0.0906260353
 42
-0.0735464445
  0
ELLIPSE
  5
3AD
100
AcDbEntity
  8
ALL_ASSEMBLY_MEMBERS
100
AcDbEllipse
 62
7
  6
CONTINUOUS
 10
5.2152271036
 20
4.4863548137
 30
0.0
 11
-0.0
 21
0.48475
 31
0.0
 40
0.7957992427
 41
-0.0735464445
 42
-0.059330055
  0
ELLIPSE
  5
3AE
100
AcDbEntity
  8
ALL_ASSEMBLY_MEMBERS
100
AcDbEllipse
 62
7
  6
CONTINUOUS
 10
5.1999777709
 20
4.4863548137
 30
0.0
 11
0.642939962
 21
0.0
 31
0.0
 40
0.7539584232
 41
7.794651579
 42
7.8031754627
  0
ELLIPSE
  5
3AF
100
AcDbEntity
  8
ALL_ASSEMBLY_MEMBERS
100
AcDbEllipse
 62
7
  6
CONTINUOUS
 10
5.167326442
 20
4.4863548137
 30
0.0
 11
1.2858811504
 21
-0.0
 31
0.0
 40
0.3769788521
 41
1.5199901556
 42
1.5256706491
  0
ELLIPSE
  5
3B0
100
AcDbEntity
  8
ALL_ASSEMBLY_MEMBERS
100
AcDbEllipse
 62
7
  6
CONTINUOUS
 10
5.1383233262
 20
4.4863548137
 30
0.0
 11
1.9288180083
 21
0.0
 31
0.0
 40
0.2513197191
 41
1.5256706491
 42
1.5285103462
  0
ELLIPSE
  5
3B1
100
AcDbEntity
  8
ALL_ASSEMBLY_MEMBERS
100
AcDbEllipse
 62
7
  6
CONTINUOUS
 10
5.0839642381
 20
4.4863548137
 30
0.0
 11
3.2147120734
 21
0.0
 31
0.0
 40
0.1507911094
 41
1.5285103462
 42
1.5313496859
  0
ELLIPSE
  5
3B2
100
AcDbEntity
  8
ALL_ASSEMBLY_MEMBERS
100
AcDbEllipse
 62
7
  6
CONTINUOUS
 10
5.247914531
 20
4.4863548137
 30
0.0
 11
0.0
 21
0.48475
 31
0.0
 40
0.2652667178
 41
0.0906260353
 42
0.1048790886
  0
ELLIPSE
  5
3B3
100
AcDbEntity
  8
ALL_ASSEMBLY_MEMBERS
100
AcDbEllipse
 62
7
  6
CONTINUOUS
 10
5.2793246487
 20
4.4863548137
 30
0.0
 11
-0.0
 21
0.48475
 31
0.0
 40
0.8842220554
 41
0.1048790886
 42
0.1134410125
  0
ELLIPSE
  5
3B4
100
AcDbEntity
  8
ALL_ASSEMBLY_MEMBERS
100
AcDbEllipse
 62
7
  6
CONTINUOUS
 10
5.3399741705
 20
4.4863548137
 30
0.0
 11
0.9644099335
 21
0.0
 31
0.0
 40
0.5026389538
 41
1.6842373393
 42
1.6956663613
  0
ELLIPSE
  5
3B5
100
AcDbEntity
  8
ALL_ASSEMBLY_MEMBERS
100
AcDbEllipse
 62
7
  6
CONTINUOUS
 10
5.7003155727
 20
4.4863548137
 30
0.0
 11
3.857654488
 21
-0.0
 31
0.0
 40
0.1256592578
 41
1.6956663613
 42
1.6985261089
  0
ELLIPSE
  5
3B6
100
AcDbEntity
  8
ALL_ASSEMBLY_MEMBERS
100
AcDbEllipse
 62
7
  6
CONTINUOUS
 10
4.7047501413
 20
4.4863548137
 30
0.0
 11
3.8576553886
 21
0.0
 31
0.0
 40
0.1256592285
 41
1.4430665446
 42
1.4459262923
  0
ELLIPSE
  5
3B7
100
AcDbEntity
  8
ALL_ASSEMBLY_MEMBERS
100
AcDbEllipse
 62
7
  6
CONTINUOUS
 10
5.0650916977
 20
4.4863548137
 30
0.0
 11
0.9644095958
 21
0.0
 31
0.0
 40
0.5026391298
 41
1.4459262923
 42
1.4573553143
  0
ELLIPSE
  5
3B8
100
AcDbEntity
  8
ALL_ASSEMBLY_MEMBERS
100
AcDbEllipse
 62
7
  6
CONTINUOUS
 10
5.1257411813
 20
4.4863548137
 30
0.0
 11
0.0
 21
0.48475
 31
0.0
 40
0.8842220554
 41
-0.1134410125
 42
-0.1048790886
  0
ELLIPSE
  5
3B9
100
AcDbEntity
  8
ALL_ASSEMBLY_MEMBERS
100
AcDbEllipse
 62
7
  6
CONTINUOUS
 10
5.157151299
 20
4.4863548137
 30
0.0
 11
-0.0
 21
0.48475
 31
0.0
 40
0.2652667178
 41
-0.1048790886
 42
-0.0906260353
  0
ELLIPSE
  5
3BA
100
AcDbEntity
  8
ALL_ASSEMBLY_MEMBERS
100
AcDbEllipse
 62
7
  6
CONTINUOUS
 10
5.3147198302
 20
4.4863548137
 30
0.0
 11
0.5716780154
 21
-0.4744956074
 31
0.0
 40
0.1734875795
 41
1.8341228243
 42
1.8564220296
  0
ELLIPSE
  5
3BB
100
AcDbEntity
  8
ALL_ASSEMBLY_MEMBERS
100
AcDbEllipse
 62
7
  6
CONTINUOUS
 10
5.2721596549
 20
4.4863548137
 30
0.0
 11
0.5716778757
 21
-0.4744956116
 31
0.0
 40
0.1734875871
 41
1.7601616376
 42
1.7823049235
  0
ELLIPSE
  5
3BC
100
AcDbEntity
  8
ALL_ASSEMBLY_MEMBERS
100
AcDbEllipse
 62
7
  6
CONTINUOUS
 10
5.2154941607
 20
4.4863548137
 30
0.0
 11
0.117123106
 21
0.4846535957
 31
0.0
 40
0.0825387411
 41
1.3243861563
 42
1.3391838673
  0
ELLIPSE
  5
3BD
100
AcDbEntity
  8
ALL_ASSEMBLY_MEMBERS
100
AcDbEllipse
 62
7
  6
CONTINUOUS
 10
5.2355762012
 20
4.4863548137
 30
0.0
 11
0.3205164298
 21
0.4819141273
 31
0.0
 40
0.1633544133
 41
1.4274608739
 42
1.438573063
  0
ELLIPSE
  5
3BE
100
AcDbEntity
  8
ALL_ASSEMBLY_MEMBERS
100
AcDbEllipse
 62
7
  6
CONTINUOUS
 10
5.2803001697
 20
4.4863548137
 30
0.0
 11
0.7387483593
 21
0.4700085841
 31
0.0
 40
0.1605905019
 41
1.5775999118
 42
1.5850154544
  0
ELLIPSE
  5
3BF
100
AcDbEntity
  8
ALL_ASSEMBLY_MEMBERS
100
AcDbEllipse
 62
7
  6
CONTINUOUS
 10
5.3662765214
 20
4.4863548137
 30
0.0
 11
1.4844556253
 21
0.4605286781
 31
0.0
 40
0.1019322549
 41
1.6552211679
 42
1.6589312972
  0
ELLIPSE
  5
3C0
100
AcDbEntity
  8
ALL_ASSEMBLY_MEMBERS
100
AcDbEllipse
 62
7
  6
CONTINUOUS
 10
5.0077812635
 20
4.4863548137
 30
0.0
 11
1.4844549309
 21
-0.4605286823
 31
0.0
 40
0.1019322941
 41
1.4826613836
 42
1.4863715129
  0
ELLIPSE
  5
3C1
100
AcDbEntity
  8
ALL_ASSEMBLY_MEMBERS
100
AcDbEllipse
 62
7
  6
CONTINUOUS
 10
5.0937575148
 20
4.4863548137
 30
0.0
 11
0.7387485344
 21
-0.47000858
 31
0.0
 40
0.1605904861
 41
1.5565771643
 42
1.5639927069
  0
ELLIPSE
  5
3C2
100
AcDbEntity
  8
ALL_ASSEMBLY_MEMBERS
100
AcDbEllipse
 62
7
  6
CONTINUOUS
 10
5.138481502
 20
4.4863548137
 30
0.0
 11
-0.3205164298
 21
0.4819141273
 31
0.0
 40
0.1633544133
 41
-1.438573063
 42
-1.4274608739
  0
ELLIPSE
  5
3C3
100
AcDbEntity
  8
ALL_ASSEMBLY_MEMBERS
100
AcDbEllipse
 62
7
  6
CONTINUOUS
 10
5.4030002067
 20
4.4863548137
 30
0.0
 11
3.8575848219
 21
0.456341581
 31
0.0
 40
0.0423861521
 41
-1.6322987713
 42
-1.629457479
  0
ELLIPSE
  5
3C4
100
AcDbEntity
  8
ALL_ASSEMBLY_MEMBERS
100
AcDbEllipse
 62
7
  6
CONTINUOUS
 10
5.1585635426
 20
4.4863548137
 30
0.0
 11
-0.117123106
 21
0.4846535957
 31
0.0
 40
0.0825387411
 41
-1.3391838673
 42
-1.3243861563
  0
ELLIPSE
  5
3C5
100
AcDbEntity
  8
ALL_ASSEMBLY_MEMBERS
100
AcDbEllipse
 62
7
  6
CONTINUOUS
 10
5.239653834
 20
4.4863548137
 30
0.0
 11
0.9622071635
 21
0.4656770005
 31
0.0
 40
0.1399266045
 41
-1.7062712763
 42
-1.6949013418
  0
ELLIPSE
  5
3C6
100
AcDbEntity
  8
ALL_ASSEMBLY_MEMBERS
100
AcDbEllipse
 62
7
  6
CONTINUOUS
 10
5.2033243394
 20
4.4863548137
 30
0.0
 11
0.4203531079
 21
0.479141308
 31
0.0
 40
0.1749164141
 41
-1.8439863269
 42
-1.8354531791
  0
ELLIPSE
  5
3C7
100
AcDbEntity
  8
ALL_ASSEMBLY_MEMBERS
100
AcDbEllipse
 62
7
  6
CONTINUOUS
 10
5.1804262441
 20
4.4863548137
 30
0.0
 11
0.1217484006
 21
0.4846385345
 31
0.0
 40
0.0853799597
 41
-1.9890427863
 42
-1.9748081556
  0
ELLIPSE
  5
3C8
100
AcDbEntity
  8
ALL_ASSEMBLY_MEMBERS
100
AcDbEllipse
 62
7
  6
CONTINUOUS
 10
5.1867503236
 20
4.4863548137
 30
0.0
 11
0.9880542361
 21
0.465285186
 31
0.0
 40
0.1376303424
 41
1.5113205669
 42
1.5186896574
  0
ELLIPSE
  5
3C9
100
AcDbEntity
  8
ALL_ASSEMBLY_MEMBERS
100
AcDbEllipse
 62
7
  6
CONTINUOUS
 10
5.1825871522
 20
4.4863548137
 30
0.0
 11
0.6553159276
 21
0.4721187462
 31
0.0
 40
0.1677639688
 41
1.4631295299
 42
1.4741845703
  0
ELLIPSE
  5
3CA
100
AcDbEntity
  8
ALL_ASSEMBLY_MEMBERS
100
AcDbEllipse
 62
7
  6
CONTINUOUS
 10
5.1739948449
 20
4.4863548137
 30
0.0
 11
0.2873264341
 21
0.4826711449
 31
0.0
 40
0.1560789432
 41
1.3380452399
 42
1.356477401
  0
ELLIPSE
  5
3CB
100
AcDbEntity
  8
ALL_ASSEMBLY_MEMBERS
100
AcDbEllipse
 62
7
  6
CONTINUOUS
 10
5.1656601092
 20
4.4863548137
 30
0.0
 11
0.0934735408
 21
0.4847090996
 31
0.0
 40
0.0673658948
 41
1.2768224913
 42
1.2952689988
  0
ELLIPSE
  5
3CC
100
AcDbEntity
  8
ALL_ASSEMBLY_MEMBERS
100
AcDbEllipse
 62
7
  6
CONTINUOUS
 10
5.2083975934
 20
4.4863548137
 30
0.0
 11
-0.0934735326
 21
0.4847090996
 31
0.0
 40
0.0673658893
 41
-1.2952689966
 42
-1.2768224891
  0
ELLIPSE
  5
3CD
100
AcDbEntity
  8
ALL_ASSEMBLY_MEMBERS
100
AcDbEllipse
 62
7
  6
CONTINUOUS
 10
5.2000628584
 20
4.4863548137
 30
0.0
 11
-0.287326408
 21
0.4826711454
 31
0.0
 40
0.1560789367
 41
-1.3564773887
 42
-1.3380452276
  0
ELLIPSE
  5
3CE
100
AcDbEntity
  8
ALL_ASSEMBLY_MEMBERS
100
AcDbEllipse
 62
7
  6
CONTINUOUS
 10
5.224639586
 20
4.4863548137
 30
0.0
 11
-0.1217484006
 21
0.4846385345
 31
0.0
 40
0.0853799597
 41
-4.3083771516
 42
-4.2941425209
  0
ELLIPSE
  5
3CF
100
AcDbEntity
  8
ALL_ASSEMBLY_MEMBERS
100
AcDbEllipse
 62
7
  6
CONTINUOUS
 10
5.2017414907
 20
4.4863548137
 30
0.0
 11
-0.4203531079
 21
0.479141308
 31
0.0
 40
0.1749164141
 41
-4.4477321281
 42
-4.4391989803
  0
ELLIPSE
  5
3D0
100
AcDbEntity
  8
ALL_ASSEMBLY_MEMBERS
100
AcDbEllipse
 62
7
  6
CONTINUOUS
 10
5.1654119731
 20
4.4863548137
 30
0.0
 11
0.962207503
 21
-0.4656769952
 31
0.0
 40
0.1399265741
 41
-1.4466913509
 42
-1.4353214165
  0
ELLIPSE
  5
3D1
100
AcDbEntity
  8
ALL_ASSEMBLY_MEMBERS
100
AcDbEllipse
 62
7
  6
CONTINUOUS
 10
5.0020656703
 20
4.4863548137
 30
0.0
 11
3.8575839213
 21
-0.4563415814
 31
0.0
 40
0.0423861617
 41
-1.5121351722
 42
-1.5092938799
  0
ELLIPSE
  5
3D2
100
AcDbEntity
  8
ALL_ASSEMBLY_MEMBERS
100
AcDbEllipse
 62
7
  6
CONTINUOUS
 10
5.3246484369
 20
4.4863548137
 30
0.0
 11
0.7463252756
 21
-0.4698307894
 31
0.0
 40
0.1599009769
 41
-1.6130857077
 42
-1.5959095904
  0
ELLIPSE
  5
3D3
100
AcDbEntity
  8
ALL_ASSEMBLY_MEMBERS
100
AcDbEllipse
 62
7
  6
CONTINUOUS
 10
5.2042607186
 20
4.4863548137
 30
0.0
 11
0.5597140252
 21
-0.4748533936
 31
0.0
 40
0.1741096516
 41
-1.4868806225
 42
-1.4159149133
  0
ELLIPSE
  5
3D4
100
AcDbEntity
  8
ALL_ASSEMBLY_MEMBERS
100
AcDbEllipse
 62
7
  6
CONTINUOUS
 10
5.2009802156
 20
4.4863548137
 30
0.0
 11
0.9622042765
 21
-0.4656770454
 31
0.0
 40
0.139926863
 41
-1.4949495759
 42
-1.489275252
  0
ELLIPSE
  5
3D5
100
AcDbEntity
  8
ALL_ASSEMBLY_MEMBERS
100
AcDbEllipse
 62
7
  6
CONTINUOUS
 10
5.1786321021
 20
4.4863548137
 30
0.0
 11
2.5716108227
 21
-0.4573304865
 31
0.0
 40
0.0624983615
 41
-1.5457781432
 42
-1.5429408411
  0
ELLIPSE
  5
3D6
100
AcDbEntity
  8
ALL_ASSEMBLY_MEMBERS
100
AcDbEllipse
 62
7
  6
CONTINUOUS
 10
5.2683858963
 20
4.4863548137
 30
0.0
 11
2.5716108227
 21
0.4573304865
 31
0.0
 40
0.0624983615
 41
-1.5986518125
 42
-1.5958145104
  0
ELLIPSE
  5
3D7
100
AcDbEntity
  8
ALL_ASSEMBLY_MEMBERS
100
AcDbEllipse
 62
7
  6
CONTINUOUS
 10
5.2415682138
 20
4.4863548137
 30
0.0
 11
0.6379530235
 21
0.4725921354
 31
0.0
 40
0.1691116546
 41
-1.7093280947
 42
-1.6979797282
  0
ELLIPSE
  5
3D8
100
AcDbEntity
  8
ALL_ASSEMBLY_MEMBERS
100
AcDbEllipse
 62
7
  6
CONTINUOUS
 10
5.2550949832
 20
4.4863548137
 30
0.0
 11
0.10123742
 21
0.4846944896
 31
0.0
 40
0.0724615456
 41
-2.012460577
 42
-1.9953544323
  0
ELLIPSE
  5
3D9
100
AcDbEntity
  8
ALL_ASSEMBLY_MEMBERS
100
AcDbEllipse
 62
7
  6
CONTINUOUS
 10
5.2850519463
 20
4.4863548137
 30
0.0
 11
0.3768576551
 21
0.4804196369
 31
0.0
 40
0.1715483869
 41
-1.9081086021
 42
-1.8938294856
  0
ELLIPSE
  5
3DA
100
AcDbEntity
  8
ALL_ASSEMBLY_MEMBERS
100
AcDbEllipse
 62
7
  6
CONTINUOUS
 10
5.2407466406
 20
4.4863548137
 30
0.0
 11
0.3118799231
 21
0.4821211713
 31
0.0
 40
0.1616508637
 41
-1.8182260229
 42
-1.8068779936
  0
ELLIPSE
  5
3DB
100
AcDbEntity
  8
ALL_ASSEMBLY_MEMBERS
100
AcDbEllipse
 62
7
  6
CONTINUOUS
 10
5.3163525079
 20
4.4863548137
 30
0.0
 11
0.6379533341
 21
0.4725921268
 31
0.0
 40
0.1691116311
 41
-1.8260145634
 42
-1.8174352631
  0
ELLIPSE
  5
3DC
100
AcDbEntity
  8
ALL_ASSEMBLY_MEMBERS
100
AcDbEllipse
 62
7
  6
CONTINUOUS
 10
5.400075659
 20
4.4863548137
 30
0.0
 11
1.2847916974
 21
0.4619431809
 31
0.0
 40
0.1143679302
 41
-1.7482093125
 42
-1.7424844324
  0
ELLIPSE
  5
3DD
100
AcDbEntity
  8
ALL_ASSEMBLY_MEMBERS
100
AcDbEllipse
 62
7
  6
CONTINUOUS
 10
5.242630934
 20
4.4863548137
 30
0.0
 11
0.10123742
 21
0.4846944896
 31
0.0
 40
0.0724615456
 41
-1.89593605
 42
-1.8789114217
  0
ELLIPSE
  5
3DE
100
AcDbEntity
  8
ALL_ASSEMBLY_MEMBERS
100
AcDbEllipse
 62
7
  6
CONTINUOUS
 10
5.4874487286
 20
4.4863548137
 30
0.0
 11
1.9284678459
 21
0.4586391126
 31
0.0
 40
0.0813849018
 41
-1.7293289027
 42
-1.7264648042
  0
ELLIPSE
  5
3DF
100
AcDbEntity
  8
ALL_ASSEMBLY_MEMBERS
100
AcDbEllipse
 62
7
  6
CONTINUOUS
 10
5.665840143
 20
4.4863548137
 30
0.0
 11
3.2146291591
 21
0.4566950122
 31
0.0
 40
0.0505558762
 41
-1.7200233845
 42
-1.7171581365
  0
ELLIPSE
  5
3E0
100
AcDbEntity
  8
ALL_ASSEMBLY_MEMBERS
100
AcDbEllipse
 62
7
  6
CONTINUOUS
 10
4.7392255582
 20
4.4863548137
 30
0.0
 11
3.2146300597
 21
-0.4566950116
 31
0.0
 40
0.0505558626
 41
-1.4244345211
 42
-1.421569273
  0
ELLIPSE
  5
3E1
100
AcDbEntity
  8
ALL_ASSEMBLY_MEMBERS
100
AcDbEllipse
 62
7
  6
CONTINUOUS
 10
4.9176173474
 20
4.4863548137
 30
0.0
 11
1.9284660439
 21
-0.458639118
 31
0.0
 40
0.0813849697
 41
-1.4151278149
 42
-1.4122637165
  0
ELLIPSE
  5
3E2
100
AcDbEntity
  8
ALL_ASSEMBLY_MEMBERS
100
AcDbEllipse
 62
7
  6
CONTINUOUS
 10
5.2912686147
 20
4.4863548137
 30
0.0
 11
0.9622070503
 21
-0.4656770023
 31
0.0
 40
0.1399266146
 41
-1.5716017881
 42
-1.5659156053
  0
ELLIPSE
  5
3E3
100
AcDbEntity
  8
ALL_ASSEMBLY_MEMBERS
100
AcDbEllipse
 62
7
  6
CONTINUOUS
 10
5.0049901417
 20
4.4863548137
 30
0.0
 11
1.2847919231
 21
-0.461943179
 31
0.0
 40
0.1143679148
 41
-1.3991082341
 42
-1.393383354
  0
ELLIPSE
  5
3E4
100
AcDbEntity
  8
ALL_ASSEMBLY_MEMBERS
100
AcDbEllipse
 62
7
  6
CONTINUOUS
 10
5.0887133123
 20
4.4863548137
 30
0.0
 11
0.6379534101
 21
-0.4725921247
 31
0.0
 40
0.1691116253
 41
-1.3241574099
 42
-1.3155781096
  0
ELLIPSE
  5
3E5
100
AcDbEntity
  8
ALL_ASSEMBLY_MEMBERS
100
AcDbEllipse
 62
7
  6
CONTINUOUS
 10
5.2576777089
 20
4.4863548137
 30
0.0
 11
-0.4203531079
 21
0.479141308
 31
0.0
 40
0.1749164141
 41
-4.5783263692
 42
-4.5698008357
  0
ELLIPSE
  5
3E6
100
AcDbEntity
  8
ALL_ASSEMBLY_MEMBERS
100
AcDbEllipse
 62
7
  6
CONTINUOUS
 10
5.120013879
 20
4.4863548137
 30
0.0
 11
-0.3768576893
 21
0.480419636
 31
0.0
 40
0.1715483905
 41
-4.3893558366
 42
-4.3750767201
  0
ELLIPSE
  5
3E7
100
AcDbEntity
  8
ALL_ASSEMBLY_MEMBERS
100
AcDbEllipse
 62
7
  6
CONTINUOUS
 10
5.2414204426
 20
4.4863548137
 30
0.0
 11
-0.1217484712
 21
0.4846385342
 31
0.0
 40
0.0853800028
 41
-4.4389790303
 42
-4.4247782581
  0
ELLIPSE
  5
3E8
100
AcDbEntity
  8
ALL_ASSEMBLY_MEMBERS
100
AcDbEllipse
 62
7
  6
CONTINUOUS
 10
5.1499708447
 20
4.4863548137
 30
0.0
 11
-0.101237429
 21
0.4846944896
 31
0.0
 40
0.0724615514
 41
-4.2878308774
 42
-4.2707247327
  0
ELLIPSE
  5
3E9
100
AcDbEntity
  8
ALL_ASSEMBLY_MEMBERS
100
AcDbEllipse
 62
7
  6
CONTINUOUS
 10
5.1583873532
 20
4.4863548137
 30
0.0
 11
1.9288162072
 21
0.0
 31
0.0
 40
0.2513199538
 41
7.8400775852
 42
7.8429147916
  0
ELLIPSE
  5
3EA
100
AcDbEntity
  8
ALL_ASSEMBLY_MEMBERS
100
AcDbEllipse
 62
7
  6
CONTINUOUS
 10
5.1405087579
 20
4.4863548137
 30
0.0
 11
3.2147129739
 21
0.0
 31
0.0
 40
0.1507910672
 41
7.837240283
 42
7.8400775852
  0
ELLIPSE
  5
3EB
100
AcDbEntity
  8
ALL_ASSEMBLY_MEMBERS
100
AcDbEllipse
 62
7
  6
CONTINUOUS
 10
5.2645570558
 20
4.4863548137
 30
0.0
 11
3.2147120734
 21
0.0
 31
0.0
 40
0.1507911094
 41
1.5847003756
 42
1.5875376778
  0
ELLIPSE
  5
3EC
100
AcDbEntity
  8
ALL_ASSEMBLY_MEMBERS
100
AcDbEllipse
 62
7
  6
CONTINUOUS
 10
5.1804262441
 20
4.4863548137
 30
0.0
 11
-0.0
 21
0.48475
 31
0.0
 40
0.2652664142
 41
0.0763914046
 42
0.0906260353
  0
ELLIPSE
  5
3ED
100
AcDbEntity
  8
ALL_ASSEMBLY_MEMBERS
100
AcDbEllipse
 62
7
  6
CONTINUOUS
 10
5.2033243394
 20
4.4863548137
 30
0.0
 11
0.0
 21
0.48475
 31
0.0
 40
0.8842220554
 41
0.0678582568
 42
0.0763914046
  0
ELLIPSE
  5
3EE
100
AcDbEntity
  8
ALL_ASSEMBLY_MEMBERS
100
AcDbEllipse
 62
7
  6
CONTINUOUS
 10
5.239653834
 20
4.4863548137
 30
0.0
 11
0.9644109754
 21
-0.0
 31
0.0
 40
0.5026384108
 41
1.6272846492
 42
1.6386545836
  0
ELLIPSE
  5
3EF
100
AcDbEntity
  8
ALL_ASSEMBLY_MEMBERS
100
AcDbEllipse
 62
7
  6
CONTINUOUS
 10
5.239653834
 20
4.4863548137
 30
0.0
 11
0.9595037988
 21
-0.0
 31
0.0
 40
0.5026384108
 41
1.6275738566
 42
1.6336193552
  0
ELLIPSE
  5
3F0
100
AcDbEntity
  8
ALL_ASSEMBLY_MEMBERS
100
AcDbEllipse
 62
7
  6
CONTINUOUS
 10
5.4030002067
 20
4.4863548137
 30
0.0
 11
3.857633315
 21
-0.0
 31
0.0
 40
0.1256599475
 41
1.6244433569
 42
1.6272846492
  0
ELLIPSE
  5
3F1
100
AcDbEntity
  8
ALL_ASSEMBLY_MEMBERS
100
AcDbEllipse
 62
7
  6
CONTINUOUS
 10
5.4030002067
 20
4.4863548137
 30
0.0
 11
3.8380046625
 21
-0.0
 31
0.0
 40
0.1256599475
 41
1.6247179887
 42
1.6275738566
  0
ELLIPSE
  5
3F2
100
AcDbEntity
  8
ALL_ASSEMBLY_MEMBERS
100
AcDbEllipse
 62
7
  6
CONTINUOUS
 10
5.246678498
 20
4.4863548137
 30
0.0
 11
1.9288180083
 21
-0.0
 31
0.0
 40
0.2513197191
 41
1.5818631691
 42
1.5847003756
  0
ELLIPSE
  5
3F3
100
AcDbEntity
  8
ALL_ASSEMBLY_MEMBERS
100
AcDbEllipse
 62
7
  6
CONTINUOUS
 10
5.2395633624
 20
4.4863548137
 30
0.0
 11
1.2858811504
 21
0.0
 31
0.0
 40
0.3769788521
 41
1.5761890168
 42
1.5818631691
  0
ELLIPSE
  5
3F4
100
AcDbEntity
  8
ALL_ASSEMBLY_MEMBERS
100
AcDbEllipse
 62
7
  6
CONTINUOUS
 10
5.3001278007
 20
4.4863548137
 30
0.0
 11
0.57167825
 21
-0.4744956005
 31
0.0
 40
0.1734875667
 41
1.8341227539
 42
1.8564219592
  0
ELLIPSE
  5
3F5
100
AcDbEntity
  8
ALL_ASSEMBLY_MEMBERS
100
AcDbEllipse
 62
7
  6
CONTINUOUS
 10
5.3001278007
 20
4.4863548137
 30
0.0
 11
0.5687694008
 21
-0.4720812421
 31
0.0
 40
0.1734875667
 41
8.1199044316
 42
8.140341655
  0
ELLIPSE
  5
3F6
100
AcDbEntity
  8
ALL_ASSEMBLY_MEMBERS
100
AcDbEllipse
 62
7
  6
CONTINUOUS
 10
5.2360961966
 20
4.4863548137
 30
0.0
 11
0.642939962
 21
-0.0
 31
0.0
 40
0.7539584232
 41
7.8508633559
 42
7.859374324
  0
ELLIPSE
  5
3F7
100
AcDbEntity
  8
ALL_ASSEMBLY_MEMBERS
100
AcDbEllipse
 62
7
  6
CONTINUOUS
 10
5.2575676084
 20
4.4863548137
 30
0.0
 11
0.5716781103
 21
-0.4744956046
 31
0.0
 40
0.1734875743
 41
1.7601615672
 42
1.7823048532
  0
ELLIPSE
  5
3F8
100
AcDbEntity
  8
ALL_ASSEMBLY_MEMBERS
100
AcDbEllipse
 62
7
  6
CONTINUOUS
 10
5.2575676084
 20
4.4863548137
 30
0.0
 11
0.5687692618
 21
-0.4720812463
 31
0.0
 40
0.1734875743
 41
8.0454832217
 42
8.0658410218
  0
ELLIPSE
  5
3F9
100
AcDbEntity
  8
ALL_ASSEMBLY_MEMBERS
100
AcDbEllipse
 62
7
  6
CONTINUOUS
 10
5.1864492927
 20
4.4863548137
 30
0.0
 11
-0.3622025764
 21
0.4808294012
 31
0.0
 40
0.1698707729
 41
-1.3947898515
 42
-1.3800412872
  0
ELLIPSE
  5
3FA
100
AcDbEntity
  8
ALL_ASSEMBLY_MEMBERS
100
AcDbEllipse
 62
7
  6
CONTINUOUS
 10
5.1864492927
 20
4.4863548137
 30
0.0
 11
-0.3603595945
 21
0.4783828148
 31
0.0
 40
0.1698707729
 41
-1.3950241974
 42
-1.3802000911
  0
ELLIPSE
  5
3FB
100
AcDbEntity
  8
ALL_ASSEMBLY_MEMBERS
100
AcDbEllipse
 62
7
  6
CONTINUOUS
 10
5.1977797136
 20
4.4863548137
 30
0.0
 11
-0.1171229363
 21
0.4846535963
 31
0.0
 40
0.082538636
 41
-1.3022224851
 42
-1.2874639355
  0
ELLIPSE
  5
3FC
100
AcDbEntity
  8
ALL_ASSEMBLY_MEMBERS
100
AcDbEllipse
 62
7
  6
CONTINUOUS
 10
5.1977797136
 20
4.4863548137
 30
0.0
 11
-0.116526984
 21
0.4821875514
 31
0.0
 40
0.082538636
 41
4.9806527798
 42
4.9954870257
  0
ELLIPSE
  5
3FD
100
AcDbEntity
  8
ALL_ASSEMBLY_MEMBERS
100
AcDbEllipse
 62
7
  6
CONTINUOUS
 10
5.1499708447
 20
4.4863548137
 30
0.0
 11
0.0
 21
0.48475
 31
0.0
 40
0.2210555332
 41
-0.10773218
 42
-0.0906260353
  0
ELLIPSE
  5
3FE
100
AcDbEntity
  8
ALL_ASSEMBLY_MEMBERS
100
AcDbEllipse
 62
7
  6
CONTINUOUS
 10
5.1499708447
 20
4.4863548137
 30
0.0
 11
0.0
 21
0.4822834646
 31
0.0
 40
0.2210555332
 41
-0.1082853113
 42
-0.0910908057
  0
ELLIPSE
  5
3FF
100
AcDbEntity
  8
ALL_ASSEMBLY_MEMBERS
100
AcDbEllipse
 62
7
  6
CONTINUOUS
 10
5.120013879
 20
4.4863548137
 30
0.0
 11
0.0
 21
0.48475
 31
0.0
 40
0.7958002231
 41
-0.1220112966
 42
-0.10773218
  0
ELLIPSE
  5
400
100
AcDbEntity
  8
ALL_ASSEMBLY_MEMBERS
100
AcDbEllipse
 62
7
  6
CONTINUOUS
 10
5.120013879
 20
4.4863548137
 30
0.0
 11
0.0
 21
0.4822834646
 31
0.0
 40
0.7958002231
 41
-0.1226384364
 42
-0.1082853113
  0
ELLIPSE
  5
401
100
AcDbEntity
  8
ALL_ASSEMBLY_MEMBERS
100
AcDbEllipse
 62
7
  6
CONTINUOUS
 10
5.0887133123
 20
4.4863548137
 30
0.0
 11
0.6429400371
 21
-0.0
 31
0.0
 40
0.7539583352
 41
1.4402057299
 42
1.4487850302
  0
ELLIPSE
  5
402
100
AcDbEntity
  8
ALL_ASSEMBLY_MEMBERS
100
AcDbEllipse
 62
7
  6
CONTINUOUS
 10
5.0887133123
 20
4.4863548137
 30
0.0
 11
0.6396685892
 21
-0.0
 31
0.0
 40
0.7539583352
 41
1.4395339999
 42
1.4481578904
  0
ELLIPSE
  5
403
100
AcDbEntity
  8
ALL_ASSEMBLY_MEMBERS
100
AcDbEllipse
 62
7
  6
CONTINUOUS
 10
5.1762779897
 20
4.4863548137
 30
0.0
 11
0.1171229363
 21
0.4846535963
 31
0.0
 40
0.082538636
 41
1.2874639355
 42
1.3022224851
  0
ELLIPSE
  5
404
100
AcDbEntity
  8
ALL_ASSEMBLY_MEMBERS
100
AcDbEllipse
 62
7
  6
CONTINUOUS
 10
5.1762779897
 20
4.4863548137
 30
0.0
 11
0.116526984
 21
0.4821875514
 31
0.0
 40
0.082538636
 41
1.2876982814
 42
1.3025325273
  0
ELLIPSE
  5
405
100
AcDbEntity
  8
ALL_ASSEMBLY_MEMBERS
100
AcDbEllipse
 62
7
  6
CONTINUOUS
 10
5.157151299
 20
4.4863548137
 30
0.0
 11
-0.1211290532
 21
0.4821725657
 31
0.0
 40
0.0853800458
 41
-4.2918879649
 42
-4.2793511418
  0
ELLIPSE
  5
406
100
AcDbEntity
  8
ALL_ASSEMBLY_MEMBERS
100
AcDbEllipse
 62
7
  6
CONTINUOUS
 10
5.1857200042
 20
4.4863548137
 30
0.0
 11
0.3205164298
 21
0.4819141273
 31
0.0
 40
0.1633544133
 41
1.364678812
 42
1.3757409965
  0
ELLIPSE
  5
407
100
AcDbEntity
  8
ALL_ASSEMBLY_MEMBERS
100
AcDbEllipse
 62
7
  6
CONTINUOUS
 10
5.1857200042
 20
4.4863548137
 30
0.0
 11
0.318885558
 21
0.4794620215
 31
0.0
 40
0.1633544133
 41
1.3648564897
 42
1.3759753424
  0
ELLIPSE
  5
408
100
AcDbEntity
  8
ALL_ASSEMBLY_MEMBERS
100
AcDbEllipse
 62
7
  6
CONTINUOUS
 10
5.2086384029
 20
4.4863548137
 30
0.0
 11
0.9880542361
 21
0.465285186
 31
0.0
 40
0.1376303424
 41
1.533430284
 42
1.5408026323
  0
ELLIPSE
  5
409
100
AcDbEntity
  8
ALL_ASSEMBLY_MEMBERS
100
AcDbEllipse
 62
7
  6
CONTINUOUS
 10
5.2086384029
 20
4.4863548137
 30
0.0
 11
0.9830267564
 21
0.4629176926
 31
0.0
 40
0.1376303424
 41
1.5335702205
 42
1.5409803099
  0
ELLIPSE
  5
40A
100
AcDbEntity
  8
ALL_ASSEMBLY_MEMBERS
100
AcDbEllipse
 62
7
  6
CONTINUOUS
 10
5.157151299
 20
4.4863548137
 30
0.0
 11
-0.1217485418
 21
0.484638534
 31
0.0
 40
0.0853800458
 41
-4.2941425674
 42
-4.2798895141
  0
ELLIPSE
  5
40B
100
AcDbEntity
  8
ALL_ASSEMBLY_MEMBERS
100
AcDbEllipse
 62
7
  6
CONTINUOUS
 10
5.0049901417
 20
4.4863548137
 30
0.0
 11
1.2858776966
 21
-0.0
 31
0.0
 40
0.3769798646
 41
7.7176661569
 42
7.7233910371
  0
ELLIPSE
  5
40C
100
AcDbEntity
  8
ALL_ASSEMBLY_MEMBERS
100
AcDbEllipse
 62
7
  6
CONTINUOUS
 10
5.0049901417
 20
4.4863548137
 30
0.0
 11
1.2793348128
 21
0.0
 31
0.0
 40
0.3769798646
 41
1.4337793091
 42
1.4395339999
  0
ELLIPSE
  5
40D
100
AcDbEntity
  8
ALL_ASSEMBLY_MEMBERS
100
AcDbEllipse
 62
7
  6
CONTINUOUS
 10
5.1257411813
 20
4.4863548137
 30
0.0
 11
-0.4182142408
 21
0.4767033111
 31
0.0
 40
0.1749164141
 41
-4.4101729241
 42
-4.4015666817
  0
ELLIPSE
  5
40E
100
AcDbEntity
  8
ALL_ASSEMBLY_MEMBERS
100
AcDbEllipse
 62
7
  6
CONTINUOUS
 10
5.1257411813
 20
4.4863548137
 30
0.0
 11
-0.4203531079
 21
0.479141308
 31
0.0
 40
0.1749164141
 41
-4.4107112963
 42
-4.4021493725
  0
ELLIPSE
  5
40F
100
AcDbEntity
  8
ALL_ASSEMBLY_MEMBERS
100
AcDbEllipse
 62
7
  6
CONTINUOUS
 10
4.9176173474
 20
4.4863548137
 30
0.0
 11
1.928827244
 21
0.0
 31
0.0
 40
0.2513185157
 41
1.4316167513
 42
1.4344808497
  0
ELLIPSE
  5
410
100
AcDbEntity
  8
ALL_ASSEMBLY_MEMBERS
100
AcDbEllipse
 62
7
  6
CONTINUOUS
 10
5.0650916977
 20
4.4863548137
 30
0.0
 11
0.9573098206
 21
-0.463307535
 31
0.0
 40
0.1399267287
 41
-1.3891557708
 42
-1.3776674525
  0
ELLIPSE
  5
411
100
AcDbEntity
  8
ALL_ASSEMBLY_MEMBERS
100
AcDbEllipse
 62
7
  6
CONTINUOUS
 10
5.0650916977
 20
4.4863548137
 30
0.0
 11
0.9622057766
 21
-0.4656770221
 31
0.0
 40
0.1399267287
 41
-1.3897384615
 42
-1.3783094395
  0
ELLIPSE
  5
412
100
AcDbEntity
  8
ALL_ASSEMBLY_MEMBERS
100
AcDbEllipse
 62
7
  6
CONTINUOUS
 10
4.9176173474
 20
4.4863548137
 30
0.0
 11
1.9190128639
 21
0.0
 31
0.0
 40
0.2513185157
 41
1.4309002792
 42
1.4337793091
  0
ELLIPSE
  5
413
100
AcDbEntity
  8
ALL_ASSEMBLY_MEMBERS
100
AcDbEllipse
 62
7
  6
CONTINUOUS
 10
4.7047501413
 20
4.4863548137
 30
0.0
 11
3.8379783783
 21
-0.4540195858
 31
0.0
 40
0.0423859163
 41
-1.4402702398
 42
-1.4373956289
  0
ELLIPSE
  5
414
100
AcDbEntity
  8
ALL_ASSEMBLY_MEMBERS
100
AcDbEllipse
 62
7
  6
CONTINUOUS
 10
4.7047501413
 20
4.4863548137
 30
0.0
 11
3.8576068963
 21
-0.4563415717
 31
0.0
 40
0.0423859163
 41
-1.4409122269
 42
-1.4380524792
  0
ELLIPSE
  5
415
100
AcDbEntity
  8
ALL_ASSEMBLY_MEMBERS
100
AcDbEllipse
 62
7
  6
CONTINUOUS
 10
5.1514885566
 20
4.4863548137
 30
0.0
 11
-0.0934736487
 21
0.4847090994
 31
0.0
 40
0.0673659664
 41
-1.3359330152
 42
-1.3174326445
  0
ELLIPSE
  5
416
100
AcDbEntity
  8
ALL_ASSEMBLY_MEMBERS
100
AcDbEllipse
 62
7
  6
CONTINUOUS
 10
5.1514885566
 20
4.4863548137
 30
0.0
 11
-0.0929980302
 21
0.4822427721
 31
0.0
 40
0.0673659664
 41
-1.3364524313
 42
-1.3178566306
  0
ELLIPSE
  5
417
100
AcDbEntity
  8
ALL_ASSEMBLY_MEMBERS
100
AcDbEllipse
 62
7
  6
CONTINUOUS
 10
4.7392255582
 20
4.4863548137
 30
0.0
 11
3.2147129739
 21
-0.0
 31
0.0
 40
0.1507910672
 41
1.4287515033
 42
1.4316167513
  0
ELLIPSE
  5
418
100
AcDbEntity
  8
ALL_ASSEMBLY_MEMBERS
100
AcDbEllipse
 62
7
  6
CONTINUOUS
 10
5.131480173
 20
4.4863548137
 30
0.0
 11
-0.2873264341
 21
0.4826711449
 31
0.0
 40
0.1560789432
 41
-1.4341230973
 42
-1.4155878961
  0
ELLIPSE
  5
419
100
AcDbEntity
  8
ALL_ASSEMBLY_MEMBERS
100
AcDbEllipse
 62
7
  6
CONTINUOUS
 10
5.131480173
 20
4.4863548137
 30
0.0
 11
-0.2858644416
 21
0.4802151872
 31
0.0
 40
0.1560789432
 41
-1.4347384861
 42
-1.4161073122
  0
ELLIPSE
  5
41A
100
AcDbEntity
  8
ALL_ASSEMBLY_MEMBERS
100
AcDbEllipse
 62
7
  6
CONTINUOUS
 10
5.0881101397
 20
4.4863548137
 30
0.0
 11
0.6553159276
 21
-0.4721187462
 31
0.0
 40
0.1677639688
 41
1.5601896397
 42
1.5713302259
  0
ELLIPSE
  5
41B
100
AcDbEntity
  8
ALL_ASSEMBLY_MEMBERS
100
AcDbEllipse
 62
7
  6
CONTINUOUS
 10
5.0881101397
 20
4.4863548137
 30
0.0
 11
0.6519815079
 21
-0.4697164819
 31
0.0
 40
0.1677639688
 41
1.5595163628
 42
1.5707148371
  0
ELLIPSE
  5
41C
100
AcDbEntity
  8
ALL_ASSEMBLY_MEMBERS
100
AcDbEllipse
 62
7
  6
CONTINUOUS
 10
5.0127286118
 20
4.4863548137
 30
0.0
 11
1.2364591409
 21
-0.462368365
 31
0.0
 40
0.1177519922
 41
1.4764767822
 42
1.4839128544
  0
ELLIPSE
  5
41D
100
AcDbEntity
  8
ALL_ASSEMBLY_MEMBERS
100
AcDbEllipse
 62
7
  6
CONTINUOUS
 10
5.0127286118
 20
4.4863548137
 30
0.0
 11
1.2301677117
 21
-0.4600157132
 31
0.0
 40
0.1177519922
 41
1.475764772
 42
1.4832395775
  0
ELLIPSE
  5
41E
100
AcDbEntity
  8
ALL_ASSEMBLY_MEMBERS
100
AcDbEllipse
 62
7
  6
CONTINUOUS
 10
5.3613291141
 20
4.4863548137
 30
0.0
 11
1.2364593147
 21
0.4623683634
 31
0.0
 40
0.1177519797
 41
1.6576798102
 42
1.6651158823
  0
ELLIPSE
  5
41F
100
AcDbEntity
  8
ALL_ASSEMBLY_MEMBERS
100
AcDbEllipse
 62
7
  6
CONTINUOUS
 10
5.3613291141
 20
4.4863548137
 30
0.0
 11
1.2301678846
 21
0.4600157117
 31
0.0
 40
0.1177519797
 41
1.6583530871
 42
1.6658278925
  0
ELLIPSE
  5
420
100
AcDbEntity
  8
ALL_ASSEMBLY_MEMBERS
100
AcDbEllipse
 62
7
  6
CONTINUOUS
 10
5.2859475561
 20
4.4863548137
 30
0.0
 11
0.6553158691
 21
0.4721187478
 31
0.0
 40
0.1677639734
 41
1.5702624133
 42
1.5814029995
  0
ELLIPSE
  5
421
100
AcDbEntity
  8
ALL_ASSEMBLY_MEMBERS
100
AcDbEllipse
 62
7
  6
CONTINUOUS
 10
5.2859475561
 20
4.4863548137
 30
0.0
 11
0.6519814497
 21
0.4697164835
 31
0.0
 40
0.1677639734
 41
1.5708778021
 42
1.5820762764
  0
ELLIPSE
  5
422
100
AcDbEntity
  8
ALL_ASSEMBLY_MEMBERS
100
AcDbEllipse
 62
7
  6
CONTINUOUS
 10
5.2425775265
 20
4.4863548137
 30
0.0
 11
0.287326408
 21
0.4826711454
 31
0.0
 40
0.1560789367
 41
1.4155878838
 42
1.434123085
  0
ELLIPSE
  5
423
100
AcDbEntity
  8
ALL_ASSEMBLY_MEMBERS
100
AcDbEllipse
 62
7
  6
CONTINUOUS
 10
5.2425775265
 20
4.4863548137
 30
0.0
 11
0.2858644157
 21
0.4802151878
 31
0.0
 40
0.1560789367
 41
1.4161072999
 42
1.4347384738
  0
ELLIPSE
  5
424
100
AcDbEntity
  8
ALL_ASSEMBLY_MEMBERS
100
AcDbEllipse
 62
7
  6
CONTINUOUS
 10
5.2225691446
 20
4.4863548137
 30
0.0
 11
0.0934736405
 21
0.4847090994
 31
0.0
 40
0.0673659609
 41
1.3174326423
 42
1.335933013
  0
ELLIPSE
  5
425
100
AcDbEntity
  8
ALL_ASSEMBLY_MEMBERS
100
AcDbEllipse
 62
7
  6
CONTINUOUS
 10
5.2225691446
 20
4.4863548137
 30
0.0
 11
0.092998022
 21
0.4822427721
 31
0.0
 40
0.0673659609
 41
1.3178566284
 42
1.3364524291
  0
ELLIPSE
  5
426
100
AcDbEntity
  8
ALL_ASSEMBLY_MEMBERS
100
AcDbEllipse
 62
7
  6
CONTINUOUS
 10
4.7392255582
 20
4.4863548137
 30
0.0
 11
3.1983556692
 21
0.0
 31
0.0
 40
0.1507910672
 41
1.4280200816
 42
1.4309002792
  0
ELLIPSE
  5
427
100
AcDbEntity
  8
ALL_ASSEMBLY_MEMBERS
100
AcDbEllipse
 62
7
  6
CONTINUOUS
 10
5.7003155727
 20
4.4863548137
 30
0.0
 11
3.8379774823
 21
0.4540195862
 31
0.0
 40
0.0423859259
 41
-1.704197027
 42
-1.7013224161
  0
ELLIPSE
  5
428
100
AcDbEntity
  8
ALL_ASSEMBLY_MEMBERS
100
AcDbEllipse
 62
7
  6
CONTINUOUS
 10
5.7003155727
 20
4.4863548137
 30
0.0
 11
3.8576059957
 21
0.4563415721
 31
0.0
 40
0.0423859259
 41
-1.7035401767
 42
-1.700680429
  0
ELLIPSE
  5
429
100
AcDbEntity
  8
ALL_ASSEMBLY_MEMBERS
100
AcDbEllipse
 62
7
  6
CONTINUOUS
 10
5.3399741705
 20
4.4863548137
 30
0.0
 11
0.9573101584
 21
0.4633075297
 31
0.0
 40
0.1399266983
 41
-1.7639251619
 42
-1.7524368436
  0
ELLIPSE
  5
42A
100
AcDbEntity
  8
ALL_ASSEMBLY_MEMBERS
100
AcDbEllipse
 62
7
  6
CONTINUOUS
 10
5.3399741705
 20
4.4863548137
 30
0.0
 11
0.9622061161
 21
0.4656770168
 31
0.0
 40
0.1399266983
 41
-1.7632831748
 42
-1.7518541529
  0
ELLIPSE
  5
42B
100
AcDbEntity
  8
ALL_ASSEMBLY_MEMBERS
100
AcDbEllipse
 62
7
  6
CONTINUOUS
 10
5.665840143
 20
4.4863548137
 30
0.0
 11
3.2147120734
 21
-0.0
 31
0.0
 40
0.1507911094
 41
1.7099759023
 42
1.7128411503
  0
ELLIPSE
  5
42C
100
AcDbEntity
  8
ALL_ASSEMBLY_MEMBERS
100
AcDbEllipse
 62
7
  6
CONTINUOUS
 10
5.665840143
 20
4.4863548137
 30
0.0
 11
3.1983547732
 21
-0.0
 31
0.0
 40
0.1507911094
 41
1.7106923744
 42
1.713572572
  0
ELLIPSE
  5
42D
100
AcDbEntity
  8
ALL_ASSEMBLY_MEMBERS
100
AcDbEllipse
 62
7
  6
CONTINUOUS
 10
5.4874487286
 20
4.4863548137
 30
0.0
 11
1.9288290452
 21
-0.0
 31
0.0
 40
0.251318281
 41
1.7071118038
 42
1.7099759023
  0
ELLIPSE
  5
42E
100
AcDbEntity
  8
ALL_ASSEMBLY_MEMBERS
100
AcDbEllipse
 62
7
  6
CONTINUOUS
 10
5.2793246487
 20
4.4863548137
 30
0.0
 11
0.4182142408
 21
0.4767033111
 31
0.0
 40
0.1749164141
 41
-1.8816186254
 42
-1.8730123831
  0
ELLIPSE
  5
42F
100
AcDbEntity
  8
ALL_ASSEMBLY_MEMBERS
100
AcDbEllipse
 62
7
  6
CONTINUOUS
 10
5.2793246487
 20
4.4863548137
 30
0.0
 11
0.4203531079
 21
0.479141308
 31
0.0
 40
0.1749164141
 41
-1.8810359347
 42
-1.8724740109
  0
ELLIPSE
  5
430
100
AcDbEntity
  8
ALL_ASSEMBLY_MEMBERS
100
AcDbEllipse
 62
7
  6
CONTINUOUS
 10
5.4874487286
 20
4.4863548137
 30
0.0
 11
1.9190146559
 21
0.0
 31
0.0
 40
0.251318281
 41
1.7078133445
 42
1.7106923744
  0
ELLIPSE
  5
431
100
AcDbEntity
  8
ALL_ASSEMBLY_MEMBERS
100
AcDbEllipse
 62
7
  6
CONTINUOUS
 10
5.247914531
 20
4.4863548137
 30
0.0
 11
0.1211290532
 21
0.4821725657
 31
0.0
 40
0.0853800458
 41
-2.0038341653
 42
-1.9912973423
  0
ELLIPSE
  5
432
100
AcDbEntity
  8
ALL_ASSEMBLY_MEMBERS
100
AcDbEllipse
 62
7
  6
CONTINUOUS
 10
5.247914531
 20
4.4863548137
 30
0.0
 11
0.1217485418
 21
0.484638534
 31
0.0
 40
0.0853800458
 41
-2.0032957931
 42
-1.9890427398
  0
ELLIPSE
  5
433
100
AcDbEntity
  8
ALL_ASSEMBLY_MEMBERS
100
AcDbEllipse
 62
7
  6
CONTINUOUS
 10
5.400075659
 20
4.4863548137
 30
0.0
 11
1.2858774715
 21
0.0
 31
0.0
 40
0.3769799306
 41
1.7013869237
 42
1.7071118038
  0
ELLIPSE
  5
434
100
AcDbEntity
  8
ALL_ASSEMBLY_MEMBERS
100
AcDbEllipse
 62
7
  6
CONTINUOUS
 10
5.400075659
 20
4.4863548137
 30
0.0
 11
1.2793345889
 21
0.0
 31
0.0
 40
0.3769799306
 41
1.7020586537
 42
1.7078133445
  0
ELLIPSE
  5
435
100
AcDbEntity
  8
ALL_ASSEMBLY_MEMBERS
100
AcDbEllipse
 62
7
  6
CONTINUOUS
 10
5.3163525079
 20
4.4863548137
 30
0.0
 11
0.642939962
 21
-0.0
 31
0.0
 40
0.7539584232
 41
1.6928076234
 42
1.7013869237
  0
ELLIPSE
  5
436
100
AcDbEntity
  8
ALL_ASSEMBLY_MEMBERS
100
AcDbEllipse
 62
7
  6
CONTINUOUS
 10
5.3163525079
 20
4.4863548137
 30
0.0
 11
0.6396685145
 21
0.0
 31
0.0
 40
0.7539584232
 41
1.6934347632
 42
1.7020586537
  0
ELLIPSE
  5
437
100
AcDbEntity
  8
ALL_ASSEMBLY_MEMBERS
100
AcDbEllipse
 62
7
  6
CONTINUOUS
 10
5.3392404566
 20
4.4863548137
 30
0.0
 11
0.7463249724
 21
-0.4698307965
 31
0.0
 40
0.1599010046
 41
-1.6130856485
 42
-1.5959095311
  0
ELLIPSE
  5
438
100
AcDbEntity
  8
ALL_ASSEMBLY_MEMBERS
100
AcDbEllipse
 62
7
  6
CONTINUOUS
 10
5.3392404566
 20
4.4863548137
 30
0.0
 11
0.7425274748
 21
-0.4674401739
 31
0.0
 40
0.1599010046
 41
-1.6138200371
 42
-1.5965544644
  0
ELLIPSE
  5
439
100
AcDbEntity
  8
ALL_ASSEMBLY_MEMBERS
100
AcDbEllipse
 62
7
  6
CONTINUOUS
 10
5.2850519463
 20
4.4863548137
 30
0.0
 11
0.0
 21
0.48475
 31
0.0
 40
0.7958001534
 41
0.10773218
 42
0.1220112966
  0
ELLIPSE
  5
43A
100
AcDbEntity
  8
ALL_ASSEMBLY_MEMBERS
100
AcDbEllipse
 62
7
  6
CONTINUOUS
 10
5.2850519463
 20
4.4863548137
 30
0.0
 11
0.0
 21
0.4822834646
 31
0.0
 40
0.7958001534
 41
0.1082853113
 42
0.1226384364
  0
ELLIPSE
  5
43B
100
AcDbEntity
  8
ALL_ASSEMBLY_MEMBERS
100
AcDbEllipse
 62
7
  6
CONTINUOUS
 10
5.0839642381
 20
4.4863548137
 30
0.0
 11
3.1982722808
 21
-0.4543712279
 31
0.0
 40
0.0505558762
 41
-1.5239656048
 42
-1.5211117194
  0
ELLIPSE
  5
43C
100
AcDbEntity
  8
ALL_ASSEMBLY_MEMBERS
100
AcDbEllipse
 62
7
  6
CONTINUOUS
 10
5.0839642381
 20
4.4863548137
 30
0.0
 11
3.2146291591
 21
-0.4566950122
 31
0.0
 40
0.0505558762
 41
-1.5241674517
 42
-1.521328112
  0
ELLIPSE
  5
43D
100
AcDbEntity
  8
ALL_ASSEMBLY_MEMBERS
100
AcDbEllipse
 62
7
  6
CONTINUOUS
 10
5.2550949832
 20
4.4863548137
 30
0.0
 11
-0.0
 21
0.48475
 31
0.0
 40
0.2210555139
 41
0.0906260353
 42
0.10773218
  0
ELLIPSE
  5
43E
100
AcDbEntity
  8
ALL_ASSEMBLY_MEMBERS
100
AcDbEllipse
 62
7
  6
CONTINUOUS
 10
5.2550949832
 20
4.4863548137
 30
0.0
 11
-0.0
 21
0.4822834646
 31
0.0
 40
0.2210555139
 41
0.0910908057
 42
0.1082853113
  0
ELLIPSE
  5
43F
100
AcDbEntity
  8
ALL_ASSEMBLY_MEMBERS
100
AcDbEllipse
 62
7
  6
CONTINUOUS
 10
5.1383233262
 20
4.4863548137
 30
0.0
 11
1.9186443081
 21
-0.4563054692
 31
0.0
 40
0.0813853176
 41
-1.5089407422
 42
-1.5060864941
  0
ELLIPSE
  5
440
100
AcDbEntity
  8
ALL_ASSEMBLY_MEMBERS
100
AcDbEllipse
 62
7
  6
CONTINUOUS
 10
5.1383233262
 20
4.4863548137
 30
0.0
 11
1.9284568033
 21
-0.4586391457
 31
0.0
 40
0.0813853176
 41
-1.5091571348
 42
-1.5063174377
  0
ELLIPSE
  5
441
100
AcDbEntity
  8
ALL_ASSEMBLY_MEMBERS
100
AcDbEllipse
 62
7
  6
CONTINUOUS
 10
5.167326442
 20
4.4863548137
 30
0.0
 11
1.2782580077
 21
-0.4595926617
 31
0.0
 40
0.114367678
 41
-1.484342408
 42
-1.4786327952
  0
ELLIPSE
  5
442
100
AcDbEntity
  8
ALL_ASSEMBLY_MEMBERS
100
AcDbEllipse
 62
7
  6
CONTINUOUS
 10
5.167326442
 20
4.4863548137
 30
0.0
 11
1.2847953844
 21
-0.4619431499
 31
0.0
 40
0.114367678
 41
-1.4845733516
 42
-1.478892858
  0
ELLIPSE
  5
443
100
AcDbEntity
  8
ALL_ASSEMBLY_MEMBERS
100
AcDbEllipse
 62
7
  6
CONTINUOUS
 10
5.1999777709
 20
4.4863548137
 30
0.0
 11
0.6347072598
 21
-0.4701874538
 31
0.0
 40
0.1691116311
 41
-1.3951024531
 42
-1.386534842
  0
ELLIPSE
  5
444
100
AcDbEntity
  8
ALL_ASSEMBLY_MEMBERS
100
AcDbEllipse
 62
7
  6
CONTINUOUS
 10
5.1999777709
 20
4.4863548137
 30
0.0
 11
0.6379533341
 21
-0.4725921268
 31
0.0
 40
0.1691116311
 41
-1.3953625159
 42
-1.3868386321
  0
ELLIPSE
  5
445
100
AcDbEntity
  8
ALL_ASSEMBLY_MEMBERS
100
AcDbEllipse
 62
7
  6
CONTINUOUS
 10
5.2152271036
 20
4.4863548137
 30
0.0
 11
-0.3749396591
 21
0.4779751482
 31
0.0
 40
0.1715483401
 41
-4.4374539601
 42
-4.4231645383
  0
ELLIPSE
  5
446
100
AcDbEntity
  8
ALL_ASSEMBLY_MEMBERS
100
AcDbEllipse
 62
7
  6
CONTINUOUS
 10
5.2152271036
 20
4.4863548137
 30
0.0
 11
-0.3768572076
 21
0.4804196496
 31
0.0
 40
0.1715483401
 41
-4.4377577502
 42
-4.4235413607
  0
ELLIPSE
  5
447
100
AcDbEntity
  8
ALL_ASSEMBLY_MEMBERS
100
AcDbEllipse
 62
7
  6
CONTINUOUS
 10
5.235699192
 20
4.4863548137
 30
0.0
 11
-0.1007222974
 21
0.4822282366
 31
0.0
 40
0.0724615456
 41
-4.3045336433
 42
-4.2873661045
  0
ELLIPSE
  5
448
100
AcDbEntity
  8
ALL_ASSEMBLY_MEMBERS
100
AcDbEllipse
 62
7
  6
CONTINUOUS
 10
5.235699192
 20
4.4863548137
 30
0.0
 11
-0.10123742
 21
0.4846944896
 31
0.0
 40
0.0724615456
 41
-4.3049104657
 42
-4.2878308749
  0
ELLIPSE
  5
449
100
AcDbEntity
  8
ALL_ASSEMBLY_MEMBERS
100
AcDbEllipse
 62
7
  6
CONTINUOUS
 10
5.168969633
 20
4.4863548137
 30
0.0
 11
0.6429400371
 21
0.0
 31
0.0
 40
0.7539583352
 41
7.8485889439
 42
7.857099912
  0
ELLIPSE
  5
44A
100
AcDbEntity
  8
ALL_ASSEMBLY_MEMBERS
100
AcDbEllipse
 62
7
  6
CONTINUOUS
 10
5.0020656703
 20
4.4863548137
 30
0.0
 11
3.8576324144
 21
0.0
 31
0.0
 40
0.1256599769
 41
1.5143080044
 42
1.5171492967
  0
ELLIPSE
  5
44B
100
AcDbEntity
  8
ALL_ASSEMBLY_MEMBERS
100
AcDbEllipse
 62
7
  6
CONTINUOUS
 10
5.0020656703
 20
4.4863548137
 30
0.0
 11
3.8380037666
 21
0.0
 31
0.0
 40
0.1256599769
 41
7.7972041041
 42
7.8000599721
  0
ELLIPSE
  5
44C
100
AcDbEntity
  8
ALL_ASSEMBLY_MEMBERS
100
AcDbEllipse
 62
7
  6
CONTINUOUS
 10
5.2488103671
 20
4.4863548137
 30
0.0
 11
-0.0866566919
 21
0.4847194462
 31
0.0
 40
0.0628055002
 41
-4.4316026612
 42
-4.4117214252
  0
ELLIPSE
  5
44D
100
AcDbEntity
  8
ALL_ASSEMBLY_MEMBERS
100
AcDbEllipse
 62
7
  6
CONTINUOUS
 10
5.2488103671
 20
4.4863548137
 30
0.0
 11
-0.0862157599
 21
0.4822530662
 31
0.0
 40
0.0628055002
 41
-4.4318947599
 42
-4.4119116145
  0
ELLIPSE
  5
44E
100
AcDbEntity
  8
ALL_ASSEMBLY_MEMBERS
100
AcDbEllipse
 62
7
  6
CONTINUOUS
 10
5.2619035857
 20
4.4863548137
 30
0.0
 11
-0.3118799231
 21
0.4821211713
 31
0.0
 40
0.1616508637
 41
-4.5359371337
 42
-4.5245667903
  0
ELLIPSE
  5
44F
100
AcDbEntity
  8
ALL_ASSEMBLY_MEMBERS
100
AcDbEllipse
 62
7
  6
CONTINUOUS
 10
5.2619035857
 20
4.4863548137
 30
0.0
 11
-0.310292996
 21
0.4796680121
 31
0.0
 40
0.1616508637
 41
-4.5362876155
 42
-4.524858889
  0
ELLIPSE
  5
450
100
AcDbEntity
  8
ALL_ASSEMBLY_MEMBERS
100
AcDbEllipse
 62
7
  6
CONTINUOUS
 10
5.2838820895
 20
4.4863548137
 30
0.0
 11
0.6379532564
 21
-0.4725921289
 31
0.0
 40
0.169111637
 41
-1.525970049
 42
-1.5145908343
  0
ELLIPSE
  5
451
100
AcDbEntity
  8
ALL_ASSEMBLY_MEMBERS
100
AcDbEllipse
 62
7
  6
CONTINUOUS
 10
5.2838820895
 20
4.4863548137
 30
0.0
 11
0.6347071826
 21
-0.470187456
 31
0.0
 40
0.169111637
 41
-1.5263790513
 42
-1.5149413162
  0
ELLIPSE
  5
452
100
AcDbEntity
  8
ALL_ASSEMBLY_MEMBERS
100
AcDbEllipse
 62
7
  6
CONTINUOUS
 10
5.4376411722
 20
4.4863548137
 30
0.0
 11
2.5715997839
 21
-0.4573305014
 31
0.0
 40
0.0624986133
 41
-1.6423298464
 42
-1.639483481
  0
ELLIPSE
  5
453
100
AcDbEntity
  8
ALL_ASSEMBLY_MEMBERS
100
AcDbEllipse
 62
7
  6
CONTINUOUS
 10
5.4376411722
 20
4.4863548137
 30
0.0
 11
2.5585148082
 21
-0.4550034836
 31
0.0
 40
0.0624986133
 41
-1.6427535031
 42
-1.6398924833
  0
ELLIPSE
  5
454
100
AcDbEntity
  8
ALL_ASSEMBLY_MEMBERS
100
AcDbEllipse
 62
7
  6
CONTINUOUS
 10
5.1654119731
 20
4.4863548137
 30
0.0
 11
0.9644113131
 21
0.0
 31
0.0
 40
0.5026382348
 41
7.7861233771
 42
7.7974933116
  0
ELLIPSE
  5
455
100
AcDbEntity
  8
ALL_ASSEMBLY_MEMBERS
100
AcDbEllipse
 62
7
  6
CONTINUOUS
 10
5.1654119731
 20
4.4863548137
 30
0.0
 11
0.9595041348
 21
-0.0
 31
0.0
 40
0.5026382348
 41
7.7911586055
 42
7.7972041041
  0
ELLIPSE
  5
456
100
AcDbEntity
  8
ALL_ASSEMBLY_MEMBERS
100
AcDbEllipse
 62
7
  6
CONTINUOUS
 10
5.2017414907
 20
4.4863548137
 30
0.0
 11
-0.0
 21
0.48475
 31
0.0
 40
0.8842220554
 41
6.2067939025
 42
6.2153270503
  0
ELLIPSE
  5
457
100
AcDbEntity
  8
ALL_ASSEMBLY_MEMBERS
100
AcDbEllipse
 62
7
  6
CONTINUOUS
 10
5.224639586
 20
4.4863548137
 30
0.0
 11
-0.0
 21
0.48475
 31
0.0
 40
0.2652664142
 41
6.1925592719
 42
6.2067939025
  0
ELLIPSE
  5
458
100
AcDbEntity
  8
ALL_ASSEMBLY_MEMBERS
100
AcDbEllipse
 62
7
  6
CONTINUOUS
 10
5.1655024664
 20
4.4863548137
 30
0.0
 11
1.2858813755
 21
-0.0
 31
0.0
 40
0.3769787861
 41
7.8429147916
 42
7.8485889439
  0
ELLIPSE
  5
459
100
AcDbEntity
  8
ALL_ASSEMBLY_MEMBERS
100
AcDbEllipse
 62
7
  6
CONTINUOUS
 10
5.1693666376
 20
4.4863548137
 30
0.0
 11
0.1007223063
 21
0.4822282366
 31
0.0
 40
0.0724615514
 41
-1.9958192001
 42
-1.9786516613
  0
ELLIPSE
  5
45A
100
AcDbEntity
  8
ALL_ASSEMBLY_MEMBERS
100
AcDbEllipse
 62
7
  6
CONTINUOUS
 10
5.1693666376
 20
4.4863548137
 30
0.0
 11
0.101237429
 21
0.4846944896
 31
0.0
 40
0.0724615514
 41
-1.9953544298
 42
-1.9782748389
  0
ELLIPSE
  5
45B
100
AcDbEntity
  8
ALL_ASSEMBLY_MEMBERS
100
AcDbEllipse
 62
7
  6
CONTINUOUS
 10
5.2325928661
 20
4.4863548137
 30
0.0
 11
0.1217484712
 21
0.4846385342
 31
0.0
 40
0.0853800028
 41
-1.8839500288
 42
-1.8697617145
  0
ELLIPSE
  5
45C
100
AcDbEntity
  8
ALL_ASSEMBLY_MEMBERS
100
AcDbEllipse
 62
7
  6
CONTINUOUS
 10
5.2325928661
 20
4.4863548137
 30
0.0
 11
0.121128983
 21
0.482172566
 31
0.0
 40
0.0853800028
 41
-1.8838760368
 42
-1.8713258838
  0
ELLIPSE
  5
45D
100
AcDbEntity
  8
ALL_ASSEMBLY_MEMBERS
100
AcDbEllipse
 62
7
  6
CONTINUOUS
 10
5.2282524484
 20
4.4863548137
 30
0.0
 11
0.4203531079
 21
0.479141308
 31
0.0
 40
0.1749164141
 41
-1.7616396296
 42
-1.7531282233
  0
ELLIPSE
  5
45E
100
AcDbEntity
  8
ALL_ASSEMBLY_MEMBERS
100
AcDbEllipse
 62
7
  6
CONTINUOUS
 10
5.2282524484
 20
4.4863548137
 30
0.0
 11
0.4182142408
 21
0.4767033111
 31
0.0
 40
0.1749164141
 41
-1.7616091722
 42
-1.7530542313
  0
ELLIPSE
  5
45F
100
AcDbEntity
  8
ALL_ASSEMBLY_MEMBERS
100
AcDbEllipse
 62
7
  6
CONTINUOUS
 10
5.2250617154
 20
4.4863548137
 30
0.0
 11
0.9622070503
 21
0.4656770023
 31
0.0
 40
0.1399266146
 41
-1.6381317277
 42
-1.6324577399
  0
ELLIPSE
  5
460
100
AcDbEntity
  8
ALL_ASSEMBLY_MEMBERS
100
AcDbEllipse
 62
7
  6
CONTINUOUS
 10
5.2250617154
 20
4.4863548137
 30
0.0
 11
0.9573110879
 21
0.4633075153
 31
0.0
 40
0.1399266146
 41
-1.638130289
 42
-1.6324272825
  0
ELLIPSE
  5
461
100
AcDbEntity
  8
ALL_ASSEMBLY_MEMBERS
100
AcDbEllipse
 62
7
  6
CONTINUOUS
 10
5.2220467141
 20
4.4863548137
 30
0.0
 11
1.2847953844
 21
-0.4619431499
 31
0.0
 40
0.114367678
 41
-1.5356543218
 42
-1.5299803341
  0
ELLIPSE
  5
462
100
AcDbEntity
  8
ALL_ASSEMBLY_MEMBERS
100
AcDbEllipse
 62
7
  6
CONTINUOUS
 10
5.2220467141
 20
4.4863548137
 30
0.0
 11
1.2782580077
 21
-0.4595926617
 31
0.0
 40
0.114367678
 41
-1.5356847793
 42
-1.5299817728
  0
ELLIPSE
  5
463
100
AcDbEntity
  8
ALL_ASSEMBLY_MEMBERS
100
AcDbEllipse
 62
7
  6
CONTINUOUS
 10
5.2178075977
 20
4.4863548137
 30
0.0
 11
0.5681047491
 21
-0.4746020763
 31
0.0
 40
0.1736797508
 41
-1.5122023158
 42
-1.4326628245
  0
ELLIPSE
  5
464
100
AcDbEntity
  8
ALL_ASSEMBLY_MEMBERS
100
AcDbEllipse
 62
7
  6
CONTINUOUS
 10
5.2178075977
 20
4.4863548137
 30
0.0
 11
0.5652140828
 21
-0.4721871761
 31
0.0
 40
0.1736797508
 41
-1.5126406373
 42
-1.4326932819
  0
ELLIPSE
  5
465
100
AcDbEntity
  8
ALL_ASSEMBLY_MEMBERS
100
AcDbEllipse
 62
7
  6
CONTINUOUS
 10
5.3211016262
 20
4.4863548137
 30
0.0
 11
3.2146300597
 21
0.4566950116
 31
0.0
 40
0.0505558626
 41
-1.6202645376
 42
-1.6174251979
  0
ELLIPSE
  5
466
100
AcDbEntity
  8
ALL_ASSEMBLY_MEMBERS
100
AcDbEllipse
 62
7
  6
CONTINUOUS
 10
5.3211016262
 20
4.4863548137
 30
0.0
 11
3.1982731769
 21
0.4543712273
 31
0.0
 40
0.0505558626
 41
-1.6204809302
 42
-1.6176270448
  0
ELLIPSE
  5
467
100
AcDbEntity
  8
ALL_ASSEMBLY_MEMBERS
100
AcDbEllipse
 62
7
  6
CONTINUOUS
 10
5.2667424238
 20
4.4863548137
 30
0.0
 11
1.9284550012
 21
0.4586391511
 31
0.0
 40
0.0813853855
 41
-1.6352752504
 42
-1.6324355533
  0
ELLIPSE
  5
468
100
AcDbEntity
  8
ALL_ASSEMBLY_MEMBERS
100
AcDbEllipse
 62
7
  6
CONTINUOUS
 10
5.2667424238
 20
4.4863548137
 30
0.0
 11
1.9186425152
 21
0.4563054746
 31
0.0
 40
0.0813853855
 41
-1.635506194
 42
-1.6326519458
  0
ELLIPSE
  5
469
100
AcDbEntity
  8
ALL_ASSEMBLY_MEMBERS
100
AcDbEllipse
 62
7
  6
CONTINUOUS
 10
5.2377393995
 20
4.4863548137
 30
0.0
 11
1.28479561
 21
0.461943148
 31
0.0
 40
0.1143676625
 41
-1.6626997827
 42
-1.6570192891
  0
ELLIPSE
  5
46A
100
AcDbEntity
  8
ALL_ASSEMBLY_MEMBERS
100
AcDbEllipse
 62
7
  6
CONTINUOUS
 10
5.2377393995
 20
4.4863548137
 30
0.0
 11
1.2782582322
 21
0.4595926598
 31
0.0
 40
0.1143676625
 41
-1.6629598455
 42
-1.6572502327
  0
ELLIPSE
  5
46B
100
AcDbEntity
  8
ALL_ASSEMBLY_MEMBERS
100
AcDbEllipse
 62
7
  6
CONTINUOUS
 10
5.2050880629
 20
4.4863548137
 30
0.0
 11
0.6379534101
 21
0.4725921247
 31
0.0
 40
0.1691116253
 41
-1.754754002
 42
-1.7462301183
  0
ELLIPSE
  5
46C
100
AcDbEntity
  8
ALL_ASSEMBLY_MEMBERS
100
AcDbEllipse
 62
7
  6
CONTINUOUS
 10
5.2050880629
 20
4.4863548137
 30
0.0
 11
0.6347073354
 21
0.4701874517
 31
0.0
 40
0.1691116253
 41
-1.7550577922
 42
-1.7464901811
  0
ELLIPSE
  5
46D
100
AcDbEntity
  8
ALL_ASSEMBLY_MEMBERS
100
AcDbEllipse
 62
7
  6
CONTINUOUS
 10
5.1898387278
 20
4.4863548137
 30
0.0
 11
0.3768572419
 21
0.4804196487
 31
0.0
 40
0.1715483437
 41
-1.8596439314
 42
-1.8454275419
  0
ELLIPSE
  5
46E
100
AcDbEntity
  8
ALL_ASSEMBLY_MEMBERS
100
AcDbEllipse
 62
7
  6
CONTINUOUS
 10
5.1898387278
 20
4.4863548137
 30
0.0
 11
0.3749396931
 21
0.4779751472
 31
0.0
 40
0.1715483437
 41
-1.8600207538
 42
-1.8457313321
  0
ENDSEC
  0
SECTION
  2
OBJECTS
  0
DICTIONARY
  5
C
100
AcDbDictionary
280
0
281
1
  3
ACAD_GROUP
350
D
  3
ACAD_MLINESTYLE
350
17
  3
ACAD_LAYOUT
350
1A
  3
ACAD_PLOTSETTINGS
350
19
  3
ACAD_PLOTSTYLENAME
350
E
  0
DICTIONARY
  5
D
102
{ACAD_REACTORS
330
C
102
}
100
AcDbDictionary
280
0
281
1
  0
ACDBDICTIONARYWDFLT
  5
E
102
{ACAD_REACTORS
330
C
102
}
100
AcDbDictionary
281
1
  3
Normal
350
F
100
AcDbDictionaryWithDefault
340
F
  0
DICTIONARY
  5
17
102
{ACAD_REACTORS
330
C
102
}
100
AcDbDictionary
280
0
281
1
  3
Standard
350
18
  0
DICTIONARY
  5
19
102
{ACAD_REACTORS
330
C
102
}
100
AcDbDictionary
281
1
  0
DICTIONARY
  5
1A
102
{ACAD_REACTORS
330
C
102
}
100
AcDbDictionary
281
1
  3
Model
350
46F
  3
Layout1
350
470
  0
ACDBPLACEHOLDER
  5
F
102
{ACAD_REACTORS
330
E
102
}
  0
MLINESTYLE
  5
18
102
{ACAD_REACTORS
330
17
102
}
100
AcDbMlineStyle
  2
STANDARD
 70
0
  3

 62
256
 51
90.0
 52
90.0
 71
2
 49
0.5
 62
256
  6
BYLAYER
 49
-0.5
 62
256
  6
BYLAYER
  0
LAYOUT
  5
46F
102
{ACAD_REACTORS
330
1A
102
}
100
AcDbPlotSettings
  1

  2
none_device
  4
ANSI_A_(11.00_x_8.50_Inches)
  6

 40
0.0
 41
0.0
 42
0.0
 43
0.0
 44
279.4
 45
215.9
 46
0.0
 47
0.0
 48
0.0
 49
0.0
140
0.0
141
0.0
142
1.0
143
1.0
 70
1024
 72
0
 73
0
 74
0
  7

 75
0
147
1.0
148
0.0
149
0.0
100
AcDbLayout
  1
Model
 70
0
 71
0
 10
0.0
 20
0.0
 11
11.0
 21
8.5
 12
0.0
 22
0.0
 32
0.0
 14
0.0
 24
0.0
 34
0.0
 15
0.0
 25
0.0
 35
0.0
146
0.0
 13
0.0
 23
0.0
 33
0.0
 16
1.0
 26
0.0
 36
0.0
 17
0.0
 27
1.0
 37
0.0
 76
0
330
220
345
0
346
0
  0
LAYOUT
  5
470
102
{ACAD_REACTORS
330
1A
102
}
100
AcDbPlotSettings
  1

  2
none_device
  4
ANSI_A_(11.00_x_8.50_Inches)
  6

 40
0.0
 41
0.0
 42
0.0
 43
0.0
 44
279.4
 45
215.9
 46
0.0
 47
0.0
 48
0.0
 49
0.0
140
0.0
141
0.0
142
1.0
143
1.0
 70
0
 72
0
 73
0
 74
0
  7

 75
0
147
1.0
148
0.0
149
0.0
100
AcDbLayout
  1
Layout1
 70
0
 71
1
 10
0.0
 20
0.0
 11
11.0
 21
8.5
 12
0.0
 22
0.0
 32
0.0
 14
0.0
 24
0.0
 34
0.0
 15
0.0
 25
0.0
 35
0.0
146
0.0
 13
0.0
 23
0.0
 33
0.0
 16
1.0
 26
0.0
 36
0.0
 17
0.0
 27
1.0
 37
0.0
 76
0
330
221
345
0
346
0
  0
ENDSEC
  0
EOF
