  0
SECTION
  2
HEADER
  9
$ACADVER
  1
AC1015
  9
$DWGCODEPAGE
  3
ANSI_1252
  9
$EXTMAX
 10
23.3858267717
 20
16.5354330709
 30
0.0
  9
$EXTMIN
 10
0.0
 20
-0.0
 30
0.0
  9
$LIMMIN
 10
0.0
 20
-0.0
  9
$LIMMAX
 10
23.3858267717
 20
16.5354330709
  9
$VIEWCTR
 10
11.6929133858
 20
8.2677165354
  9
$VIEWSIZE
 40
16.5354330709
  9
$CLAYER
  8
0
  9
$LTSCALE
 40
1.2862204724
  9
$CELTYPE
  6
BYLAYER
  9
$DIMSCALE
 40
1.0
  9
$DIMASZ
 40
0.1
  9
$DIMEXO
 40
0.1461614173
  9
$DIMDLI
 40
0.8886614173
  9
$DIMEXE
 40
0.4209448819
  9
$DIMCEN
 40
0.2104724409
  9
$DIMLFAC
 40
1.0
  9
$DIMBLK
  1
_FILLED
  9
$DIMTXT
 40
0.08
  9
$DIMTOL
 70
1
  9
$DIMLIM
 70
0
  9
$DIMTFAC
 40
1.0
  9
$DIMTP
 40
0.01
  9
$DIMTM
 40
0.01
  9
$PDMODE
 70
3
  9
$PDSIZE
 40
0.06
  9
$HANDSEED
  5
380
  9
$TILEMODE
 70
1
  9
$MEASUREMENT
 70
0
  9
$INSUNITS
 70
1
  0
ENDSEC
  0
SECTION
  2
CLASSES
  0
CLASS
  1
ACDBDICTIONARYWDFLT
  2
AcDbDictionaryWithDefault
  3
AutoCAD 2000
 90
0
280
0
281
0
  0
CLASS
  1
ACDBPLACEHOLDER
  2
AcDbPlaceHolder
  3
AutoCAD 2000
 90
0
280
0
281
0
  0
CLASS
  1
LAYOUT
  2
AcDbLayout
  3
AutoCAD 2000
 90
0
280
0
281
0
  0
ENDSEC
  0
SECTION
  2
TABLES
  0
TABLE
  2
VPORT
  5
8
100
AcDbSymbolTable
 70
2
  0
VPORT
  5
1F4
100
AcDbSymbolTableRecord
100
AcDbViewportTableRecord
  2
*ACTIVE
 70
0
 10
0.0
 20
0.0
 11
1.0
 21
1.0
 12
11.6929133858
 22
8.2677165354
 13
0.0
 23
0.0
 14
1.0
 24
1.0
 15
0.0
 25
0.0
 16
0.0
 26
0.0
 36
1.0
 17
0.0
 27
0.0
 37
0.0
 40
16.5354330709
 41
1.4142857143
 42
50.0
 43
0.0
 44
0.0
 50
0.0
 51
0.0
 71
0
 72
100
 73
1
 74
1
 75
0
 76
0
 77
0
 78
0
  0
ENDTAB
  0
TABLE
  2
LTYPE
  5
5
100
AcDbSymbolTable
 70
6
  0
LTYPE
  5
14
100
AcDbSymbolTableRecord
100
AcDbLinetypeTableRecord
  2
BYBLOCK
 70
0
  3

 72
65
 73
0
 40
0.0
  0
LTYPE
  5
15
100
AcDbSymbolTableRecord
100
AcDbLinetypeTableRecord
  2
BYLAYER
 70
0
  3

 72
65
 73
0
 40
0.0
  0
LTYPE
  5
16
100
AcDbSymbolTableRecord
100
AcDbLinetypeTableRecord
  2
CONTINUOUS
 70
64
  3
Solid line
 72
65
 73
0
 40
0.0
  0
LTYPE
  5
1F5
100
AcDbSymbolTableRecord
100
AcDbLinetypeTableRecord
  2
CENTER
 70
64
  3
____ _ ____ _ ____ _ ____ _ ____ _ ____ _ ____
 72
65
 73
4
 40
0.6
 49
0.375
 74
0
 49
-0.075
 74
0
 49
0.075
 74
0
 49
-0.075
 74
0
  0
LTYPE
  5
1F6
100
AcDbSymbolTableRecord
100
AcDbLinetypeTableRecord
  2
HIDDEN
 70
64
  3
- - - - - - - - - - - - - - - - - - - -
 72
65
 73
2
 40
0.2
 49
0.1
 74
0
 49
-0.1
 74
0
  0
LTYPE
  5
1F7
100
AcDbSymbolTableRecord
100
AcDbLinetypeTableRecord
  2
PHANTOM
 70
64
  3
_____ _ _ _____ _ _ _____ _ _ _____
 72
65
 73
6
 40
0.8
 49
0.45
 74
0
 49
-0.05
 74
0
 49
0.1
 74
0
 49
-0.05
 74
0
 49
0.1
 74
0
 49
-0.05
 74
0
  0
LTYPE
  5
1F8
100
AcDbSymbolTableRecord
100
AcDbLinetypeTableRecord
  2
DOT
 70
64
  3
. . . . . . . . . . . . . . . . . . . .
 72
65
 73
2
 40
0.2
 49
0.1
 74
0
 49
-0.1
 74
0
  0
LTYPE
  5
1F9
100
AcDbSymbolTableRecord
100
AcDbLinetypeTableRecord
  2
DASHED
 70
64
  3
- - - - - - - - - - - - - - - - - - - -
 72
65
 73
2
 40
0.2
 49
0.1
 74
0
 49
-0.1
 74
0
  0
ENDTAB
  0
TABLE
  2
LAYER
  5
2
100
AcDbSymbolTable
 70
36
  0
LAYER
  5
10
100
AcDbSymbolTableRecord
100
AcDbLayerTableRecord
  2
0
 70
0
 62
7
  6
CONTINUOUS
370
-3
390
F
  0
LAYER
  5
1FA
100
AcDbSymbolTableRecord
100
AcDbLayerTableRecord
  2
DEFAULT_1
 70
0
 62
7
  6
CENTER
370
-3
390
F
  0
LAYER
  5
1FB
100
AcDbSymbolTableRecord
100
AcDbLayerTableRecord
  2
DEFAULT_2
 70
0
 62
8
  6
HIDDEN
370
-3
390
F
  0
LAYER
  5
1FC
100
AcDbSymbolTableRecord
100
AcDbLayerTableRecord
  2
DEFAULT_3
 70
0
 62
7
  6
PHANTOM
370
-3
390
F
  0
LAYER
  5
1FD
100
AcDbSymbolTableRecord
100
AcDbLayerTableRecord
  2
3_ALL_SYMBOLS
 70
0
 62
7
  6
CONTINUOUS
370
-3
390
F
  0
LAYER
  5
1FE
100
AcDbSymbolTableRecord
100
AcDbLayerTableRecord
  2
DEFAULT_COORDINATE_SYSTEM
 70
0
 62
7
  6
CONTINUOUS
370
-3
390
F
  0
LAYER
  5
1FF
100
AcDbSymbolTableRecord
100
AcDbLayerTableRecord
  2
DEFAULT_DATUM_AXES
 70
0
 62
7
  6
CONTINUOUS
370
-3
390
F
  0
LAYER
  5
200
100
AcDbSymbolTableRecord
100
AcDbLayerTableRecord
  2
DEFAULT_DATUM_CURVES
 70
0
 62
7
  6
CONTINUOUS
370
-3
390
F
  0
LAYER
  5
201
100
AcDbSymbolTableRecord
100
AcDbLayerTableRecord
  2
DEFAULT_DATUM_PLANES
 70
0
 62
7
  6
CONTINUOUS
370
-3
390
F
  0
ENDTAB
  0
TABLE
  2
STYLE
  5
3
100
AcDbSymbolTable
 70
1
  0
STYLE
  5
11
100
AcDbSymbolTableRecord
100
AcDbTextStyleTableRecord
  2
STANDARD
 70
0
 40
0.0
 41
0.8
 50
0.0
 71
0
 42
0.2
  3
txt
  4

  0
STYLE
  5
202
100
AcDbSymbolTableRecord
100
AcDbTextStyleTableRecord
  2
TEXTSTYLE_1
 70
0
 40
0.0
 41
0.8
 50
0.0
 71
0
 42
0.2
  3
gdt
  4

  0
ENDTAB
  0
TABLE
  2
VIEW
  5
6
100
AcDbSymbolTable
 70
0
  0
ENDTAB
  0
TABLE
  2
UCS
  5
7
100
AcDbSymbolTable
 70
0
  0
ENDTAB
  0
TABLE
  2
APPID
  5
9
100
AcDbSymbolTable
 70
1
  0
APPID
  5
203
100
AcDbSymbolTableRecord
100
AcDbRegAppTableRecord
  2
ACAD
 70
0
  0
ENDTAB
  0
TABLE
  2
BLOCK_RECORD
  5
1
100
AcDbSymbolTable
 70
0
  0
BLOCK_RECORD
  5
204
100
AcDbSymbolTableRecord
100
AcDbBlockTableRecord
  2
*Model_Space
  0
BLOCK_RECORD
  5
205
100
AcDbSymbolTableRecord
100
AcDbBlockTableRecord
  2
*Paper_Space
  0
ENDTAB
  0
TABLE
  2
DIMSTYLE
  5
A
100
AcDbSymbolTable
 70
1
100
AcDbDimStyleTable
 71
0
  0
DIMSTYLE
105
206
100
AcDbSymbolTableRecord
100
AcDbDimStyleTableRecord
  2
STANDARD
 70
0
  3

  4

 40
1.0
 41
0.1
 42
0.0625
 43
0.38
 44
0.18
 45
0.0
 46
0.0
 47
0.01
 48
0.01
140
0.08
141
0.09
142
0.0
143
25.4
144
1.0
145
0.0
146
1.0
147
0.09
 71
1.0
 72
0.0
 73
1
 74
1
 75
0
 76
0
 77
0
 78
4
170
0
171
2
172
0
173
0
174
0
175
0
176
0
177
0
178
0
270
2
271
2
272
2
273
2
274
2
275
0
280
0
281
0
282
0
283
1
284
4
285
0
286
0
287
3
288
0
340
11
  0
ENDTAB
  0
ENDSEC
  0
SECTION
  2
BLOCKS
  0
BLOCK
  5
20
100
AcDbEntity
  8
0
100
AcDbBlockBegin
  2
*Model_Space
 70
0
 10
0.0
 20
0.0
 30
0.0
  3
*Model_Space
  1

  0
ENDBLK
  5
21
100
AcDbEntity
  8
0
100
AcDbBlockEnd
  0
BLOCK
  5
1C
100
AcDbEntity
  8
0
100
AcDbBlockBegin
  2
*Paper_Space
 70
0
 10
0.0
 20
0.0
 30
0.0
  3
*Paper_Space
  1

  0
ENDBLK
  5
1D
100
AcDbEntity
  8
0
100
AcDbBlockEnd
  0
ENDSEC
  0
SECTION
  2
ENTITIES
  0
LINE
  5
207
100
AcDbEntity
  8
0
100
AcDbLine
 62
6
  6
CONTINUOUS
 10
0.9765741059
 20
7.9912423382
 11
0.9765741059
 21
7.7523675462
  0
LINE
  5
208
100
AcDbEntity
  8
0
100
AcDbLine
 62
9
  6
CONTINUOUS
 10
1.0065741059
 20
7.9912423382
 11
1.0065741059
 21
7.7523675537
  0
LINE
  5
209
100
AcDbEntity
  8
0
100
AcDbLine
 62
9
  6
CONTINUOUS
 10
1.0065741059
 20
7.7523675462
 11
0.9977081763
 21
7.7237075516
  0
LINE
  5
20A
100
AcDbEntity
  8
0
100
AcDbLine
 62
9
  6
CONTINUOUS
 10
1.0065741059
 20
7.9912423382
 11
0.9940375156
 21
8.0184973176
  0
LINE
  5
20B
100
AcDbEntity
  8
0
100
AcDbLine
 62
9
  6
CONTINUOUS
 10
1.8790101474
 20
7.6858716793
 11
1.8834300458
 21
7.6561990573
  0
LINE
  5
20C
100
AcDbEntity
  8
0
100
AcDbLine
 62
9
  6
CONTINUOUS
 10
2.4621536151
 20
8.1307020653
 11
2.4692870182
 21
8.1598416356
  0
LINE
  5
20D
100
AcDbEntity
  8
0
100
AcDbLine
 62
9
  6
CONTINUOUS
 10
2.2731542075
 20
7.7445815802
 11
2.2775741059
 21
7.7149089582
  0
LINE
  5
20E
100
AcDbEntity
  8
0
100
AcDbLine
 62
6
  6
CONTINUOUS
 10
2.8140741059
 20
7.0043738594
 11
2.8140741059
 21
6.5191815419
  0
LINE
  5
20F
100
AcDbEntity
  8
0
100
AcDbLine
 62
9
  6
CONTINUOUS
 10
2.8440741059
 20
6.5191815419
 11
2.8440741059
 21
7.0343738594
  0
LINE
  5
210
100
AcDbEntity
  8
0
100
AcDbLine
 62
6
  6
CONTINUOUS
 10
3.0890741059
 20
7.0343738594
 11
3.0890741059
 21
7.1543738594
  0
LINE
  5
211
100
AcDbEntity
  8
0
100
AcDbLine
 62
6
  6
CONTINUOUS
 10
3.2115741059
 20
7.6280069668
 11
3.2115741059
 21
7.1843738594
  0
LINE
  5
212
100
AcDbEntity
  8
0
100
AcDbLine
 62
6
  6
CONTINUOUS
 10
3.3012271512
 20
7.0343738594
 11
3.3012271512
 21
7.1543738594
  0
LINE
  5
213
100
AcDbEntity
  8
0
100
AcDbLine
 62
9
  6
CONTINUOUS
 10
3.4265741059
 20
8.0143738594
 11
3.4265741059
 21
8.0443738594
  0
LINE
  5
214
100
AcDbEntity
  8
0
100
AcDbLine
 62
9
  6
CONTINUOUS
 10
3.5265741059
 20
7.6643738594
 11
3.5265741059
 21
7.6052130615
  0
LINE
  5
215
100
AcDbEntity
  8
0
100
AcDbLine
 62
9
  6
CONTINUOUS
 10
3.0027474249
 20
7.7205582889
 11
2.9963851575
 21
7.6912406909
  0
LINE
  5
216
100
AcDbEntity
  8
0
100
AcDbLine
 62
6
  6
CONTINUOUS
 10
3.7519210606
 20
7.0343738594
 11
3.7519210606
 21
7.1543738594
  0
LINE
  5
217
100
AcDbEntity
  8
0
100
AcDbLine
 62
6
  6
CONTINUOUS
 10
3.8415741059
 20
7.6043738594
 11
3.8415741059
 21
7.1843738594
  0
LINE
  5
218
100
AcDbEntity
  8
0
100
AcDbLine
 62
6
  6
CONTINUOUS
 10
3.9640741059
 20
7.0343738594
 11
3.9640741059
 21
7.1543738594
  0
LINE
  5
219
100
AcDbEntity
  8
0
100
AcDbLine
 62
9
  6
CONTINUOUS
 10
4.1965741059
 20
7.6343738594
 11
4.1965741059
 21
8.0443738594
  0
LINE
  5
21A
100
AcDbEntity
  8
0
100
AcDbLine
 62
9
  6
CONTINUOUS
 10
4.2090741059
 20
6.5191815419
 11
4.2090741059
 21
7.0343738594
  0
LINE
  5
21B
100
AcDbEntity
  8
0
100
AcDbLine
 62
6
  6
CONTINUOUS
 10
4.2265741059
 20
7.6643738594
 11
4.2265741059
 21
8.0143738594
  0
LINE
  5
21C
100
AcDbEntity
  8
0
100
AcDbLine
 62
9
  6
CONTINUOUS
 10
4.2390741059
 20
7.0043738594
 11
4.2390741059
 21
6.5191815419
  0
LINE
  5
21D
100
AcDbEntity
  8
0
100
AcDbLine
 62
6
  6
CONTINUOUS
 10
6.486214855
 20
7.5084343202
 11
6.5930959614
 21
9.2674056196
  0
LINE
  5
21E
100
AcDbEntity
  8
0
100
AcDbLine
 62
6
  6
CONTINUOUS
 10
8.4600522504
 20
9.2674056196
 11
8.5669333568
 21
7.5084343202
  0
LINE
  5
21F
100
AcDbEntity
  8
0
100
AcDbLine
 62
6
  6
CONTINUOUS
 10
4.5890741059
 20
4.6343738594
 11
2.4640741059
 21
4.6343738594
  0
LINE
  5
220
100
AcDbEntity
  8
0
100
AcDbLine
 62
6
  6
CONTINUOUS
 10
5.9015741059
 20
4.6343738594
 11
9.1515741059
 21
4.6343738594
  0
LINE
  5
221
100
AcDbEntity
  8
0
100
AcDbLine
 62
6
  6
CONTINUOUS
 10
10.4640741059
 20
4.6343738594
 11
12.5890741059
 21
4.6343738594
  0
LINE
  5
222
100
AcDbEntity
  8
0
100
AcDbLine
 62
6
  6
CONTINUOUS
 10
15.4640741059
 20
4.6343738594
 11
17.5890741059
 21
4.6343738594
  0
LINE
  5
223
100
AcDbEntity
  8
0
100
AcDbLine
 62
6
  6
CONTINUOUS
 10
20.5746991759
 20
4.6343738594
 11
22.4784490359
 21
4.6343738594
  0
LINE
  5
224
100
AcDbEntity
  8
0
100
AcDbLine
 62
9
  6
CONTINUOUS
 10
20.5497562515
 20
4.6576855117
 11
22.5033919603
 21
4.6576855117
  0
LINE
  5
225
100
AcDbEntity
  8
0
100
AcDbLine
 62
9
  6
CONTINUOUS
 10
5.9845785384
 20
5.4946936582
 11
6.0336562669
 21
5.4851345492
  0
LINE
  5
226
100
AcDbEntity
  8
0
100
AcDbLine
 62
9
  6
CONTINUOUS
 10
20.7643683938
 20
5.4048426298
 11
22.288779818
 21
5.4048426298
  0
LINE
  5
227
100
AcDbEntity
  8
0
100
AcDbLine
 62
6
  6
CONTINUOUS
 10
20.7967600102
 20
5.4213738594
 11
22.2563882016
 21
5.4213738594
  0
LINE
  5
228
100
AcDbEntity
  8
0
100
AcDbLine
 62
9
  6
CONTINUOUS
 10
22.0740741059
 20
5.4665452908
 11
20.9790741059
 21
5.4665452908
  0
LINE
  5
229
100
AcDbEntity
  8
0
100
AcDbLine
 62
9
  6
CONTINUOUS
 10
6.0336562669
 20
5.4851345493
 11
9.0194919449
 21
5.4851345493
  0
LINE
  5
22A
100
AcDbEntity
  8
0
100
AcDbLine
 62
9
  6
CONTINUOUS
 10
22.0440741059
 20
5.5379595751
 11
21.0090741059
 21
5.5379595751
  0
LINE
  5
22B
100
AcDbEntity
  8
0
100
AcDbLine
 62
6
  6
CONTINUOUS
 10
22.0140741059
 20
5.6093738594
 11
21.0390741059
 21
5.6093738594
  0
LINE
  5
22C
100
AcDbEntity
  8
0
100
AcDbLine
 62
9
  6
CONTINUOUS
 10
4.3777407726
 20
5.621654074
 11
2.6754074392
 21
5.621654074
  0
LINE
  5
22D
100
AcDbEntity
  8
0
100
AcDbLine
 62
9
  6
CONTINUOUS
 10
10.6754074392
 20
5.621654074
 11
12.3777407726
 21
5.621654074
  0
LINE
  5
22E
100
AcDbEntity
  8
0
100
AcDbLine
 62
9
  6
CONTINUOUS
 10
15.6754074392
 20
5.621654074
 11
17.3777407726
 21
5.621654074
  0
LINE
  5
22F
100
AcDbEntity
  8
0
100
AcDbLine
 62
9
  6
CONTINUOUS
 10
9.0685696734
 20
5.4946936582
 11
9.0194919449
 21
5.4851345493
  0
LINE
  5
230
100
AcDbEntity
  8
0
100
AcDbLine
 62
9
  6
CONTINUOUS
 10
6.2795145719
 20
6.2843738594
 11
8.7736336399
 21
6.2843738594
  0
LINE
  5
231
100
AcDbEntity
  8
0
100
AcDbLine
 62
9
  6
CONTINUOUS
 10
2.8140741059
 20
6.5191815419
 11
4.2390741059
 21
6.5191815419
  0
LINE
  5
232
100
AcDbEntity
  8
0
100
AcDbLine
 62
9
  6
CONTINUOUS
 10
10.8140741059
 20
6.5191815419
 11
12.2390741059
 21
6.5191815419
  0
LINE
  5
233
100
AcDbEntity
  8
0
100
AcDbLine
 62
9
  6
CONTINUOUS
 10
15.8140741059
 20
6.5191815419
 11
17.2390741059
 21
6.5191815419
  0
LINE
  5
234
100
AcDbEntity
  8
0
100
AcDbLine
 62
6
  6
CONTINUOUS
 10
10.8140741059
 20
7.0043738594
 11
10.8140741059
 21
6.5191815419
  0
LINE
  5
235
100
AcDbEntity
  8
0
100
AcDbLine
 62
6
  6
CONTINUOUS
 10
10.8265741059
 20
8.0143738594
 11
10.8265741059
 21
7.6643738594
  0
LINE
  5
236
100
AcDbEntity
  8
0
100
AcDbLine
 62
9
  6
CONTINUOUS
 10
10.8440741059
 20
6.5191815419
 11
10.8440741059
 21
7.0343738594
  0
LINE
  5
237
100
AcDbEntity
  8
0
100
AcDbLine
 62
9
  6
CONTINUOUS
 10
10.8565741059
 20
7.6343738594
 11
10.8565741059
 21
8.0443738594
  0
LINE
  5
238
100
AcDbEntity
  8
0
100
AcDbLine
 62
9
  6
CONTINUOUS
 10
17.2390741059
 20
7.0043738594
 11
15.8140741059
 21
7.0043738594
  0
LINE
  5
239
100
AcDbEntity
  8
0
100
AcDbLine
 62
9
  6
CONTINUOUS
 10
12.2390741059
 20
7.0043738594
 11
10.8140741059
 21
7.0043738594
  0
LINE
  5
23A
100
AcDbEntity
  8
0
100
AcDbLine
 62
9
  6
CONTINUOUS
 10
4.2390741059
 20
7.0043738594
 11
2.8140741059
 21
7.0043738594
  0
LINE
  5
23B
100
AcDbEntity
  8
0
100
AcDbLine
 62
9
  6
CONTINUOUS
 10
17.2090741059
 20
7.0343738594
 11
15.8440741059
 21
7.0343738594
  0
LINE
  5
23C
100
AcDbEntity
  8
0
100
AcDbLine
 62
9
  6
CONTINUOUS
 10
12.2090741059
 20
7.0343738594
 11
10.8440741059
 21
7.0343738594
  0
LINE
  5
23D
100
AcDbEntity
  8
0
100
AcDbLine
 62
9
  6
CONTINUOUS
 10
4.2090741059
 20
7.0343738594
 11
2.8440741059
 21
7.0343738594
  0
LINE
  5
23E
100
AcDbEntity
  8
0
100
AcDbLine
 62
6
  6
CONTINUOUS
 10
3.0890777458
 20
7.1543738594
 11
3.964070466
 21
7.1543738594
  0
LINE
  5
23F
100
AcDbEntity
  8
0
100
AcDbLine
 62
6
  6
CONTINUOUS
 10
11.0890777458
 20
7.1543738594
 11
11.964070466
 21
7.1543738594
  0
LINE
  5
240
100
AcDbEntity
  8
0
100
AcDbLine
 62
6
  6
CONTINUOUS
 10
16.0890777458
 20
7.1543738594
 11
16.964070466
 21
7.1543738594
  0
LINE
  5
241
100
AcDbEntity
  8
0
100
AcDbLine
 62
7
  6
CONTINUOUS
 10
3.8415741059
 20
7.1843738594
 11
3.2115741059
 21
7.1843738594
  0
LINE
  5
242
100
AcDbEntity
  8
0
100
AcDbLine
 62
7
  6
CONTINUOUS
 10
11.2115741059
 20
7.1843738594
 11
11.8415741059
 21
7.1843738594
  0
LINE
  5
243
100
AcDbEntity
  8
0
100
AcDbLine
 62
7
  6
CONTINUOUS
 10
16.2115741059
 20
7.1843738594
 11
16.8415741059
 21
7.1843738594
  0
LINE
  5
244
100
AcDbEntity
  8
0
100
AcDbLine
 62
9
  6
CONTINUOUS
 10
8.489207768
 20
7.913670911
 11
8.4912027851
 21
7.9132439704
  0
LINE
  5
245
100
AcDbEntity
  8
0
100
AcDbLine
 62
6
  6
CONTINUOUS
 10
11.0890741059
 20
7.0343738594
 11
11.0890741059
 21
7.1543738594
  0
LINE
  5
246
100
AcDbEntity
  8
0
100
AcDbLine
 62
6
  6
CONTINUOUS
 10
11.2115741059
 20
7.6043738594
 11
11.2115741059
 21
7.1843738594
  0
LINE
  5
247
100
AcDbEntity
  8
0
100
AcDbLine
 62
6
  6
CONTINUOUS
 10
11.3012271512
 20
7.0343738594
 11
11.3012271512
 21
7.1543738594
  0
LINE
  5
248
100
AcDbEntity
  8
0
100
AcDbLine
 62
9
  6
CONTINUOUS
 10
11.5265741059
 20
7.6643738594
 11
11.5265741059
 21
7.6052130615
  0
LINE
  5
249
100
AcDbEntity
  8
0
100
AcDbLine
 62
9
  6
CONTINUOUS
 10
11.6265741059
 20
8.0143738594
 11
11.6265741059
 21
8.0443738594
  0
LINE
  5
24A
100
AcDbEntity
  8
0
100
AcDbLine
 62
6
  6
CONTINUOUS
 10
11.7519210606
 20
7.0343738594
 11
11.7519210606
 21
7.1543738594
  0
LINE
  5
24B
100
AcDbEntity
  8
0
100
AcDbLine
 62
6
  6
CONTINUOUS
 10
11.8415741059
 20
7.6280069668
 11
11.8415741059
 21
7.1843738594
  0
LINE
  5
24C
100
AcDbEntity
  8
0
100
AcDbLine
 62
6
  6
CONTINUOUS
 10
8.3676299243
 20
7.9082203467
 11
8.4913715005
 21
7.9132510371
  0
LINE
  5
24D
100
AcDbEntity
  8
0
100
AcDbLine
 62
9
  6
CONTINUOUS
 10
16.4512826119
 20
7.6043738594
 11
16.2115741059
 21
7.6043738594
  0
LINE
  5
24E
100
AcDbEntity
  8
0
100
AcDbLine
 62
9
  6
CONTINUOUS
 10
11.4512826119
 20
7.6043738594
 11
11.2115741059
 21
7.6043738594
  0
LINE
  5
24F
100
AcDbEntity
  8
0
100
AcDbLine
 62
9
  6
CONTINUOUS
 10
3.8415741059
 20
7.6043738594
 11
3.6018655999
 21
7.6043738594
  0
LINE
  5
250
100
AcDbEntity
  8
0
100
AcDbLine
 62
6
  6
CONTINUOUS
 10
3.6090362184
 20
7.6343738594
 11
4.1965741059
 21
7.6343738594
  0
LINE
  5
251
100
AcDbEntity
  8
0
100
AcDbLine
 62
6
  6
CONTINUOUS
 10
10.8565741059
 20
7.6343738594
 11
11.4441119934
 21
7.6343738594
  0
LINE
  5
252
100
AcDbEntity
  8
0
100
AcDbLine
 62
6
  6
CONTINUOUS
 10
15.8565741059
 20
7.6343738594
 11
16.4441119934
 21
7.6343738594
  0
LINE
  5
253
100
AcDbEntity
  8
0
100
AcDbLine
 62
9
  6
CONTINUOUS
 10
3.5265741059
 20
7.6643738594
 11
4.2265741059
 21
7.6643738594
  0
LINE
  5
254
100
AcDbEntity
  8
0
100
AcDbLine
 62
9
  6
CONTINUOUS
 10
10.8265741059
 20
7.6643738594
 11
11.5265741059
 21
7.6643738594
  0
LINE
  5
255
100
AcDbEntity
  8
0
100
AcDbLine
 62
9
  6
CONTINUOUS
 10
15.8265741059
 20
7.6643738594
 11
16.5265741059
 21
7.6643738594
  0
LINE
  5
256
100
AcDbEntity
  8
0
100
AcDbLine
 62
9
  6
CONTINUOUS
 10
1.0065741059
 20
7.7523675462
 11
0.9765741059
 21
7.7523675462
  0
LINE
  5
257
100
AcDbEntity
  8
0
100
AcDbLine
 62
9
  6
CONTINUOUS
 10
14.0465741059
 20
7.7523675462
 11
14.0765741059
 21
7.7523675462
  0
LINE
  5
258
100
AcDbEntity
  8
0
100
AcDbLine
 62
9
  6
CONTINUOUS
 10
19.0465741059
 20
7.7523675462
 11
19.0765741059
 21
7.7523675462
  0
LINE
  5
259
100
AcDbEntity
  8
0
100
AcDbLine
 62
9
  6
CONTINUOUS
 10
6.5608885637
 20
7.8635705446
 11
8.4922596482
 21
7.8635705446
  0
LINE
  5
25A
100
AcDbEntity
  8
0
100
AcDbLine
 62
9
  6
CONTINUOUS
 10
1.0065741059
 20
7.9912423382
 11
0.9765741059
 21
7.9912423382
  0
LINE
  5
25B
100
AcDbEntity
  8
0
100
AcDbLine
 62
9
  6
CONTINUOUS
 10
14.0465741059
 20
7.9912423382
 11
14.0765741059
 21
7.9912423382
  0
LINE
  5
25C
100
AcDbEntity
  8
0
100
AcDbLine
 62
9
  6
CONTINUOUS
 10
19.0465741059
 20
7.9912423382
 11
19.0765741059
 21
7.9912423382
  0
LINE
  5
25D
100
AcDbEntity
  8
0
100
AcDbLine
 62
9
  6
CONTINUOUS
 10
16.6265741059
 20
8.0143738594
 11
15.8265741059
 21
8.0143738594
  0
LINE
  5
25E
100
AcDbEntity
  8
0
100
AcDbLine
 62
9
  6
CONTINUOUS
 10
11.6265741059
 20
8.0143738594
 11
10.8265741059
 21
8.0143738594
  0
LINE
  5
25F
100
AcDbEntity
  8
0
100
AcDbLine
 62
9
  6
CONTINUOUS
 10
3.4265741059
 20
8.0143738594
 11
4.2265741059
 21
8.0143738594
  0
LINE
  5
260
100
AcDbEntity
  8
0
100
AcDbLine
 62
6
  6
CONTINUOUS
 10
16.6265741059
 20
8.0443738594
 11
15.8565741059
 21
8.0443738594
  0
LINE
  5
261
100
AcDbEntity
  8
0
100
AcDbLine
 62
6
  6
CONTINUOUS
 10
11.6265741059
 20
8.0443738594
 11
10.8565741059
 21
8.0443738594
  0
LINE
  5
262
100
AcDbEntity
  8
0
100
AcDbLine
 62
6
  6
CONTINUOUS
 10
4.1965741059
 20
8.0443738594
 11
3.4265741059
 21
8.0443738594
  0
LWPOLYLINE
  5
263
100
AcDbEntity
  8
0
100
AcDbPolyline
 62
6
  6
CONTINUOUS
 90
15
 70
0
 10
6.5617768531
 20
7.9132510406
 10
6.6856937965
 20
7.9082136985
 10
6.8128256053
 20
7.9037576331
 10
6.941078432
 20
7.8999959235
 10
7.0702526531
 20
7.8969547895
 10
7.2001441923
 20
7.8946553923
 10
7.3305484068
 20
7.8931136909
 10
7.4612604577
 20
7.8923404542
 10
7.5920751947
 20
7.8923410145
 10
7.7227869939
 20
7.8931153464
 10
7.8531905189
 20
7.894658148
 10
7.9830807587
 20
7.8969586074
 10
8.1122527818
 20
7.9000007598
 10
8.2405022741
 20
7.903763418
 10
8.3676299243
 20
7.9082203467
  0
LINE
  5
264
100
AcDbEntity
  8
0
100
AcDbLine
 62
6
  6
CONTINUOUS
 10
12.7755741059
 20
7.7149089582
 11
13.169718166
 21
7.6561990573
  0
LINE
  5
265
100
AcDbEntity
  8
0
100
AcDbLine
 62
9
  6
CONTINUOUS
 10
12.7799940043
 20
7.7445815802
 11
13.1741380644
 21
7.6858716793
  0
LINE
  5
266
100
AcDbEntity
  8
0
100
AcDbLine
 62
6
  6
CONTINUOUS
 10
11.9640741059
 20
7.0343738594
 11
11.9640741059
 21
7.1543738594
  0
LINE
  5
267
100
AcDbEntity
  8
0
100
AcDbLine
 62
9
  6
CONTINUOUS
 10
12.2090741059
 20
6.5191815419
 11
12.2090741059
 21
7.0343738594
  0
LINE
  5
268
100
AcDbEntity
  8
0
100
AcDbLine
 62
9
  6
CONTINUOUS
 10
12.2390741059
 20
7.0043738594
 11
12.2390741059
 21
6.5191815419
  0
LINE
  5
269
100
AcDbEntity
  8
0
100
AcDbLine
 62
9
  6
CONTINUOUS
 10
6.5639404438
 20
7.913670911
 11
6.5617765479
 21
7.913251
  0
LINE
  5
26A
100
AcDbEntity
  8
0
100
AcDbLine
 62
6
  6
CONTINUOUS
 10
17.7755741059
 20
7.7149089582
 11
18.169718166
 21
7.6561990573
  0
LINE
  5
26B
100
AcDbEntity
  8
0
100
AcDbLine
 62
9
  6
CONTINUOUS
 10
17.7799940043
 20
7.7445815802
 11
18.1741380644
 21
7.6858716793
  0
LINE
  5
26C
100
AcDbEntity
  8
0
100
AcDbLine
 62
9
  6
CONTINUOUS
 10
12.5909945967
 20
8.1307020653
 11
12.5838611936
 21
8.1598416356
  0
LINE
  5
26D
100
AcDbEntity
  8
0
100
AcDbLine
 62
9
  6
CONTINUOUS
 10
12.0504007869
 20
7.7205582889
 11
12.0567630543
 21
7.6912406909
  0
LINE
  5
26E
100
AcDbEntity
  8
0
100
AcDbLine
 62
9
  6
CONTINUOUS
 10
12.7799940043
 20
7.7445815802
 11
12.7755741059
 21
7.7149089582
  0
LINE
  5
26F
100
AcDbEntity
  8
0
100
AcDbLine
 62
9
  6
CONTINUOUS
 10
13.1741380644
 20
7.6858716793
 11
13.169718166
 21
7.6561990573
  0
LINE
  5
270
100
AcDbEntity
  8
0
100
AcDbLine
 62
6
  6
CONTINUOUS
 10
1.8834300458
 20
7.6561990573
 11
2.2775741059
 21
7.7149089582
  0
LINE
  5
271
100
AcDbEntity
  8
0
100
AcDbLine
 62
9
  6
CONTINUOUS
 10
1.8790101474
 20
7.6858716793
 11
2.2731542075
 21
7.7445815802
  0
LINE
  5
272
100
AcDbEntity
  8
0
100
AcDbLine
 62
6
  6
CONTINUOUS
 10
8.4101933934
 20
9.3143738594
 11
6.6429548184
 21
9.3143738594
  0
LINE
  5
273
100
AcDbEntity
  8
0
100
AcDbLine
 62
6
  6
CONTINUOUS
 10
20.7115396387
 20
9.4599200578
 11
22.3416082907
 21
9.4599200619
  0
LINE
  5
274
100
AcDbEntity
  8
0
100
AcDbLine
 62
9
  6
CONTINUOUS
 10
14.0465741059
 20
7.7523675537
 11
14.0465741059
 21
7.9912423382
  0
LINE
  5
275
100
AcDbEntity
  8
0
100
AcDbLine
 62
6
  6
CONTINUOUS
 10
14.0765741059
 20
7.7523675462
 11
14.0765741059
 21
7.9912423382
  0
LINE
  5
276
100
AcDbEntity
  8
0
100
AcDbLine
 62
9
  6
CONTINUOUS
 10
14.0465741059
 20
7.9912423382
 11
14.0591106962
 21
8.0184973176
  0
LINE
  5
277
100
AcDbEntity
  8
0
100
AcDbLine
 62
6
  6
CONTINUOUS
 10
20.7115396392
 20
10.0550351113
 11
22.3416082908
 21
10.055035116
  0
LINE
  5
278
100
AcDbEntity
  8
0
100
AcDbLine
 62
9
  6
CONTINUOUS
 10
14.0465741059
 20
7.7523675462
 11
14.0554400356
 21
7.7237075516
  0
LINE
  5
279
100
AcDbEntity
  8
0
100
AcDbLine
 62
9
  6
CONTINUOUS
 10
22.1516053881
 20
11.1846541191
 11
20.8998468946
 21
11.1846541191
  0
LINE
  5
27A
100
AcDbEntity
  8
0
100
AcDbLine
 62
6
  6
CONTINUOUS
 10
22.1515741059
 20
11.5149184808
 11
20.9015748613
 21
11.5149184808
  0
LINE
  5
27B
100
AcDbEntity
  8
0
100
AcDbLine
 62
6
  6
CONTINUOUS
 10
15.8140741059
 20
7.0043738594
 11
15.8140741059
 21
6.5191815419
  0
LINE
  5
27C
100
AcDbEntity
  8
0
100
AcDbLine
 62
6
  6
CONTINUOUS
 10
15.8265741059
 20
8.0143738594
 11
15.8265741059
 21
7.6643738594
  0
LINE
  5
27D
100
AcDbEntity
  8
0
100
AcDbLine
 62
9
  6
CONTINUOUS
 10
15.8440741059
 20
6.5191815419
 11
15.8440741059
 21
7.0343738594
  0
LINE
  5
27E
100
AcDbEntity
  8
0
100
AcDbLine
 62
9
  6
CONTINUOUS
 10
15.8565741059
 20
7.6343738594
 11
15.8565741059
 21
8.0443738594
  0
LINE
  5
27F
100
AcDbEntity
  8
0
100
AcDbLine
 62
6
  6
CONTINUOUS
 10
16.0890741059
 20
7.0343738594
 11
16.0890741059
 21
7.1543738594
  0
LINE
  5
280
100
AcDbEntity
  8
0
100
AcDbLine
 62
6
  6
CONTINUOUS
 10
16.2115741059
 20
7.6043738594
 11
16.2115741059
 21
7.1843738594
  0
LINE
  5
281
100
AcDbEntity
  8
0
100
AcDbLine
 62
6
  6
CONTINUOUS
 10
16.3012271512
 20
7.0343738594
 11
16.3012271512
 21
7.1543738594
  0
LINE
  5
282
100
AcDbEntity
  8
0
100
AcDbLine
 62
9
  6
CONTINUOUS
 10
16.5265741059
 20
7.6643738594
 11
16.5265741059
 21
7.6052130615
  0
LINE
  5
283
100
AcDbEntity
  8
0
100
AcDbLine
 62
9
  6
CONTINUOUS
 10
16.6265741059
 20
8.0143738594
 11
16.6265741059
 21
8.0443738594
  0
LINE
  5
284
100
AcDbEntity
  8
0
100
AcDbLine
 62
6
  6
CONTINUOUS
 10
16.7519210606
 20
7.0343738594
 11
16.7519210606
 21
7.1543738594
  0
LINE
  5
285
100
AcDbEntity
  8
0
100
AcDbLine
 62
6
  6
CONTINUOUS
 10
16.8415741059
 20
7.6280069668
 11
16.8415741059
 21
7.1843738594
  0
LINE
  5
286
100
AcDbEntity
  8
0
100
AcDbLine
 62
6
  6
CONTINUOUS
 10
16.9640741059
 20
7.0343738594
 11
16.9640741059
 21
7.1543738594
  0
LINE
  5
287
100
AcDbEntity
  8
0
100
AcDbLine
 62
9
  6
CONTINUOUS
 10
17.0504007869
 20
7.7205582889
 11
17.0567630543
 21
7.6912406909
  0
LINE
  5
288
100
AcDbEntity
  8
0
100
AcDbLine
 62
9
  6
CONTINUOUS
 10
17.2090741059
 20
6.5191815419
 11
17.2090741059
 21
7.0343738594
  0
LINE
  5
289
100
AcDbEntity
  8
0
100
AcDbLine
 62
9
  6
CONTINUOUS
 10
17.2390741059
 20
7.0043738594
 11
17.2390741059
 21
6.5191815419
  0
LINE
  5
28A
100
AcDbEntity
  8
0
100
AcDbLine
 62
9
  6
CONTINUOUS
 10
17.7799940043
 20
7.7445815802
 11
17.7755741059
 21
7.7149089582
  0
LINE
  5
28B
100
AcDbEntity
  8
0
100
AcDbLine
 62
9
  6
CONTINUOUS
 10
17.5909945967
 20
8.1307020653
 11
17.5838611936
 21
8.1598416356
  0
LINE
  5
28C
100
AcDbEntity
  8
0
100
AcDbLine
 62
9
  6
CONTINUOUS
 10
18.1741380644
 20
7.6858716793
 11
18.169718166
 21
7.6561990573
  0
LINE
  5
28D
100
AcDbEntity
  8
0
100
AcDbLine
 62
9
  6
CONTINUOUS
 10
19.0465741059
 20
7.9912423382
 11
19.0591106962
 21
8.0184973176
  0
LINE
  5
28E
100
AcDbEntity
  8
0
100
AcDbLine
 62
9
  6
CONTINUOUS
 10
19.0465741059
 20
7.7523675537
 11
19.0465741059
 21
7.9912423382
  0
LINE
  5
28F
100
AcDbEntity
  8
0
100
AcDbLine
 62
6
  6
CONTINUOUS
 10
19.0765741059
 20
7.7523675462
 11
19.0765741059
 21
7.9912423382
  0
LINE
  5
290
100
AcDbEntity
  8
0
100
AcDbLine
 62
9
  6
CONTINUOUS
 10
19.0465741059
 20
7.7523675462
 11
19.0554400356
 21
7.7237075516
  0
LINE
  5
291
100
AcDbEntity
  8
0
100
AcDbLine
 62
6
  6
CONTINUOUS
 10
20.6515741059
 20
9.4804139388
 11
20.6515740934
 21
10.0345412349
  0
LINE
  5
292
100
AcDbEntity
  8
0
100
AcDbLine
 62
9
  6
CONTINUOUS
 10
20.8372919418
 20
11.1529470539
 11
20.8372918401
 21
11.1529084731
  0
LINE
  5
293
100
AcDbEntity
  8
0
100
AcDbLine
 62
9
  6
CONTINUOUS
 10
20.8390741059
 20
11.4935422219
 11
20.8373476499
 21
11.1635666089
  0
LINE
  5
294
100
AcDbEntity
  8
0
100
AcDbLine
 62
6
  6
CONTINUOUS
 10
20.8390741059
 20
11.4935422219
 11
20.8390746988
 21
11.4935813184
  0
LWPOLYLINE
  5
295
100
AcDbEntity
  8
0
100
AcDbPolyline
 62
6
  6
CONTINUOUS
 90
11
 70
0
 10
20.8372919418
 20
11.1529470539
 10
20.834978016
 20
11.0373810357
 10
20.8291149907
 20
10.92091667
 10
20.8196886018
 20
10.8056093086
 10
20.8066696804
 20
10.6914589648
 10
20.7900160283
 20
10.5784772211
 10
20.7696804984
 20
10.4666803066
 10
20.7456007048
 20
10.3560896599
 10
20.7177071657
 20
10.2467279445
 10
20.6859184571
 20
10.1386331014
 10
20.6520347101
 20
10.0371652597
  0
LINE
  5
296
100
AcDbEntity
  8
0
100
AcDbLine
 62
6
  6
CONTINUOUS
 10
20.6520565723
 20
10.0371643636
 11
20.6515740934
 21
10.0345412349
  0
LINE
  5
297
100
AcDbEntity
  8
0
100
AcDbLine
 62
6
  6
CONTINUOUS
 10
20.9790741059
 20
5.4665452908
 11
20.9790741059
 21
5.4325845375
  0
LINE
  5
298
100
AcDbEntity
  8
0
100
AcDbLine
 62
6
  6
CONTINUOUS
 10
21.0265741059
 20
9.4599200586
 11
21.0265741059
 21
6.5597356365
  0
LINE
  5
299
100
AcDbEntity
  8
0
100
AcDbLine
 62
6
  6
CONTINUOUS
 10
21.0365741059
 20
6.2992805258
 11
21.0365741059
 21
6.1996947482
  0
LINE
  5
29A
100
AcDbEntity
  8
0
100
AcDbLine
 62
6
  6
CONTINUOUS
 10
21.0390741059
 20
5.6093738594
 11
21.0390741059
 21
6.1687362325
  0
LINE
  5
29B
100
AcDbEntity
  8
0
100
AcDbLine
 62
6
  6
CONTINUOUS
 10
21.0575741059
 20
6.2080612862
 11
21.0575741059
 21
6.4504915366
  0
LINE
  5
29C
100
AcDbEntity
  8
0
100
AcDbLine
 62
9
  6
CONTINUOUS
 10
20.9015748613
 20
11.5149184808
 11
20.8997911052
 21
11.1741419851
  0
LINE
  5
29D
100
AcDbEntity
  8
0
100
AcDbLine
 62
9
  6
CONTINUOUS
 10
22.2141049027
 20
11.1635241804
 11
22.2141049595
 21
11.163495344
  0
LINE
  5
29E
100
AcDbEntity
  8
0
100
AcDbLine
 62
6
  6
CONTINUOUS
 10
21.9955741059
 20
6.2080612862
 11
21.9955741059
 21
6.4504915366
  0
LINE
  5
29F
100
AcDbEntity
  8
0
100
AcDbLine
 62
6
  6
CONTINUOUS
 10
22.0140741059
 20
5.6093738594
 11
22.0140741059
 21
6.1687330382
  0
LINE
  5
2A0
100
AcDbEntity
  8
0
100
AcDbLine
 62
6
  6
CONTINUOUS
 10
22.0165741059
 20
6.2992805258
 11
22.0165741059
 21
6.1996947482
  0
LINE
  5
2A1
100
AcDbEntity
  8
0
100
AcDbLine
 62
6
  6
CONTINUOUS
 10
22.0265741059
 20
9.4599200611
 11
22.0265741059
 21
6.5597356365
  0
LINE
  5
2A2
100
AcDbEntity
  8
0
100
AcDbLine
 62
6
  6
CONTINUOUS
 10
22.0740741059
 20
5.4665452908
 11
22.0740741059
 21
5.4325845375
  0
LINE
  5
2A3
100
AcDbEntity
  8
0
100
AcDbLine
 62
9
  6
CONTINUOUS
 10
22.1515741059
 20
11.2005304424
 11
22.1515741059
 21
11.5149184808
  0
LINE
  5
2A4
100
AcDbEntity
  8
0
100
AcDbLine
 62
6
  6
CONTINUOUS
 10
22.2140741059
 20
11.1791541834
 11
22.2140741059
 21
11.4935422219
  0
LINE
  5
2A5
100
AcDbEntity
  8
0
100
AcDbLine
 62
6
  6
CONTINUOUS
 10
22.4015741173
 20
9.4804058267
 11
22.4015741059
 21
10.0345493458
  0
LWPOLYLINE
  5
2A6
100
AcDbEntity
  8
0
100
AcDbPolyline
 62
6
  6
CONTINUOUS
 90
11
 70
0
 10
22.4011092659
 20
10.0371846598
 10
22.3667845925
 20
10.1394958911
 10
22.3345809138
 20
10.2485677652
 10
22.3063443507
 20
10.3589289154
 10
22.2819910218
 20
10.47054039
 10
22.2614494015
 20
10.5833790519
 10
22.2446553774
 20
10.6974229637
 10
22.2315605898
 20
10.8126554074
 10
22.2221218125
 20
10.9290643533
 10
22.2163092393
 20
11.0466496604
 10
22.2141049151
 20
11.1635241804
  0
LINE
  5
2A7
100
AcDbEntity
  8
0
100
AcDbLine
 62
6
  6
CONTINUOUS
 10
22.4015741059
 20
10.0345493458
 11
22.4010874747
 21
10.0371837623
  0
ARC
  5
2A8
100
AcDbEntity
  8
0
100
AcDbCircle
 62
9
  6
CONTINUOUS
 10
1.7821814375
 20
4.6346998733
 40
2.776882709
100
AcDbArc
 50
359.993273336
 51
20.8191669654
  0
ARC
  5
2A9
100
AcDbEntity
  8
0
100
AcDbCircle
 62
6
  6
CONTINUOUS
 10
1.8390741059
 20
4.6343738594
 40
2.75
100
AcDbArc
 50
0.0
 51
21.0394697813
  0
ARC
  5
2AA
100
AcDbEntity
  8
0
100
AcDbCircle
 62
9
  6
CONTINUOUS
 10
1.9342817857
 20
5.9743738594
 40
2.25
100
AcDbArc
 50
76.2444427842
 51
114.7012151867
  0
ARC
  5
2AB
100
AcDbEntity
  8
0
100
AcDbCircle
 62
9
  6
CONTINUOUS
 10
1.9342817857
 20
5.9743738594
 40
2.22
100
AcDbArc
 50
76.2444427842
 51
114.7012151867
  0
ARC
  5
2AC
100
AcDbEntity
  8
0
100
AcDbCircle
 62
9
  6
CONTINUOUS
 10
2.5722339987
 20
5.7367341561
 40
2.0300000124
100
AcDbArc
 50
77.7559857074
 51
98.4722246009
  0
ARC
  5
2AD
100
AcDbEntity
  8
0
100
AcDbCircle
 62
6
  6
CONTINUOUS
 10
2.5722339987
 20
5.7367341561
 40
2.0
100
AcDbArc
 50
77.7559857074
 51
98.4722246009
  0
ARC
  5
2AE
100
AcDbEntity
  8
0
100
AcDbCircle
 62
9
  6
CONTINUOUS
 10
4.6515741059
 20
4.6343738594
 40
4.5
100
AcDbArc
 50
0.0
 51
11.021782763
  0
ARC
  5
2AF
100
AcDbEntity
  8
0
100
AcDbCircle
 62
6
  6
CONTINUOUS
 10
4.6515741059
 20
4.6343738594
 40
4.5
100
AcDbArc
 50
11.021782763
 51
21.5101882669
  0
ARC
  5
2B0
100
AcDbEntity
  8
0
100
AcDbCircle
 62
9
  6
CONTINUOUS
 10
4.6515741059
 20
4.6343738594
 40
4.45
100
AcDbArc
 50
0.0
 51
11.021782763
  0
ARC
  5
2B1
100
AcDbEntity
  8
0
100
AcDbCircle
 62
9
  6
CONTINUOUS
 10
4.9144776116
 20
4.6565987032
 40
4.1878012238
100
AcDbArc
 50
11.4109944327
 51
22.2074427937
  0
ARC
  5
2B2
100
AcDbEntity
  8
0
100
AcDbCircle
 62
9
  6
CONTINUOUS
 10
5.2709667762
 20
4.6346998726
 40
2.7768827109
100
AcDbArc
 50
159.1808330343
 51
180.0067266488
  0
ARC
  5
2B3
100
AcDbEntity
  8
0
100
AcDbCircle
 62
6
  6
CONTINUOUS
 10
5.2140741059
 20
4.6343738594
 40
2.75
100
AcDbArc
 50
158.9605302187
 51
180.0
  0
ARC
  5
2B4
100
AcDbEntity
  8
0
100
AcDbCircle
 62
6
  6
CONTINUOUS
 10
0.3140741059
 20
6.5191815419
 40
2.5
100
AcDbArc
 50
338.9605302187
 51
360.0
  0
ARC
  5
2B5
100
AcDbEntity
  8
0
100
AcDbCircle
 62
9
  6
CONTINUOUS
 10
0.3702404899
 20
6.5195089936
 40
2.4738406549
100
AcDbArc
 50
338.7192505641
 51
359.9924159801
  0
ARC
  5
2B6
100
AcDbEntity
  8
0
100
AcDbCircle
 62
9
  6
CONTINUOUS
 10
2.8440741059
 20
7.0043738594
 40
0.03
100
AcDbArc
 50
90.0
 51
180.0
  0
ARC
  5
2B7
100
AcDbEntity
  8
0
100
AcDbCircle
 62
6
  6
CONTINUOUS
 10
2.493578855
 20
7.751040526
 40
4.0
100
AcDbArc
 50
338.4898117331
 51
356.5227879688
  0
ARC
  5
2B8
100
AcDbEntity
  8
0
100
AcDbCircle
 62
9
  6
CONTINUOUS
 10
2.5922352554
 20
7.7048131389
 40
3.9514049218
100
AcDbArc
 50
338.9319717489
 51
356.4681671916
  0
ARC
  5
2B9
100
AcDbEntity
  8
0
100
AcDbCircle
 62
9
  6
CONTINUOUS
 10
2.713379153
 20
7.6871397316
 40
3.8321108959
100
AcDbArc
 50
337.8034862444
 51
338.5274359069
  0
ARC
  5
2BA
100
AcDbEntity
  8
0
100
AcDbCircle
 62
9
  6
CONTINUOUS
 10
1.0065741059
 20
7.9912423382
 40
0.03
100
AcDbArc
 50
114.7012151867
 51
180.0
  0
ARC
  5
2BB
100
AcDbEntity
  8
0
100
AcDbCircle
 62
9
  6
CONTINUOUS
 10
1.0065741059
 20
7.7523675462
 40
0.03
100
AcDbArc
 50
180.0
 51
252.8106195197
  0
ARC
  5
2BC
100
AcDbEntity
  8
0
100
AcDbCircle
 62
6
  6
CONTINUOUS
 10
3.1815744784
 20
7.6280068713
 40
0.0299999676
100
AcDbArc
 50
0.0001824025
 51
82.163249944
  0
ARC
  5
2BD
100
AcDbEntity
  8
0
100
AcDbCircle
 62
6
  6
CONTINUOUS
 10
6.7390741059
 20
6.5191815419
 40
2.5
100
AcDbArc
 50
180.0
 51
201.0394697813
  0
ARC
  5
2BE
100
AcDbEntity
  8
0
100
AcDbCircle
 62
9
  6
CONTINUOUS
 10
6.68290774
 20
6.5195089993
 40
2.4738406506
100
AcDbArc
 50
180.0075841518
 51
201.2807494072
  0
ARC
  5
2BF
100
AcDbEntity
  8
0
100
AcDbCircle
 62
6
  6
CONTINUOUS
 10
4.2090741059
 20
7.0043738594
 40
0.03
100
AcDbArc
 50
0.0
 51
90.0
  0
ARC
  5
2C0
100
AcDbEntity
  8
0
100
AcDbCircle
 62
6
  6
CONTINUOUS
 10
6.563940475
 20
7.9632041818
 40
0.0500000295
100
AcDbArc
 50
176.5228223578
 51
267.5195488429
  0
ARC
  5
2C1
100
AcDbEntity
  8
0
100
AcDbCircle
 62
9
  6
CONTINUOUS
 10
6.563582221
 20
7.9597991659
 40
0.0461296459
100
AcDbArc
 50
267.9522687836
 51
270.4449386571
  0
ARC
  5
2C2
100
AcDbEntity
  8
0
100
AcDbCircle
 62
9
  6
CONTINUOUS
 10
4.1965741059
 20
8.0143738594
 40
0.03
100
AcDbArc
 50
0.0
 51
90.0
  0
ARC
  5
2C3
100
AcDbEntity
  8
0
100
AcDbCircle
 62
6
  6
CONTINUOUS
 10
4.1965741059
 20
7.6643738594
 40
0.03
100
AcDbArc
 50
270.0
 51
360.0
  0
ARC
  5
2C4
100
AcDbEntity
  8
0
100
AcDbCircle
 62
6
  6
CONTINUOUS
 10
3.8715741059
 20
7.6043738594
 40
0.03
100
AcDbArc
 50
90.3822393871
 51
180.0
  0
ARC
  5
2C5
100
AcDbEntity
  8
0
100
AcDbCircle
 62
9
  6
CONTINUOUS
 10
10.4015741059
 20
4.6343738594
 40
4.5
100
AcDbArc
 50
168.978217237
 51
180.0
  0
ARC
  5
2C6
100
AcDbEntity
  8
0
100
AcDbCircle
 62
6
  6
CONTINUOUS
 10
10.4015741059
 20
4.6343738594
 40
4.5
100
AcDbArc
 50
158.4898117331
 51
168.978217237
  0
ARC
  5
2C7
100
AcDbEntity
  8
0
100
AcDbCircle
 62
9
  6
CONTINUOUS
 10
10.4015741059
 20
4.6343738594
 40
4.45
100
AcDbArc
 50
168.978217237
 51
180.0
  0
ARC
  5
2C8
100
AcDbEntity
  8
0
100
AcDbCircle
 62
9
  6
CONTINUOUS
 10
10.1386700951
 20
4.6565987583
 40
4.1878007215
100
AcDbArc
 50
157.7925552922
 51
168.5890049388
  0
ARC
  5
2C9
100
AcDbEntity
  8
0
100
AcDbCircle
 62
9
  6
CONTINUOUS
 10
9.7821814375
 20
4.6346998733
 40
2.776882709
100
AcDbArc
 50
359.993273336
 51
20.8191669654
  0
ARC
  5
2CA
100
AcDbEntity
  8
0
100
AcDbCircle
 62
6
  6
CONTINUOUS
 10
9.8390741059
 20
4.6343738594
 40
2.75
100
AcDbArc
 50
0.0
 51
21.0394697813
  0
ARC
  5
2CB
100
AcDbEntity
  8
0
100
AcDbCircle
 62
6
  6
CONTINUOUS
 10
13.2140741059
 20
4.6343738594
 40
2.75
100
AcDbArc
 50
158.9605302187
 51
180.0
  0
ARC
  5
2CC
100
AcDbEntity
  8
0
100
AcDbCircle
 62
6
  6
CONTINUOUS
 10
13.1188664261
 20
5.9743738594
 40
2.25
100
AcDbArc
 50
65.2987848133
 51
103.7555572158
  0
ARC
  5
2CD
100
AcDbEntity
  8
0
100
AcDbCircle
 62
9
  6
CONTINUOUS
 10
13.1188664261
 20
5.9743738594
 40
2.22
100
AcDbArc
 50
65.2987848133
 51
103.7555572158
  0
ARC
  5
2CE
100
AcDbEntity
  8
0
100
AcDbCircle
 62
9
  6
CONTINUOUS
 10
12.4809142131
 20
5.7367341561
 40
2.0300000124
100
AcDbArc
 50
81.5277753991
 51
102.2440142926
  0
ARC
  5
2CF
100
AcDbEntity
  8
0
100
AcDbCircle
 62
6
  6
CONTINUOUS
 10
12.4809142131
 20
5.7367341561
 40
2.0
100
AcDbArc
 50
81.5277753991
 51
102.2440142926
  0
ARC
  5
2D0
100
AcDbEntity
  8
0
100
AcDbCircle
 62
6
  6
CONTINUOUS
 10
8.3140741059
 20
6.5191815419
 40
2.5
100
AcDbArc
 50
338.9605302187
 51
360.0
  0
ARC
  5
2D1
100
AcDbEntity
  8
0
100
AcDbCircle
 62
9
  6
CONTINUOUS
 10
8.3702404899
 20
6.5195089936
 40
2.4738406549
100
AcDbArc
 50
338.7192505641
 51
359.9924159801
  0
ARC
  5
2D2
100
AcDbEntity
  8
0
100
AcDbCircle
 62
9
  6
CONTINUOUS
 10
8.4888587867
 20
7.965459831
 40
0.0517901969
100
AcDbArc
 50
272.4214831454
 51
272.6046158139
  0
ARC
  5
2D3
100
AcDbEntity
  8
0
100
AcDbCircle
 62
9
  6
CONTINUOUS
 10
8.4888664015
 20
7.9652647422
 40
0.0515949605
100
AcDbArc
 50
270.3790874684
 51
272.4221878559
  0
ARC
  5
2D4
100
AcDbEntity
  8
0
100
AcDbCircle
 62
6
  6
CONTINUOUS
 10
8.4892079257
 20
7.9631962945
 40
0.0499921463
100
AcDbArc
 50
272.2869070607
 51
3.4771928844
  0
ARC
  5
2D5
100
AcDbEntity
  8
0
100
AcDbCircle
 62
6
  6
CONTINUOUS
 10
10.8440741059
 20
7.0043738594
 40
0.03
100
AcDbArc
 50
90.0
 51
180.0
  0
ARC
  5
2D6
100
AcDbEntity
  8
0
100
AcDbCircle
 62
6
  6
CONTINUOUS
 10
12.2090741059
 20
7.0043738594
 40
0.03
100
AcDbArc
 50
0.0
 51
90.0
  0
ARC
  5
2D7
100
AcDbEntity
  8
0
100
AcDbCircle
 62
9
  6
CONTINUOUS
 10
10.8565741059
 20
7.6643738594
 40
0.03
100
AcDbArc
 50
180.0
 51
270.0
  0
ARC
  5
2D8
100
AcDbEntity
  8
0
100
AcDbCircle
 62
6
  6
CONTINUOUS
 10
11.1815741059
 20
7.6043738594
 40
0.03
100
AcDbArc
 50
0.0
 51
89.6177606129
  0
ARC
  5
2D9
100
AcDbEntity
  8
0
100
AcDbCircle
 62
6
  6
CONTINUOUS
 10
10.8565741059
 20
8.0143738594
 40
0.03
100
AcDbArc
 50
90.0
 51
180.0
  0
ARC
  5
2DA
100
AcDbEntity
  8
0
100
AcDbCircle
 62
6
  6
CONTINUOUS
 10
12.5595693568
 20
7.751040526
 40
4.0
100
AcDbArc
 50
183.4772120312
 51
201.5101882669
  0
ARC
  5
2DB
100
AcDbEntity
  8
0
100
AcDbCircle
 62
9
  6
CONTINUOUS
 10
12.4609132411
 20
7.7048132441
 40
3.9514052148
100
AcDbArc
 50
183.5318340765
 51
201.0680281908
  0
ARC
  5
2DC
100
AcDbEntity
  8
0
100
AcDbCircle
 62
9
  6
CONTINUOUS
 10
12.339269463
 20
7.6869395581
 40
3.8315727009
100
AcDbArc
 50
201.4725132482
 51
202.1965646004
  0
ARC
  5
2DD
100
AcDbEntity
  8
0
100
AcDbCircle
 62
6
  6
CONTINUOUS
 10
11.8715737334
 20
7.6280068713
 40
0.0299999676
100
AcDbArc
 50
97.836750056
 51
179.9998175975
  0
ARC
  5
2DE
100
AcDbEntity
  8
0
100
AcDbCircle
 62
9
  6
CONTINUOUS
 10
1.5887701529
 20
9.6343738594
 40
2.0
100
AcDbArc
 50
252.8106195197
 51
278.4722246009
  0
ARC
  5
2DF
100
AcDbEntity
  8
0
100
AcDbCircle
 62
9
  6
CONTINUOUS
 10
1.5887701529
 20
9.6343738594
 40
1.97
100
AcDbArc
 50
252.8106194549
 51
278.4722246009
  0
ARC
  5
2E0
100
AcDbEntity
  8
0
100
AcDbCircle
 62
9
  6
CONTINUOUS
 10
3.5265741059
 20
10.1343738594
 40
2.5
100
AcDbArc
 50
257.7559857074
 51
268.132186573
  0
ARC
  5
2E1
100
AcDbEntity
  8
0
100
AcDbCircle
 62
9
  6
CONTINUOUS
 10
3.5265741059
 20
10.1343738594
 40
2.4700000103
100
AcDbArc
 50
257.7559857074
 51
270.0
  0
ARC
  5
2E2
100
AcDbEntity
  8
0
100
AcDbCircle
 62
9
  6
CONTINUOUS
 10
3.4265741059
 20
12.0703082173
 40
4.0559343726
100
AcDbArc
 50
256.2444427842
 51
270.0
  0
ARC
  5
2E3
100
AcDbEntity
  8
0
100
AcDbCircle
 62
6
  6
CONTINUOUS
 10
3.4265741059
 20
12.0703082173
 40
4.0259343579
100
AcDbArc
 50
256.2444427842
 51
270.0
  0
ARC
  5
2E4
100
AcDbEntity
  8
0
100
AcDbCircle
 62
6
  6
CONTINUOUS
 10
11.5265741059
 20
10.1343738594
 40
2.5
100
AcDbArc
 50
271.867813427
 51
282.2440142926
  0
ARC
  5
2E5
100
AcDbEntity
  8
0
100
AcDbCircle
 62
9
  6
CONTINUOUS
 10
11.5265741059
 20
10.1343738594
 40
2.4700000103
100
AcDbArc
 50
270.0
 51
282.2440142926
  0
ARC
  5
2E6
100
AcDbEntity
  8
0
100
AcDbCircle
 62
6
  6
CONTINUOUS
 10
8.4101442589
 20
9.2643737253
 40
0.05
100
AcDbArc
 50
3.4772120312
 51
89.9999999573
  0
ARC
  5
2E7
100
AcDbEntity
  8
0
100
AcDbCircle
 62
6
  6
CONTINUOUS
 10
6.6430039529
 20
9.2643737253
 40
0.05
100
AcDbArc
 50
90.0000000427
 51
176.5227879688
  0
ARC
  5
2E8
100
AcDbEntity
  8
0
100
AcDbCircle
 62
9
  6
CONTINUOUS
 10
11.6265741059
 20
12.0703082173
 40
4.0559343726
100
AcDbArc
 50
270.0
 51
283.7555572158
  0
ARC
  5
2E9
100
AcDbEntity
  8
0
100
AcDbCircle
 62
9
  6
CONTINUOUS
 10
11.6265741059
 20
12.0703082173
 40
4.0259343579
100
AcDbArc
 50
270.0
 51
283.7555572158
  0
ARC
  5
2EA
100
AcDbEntity
  8
0
100
AcDbCircle
 62
9
  6
CONTINUOUS
 10
13.2709667762
 20
4.6346998726
 40
2.7768827109
100
AcDbArc
 50
159.1808330343
 51
180.0067266488
  0
ARC
  5
2EB
100
AcDbEntity
  8
0
100
AcDbCircle
 62
9
  6
CONTINUOUS
 10
14.7821814375
 20
4.6346998733
 40
2.776882709
100
AcDbArc
 50
359.993273336
 51
20.8191669654
  0
ARC
  5
2EC
100
AcDbEntity
  8
0
100
AcDbCircle
 62
6
  6
CONTINUOUS
 10
14.8390741059
 20
4.6343738594
 40
2.75
100
AcDbArc
 50
0.0
 51
21.0394697813
  0
ARC
  5
2ED
100
AcDbEntity
  8
0
100
AcDbCircle
 62
9
  6
CONTINUOUS
 10
17.4809142131
 20
5.7367341561
 40
2.0300000124
100
AcDbArc
 50
81.5277753991
 51
102.2440142926
  0
ARC
  5
2EE
100
AcDbEntity
  8
0
100
AcDbCircle
 62
6
  6
CONTINUOUS
 10
17.4809142131
 20
5.7367341561
 40
2.0
100
AcDbArc
 50
81.5277753991
 51
102.2440142926
  0
ARC
  5
2EF
100
AcDbEntity
  8
0
100
AcDbCircle
 62
6
  6
CONTINUOUS
 10
14.7390741059
 20
6.5191815419
 40
2.5
100
AcDbArc
 50
180.0
 51
201.0394697813
  0
ARC
  5
2F0
100
AcDbEntity
  8
0
100
AcDbCircle
 62
6
  6
CONTINUOUS
 10
13.3140741059
 20
6.5191815419
 40
2.5
100
AcDbArc
 50
338.9605302187
 51
360.0
  0
ARC
  5
2F1
100
AcDbEntity
  8
0
100
AcDbCircle
 62
9
  6
CONTINUOUS
 10
13.3702404899
 20
6.5195089936
 40
2.4738406549
100
AcDbArc
 50
338.7192505641
 51
359.9924159801
  0
ARC
  5
2F2
100
AcDbEntity
  8
0
100
AcDbCircle
 62
9
  6
CONTINUOUS
 10
14.68290774
 20
6.5195089993
 40
2.4738406506
100
AcDbArc
 50
180.0075841518
 51
201.2807494072
  0
ARC
  5
2F3
100
AcDbEntity
  8
0
100
AcDbCircle
 62
6
  6
CONTINUOUS
 10
14.0465741059
 20
7.9912423382
 40
0.03
100
AcDbArc
 50
0.0
 51
65.2987848133
  0
ARC
  5
2F4
100
AcDbEntity
  8
0
100
AcDbCircle
 62
6
  6
CONTINUOUS
 10
14.0465741059
 20
7.7523675462
 40
0.03
100
AcDbArc
 50
287.1893804803
 51
360.0
  0
ARC
  5
2F5
100
AcDbEntity
  8
0
100
AcDbCircle
 62
6
  6
CONTINUOUS
 10
15.8440741059
 20
7.0043738594
 40
0.03
100
AcDbArc
 50
90.0
 51
180.0
  0
ARC
  5
2F6
100
AcDbEntity
  8
0
100
AcDbCircle
 62
6
  6
CONTINUOUS
 10
17.2090741059
 20
7.0043738594
 40
0.03
100
AcDbArc
 50
0.0
 51
90.0
  0
ARC
  5
2F7
100
AcDbEntity
  8
0
100
AcDbCircle
 62
9
  6
CONTINUOUS
 10
15.8565741059
 20
7.6643738594
 40
0.03
100
AcDbArc
 50
180.0
 51
270.0
  0
ARC
  5
2F8
100
AcDbEntity
  8
0
100
AcDbCircle
 62
6
  6
CONTINUOUS
 10
16.1815741059
 20
7.6043738594
 40
0.03
100
AcDbArc
 50
0.0
 51
89.6177606129
  0
ARC
  5
2F9
100
AcDbEntity
  8
0
100
AcDbCircle
 62
6
  6
CONTINUOUS
 10
15.8565741059
 20
8.0143738594
 40
0.03
100
AcDbArc
 50
90.0
 51
180.0
  0
ARC
  5
2FA
100
AcDbEntity
  8
0
100
AcDbCircle
 62
6
  6
CONTINUOUS
 10
16.8715737334
 20
7.6280068713
 40
0.0299999676
100
AcDbArc
 50
97.8367500559
 51
179.9998175975
  0
ARC
  5
2FB
100
AcDbEntity
  8
0
100
AcDbCircle
 62
9
  6
CONTINUOUS
 10
18.2709667762
 20
4.6346998726
 40
2.7768827109
100
AcDbArc
 50
159.1808330343
 51
180.0067266488
  0
ARC
  5
2FC
100
AcDbEntity
  8
0
100
AcDbCircle
 62
6
  6
CONTINUOUS
 10
18.2140741059
 20
4.6343738594
 40
2.75
100
AcDbArc
 50
158.9605302187
 51
180.0
  0
ARC
  5
2FD
100
AcDbEntity
  8
0
100
AcDbCircle
 62
6
  6
CONTINUOUS
 10
18.1188664261
 20
5.9743738594
 40
2.25
100
AcDbArc
 50
65.2987848133
 51
103.7555572157
  0
ARC
  5
2FE
100
AcDbEntity
  8
0
100
AcDbCircle
 62
9
  6
CONTINUOUS
 10
18.1188664261
 20
5.9743738594
 40
2.22
100
AcDbArc
 50
65.2987848133
 51
103.7555572158
  0
ARC
  5
2FF
100
AcDbEntity
  8
0
100
AcDbCircle
 62
6
  6
CONTINUOUS
 10
21.3639991696
 20
4.7348092334
 40
1.142
100
AcDbArc
 50
356.1276448237
 51
35.9245410253
  0
ARC
  5
300
100
AcDbEntity
  8
0
100
AcDbCircle
 62
6
  6
CONTINUOUS
 10
21.6891490422
 20
4.7348092334
 40
1.142
100
AcDbArc
 50
144.0754589747
 51
183.8723551763
  0
ARC
  5
301
100
AcDbEntity
  8
0
100
AcDbCircle
 62
6
  6
CONTINUOUS
 10
20.5746991759
 20
4.6593738594
 40
0.025
100
AcDbArc
 50
183.8723551763
 51
270.0
  0
ARC
  5
302
100
AcDbEntity
  8
0
100
AcDbCircle
 62
6
  6
CONTINUOUS
 10
22.4784490359
 20
4.6593738594
 40
0.025
100
AcDbArc
 50
270.0
 51
356.1276448237
  0
ARC
  5
303
100
AcDbEntity
  8
0
100
AcDbCircle
 62
6
  6
CONTINUOUS
 10
21.9740741059
 20
5.4665452908
 40
0.1
100
AcDbArc
 50
0.0
 51
45.5729959992
  0
ARC
  5
304
100
AcDbEntity
  8
0
100
AcDbCircle
 62
6
  6
CONTINUOUS
 10
22.1140741059
 20
5.6093738594
 40
0.1
100
AcDbArc
 50
180.0
 51
225.5729959992
  0
ARC
  5
305
100
AcDbEntity
  8
0
100
AcDbCircle
 62
6
  6
CONTINUOUS
 10
21.0790741059
 20
5.4665452908
 40
0.1
100
AcDbArc
 50
134.4270040008
 51
180.0
  0
ARC
  5
306
100
AcDbEntity
  8
0
100
AcDbCircle
 62
6
  6
CONTINUOUS
 10
20.9390741059
 20
5.6093738594
 40
0.1
100
AcDbArc
 50
314.4270040008
 51
360.0
  0
ARC
  5
307
100
AcDbEntity
  8
0
100
AcDbCircle
 62
6
  6
CONTINUOUS
 10
22.2563882016
 20
5.3813738594
 40
0.04
100
AcDbArc
 50
35.9245410253
 51
90.0
  0
ARC
  5
308
100
AcDbEntity
  8
0
100
AcDbCircle
 62
6
  6
CONTINUOUS
 10
20.7967600102
 20
5.3813738594
 40
0.04
100
AcDbArc
 50
90.0
 51
144.0754589747
  0
ARC
  5
309
100
AcDbEntity
  8
0
100
AcDbCircle
 62
6
  6
CONTINUOUS
 10
19.7390741059
 20
6.5191815419
 40
2.5
100
AcDbArc
 50
180.0
 51
201.0394697813
  0
ARC
  5
30A
100
AcDbEntity
  8
0
100
AcDbCircle
 62
9
  6
CONTINUOUS
 10
19.68290774
 20
6.5195089993
 40
2.4738406506
100
AcDbArc
 50
180.0075841518
 51
201.2807494072
  0
ARC
  5
30B
100
AcDbEntity
  8
0
100
AcDbCircle
 62
6
  6
CONTINUOUS
 10
19.0465741059
 20
7.7523675462
 40
0.03
100
AcDbArc
 50
287.1893804803
 51
360.0
  0
ARC
  5
30C
100
AcDbEntity
  8
0
100
AcDbCircle
 62
6
  6
CONTINUOUS
 10
19.0465741059
 20
7.9912423382
 40
0.03
100
AcDbArc
 50
0.0
 51
65.2987848133
  0
ARC
  5
30D
100
AcDbEntity
  8
0
100
AcDbCircle
 62
6
  6
CONTINUOUS
 10
16.5265741059
 20
10.1343738594
 40
2.5
100
AcDbArc
 50
271.867813427
 51
282.2440142926
  0
ARC
  5
30E
100
AcDbEntity
  8
0
100
AcDbCircle
 62
9
  6
CONTINUOUS
 10
16.5265741059
 20
10.1343738594
 40
2.4700000103
100
AcDbArc
 50
270.0
 51
282.2440142926
  0
ARC
  5
30F
100
AcDbEntity
  8
0
100
AcDbCircle
 62
6
  6
CONTINUOUS
 10
13.4643780589
 20
9.6343738594
 40
2.0
100
AcDbArc
 50
261.5277753991
 51
287.1893804803
  0
ARC
  5
310
100
AcDbEntity
  8
0
100
AcDbCircle
 62
6
  6
CONTINUOUS
 10
18.4643780589
 20
9.6343738594
 40
2.0
100
AcDbArc
 50
261.5277753991
 51
287.1893804803
  0
ARC
  5
311
100
AcDbEntity
  8
0
100
AcDbCircle
 62
9
  6
CONTINUOUS
 10
18.4643780589
 20
9.6343738594
 40
1.97
100
AcDbArc
 50
261.5277753991
 51
287.1893805451
  0
ARC
  5
312
100
AcDbEntity
  8
0
100
AcDbCircle
 62
9
  6
CONTINUOUS
 10
13.4643780589
 20
9.6343738594
 40
1.97
100
AcDbArc
 50
261.5277753991
 51
287.1893805451
  0
ARC
  5
313
100
AcDbEntity
  8
0
100
AcDbCircle
 62
9
  6
CONTINUOUS
 10
16.6265741059
 20
12.0703082173
 40
4.0559343726
100
AcDbArc
 50
270.0
 51
283.7555572158
  0
ARC
  5
314
100
AcDbEntity
  8
0
100
AcDbCircle
 62
9
  6
CONTINUOUS
 10
16.6265741059
 20
12.0703082173
 40
4.0259343579
100
AcDbArc
 50
270.0
 51
283.7555572158
  0
ARC
  5
315
100
AcDbEntity
  8
0
100
AcDbCircle
 62
9
  6
CONTINUOUS
 10
16.9967159652
 20
11.1718846388
 40
3.8406227754
100
AcDbArc
 50
356.2201238693
 51
359.7169056432
  0
ARC
  5
316
100
AcDbEntity
  8
0
100
AcDbCircle
 62
9
  6
CONTINUOUS
 10
17.2118617003
 20
11.1581823974
 40
3.6250407768
100
AcDbArc
 50
352.5834480066
 51
356.1156242887
  0
ARC
  5
317
100
AcDbEntity
  8
0
100
AcDbCircle
 62
9
  6
CONTINUOUS
 10
17.3413590931
 20
11.1429572821
 40
3.4946618556
100
AcDbArc
 50
352.3985980906
 51
352.5569196888
  0
ARC
  5
318
100
AcDbEntity
  8
0
100
AcDbCircle
 62
9
  6
CONTINUOUS
 10
17.4219006431
 20
11.131725556
 40
3.4133423738
100
AcDbArc
 50
348.8058881096
 51
352.4066374455
  0
ARC
  5
319
100
AcDbEntity
  8
0
100
AcDbCircle
 62
9
  6
CONTINUOUS
 10
17.8552787424
 20
11.0244922932
 40
2.9663565081
100
AcDbArc
 50
340.5551128521
 51
340.9024109141
  0
ARC
  5
31A
100
AcDbEntity
  8
0
100
AcDbCircle
 62
9
  6
CONTINUOUS
 10
26.1803705613
 20
11.2005304537
 40
4.0287964554
100
AcDbArc
 50
180.0000001608
 51
180.2257868645
  0
ARC
  5
31B
100
AcDbEntity
  8
0
100
AcDbCircle
 62
6
  6
CONTINUOUS
 10
26.1876815684
 20
11.1791541946
 40
3.9736074625
100
AcDbArc
 50
180.0000001608
 51
180.2257868645
  0
ARC
  5
31C
100
AcDbEntity
  8
0
100
AcDbCircle
 62
9
  6
CONTINUOUS
 10
26.0624446423
 20
11.1775024529
 40
3.848365174
100
AcDbArc
 50
180.2085430971
 51
183.7331884278
  0
ARC
  5
31D
100
AcDbEntity
  8
0
100
AcDbCircle
 62
9
  6
CONTINUOUS
 10
25.8095196472
 20
11.1603449119
 40
3.5948569306
100
AcDbArc
 50
183.8166413494
 51
187.4173609972
  0
ARC
  5
31E
100
AcDbEntity
  8
0
100
AcDbCircle
 62
9
  6
CONTINUOUS
 10
25.7130061927
 20
11.1483488785
 40
3.4976024965
100
AcDbArc
 50
187.4265977789
 51
187.5820474936
  0
ARC
  5
31F
100
AcDbEntity
  8
0
100
AcDbCircle
 62
9
  6
CONTINUOUS
 10
25.601572045
 20
11.1320031711
 40
3.3849862098
100
AcDbArc
 50
187.5566658273
 51
191.2259157701
  0
ARC
  5
320
100
AcDbEntity
  8
0
100
AcDbCircle
 62
9
  6
CONTINUOUS
 10
25.1941635712
 20
11.0280935888
 40
2.9640658086
100
AcDbArc
 50
199.1872939017
 51
199.5340146285
  0
LINE
  5
321
100
AcDbEntity
  8
0
100
AcDbLine
 62
7
  6
CONTINUOUS
 10
20.9909462667
 20
5.4217963686
 11
20.9790741058
 21
5.4325845382
  0
SPLINE
  5
322
100
AcDbEntity
  8
0
100
AcDbSpline
 62
7
  6
CONTINUOUS
 70
0
 71
3
 72
39
 73
35
 74
33
 42
0.0000001
 43
0.0000001
 44
0.0000000001
 12
-0.5418806553
 22
-0.9169336739
 32
0.0
 13
-0.5418806553
 23
0.9169336739
 33
0.0
 40
0.0
 40
0.0
 40
0.0
 40
0.0
 40
0.0251137653
 40
0.0510638392
 40
0.0779142517
 40
0.105704535
 40
0.1344487081
 40
0.1641397571
 40
0.1947500391
 40
0.2262348807
 40
0.2585337362
 40
0.2915728436
 40
0.3252669688
 40
0.3595211331
 40
0.394232692
 40
0.4292925421
 40
0.4645872123
 40
0.5
 40
0.5354127877
 40
0.5707074579
 40
0.605767308
 40
0.6404788669
 40
0.6747330312
 40
0.7084271564
 40
0.7414662638
 40
0.7737651193
 40
0.8052499609
 40
0.8358602429
 40
0.8655512919
 40
0.894295465
 40
0.9220857483
 40
0.9489361608
 40
0.9748862347
 40
1.0
 40
1.0
 40
1.0
 40
1.0
 10
21.9939840062
 20
6.5413584316
 30
0.0
 10
21.989447785
 20
6.5336825459
 30
0.0
 10
21.9794294382
 20
6.5185327253
 30
0.0
 10
21.9620592722
 20
6.496959379
 30
0.0
 10
21.9422173298
 20
6.4762973612
 30
0.0
 10
21.9200175113
 20
6.4566666763
 30
0.0
 10
21.8955883139
 20
6.4381726406
 30
0.0
 10
21.8690674821
 20
6.4209200681
 30
0.0
 10
21.840606247
 20
6.4050035322
 30
0.0
 10
21.8103654728
 20
6.3905124788
 30
0.0
 10
21.7785162969
 20
6.3775281573
 30
0.0
 10
21.7452393159
 20
6.3661226094
 30
0.0
 10
21.7107224911
 20
6.3563615322
 30
0.0
 10
21.675161897
 20
6.3482977483
 30
0.0
 10
21.6387584886
 20
6.3419795281
 30
0.0
 10
21.6017191233
 20
6.3374393117
 30
0.0
 10
21.5642534216
 20
6.3347064096
 30
0.0
 10
21.5265741059
 20
6.3337923671
 30
0.0
 10
21.4888947902
 20
6.3347064096
 30
0.0
 10
21.4514290885
 20
6.3374393117
 30
0.0
 10
21.4143897232
 20
6.3419795281
 30
0.0
 10
21.3779863148
 20
6.3482977483
 30
0.0
 10
21.3424257207
 20
6.3563615322
 30
0.0
 10
21.3079088959
 20
6.3661226094
 30
0.0
 10
21.2746319149
 20
6.3775281573
 30
0.0
 10
21.242782739
 20
6.3905124788
 30
0.0
 10
21.2125419648
 20
6.4050035322
 30
0.0
 10
21.1840807297
 20
6.4209200681
 30
0.0
 10
21.1575598979
 20
6.4381726406
 30
0.0
 10
21.1331307005
 20
6.4566666763
 30
0.0
 10
21.110930882
 20
6.4762973612
 30
0.0
 10
21.0910889396
 20
6.496959379
 30
0.0
 10
21.0737187736
 20
6.5185327253
 30
0.0
 10
21.0637004268
 20
6.5336825459
 30
0.0
 10
21.0591642056
 20
6.5413584316
 30
0.0
 11
21.9939840062
 21
6.5413584316
 31
0.0
 11
21.9792631582
 21
6.5190253765
 31
0.0
 11
21.9619632557
 21
6.4974701713
 31
0.0
 11
21.9421844895
 21
6.4768148701
 31
0.0
 11
21.9200380843
 21
6.4571772727
 31
0.0
 11
21.8956513207
 21
6.4386688994
 31
0.0
 11
21.8691622148
 21
6.4213955421
 31
0.0
 11
21.8407222257
 21
6.4054553528
 31
0.0
 11
21.8104929833
 21
6.3909391471
 31
0.0
 11
21.7786467663
 21
6.3779297328
 31
0.0
 11
21.7453650148
 21
6.3665008863
 31
0.0
 11
21.7108370671
 21
6.3567182128
 31
0.0
 11
21.6752598641
 21
6.3486367099
 31
0.0
 11
21.6388356918
 21
6.3423033106
 31
0.0
 11
21.6017723155
 21
6.3377530099
 31
0.0
 11
21.5642805539
 21
6.3350129388
 31
0.0
 11
21.5265741059
 21
6.334097387
 31
0.0
 11
21.4888676579
 21
6.3350129388
 31
0.0
 11
21.4513758963
 21
6.3377530099
 31
0.0
 11
21.41431252
 21
6.3423033106
 31
0.0
 11
21.3778883477
 21
6.3486367099
 31
0.0
 11
21.3423111447
 21
6.3567182128
 31
0.0
 11
21.307783197
 21
6.3665008863
 31
0.0
 11
21.2745014455
 21
6.3779297328
 31
0.0
 11
21.2426552285
 21
6.3909391471
 31
0.0
 11
21.2124259861
 21
6.4054553528
 31
0.0
 11
21.183985997
 21
6.4213955421
 31
0.0
 11
21.1574968911
 21
6.4386688994
 31
0.0
 11
21.1331101275
 21
6.4571772727
 31
0.0
 11
21.1109637223
 21
6.4768148701
 31
0.0
 11
21.0911849561
 21
6.4974701713
 31
0.0
 11
21.0738850536
 21
6.5190253765
 31
0.0
 11
21.0591642056
 21
6.5413584316
 31
0.0
  0
SPLINE
  5
323
100
AcDbEntity
  8
0
100
AcDbSpline
 62
6
  6
CONTINUOUS
 70
0
 71
3
 72
15
 73
11
 74
9
 42
0.0000001
 43
0.0000001
 44
0.0000000001
 12
0.0
 22
-0.1123884509
 32
0.0
 13
-0.0542918528
 23
-0.0984050741
 33
0.0
 40
0.0
 40
0.0
 40
0.0
 40
0.0
 40
0.1218028026
 40
0.2439804089
 40
0.3667997898
 40
0.4905254451
 40
0.6154398133
 40
0.7418216103
 40
0.8699316379
 40
1.0
 40
1.0
 40
1.0
 40
1.0
 10
22.0265741059
 20
6.5597356365
 30
0.0
 10
22.0265741059
 20
6.5551725604
 30
0.0
 10
22.0262699994
 20
6.5460294985
 30
0.0
 10
22.0249060318
 20
6.5323465266
 30
0.0
 10
22.0226367954
 20
6.518710723
 30
0.0
 10
22.0194641923
 20
6.5051514264
 30
0.0
 10
22.0153955654
 20
6.4916943731
 30
0.0
 10
22.0104395384
 20
6.4783630833
 30
0.0
 10
22.004604335
 20
6.4651819712
 30
0.0
 10
22.0001708464
 20
6.4565786293
 30
0.0
 10
21.9978169623
 20
6.452312167
 30
0.0
 11
22.0265741059
 21
6.5597356365
 31
0.0
 11
22.0261201421
 21
6.5460539375
 31
0.0
 11
22.0247600106
 21
6.5323901141
 31
0.0
 11
22.0224963514
 21
6.5187735101
 31
0.0
 11
22.0193322405
 21
6.5052329512
 31
0.0
 11
22.015274041
 21
6.491793359
 31
0.0
 11
22.0103296161
 21
6.4784778739
 31
0.0
 11
22.0045070082
 21
6.4653096484
 31
0.0
 11
21.9978169623
 21
6.452312167
 31
0.0
  0
SPLINE
  5
324
100
AcDbEntity
  8
0
100
AcDbSpline
 62
6
  6
CONTINUOUS
 70
0
 71
3
 72
41
 73
37
 74
35
 42
0.0000001
 43
0.0000001
 44
0.0000000001
 12
-0.5219782497
 22
-0.9460960653
 32
0.0
 13
-0.5219782497
 23
0.9460960653
 33
0.0
 40
0.0
 40
0.0
 40
0.0
 40
0.0
 40
0.024986181
 40
0.050804287
 40
0.0775284774
 40
0.0912492993
 40
0.1052119277
 40
0.1338636733
 40
0.1634864018
 40
0.1940557193
 40
0.2255275455
 40
0.2578418386
 40
0.2909230804
 40
0.3246842518
 40
0.3590271676
 40
0.3938456629
 40
0.4290265397
 40
0.4644517718
 40
0.5
 40
0.5355482282
 40
0.5709734603
 40
0.6061543371
 40
0.6409728324
 40
0.6753157482
 40
0.7090769196
 40
0.7421581614
 40
0.7744724545
 40
0.8059442807
 40
0.8365135982
 40
0.8661363267
 40
0.8947880723
 40
0.9087507007
 40
0.9224715226
 40
0.949195713
 40
0.975013819
 40
1.0
 40
1.0
 40
1.0
 40
1.0
 10
21.9978169623
 20
6.452312167
 30
0.0
 10
21.993469548
 20
6.4444323912
 30
0.0
 10
21.9837844312
 20
6.4288638135
 30
0.0
 10
21.9667826657
 20
6.4066645828
 30
0.0
 10
21.9505959102
 20
6.3890808112
 30
0.0
 10
21.9364413434
 20
6.3755219546
 30
0.0
 10
21.9212256035
 20
6.3620906376
 30
0.0
 10
21.900707232
 20
6.3460473907
 30
0.0
 10
21.8740983492
 20
6.3282256276
 30
0.0
 10
21.8454459946
 20
6.3117728662
 30
0.0
 10
21.8149209359
 20
6.2967824605
 30
0.0
 10
21.7827006593
 20
6.2833442113
 30
0.0
 10
21.748975565
 20
6.2715332323
 30
0.0
 10
21.7139427853
 20
6.2614210036
 30
0.0
 10
21.6778085874
 20
6.2530648199
 30
0.0
 10
21.6407851242
 20
6.2465142309
 30
0.0
 10
21.6030899645
 20
6.2418081346
 30
0.0
 10
21.5649449013
 20
6.2389724778
 30
0.0
 10
21.5265741059
 20
6.2380264014
 30
0.0
 10
21.4882033105
 20
6.2389724778
 30
0.0
 10
21.4500582473
 20
6.2418081346
 30
0.0
 10
21.4123630876
 20
6.2465142309
 30
0.0
 10
21.3753396244
 20
6.2530648199
 30
0.0
 10
21.3392054265
 20
6.2614210036
 30
0.0
 10
21.3041726468
 20
6.2715332323
 30
0.0
 10
21.2704475525
 20
6.2833442113
 30
0.0
 10
21.2382272759
 20
6.2967824605
 30
0.0
 10
21.2077022172
 20
6.3117728662
 30
0.0
 10
21.1790498626
 20
6.3282256276
 30
0.0
 10
21.1524409798
 20
6.3460473907
 30
0.0
 10
21.1319226083
 20
6.3620906376
 30
0.0
 10
21.1167068684
 20
6.3755219546
 30
0.0
 10
21.1025523016
 20
6.3890808112
 30
0.0
 10
21.0863655461
 20
6.4066645828
 30
0.0
 10
21.0693637806
 20
6.4288638135
 30
0.0
 10
21.0596786639
 20
6.4444323912
 30
0.0
 10
21.0553312495
 20
6.452312167
 30
0.0
 11
21.9978169623
 21
6.452312167
 31
0.0
 11
21.9835908221
 21
6.42936582
 31
0.0
 11
21.9666644223
 21
6.407190108
 31
0.0
 11
21.9471390773
 21
6.3859154524
 31
0.0
 11
21.9364366866
 21
6.3756555977
 31
0.0
 11
21.9251292157
 21
6.3656674764
 31
0.0
 11
21.900765246
 21
6.3465658401
 31
0.0
 11
21.874191186
 21
6.3287232094
 31
0.0
 11
21.8455634594
 21
6.3122454195
 31
0.0
 11
21.8150520036
 21
6.2972290916
 31
0.0
 11
21.782836062
 21
6.2837637997
 31
0.0
 11
21.7491068727
 21
6.2719281875
 31
0.0
 11
21.7140629032
 21
6.261792927
 31
0.0
 11
21.6779116779
 21
6.253417371
 31
0.0
 11
21.64086645
 21
6.2468511562
 31
0.0
 11
21.6031461278
 21
6.2421332926
 31
0.0
 11
21.5649735397
 21
6.2392910505
 31
0.0
 11
21.5265741059
 21
6.2383421243
 31
0.0
 11
21.4881746721
 21
6.2392910505
 31
0.0
 11
21.450002084
 21
6.2421332926
 31
0.0
 11
21.4122817618
 21
6.2468511562
 31
0.0
 11
21.3752365339
 21
6.253417371
 31
0.0
 11
21.3390853086
 21
6.261792927
 31
0.0
 11
21.3040413391
 21
6.2719281875
 31
0.0
 11
21.2703121498
 21
6.2837637997
 31
0.0
 11
21.2380962082
 21
6.2972290916
 31
0.0
 11
21.2075847524
 21
6.3122454195
 31
0.0
 11
21.1789570258
 21
6.3287232094
 31
0.0
 11
21.1523829658
 21
6.3465658401
 31
0.0
 11
21.1280189961
 21
6.3656674764
 31
0.0
 11
21.1167115252
 21
6.3756555977
 31
0.0
 11
21.1060091345
 21
6.3859154524
 31
0.0
 11
21.0864837895
 21
6.407190108
 31
0.0
 11
21.0695573897
 21
6.42936582
 31
0.0
 11
21.0553312495
 21
6.452312167
 31
0.0
  0
SPLINE
  5
325
100
AcDbEntity
  8
0
100
AcDbSpline
 62
6
  6
CONTINUOUS
 70
0
 71
3
 72
15
 73
11
 74
9
 42
0.0000001
 43
0.0000001
 44
0.0000000001
 12
-0.0542918528
 22
0.0984050741
 32
0.0
 13
0.0
 23
0.1123884509
 33
0.0
 40
0.0
 40
0.0
 40
0.0
 40
0.0
 40
0.1300683621
 40
0.2581783897
 40
0.3845601867
 40
0.5094745549
 40
0.6332002102
 40
0.7560195911
 40
0.8781971974
 40
1.0
 40
1.0
 40
1.0
 40
1.0
 10
21.0553312495
 20
6.452312167
 30
0.0
 10
21.0529773654
 20
6.4565786293
 30
0.0
 10
21.0485438768
 20
6.4651819712
 30
0.0
 10
21.0427086734
 20
6.4783630833
 30
0.0
 10
21.0377526464
 20
6.4916943731
 30
0.0
 10
21.0336840195
 20
6.5051514264
 30
0.0
 10
21.0305114164
 20
6.518710723
 30
0.0
 10
21.02824218
 20
6.5323465266
 30
0.0
 10
21.0268782124
 20
6.5460294985
 30
0.0
 10
21.0265741059
 20
6.5551725604
 30
0.0
 10
21.0265741059
 20
6.5597356365
 30
0.0
 11
21.0553312495
 21
6.452312167
 31
0.0
 11
21.0486412036
 21
6.4653096484
 31
0.0
 11
21.0428185957
 21
6.4784778739
 31
0.0
 11
21.0378741709
 21
6.491793359
 31
0.0
 11
21.0338159713
 21
6.5052329512
 31
0.0
 11
21.0306518604
 21
6.5187735101
 31
0.0
 11
21.0283882012
 21
6.5323901141
 31
0.0
 11
21.0270280697
 21
6.5460539375
 31
0.0
 11
21.0265741059
 21
6.5597356365
 31
0.0
  0
SPLINE
  5
326
100
AcDbEntity
  8
0
100
AcDbSpline
 62
7
  6
CONTINUOUS
 70
0
 71
3
 72
15
 73
11
 74
9
 42
0.0000001
 43
0.0000001
 44
0.0000000001
 12
0.0
 22
-0.1202338606
 32
0.0
 13
-0.0612172473
 23
-0.1034825099
 33
0.0
 40
0.0
 40
0.0
 40
0.0
 40
0.0
 40
0.1214078227
 40
0.2432329406
 40
0.3657772057
 40
0.4893429851
 40
0.6142522446
 40
0.7408150764
 40
0.8693164955
 40
1.0
 40
1.0
 40
1.0
 40
1.0
 10
22.0265741059
 20
6.6554911919
 30
0.0
 10
22.0265741059
 20
6.6506254148
 30
0.0
 10
22.0262281935
 20
6.6408736632
 30
0.0
 10
22.0246771686
 20
6.6262848531
 30
0.0
 10
22.022096877
 20
6.6117540482
 30
0.0
 10
22.0184901548
 20
6.5973164821
 30
0.0
 10
22.0138672412
 20
6.583002598
 30
0.0
 10
22.0082381743
 20
6.5688408927
 30
0.0
 10
22.0016138592
 20
6.5548611513
 30
0.0
 10
21.9965888555
 20
6.5457612156
 30
0.0
 10
21.9939221607
 20
6.5412533966
 30
0.0
 11
22.0265741059
 21
6.6554911919
 31
0.0
 11
22.0260580041
 21
6.6409029871
 31
0.0
 11
22.0245118323
 21
6.6263373174
 31
0.0
 11
22.0219387911
 21
6.6118297562
 31
0.0
 11
22.0183431157
 21
6.5974146479
 31
0.0
 11
22.0137332685
 21
6.5831213166
 31
0.0
 11
22.0081187914
 21
6.5689778046
 31
0.0
 11
22.0015102107
 21
6.5550122752
 31
0.0
 11
21.9939221607
 21
6.5412533966
 31
0.0
  0
SPLINE
  5
327
100
AcDbEntity
  8
0
100
AcDbSpline
 62
7
  6
CONTINUOUS
 70
0
 71
3
 72
15
 73
11
 74
9
 42
0.0000001
 43
0.0000001
 44
0.0000000001
 12
-0.0612172473
 22
0.1034825099
 32
0.0
 13
-0.0
 23
0.1202338606
 33
0.0
 40
0.0
 40
0.0
 40
0.0
 40
0.0
 40
0.1306835045
 40
0.2591849236
 40
0.3857477554
 40
0.5106570149
 40
0.6342227943
 40
0.7567670594
 40
0.8785921773
 40
1.0
 40
1.0
 40
1.0
 40
1.0
 10
21.0592260511
 20
6.5412533966
 30
0.0
 10
21.0565593563
 20
6.5457612156
 30
0.0
 10
21.0515343526
 20
6.5548611513
 30
0.0
 10
21.0449100375
 20
6.5688408927
 30
0.0
 10
21.0392809706
 20
6.583002598
 30
0.0
 10
21.034658057
 20
6.5973164821
 30
0.0
 10
21.0310513348
 20
6.6117540482
 30
0.0
 10
21.0284710432
 20
6.6262848531
 30
0.0
 10
21.0269200183
 20
6.6408736632
 30
0.0
 10
21.0265741059
 20
6.6506254148
 30
0.0
 10
21.0265741059
 20
6.6554911919
 30
0.0
 11
21.0592260511
 21
6.5412533966
 31
0.0
 11
21.0516380011
 21
6.5550122752
 31
0.0
 11
21.0450294204
 21
6.5689778046
 31
0.0
 11
21.0394149433
 21
6.5831213166
 31
0.0
 11
21.0348050961
 21
6.5974146479
 31
0.0
 11
21.0312094207
 21
6.6118297562
 31
0.0
 11
21.0286363795
 21
6.6263373174
 31
0.0
 11
21.0270902077
 21
6.6409029871
 31
0.0
 11
21.0265741059
 21
6.6554911919
 31
0.0
  0
SPLINE
  5
328
100
AcDbEntity
  8
0
100
AcDbSpline
 62
7
  6
CONTINUOUS
 70
0
 71
3
 72
11
 73
7
 74
5
 42
0.0000001
 43
0.0000001
 44
0.0000000001
 12
-0.0401734445
 22
-0.0853415366
 32
0.0
 13
-0.0
 23
-0.0943243527
 33
0.0
 40
0.0
 40
0.0
 40
0.0
 40
0.0
 40
0.2562307539
 40
0.5072103203
 40
0.7545457071
 40
1.0
 40
1.0
 40
1.0
 40
1.0
 10
21.0575741059
 20
6.3904997654
 30
0.0
 10
21.0541428819
 20
6.3832107234
 30
0.0
 10
21.048074457
 20
6.3684261448
 30
0.0
 10
21.0414530823
 20
6.3455969849
 30
0.0
 10
21.0374641359
 20
6.3225062243
 30
0.0
 10
21.0365741059
 20
6.3069979649
 30
0.0
 10
21.0365741059
 20
6.2992805258
 30
0.0
 11
21.0575741059
 21
6.3904997654
 31
0.0
 11
21.0484244204
 21
6.3681298269
 31
0.0
 11
21.0418524264
 21
6.3453868546
 31
0.0
 11
21.0378956181
 21
6.322395097
 31
0.0
 11
21.0365741059
 21
6.2992805258
 31
0.0
  0
SPLINE
  5
329
100
AcDbEntity
  8
0
100
AcDbSpline
 62
7
  6
CONTINUOUS
 70
0
 71
3
 72
11
 73
7
 74
5
 42
0.0000001
 43
0.0000001
 44
0.0000000001
 12
0.0401734445
 22
0.0853415366
 32
0.0
 13
0.0
 23
0.0943243527
 33
0.0
 40
0.0
 40
0.0
 40
0.0
 40
0.0
 40
0.2562307539
 40
0.5072103203
 40
0.7545457071
 40
1.0
 40
1.0
 40
1.0
 40
1.0
 10
21.9955741059
 20
6.2080612862
 30
0.0
 10
21.9990053299
 20
6.2153503283
 30
0.0
 10
22.0050737548
 20
6.2301349069
 30
0.0
 10
22.0116951295
 20
6.2529640668
 30
0.0
 10
22.0156840759
 20
6.2760548274
 30
0.0
 10
22.0165741059
 20
6.2915630867
 30
0.0
 10
22.0165741059
 20
6.2992805258
 30
0.0
 11
21.9955741059
 21
6.2080612862
 31
0.0
 11
22.0047237914
 21
6.2304312247
 31
0.0
 11
22.0112957854
 21
6.2531741971
 31
0.0
 11
22.0152525937
 21
6.2761659546
 31
0.0
 11
22.0165741059
 21
6.2992805258
 31
0.0
  0
SPLINE
  5
32A
100
AcDbEntity
  8
0
100
AcDbSpline
 62
6
  6
CONTINUOUS
 70
0
 71
3
 72
26
 73
22
 74
20
 42
0.0000001
 43
0.0000001
 44
0.0000000001
 12
0.0698803144
 22
0.0
 32
0.0
 13
0.0
 23
-0.0698803144
 33
0.0
 40
0.0
 40
0.0
 40
0.0
 40
0.0
 40
0.087563514
 40
0.1745537869
 40
0.3433149383
 40
0.4236727766
 40
0.5005043888
 40
0.5732352947
 40
0.6413329513
 40
0.7043295106
 40
0.7338168561
 40
0.7619193366
 40
0.813870054
 40
0.8601707416
 40
0.8812873184
 40
0.9011145202
 40
0.937226182
 40
0.9538246757
 40
0.9696711307
 40
0.9849814249
 40
1.0
 40
1.0
 40
1.0
 40
1.0
 10
22.1515741059
 20
11.5149184808
 30
0.0
 10
22.1536137612
 20
11.5149184808
 30
0.0
 10
22.1576801429
 20
11.5148498571
 30
0.0
 10
22.1656678407
 20
11.5144467034
 30
0.0
 10
22.1734650337
 20
11.5136529248
 30
0.0
 10
22.1809627966
 20
11.5124466525
 30
0.0
 10
22.1862121146
 20
11.5113760193
 30
0.0
 10
22.1911302239
 20
11.5101359422
 30
0.0
 10
22.1956703212
 20
11.5087392405
 30
0.0
 10
22.1991760752
 20
11.5074265657
 30
0.0
 10
22.2017502793
 20
11.5063010269
 30
0.0
 10
22.2040471375
 20
11.5051885689
 30
0.0
 10
22.2066148434
 20
11.5037413477
 30
0.0
 10
22.2088856711
 20
11.5021240187
 30
0.0
 10
22.2104111015
 20
11.5007782298
 30
0.0
 10
22.2116622989
 20
11.4994901533
 30
0.0
 10
22.2126838873
 20
11.4981273653
 30
0.0
 10
22.213411239
 20
11.4967019571
 30
0.0
 10
22.2137923716
 20
11.4956535334
 30
0.0
 10
22.2140224189
 20
11.4945995276
 30
0.0
 10
22.2140741059
 20
11.4938920561
 30
0.0
 10
22.2140741059
 20
11.4935422219
 30
0.0
 11
22.1515741059
 21
11.5149184808
 31
0.0
 11
22.1576922021
 21
11.5148153189
 31
0.0
 11
22.1637633159
 21
11.5145075941
 31
0.0
 11
22.1754934829
 21
11.5132910523
 31
0.0
 11
22.1810368548
 21
11.51239434
 31
0.0
 11
22.1862964362
 21
11.511315846
 31
0.0
 11
22.1912228608
 21
11.5100661558
 31
0.0
 11
22.1957682797
 21
11.5086575195
 31
0.0
 11
22.1998868568
 21
11.5071028947
 31
0.0
 11
22.2017741162
 21
11.5062756931
 31
0.0
 11
22.2035407065
 21
11.5054179582
 31
0.0
 11
22.2066940118
 21
11.5036190755
 31
0.0
 11
22.2093158234
 21
11.5017231306
 31
0.0
 11
22.2104200657
 21
11.5007442834
 31
0.0
 11
22.2113827404
 21
11.4997478127
 31
0.0
 11
22.2128727535
 21
11.4977111772
 31
0.0
 11
22.2133968971
 21
11.4966764502
 31
0.0
 11
22.2137724806
 21
11.495634734
 31
0.0
 11
22.2139985387
 21
11.4945890005
 31
0.0
 11
22.2140741059
 21
11.4935422219
 31
0.0
  0
SPLINE
  5
32B
100
AcDbEntity
  8
0
100
AcDbSpline
 62
6
  6
CONTINUOUS
 70
0
 71
3
 72
25
 73
21
 74
19
 42
0.0000001
 43
0.0000001
 44
0.0000000001
 12
0.0671822034
 22
0.0
 32
0.0
 13
-0.0
 23
0.0671822034
 33
0.0
 40
0.0
 40
0.0
 40
0.0
 40
0.0
 40
0.0876652226
 40
0.1748234834
 40
0.3442944483
 40
0.425131064
 40
0.5024354897
 40
0.5755550715
 40
0.6438740909
 40
0.7068621092
 40
0.7642003234
 40
0.8156977018
 40
0.8614150037
 40
0.8822352919
 40
0.9017843208
 40
0.9374518383
 40
0.9539117373
 40
0.9696822414
 40
0.9849707214
 40
1.0
 40
1.0
 40
1.0
 40
1.0
 10
22.3416082907
 20
9.4599200619
 30
0.0
 10
22.3435714717
 20
9.4599200619
 30
0.0
 10
22.3474868573
 20
9.4599812595
 30
0.0
 10
22.3551890889
 20
9.460346514
 30
0.0
 10
22.362718791
 20
9.461076378
 30
0.0
 10
22.3699697417
 20
9.4622046797
 30
0.0
 10
22.3750506474
 20
9.4632162749
 30
0.0
 10
22.3798067078
 20
9.4643973834
 30
0.0
 10
22.3841873905
 20
9.4657354497
 30
0.0
 10
22.3881455216
 20
9.4672209114
 30
0.0
 10
22.3916431911
 20
9.468834805
 30
0.0
 10
22.3946488493
 20
9.4705614839
 30
0.0
 10
22.3967869735
 20
9.4721288111
 30
0.0
 10
22.3982111812
 20
9.4734310565
 30
0.0
 10
22.3993734658
 20
9.4746767412
 30
0.0
 10
22.4003136108
 20
9.4759937531
 30
0.0
 10
22.4009758275
 20
9.4773658736
 30
0.0
 10
22.4013210801
 20
9.4783754511
 30
0.0
 10
22.4015280215
 20
9.4793894573
 30
0.0
 10
22.4015741173
 20
9.48006926
 30
0.0
 10
22.4015741173
 20
9.4804058267
 30
0.0
 11
22.3416082907
 21
9.4599200619
 31
0.0
 11
22.3474971052
 21
9.4600126846
 31
0.0
 11
22.3533459327
 21
9.460291808
 31
0.0
 11
22.3646758193
 21
9.4614150845
 31
0.0
 11
22.3700412138
 21
9.4622552834
 31
0.0
 11
22.3751335408
 21
9.4632753116
 31
0.0
 11
22.379899232
 21
9.4644666213
 31
0.0
 11
22.3842857312
 21
9.4658175813
 31
0.0
 11
22.3882434336
 21
9.4673154649
 31
0.0
 11
22.3917346377
 21
9.4689434167
 31
0.0
 11
22.3947248902
 21
9.4706835215
 31
0.0
 11
22.3971886358
 21
9.4725174758
 31
0.0
 11
22.3982187036
 21
9.4734637685
 31
0.0
 11
22.3991120676
 21
9.474426463
 31
0.0
 11
22.4004834641
 21
9.4763914448
 31
0.0
 11
22.4009616411
 21
9.4773885243
 31
0.0
 11
22.4013023573
 21
9.4783917425
 31
0.0
 11
22.4015062903
 21
9.4793984073
 31
0.0
 11
22.4015741173
 21
9.4804058267
 31
0.0
  0
SPLINE
  5
32C
100
AcDbEntity
  8
0
100
AcDbSpline
 62
6
  6
CONTINUOUS
 70
0
 71
3
 72
25
 73
21
 74
19
 42
0.0000001
 43
0.0000001
 44
0.0000000001
 12
0.0
 22
-0.0671856874
 32
0.0
 13
0.0671856874
 23
0.0
 33
0.0
 40
0.0
 40
0.0
 40
0.0
 40
0.0
 40
0.0150311757
 40
0.0303214249
 40
0.0460934484
 40
0.0625544921
 40
0.0982227304
 40
0.1177711671
 40
0.1385902217
 40
0.1843032072
 40
0.2357940914
 40
0.2931245919
 40
0.3561047011
 40
0.4244168315
 40
0.4975315997
 40
0.5748340905
 40
0.655672093
 40
0.8251553797
 40
0.9123236809
 40
1.0
 40
1.0
 40
1.0
 40
1.0
 10
20.6515741059
 20
9.4804139388
 30
0.0
 10
20.6515741059
 20
9.4800773122
 30
0.0
 10
20.6516201958
 20
9.4793973927
 30
0.0
 10
20.6518271066
 20
9.4783832085
 30
0.0
 10
20.6521723032
 20
9.4773734499
 30
0.0
 10
20.652834392
 20
9.476001098
 30
0.0
 10
20.6537743441
 20
9.4746838179
 30
0.0
 10
20.6549364057
 20
9.4734378379
 30
0.0
 10
20.6563602956
 20
9.4721353015
 30
0.0
 10
20.6584979531
 20
9.4705675634
 30
0.0
 10
20.6615030158
 20
9.4688403192
 30
0.0
 10
20.6650000748
 20
9.4672258053
 30
0.0
 10
20.6689576473
 20
9.4657396631
 30
0.0
 10
20.6733378999
 20
9.4644008736
 30
0.0
 10
20.6780937267
 20
9.4632190313
 30
0.0
 10
20.6831746417
 20
9.4622067132
 30
0.0
 10
20.6904261029
 20
9.4610774909
 30
0.0
 10
20.6979566789
 20
9.4603469495
 30
0.0
 10
20.7056600448
 20
9.4599813243
 30
0.0
 10
20.7095761075
 20
9.4599200578
 30
0.0
 10
20.7115396387
 20
9.4599200578
 30
0.0
 11
20.6515741059
 21
9.4804139388
 31
0.0
 11
20.6516419244
 21
9.4794063387
 31
0.0
 11
20.6518458286
 21
9.4783994924
 31
0.0
 11
20.6521864918
 21
9.4773960904
 31
0.0
 11
20.6526645873
 21
9.4763988229
 31
0.0
 11
20.6540357193
 21
9.474433446
 31
0.0
 11
20.6549288983
 21
9.4734705412
 31
0.0
 11
20.6559587491
 21
9.4725240277
 31
0.0
 11
20.6584219741
 21
9.470689593
 31
0.0
 11
20.6614116135
 21
9.4689489455
 31
0.0
 11
20.6649021826
 21
9.4673203859
 31
0.0
 11
20.6688592981
 21
9.465821833
 31
0.0
 11
20.6732453412
 21
9.4644701562
 31
0.0
 11
20.6780107781
 21
9.4632781123
 31
0.0
 11
20.6831031024
 21
9.4622573617
 31
0.0
 11
20.6884687716
 21
9.4614164942
 31
0.0
 11
20.6997999817
 21
9.4602921916
 31
0.0
 11
20.7056497748
 21
9.4600127814
 31
0.0
 11
20.7115396387
 21
9.4599200578
 31
0.0
  0
LINE
  5
32D
100
AcDbEntity
  8
0
100
AcDbLine
 62
6
  6
CONTINUOUS
 10
20.8373476499
 20
11.1635666089
 11
20.8372918606
 21
11.152908473
  0
SPLINE
  5
32E
100
AcDbEntity
  8
0
100
AcDbSpline
 62
7
  6
CONTINUOUS
 70
0
 71
3
 72
43
 73
39
 74
37
 42
0.0000001
 43
0.0000001
 44
0.0000000001
 12
0.3737467166
 22
-1.1046653758
 32
0.0
 13
0.373746704
 23
1.1046653801
 33
0.0
 40
0.0
 40
0.0
 40
0.0
 40
0.0
 40
0.0121254137
 40
0.0244164343
 40
0.0368942452
 40
0.0495780658
 40
0.0756195077
 40
0.1026575963
 40
0.130760161
 40
0.1599588528
 40
0.1902523431
 40
0.2216095923
 40
0.2539734008
 40
0.2872642708
 40
0.3213836798
 40
0.3562169927
 40
0.3916365652
 40
0.4275046573
 40
0.463675936
 40
0.5000000006
 40
0.5363240651
 40
0.5724953438
 40
0.6083634358
 40
0.6437830083
 40
0.6786163212
 40
0.7127357301
 40
0.7460266
 40
0.7783904084
 40
0.8097476575
 40
0.8400411477
 40
0.8692398395
 40
0.897342404
 40
0.9243804926
 40
0.9504219343
 40
0.9631057549
 40
0.9755835658
 40
0.9878745863
 40
1.0
 40
1.0
 40
1.0
 40
1.0
 10
21.037994776
 20
9.4598580303
 30
0.0
 10
21.0395053872
 20
9.4553931887
 30
0.0
 10
21.0428288242
 20
9.4464952204
 30
0.0
 10
21.0486528069
 20
9.4333805097
 30
0.0
 10
21.0553358678
 20
9.4204366321
 30
0.0
 10
21.0654638449
 20
9.4032916849
 30
0.0
 10
21.0802810661
 20
9.38239459
 30
0.0
 10
21.101100336
 20
9.3586133917
 30
0.0
 10
21.124962759
 20
9.3360649209
 30
0.0
 10
21.1516936277
 20
9.3149077942
 30
0.0
 10
21.1811013265
 20
9.2952882704
 30
0.0
 10
21.2129755827
 20
9.277343601
 30
0.0
 10
21.2470886885
 20
9.2611989272
 30
0.0
 10
21.2831974385
 20
9.2469677709
 30
0.0
 10
21.3210445268
 20
9.2347509662
 30
0.0
 10
21.3603598933
 20
9.2246349647
 30
0.0
 10
21.4008627978
 20
9.2166911844
 30
0.0
 10
21.4422640429
 20
9.2109761634
 30
0.0
 10
21.4842678916
 20
9.2075310267
 30
0.0
 10
21.5265741079
 20
9.2063799825
 30
0.0
 10
21.5688803241
 20
9.2075310269
 30
0.0
 10
21.6108841728
 20
9.2109761638
 30
0.0
 10
21.6522854178
 20
9.2166911851
 30
0.0
 10
21.6927883222
 20
9.2246349655
 30
0.0
 10
21.7321036886
 20
9.2347509672
 30
0.0
 10
21.7699507767
 20
9.2469677721
 30
0.0
 10
21.8060595265
 20
9.2611989286
 30
0.0
 10
21.8401726322
 20
9.2773436026
 30
0.0
 10
21.8720468882
 20
9.2952882722
 30
0.0
 10
21.9014545867
 20
9.3149077961
 30
0.0
 10
21.9281854552
 20
9.336064923
 30
0.0
 10
21.9520478778
 20
9.3586133938
 30
0.0
 10
21.9728671475
 20
9.3823945923
 30
0.0
 10
21.9876843685
 20
9.4032916872
 30
0.0
 10
21.9978123453
 20
9.4204366345
 30
0.0
 10
22.004495406
 20
9.4333805121
 30
0.0
 10
22.0103193886
 20
9.4464952229
 30
0.0
 10
22.0136428255
 20
9.4553931912
 30
0.0
 10
22.0151534366
 20
9.4598580328
 30
0.0
 11
21.037994776
 21
9.4598580303
 31
0.0
 11
21.0429372002
 21
9.4466095115
 31
0.0
 11
21.0487488669
 21
9.4335070528
 31
0.0
 11
21.0554189032
 21
9.4205744379
 31
0.0
 11
21.0629359963
 21
9.4078353368
 31
0.0
 11
21.0804543659
 21
9.3830284633
 31
0.0
 11
21.1011784491
 21
9.3592643884
 31
0.0
 11
21.1249590367
 21
9.3367138378
 31
0.0
 11
21.1516251082
 21
9.3155387716
 31
0.0
 11
21.1809853066
 21
9.2958914004
 31
0.0
 11
21.2128287984
 21
9.2779130378
 31
0.0
 11
21.2469264891
 21
9.261732671
 31
0.0
 11
21.2830334003
 21
9.2474664974
 31
0.0
 11
21.3208903089
 21
9.2352172345
 31
0.0
 11
21.3602251276
 21
9.225072902
 31
0.0
 11
21.4007551027
 21
9.2171061609
 31
0.0
 11
21.4421891132
 21
9.2113742982
 31
0.0
 11
21.4842295032
 21
9.2079187599
 31
0.0
 11
21.5265741079
 21
9.2067642027
 31
0.0
 11
21.5689187125
 21
9.2079187601
 31
0.0
 11
21.6109591025
 21
9.2113742986
 31
0.0
 11
21.6523931129
 21
9.2171061615
 31
0.0
 11
21.6929230879
 21
9.2250729028
 31
0.0
 11
21.7322579065
 21
9.2352172355
 31
0.0
 11
21.7701148149
 21
9.2474664986
 31
0.0
 11
21.8062217259
 21
9.2617326724
 31
0.0
 11
21.8403194165
 21
9.2779130394
 31
0.0
 11
21.872162908
 21
9.2958914022
 31
0.0
 11
21.9015231062
 21
9.3155387735
 31
0.0
 11
21.9281891774
 21
9.3367138399
 31
0.0
 11
21.9519697648
 21
9.3592643905
 31
0.0
 11
21.9726938477
 21
9.3830284655
 31
0.0
 11
21.990212217
 21
9.4078353392
 31
0.0
 11
21.9977293099
 21
9.4205744403
 31
0.0
 11
22.004399346
 21
9.4335070552
 31
0.0
 11
22.0102110126
 21
9.4466095139
 31
0.0
 11
22.0151534366
 21
9.4598580328
 31
0.0
  0
LINE
  5
32F
100
AcDbEntity
  8
0
100
AcDbLine
 62
7
  6
CONTINUOUS
 10
22.0740741059
 20
5.4325845375
 11
22.0622023527
 21
5.4217967549
  0
SPLINE
  5
330
100
AcDbEntity
  8
0
100
AcDbSpline
 62
7
  6
CONTINUOUS
 70
0
 71
3
 72
11
 73
7
 74
5
 42
0.0000001
 43
0.0000001
 44
0.0000000001
 12
0.0
 22
0.0943243527
 32
0.0
 13
-0.0401734445
 23
0.0853415366
 33
0.0
 40
0.0
 40
0.0
 40
0.0
 40
0.0
 40
0.2454542929
 40
0.4927896797
 40
0.7437692461
 40
1.0
 40
1.0
 40
1.0
 40
1.0
 10
22.0165741059
 20
6.2992805258
 30
0.0
 10
22.0165741059
 20
6.3069979649
 30
0.0
 10
22.0156840759
 20
6.3225062243
 30
0.0
 10
22.0116951295
 20
6.3455969849
 30
0.0
 10
22.0050737548
 20
6.3684261448
 30
0.0
 10
21.9990053299
 20
6.3832107234
 30
0.0
 10
21.9955741059
 20
6.3904997654
 30
0.0
 11
22.0165741059
 21
6.2992805258
 31
0.0
 11
22.0152525937
 21
6.322395097
 31
0.0
 11
22.0112957854
 21
6.3453868546
 31
0.0
 11
22.0047237914
 21
6.3681298269
 31
0.0
 11
21.9955741059
 21
6.3904997654
 31
0.0
  0
SPLINE
  5
331
100
AcDbEntity
  8
0
100
AcDbSpline
 62
7
  6
CONTINUOUS
 70
0
 71
3
 72
11
 73
7
 74
5
 42
0.0000001
 43
0.0000001
 44
0.0000000001
 12
0.0
 22
-0.0943243527
 32
0.0
 13
0.0401734445
 23
-0.0853415366
 33
0.0
 40
0.0
 40
0.0
 40
0.0
 40
0.0
 40
0.2454542929
 40
0.4927896797
 40
0.7437692461
 40
1.0
 40
1.0
 40
1.0
 40
1.0
 10
21.0365741059
 20
6.2992805258
 30
0.0
 10
21.0365741059
 20
6.2915630867
 30
0.0
 10
21.0374641359
 20
6.2760548274
 30
0.0
 10
21.0414530823
 20
6.2529640668
 30
0.0
 10
21.048074457
 20
6.2301349069
 30
0.0
 10
21.0541428819
 20
6.2153503283
 30
0.0
 10
21.0575741059
 20
6.2080612862
 30
0.0
 11
21.0365741059
 21
6.2992805258
 31
0.0
 11
21.0378956181
 21
6.2761659546
 31
0.0
 11
21.0418524264
 21
6.2531741971
 31
0.0
 11
21.0484244204
 21
6.2304312247
 31
0.0
 11
21.0575741059
 21
6.2080612862
 31
0.0
  0
SPLINE
  5
332
100
AcDbEntity
  8
0
100
AcDbSpline
 62
6
  6
CONTINUOUS
 70
0
 71
3
 72
55
 73
51
 74
49
 42
0.0000001
 43
0.0000001
 44
0.0000000001
 12
0.0
 22
-1.2897819568
 32
0.0
 13
-0.0
 23
1.2897819568
 33
0.0
 40
0.0
 40
0.0
 40
0.0
 40
0.0
 40
0.0125669803
 40
0.0251660173
 40
0.0378294788
 40
0.0505881915
 40
0.0634721651
 40
0.0765097252
 40
0.089727287
 40
0.103148971
 40
0.1167962956
 40
0.1306879796
 40
0.1592532988
 40
0.1739601133
 40
0.1889555875
 40
0.2042430515
 40
0.2198228612
 40
0.235692531
 40
0.2518468801
 40
0.2849696882
 40
0.3191094516
 40
0.3541446952
 40
0.3899274847
 40
0.4262889422
 40
0.4630447129
 40
0.5000001794
 40
0.5369556429
 40
0.5737114054
 40
0.610072849
 40
0.6458556197
 40
0.68089084
 40
0.7150305757
 40
0.7481533536
 40
0.7643076864
 40
0.7801773386
 40
0.7957571313
 40
0.8110445784
 40
0.8260400347
 40
0.8407468317
 40
0.869312117
 40
0.8832037849
 40
0.8968510947
 40
0.9102727645
 40
0.9234903133
 40
0.9365278622
 40
0.9494118265
 40
0.9621705314
 40
0.9748339864
 40
0.9874330218
 40
1.0
 40
1.0
 40
1.0
 40
1.0
 10
21.0365741059
 20
6.1996947482
 30
0.0
 10
21.0365741059
 20
6.1942918601
 30
0.0
 10
21.036984185
 20
6.1834678549
 30
0.0
 10
21.0388259481
 20
6.1672938769
 30
0.0
 10
21.0418859619
 20
6.1512210023
 30
0.0
 10
21.0461508261
 20
6.1352989301
 30
0.0
 10
21.0516024272
 20
6.1195733717
 30
0.0
 10
21.0582189455
 20
6.1040873206
 30
0.0
 10
21.0659755943
 20
6.0888804853
 30
0.0
 10
21.0748451362
 20
6.0739897763
 30
0.0
 10
21.0847992215
 20
6.0594486437
 30
0.0
 10
21.0996105278
 20
6.0403961601
 30
0.0
 10
21.116379001
 20
6.0223461024
 30
0.0
 10
21.1348288219
 20
6.0053897831
 30
0.0
 10
21.1497239372
 20
5.9930365803
 30
0.0
 10
21.1655021078
 20
5.9811992869
 30
0.0
 10
21.1821263058
 20
5.9699003452
 30
0.0
 10
21.1995572618
 20
5.9591623493
 30
0.0
 10
21.2240210186
 20
5.9455095556
 30
0.0
 10
21.2564091983
 20
5.9300104374
 30
0.0
 10
21.2974661555
 20
5.9141321949
 30
0.0
 10
21.3406619422
 20
5.9009498691
 30
0.0
 10
21.3855947283
 20
5.8905764272
 30
0.0
 10
21.4318472869
 20
5.8831010056
 30
0.0
 10
21.4789876362
 20
5.8785892717
 30
0.0
 10
21.5265743363
 20
5.8770808536
 30
0.0
 10
21.5741610319
 20
5.8785893004
 30
0.0
 10
21.6213013676
 20
5.8831010637
 30
0.0
 10
21.6675539046
 20
5.8905765086
 30
0.0
 10
21.7124866601
 20
5.9009499758
 30
0.0
 10
21.755682411
 20
5.9141323158
 30
0.0
 10
21.7967393246
 20
5.9300105744
 30
0.0
 10
21.8291274671
 20
5.9455096962
 30
0.0
 10
21.8535911926
 20
5.9591624896
 30
0.0
 10
21.8710221219
 20
5.9699004871
 30
0.0
 10
21.8876462956
 20
5.9811994248
 30
0.0
 10
21.9034244429
 20
5.9930367122
 30
0.0
 10
21.9183195347
 20
6.0053899083
 30
0.0
 10
21.9367693231
 20
6.0223462188
 30
0.0
 10
21.9535377702
 20
6.0403962606
 30
0.0
 10
21.9683490525
 20
6.0594487277
 30
0.0
 10
21.9783031204
 20
6.0739898487
 30
0.0
 10
21.9871726495
 20
6.0888805443
 30
0.0
 10
21.9949292879
 20
6.1040873663
 30
0.0
 10
22.001545798
 20
6.1195734052
 30
0.0
 10
22.0069973921
 20
6.1352989532
 30
0.0
 10
22.0112622526
 20
6.1512210158
 30
0.0
 10
22.0143222651
 20
6.1672938837
 30
0.0
 10
22.0161640266
 20
6.1834678574
 30
0.0
 10
22.0165741059
 20
6.194291861
 30
0.0
 10
22.0165741059
 20
6.1996947482
 30
0.0
 11
21.0365741059
 21
6.1996947482
 31
0.0
 11
21.0371869317
 21
6.183497673
 31
0.0
 11
21.0390225992
 21
6.1673516774
 31
0.0
 11
21.0420729265
 21
6.1513059368
 31
0.0
 11
21.0463248113
 21
6.1354087669
 31
0.0
 11
21.0517607997
 21
6.1197055223
 31
0.0
 11
21.0583597195
 21
6.1042388164
 31
0.0
 11
21.0660974488
 21
6.089048224
 31
0.0
 11
21.074947552
 21
6.0741704559
 31
0.0
 11
21.0848817301
 21
6.0596396239
 31
0.0
 11
21.0958701306
 21
6.0454874981
 31
0.0
 11
21.1208836055
 21
6.0184368941
 31
0.0
 11
21.1348425616
 21
6.005593424
 31
0.0
 11
21.149723442
 21
5.9932390927
 31
0.0
 11
21.1654898665
 21
5.9813985067
 31
0.0
 11
21.1821040115
 21
5.9700953468
 31
0.0
 11
21.1995265539
 21
5.9593523965
 31
0.0
 11
21.2177165991
 21
5.9491914919
 31
0.0
 11
21.2562276723
 21
5.9306982988
 31
0.0
 11
21.2972787255
 21
5.9147702424
 31
0.0
 11
21.3404873234
 21
5.9015431264
 31
0.0
 11
21.3854496701
 21
5.8911318752
 31
0.0
 11
21.4317438361
 21
5.8836281704
 31
0.0
 11
21.4789339046
 21
5.8790988843
 31
0.0
 11
21.5265743374
 21
5.8775845718
 31
0.0
 11
21.5742147654
 21
5.8790989134
 31
0.0
 11
21.6214048205
 21
5.883628228
 31
0.0
 11
21.6676989645
 21
5.8911319578
 31
0.0
 11
21.7126612807
 21
5.9015432323
 31
0.0
 11
21.7558698422
 21
5.9147703648
 31
0.0
 11
21.7969208518
 21
5.9306984349
 31
0.0
 11
21.8354318794
 21
5.9491916328
 31
0.0
 11
21.8536219006
 21
5.9593525376
 31
0.0
 11
21.8710444163
 21
5.9700954877
 31
0.0
 11
21.887658537
 21
5.9813986443
 31
0.0
 11
21.9034249383
 21
5.9932392249
 31
0.0
 11
21.9183057947
 21
6.0055935491
 31
0.0
 11
21.9322647267
 21
6.0184370119
 31
0.0
 11
21.957278161
 21
6.0454875939
 31
0.0
 11
21.9682665434
 21
6.0596397075
 31
0.0
 11
21.9782007051
 21
6.0741705277
 31
0.0
 11
21.987050795
 21
6.0890482823
 31
0.0
 11
21.9947885138
 21
6.1042388613
 31
0.0
 11
22.0013874253
 21
6.119705555
 31
0.0
 11
22.0068234071
 21
6.1354087891
 31
0.0
 11
22.0110752882
 21
6.1513059497
 31
0.0
 11
22.0141256136
 21
6.1673516821
 31
0.0
 11
22.0159612802
 21
6.1834976756
 31
0.0
 11
22.0165741059
 21
6.1996947482
 31
0.0
  0
LINE
  5
333
100
AcDbEntity
  8
0
100
AcDbLine
 62
9
  6
CONTINUOUS
 10
6.630839959
 20
9.1136451993
 11
6.6430039579
 21
9.3143737585
  0
SPLINE
  5
334
100
AcDbEntity
  8
0
100
AcDbSpline
 62
9
  6
CONTINUOUS
 70
0
 71
3
 72
15
 73
11
 74
9
 42
0.0000001
 43
0.0000001
 44
0.0000000001
 12
0.0045504297
 22
0.0748876531
 32
0.0
 13
0.0750251018
 23
0.0003179593
 33
0.0
 40
0.0
 40
0.0
 40
0.0
 40
0.0
 40
0.1243666848
 40
0.2489222468
 40
0.3735954182
 40
0.4984610033
 40
0.6235555944
 40
0.7489220369
 40
0.8746042568
 40
1.0
 40
1.0
 40
1.0
 40
1.0
 10
6.5809347634
 20
9.0672654915
 30
0.0
 10
6.581123404
 20
9.0703700012
 30
0.0
 10
6.5821034959
 20
9.0765623474
 30
0.0
 10
6.5852884306
 20
9.085403486
 30
0.0
 10
6.5901124316
 20
9.0934862912
 30
0.0
 10
6.5963687447
 20
9.10053467
 30
0.0
 10
6.6038545636
 20
9.1062888901
 30
0.0
 10
6.6123045566
 20
9.1105530954
 30
0.0
 10
6.6214163058
 20
9.1131235032
 30
0.0
 10
6.6277067709
 20
9.1137180173
 30
0.0
 10
6.6308427137
 20
9.1137313075
 30
0.0
 11
6.5809347634
 21
9.0672654915
 31
0.0
 11
6.5823878173
 21
9.0764823634
 31
0.0
 11
6.5855594569
 21
9.0852725534
 31
0.0
 11
6.5903469385
 21
9.0933082083
 31
0.0
 11
6.596567328
 21
9.1003131174
 31
0.0
 11
6.6040065906
 21
9.1060351432
 31
0.0
 11
6.6124063906
 21
9.1102672617
 31
0.0
 11
6.6214766569
 21
9.1128448509
 31
0.0
 11
6.6308427137
 21
9.1137313075
 31
0.0
  0
SPLINE
  5
335
100
AcDbEntity
  8
0
100
AcDbSpline
 62
9
  6
CONTINUOUS
 70
0
 71
3
 72
22
 73
18
 74
16
 42
0.0000001
 43
0.0000001
 44
0.0000000001
 12
0.032008582
 22
-0.0000000001
 32
0.0
 13
0.0000000001
 23
-0.032008582
 33
0.0
 40
0.0
 40
0.0
 40
0.0
 40
0.0
 40
0.0109951343
 40
0.0224477995
 40
0.0347269994
 40
0.048123193
 40
0.0790254233
 40
0.1162919738
 40
0.1603972915
 40
0.211336995
 40
0.2688818136
 40
0.3327054976
 40
0.4023985885
 40
0.4773986629
 40
0.6408198811
 40
0.8174788201
 40
1.0
 40
1.0
 40
1.0
 40
1.0
 10
11.4441119934
 20
7.6343738594
 30
0.0
 10
11.4442293063
 20
7.6343738594
 30
0.0
 10
11.4444694795
 20
7.6343482069
 30
0.0
 10
11.4448246028
 20
7.6342353561
 30
0.0
 10
11.4451767212
 20
7.6340499857
 30
0.0
 10
11.4456642695
 20
7.6336909522
 30
0.0
 10
11.4462585384
 20
7.6330454112
 30
0.0
 10
11.4469148862
 20
7.6320395614
 30
0.0
 10
11.4475423502
 20
7.6307721331
 30
0.0
 10
11.4481378646
 20
7.6292554034
 30
0.0
 10
11.4486963976
 20
7.6275027348
 30
0.0
 10
11.4492122229
 20
7.6255297437
 30
0.0
 10
11.4496795633
 20
7.6233539728
 30
0.0
 10
11.4502495279
 20
7.620115717
 30
0.0
 10
11.450799244
 20
7.6157182473
 30
0.0
 10
11.4511923504
 20
7.6101541698
 30
0.0
 10
11.451282612
 20
7.6063212741
 30
0.0
 10
11.451282612
 20
7.6043738594
 30
0.0
 11
11.4441119934
 21
7.6343738594
 31
0.0
 11
11.4444620367
 21
7.634337383
 31
0.0
 11
11.4448120481
 21
7.6342284083
 31
0.0
 11
11.4451610389
 21
7.6340476163
 31
0.0
 11
11.44550802
 21
7.6337956885
 31
0.0
 11
11.4461919981
 21
7.6330811501
 31
0.0
 11
11.4468560714
 21
7.6320902432
 31
0.0
 11
11.4474927551
 21
7.6308302161
 31
0.0
 11
11.4480962705
 21
7.6293155134
 31
0.0
 11
11.4486612654
 21
7.6275623791
 31
0.0
 11
11.4491823876
 21
7.6255870576
 31
0.0
 11
11.4496545299
 21
7.6234068173
 31
0.0
 11
11.4500735646
 21
7.6210430256
 31
0.0
 11
11.4507367815
 21
7.6158543587
 31
0.0
 11
11.4511444176
 21
7.6102144688
 31
0.0
 11
11.451282612
 21
7.6043738594
 31
0.0
  0
LINE
  5
336
100
AcDbEntity
  8
0
100
AcDbLine
 62
9
  6
CONTINUOUS
 10
11.5265741059
 20
7.6347934604
 11
11.4441119934
 21
7.6343738594
  0
LINE
  5
337
100
AcDbEntity
  8
0
100
AcDbLine
 62
9
  6
CONTINUOUS
 10
11.5265741059
 20
7.6052130615
 11
11.4512826119
 21
7.6043738594
  0
SPLINE
  5
338
100
AcDbEntity
  8
0
100
AcDbSpline
 62
9
  6
CONTINUOUS
 70
0
 71
3
 72
15
 73
11
 74
9
 42
0.0000001
 43
0.0000001
 44
0.0000000001
 12
-0.0045504297
 22
0.0748876537
 32
0.0
 13
-0.0750251024
 23
0.0003179554
 33
0.0
 40
0.0
 40
0.0
 40
0.0
 40
0.0
 40
0.1243666889
 40
0.2489222544
 40
0.3735954271
 40
0.4984610118
 40
0.6235556014
 40
0.7489220414
 40
0.8746042583
 40
1.0
 40
1.0
 40
1.0
 40
1.0
 10
8.4722134484
 20
9.0672654915
 30
0.0
 10
8.4720248078
 20
9.0703700013
 30
0.0
 10
8.4710447159
 20
9.0765623478
 30
0.0
 10
8.4678597812
 20
9.0854034867
 30
0.0
 10
8.4630357802
 20
9.0934862921
 30
0.0
 10
8.4567794671
 20
9.100534671
 30
0.0
 10
8.4492936482
 20
9.106288891
 30
0.0
 10
8.4408436552
 20
9.1105530961
 30
0.0
 10
8.431731906
 20
9.1131235036
 30
0.0
 10
8.4254414409
 20
9.1137180175
 30
0.0
 10
8.4223054981
 20
9.1137313075
 30
0.0
 11
8.4722134484
 21
9.0672654915
 31
0.0
 11
8.4707603945
 21
9.0764823638
 31
0.0
 11
8.4675887548
 21
9.0852725541
 31
0.0
 11
8.4628012733
 21
9.0933082092
 31
0.0
 11
8.4565808837
 21
9.1003131184
 31
0.0
 11
8.4491416212
 21
9.1060351441
 31
0.0
 11
8.4407418212
 21
9.1102672624
 31
0.0
 11
8.4316715549
 21
9.1128448513
 31
0.0
 11
8.4223054981
 21
9.1137313075
 31
0.0
  0
SPLINE
  5
339
100
AcDbEntity
  8
0
100
AcDbSpline
 62
9
  6
CONTINUOUS
 70
0
 71
3
 72
23
 73
19
 74
17
 42
0.0000001
 43
0.0000001
 44
0.0000000001
 12
1.818440595
 22
-0.0745065001
 32
0.0
 13
1.8184405769
 23
0.0745069408
 33
0.0
 40
0.0
 40
0.0
 40
0.0
 40
0.0
 40
0.1227785499
 40
0.1849210469
 40
0.2474581512
 40
0.2788510327
 40
0.3103139881
 40
0.3734099903
 40
0.4366658534
 40
0.5000013758
 40
0.6265920926
 40
0.6896879038
 40
0.7211507766
 40
0.7525435728
 40
0.8150802776
 40
0.8772220403
 40
0.9388907249
 40
1.0
 40
1.0
 40
1.0
 40
1.0
 10
6.6168412319
 20
9.0641398049
 30
0.0
 10
6.691263065
 20
9.0610905382
 30
0.0
 10
6.803379855
 20
9.0571513673
 30
0.0
 10
6.9534417219
 20
9.0529007494
 30
0.0
 10
7.0480983439
 20
9.0506781111
 30
0.0
 10
7.1241541229
 20
9.0491877025
 30
0.0
 10
7.2005526062
 20
9.0478932777
 30
0.0
 10
7.2962842062
 20
9.0466489923
 30
0.0
 10
7.4113561505
 20
9.0457535339
 30
0.0
 10
7.5649504515
 20
9.0453558864
 30
0.0
 10
7.7184488964
 20
9.0461503864
 30
0.0
 10
7.8525995507
 20
9.047893823
 30
0.0
 10
7.9289978427
 20
9.0491874009
 30
0.0
 10
8.0050533104
 20
9.0506763077
 30
0.0
 10
8.0997091576
 20
9.0528983737
 30
0.0
 10
8.2127126417
 20
9.056103015
 30
0.0
 10
8.3248347409
 20
9.0597976216
 30
0.0
 10
8.3992651154
 20
9.0626329526
 30
0.0
 10
8.4363063105
 20
9.064150641
 30
0.0
 11
6.6168412319
 21
9.0641398049
 31
0.0
 11
6.8401528094
 21
9.0561959523
 31
0.0
 11
6.9532048523
 21
9.0529984657
 31
0.0
 11
7.066989052
 21
9.0503326442
 31
0.0
 11
7.1241120823
 21
9.0492137591
 31
0.0
 11
7.1813653794
 21
9.0482434234
 31
0.0
 11
7.2961882661
 21
9.0467499367
 31
0.0
 11
7.4113083163
 21
9.0458534786
 31
0.0
 11
7.5265764469
 21
9.0455547273
 31
0.0
 11
7.756964185
 21
9.0467505047
 31
0.0
 11
7.8717867279
 21
9.0482436955
 31
0.0
 11
7.9290398859
 21
9.0492133747
 31
0.0
 11
7.9861627795
 21
9.0503313036
 31
0.0
 11
8.0999462588
 21
9.0529968332
 31
0.0
 11
8.2129968625
 21
9.0561979312
 31
0.0
 11
8.3251705456
 21
9.0599052429
 31
0.0
 11
8.4363063105
 21
9.064150641
 31
0.0
  0
SPLINE
  5
33A
100
AcDbEntity
  8
0
100
AcDbSpline
 62
9
  6
CONTINUOUS
 70
0
 71
3
 72
21
 73
17
 74
15
 42
0.0000001
 43
0.0000001
 44
0.0000000001
 12
-0.0475169944
 22
-0.0228608752
 32
0.0
 13
-0.0020602967
 23
-0.0526900328
 33
0.0
 40
0.0
 40
0.0
 40
0.0
 40
0.0
 40
0.0283155055
 40
0.0441428472
 40
0.0611967488
 40
0.0991945457
 40
0.142622028
 40
0.1915540638
 40
0.2458447484
 40
0.3052393445
 40
0.3694324689
 40
0.4380692434
 40
0.5106986017
 40
0.6659609032
 40
0.8309365408
 40
1.0
 40
1.0
 40
1.0
 40
1.0
 10
6.6308427137
 20
9.1137313075
 30
0.0
 10
6.6303942245
 20
9.1135155351
 30
0.0
 10
6.6297404439
 20
9.1130820606
 30
0.0
 10
6.6289342871
 20
9.1123695137
 30
0.0
 10
6.6280711124
 20
9.1114691041
 30
0.0
 10
6.6270141721
 20
9.1100921182
 30
0.0
 10
6.6258189449
 20
9.1081336636
 30
0.0
 10
6.6246656629
 20
9.1058256383
 30
0.0
 10
6.6235606858
 20
9.1031877647
 30
0.0
 10
6.6225122117
 20
9.1002408738
 30
0.0
 10
6.6215288259
 20
9.0970073671
 30
0.0
 10
6.6206193155
 20
9.0935115416
 30
0.0
 10
6.6194880513
 20
9.0884228766
 30
0.0
 10
6.6183208938
 20
9.0816121335
 30
0.0
 10
6.6173403653
 20
9.0730643449
 30
0.0
 10
6.616963017
 20
9.0672022337
 30
0.0
 10
6.6168469101
 20
9.064232914
 30
0.0
 11
6.6308427137
 21
9.1137313075
 31
0.0
 11
6.6295852267
 21
9.1129263047
 31
0.0
 11
6.6289580257
 21
9.1123757202
 31
0.0
 11
6.6283338066
 21
9.1117284071
 31
0.0
 11
6.6271001757
 21
9.1101495756
 31
0.0
 11
6.6258960565
 21
9.1082017715
 31
0.0
 11
6.6247326057
 21
9.1058987694
 31
0.0
 11
6.6236187168
 21
9.1032615987
 31
0.0
 11
6.6225627179
 21
9.1003131023
 31
0.0
 11
6.6215729367
 21
9.0970761231
 31
0.0
 11
6.6206573885
 21
9.0935746017
 31
0.0
 11
6.619822838
 21
9.0898368689
 31
0.0
 11
6.6184225382
 21
9.0817704831
 31
0.0
 11
6.6174197922
 21
9.0731292543
 31
0.0
 11
6.6168469101
 21
9.064232914
 31
0.0
  0
SPLINE
  5
33B
100
AcDbEntity
  8
0
100
AcDbSpline
 62
9
  6
CONTINUOUS
 70
0
 71
3
 72
23
 73
19
 74
17
 42
0.0000001
 43
0.0000001
 44
0.0000000001
 12
1.7904230019
 22
-0.0747001671
 32
0.0
 13
1.7904230185
 23
0.0746997703
 33
0.0
 40
0.0
 40
0.0
 40
0.0
 40
0.0
 40
0.0611237884
 40
0.1228277107
 40
0.1849737551
 40
0.2474924818
 40
0.2788762877
 40
0.3103332325
 40
0.3734234741
 40
0.4366757495
 40
0.5000053641
 40
0.6265859333
 40
0.6896762786
 40
0.7525179745
 40
0.815036271
 40
0.8771787974
 40
0.9388781535
 40
1.0
 40
1.0
 40
1.0
 40
1.0
 10
6.630839959
 20
9.1136451993
 30
0.0
 10
6.6673191045
 20
9.1121232136
 30
0.0
 10
6.7406327344
 20
9.1092798558
 30
0.0
 10
6.8510608697
 20
9.1055768082
 30
0.0
 10
6.9623380161
 20
9.1023666654
 30
0.0
 10
7.0555238821
 20
9.1001403216
 30
0.0
 10
7.1303896687
 20
9.0986476743
 30
0.0
 10
7.2056005343
 20
9.0973507852
 30
0.0
 10
7.2998506173
 20
9.0961034867
 30
0.0
 10
7.4131438748
 20
9.0952054
 30
0.0
 10
7.564364617
 20
9.0948065823
 30
0.0
 10
7.7154899139
 20
9.0956038455
 30
0.0
 10
7.8663098214
 20
9.097599064
 30
0.0
 10
7.9788574294
 20
9.0996900102
 30
0.0
 10
8.0908262579
 20
9.1023653691
 30
0.0
 10
8.2020982463
 20
9.1055785767
 30
0.0
 10
8.3125202206
 20
9.1092865342
 30
0.0
 10
8.3858299045
 20
9.1121311873
 30
0.0
 10
8.4223078915
 20
9.1136531166
 30
0.0
 11
6.630839959
 21
9.1136451993
 31
0.0
 11
6.7402898605
 21
9.1093884875
 31
0.0
 11
6.8507996048
 21
9.105671571
 31
0.0
 11
6.9621179317
 21
9.1024647146
 31
0.0
 11
7.0741184507
 21
9.0997943547
 31
0.0
 11
7.1303464581
 21
9.0986737566
 31
0.0
 11
7.1867083111
 21
9.0977016146
 31
0.0
 11
7.2997548917
 21
9.0962046178
 31
0.0
 11
7.41309818
 21
9.095305631
 31
0.0
 11
7.5265832284
 21
9.0950060429
 31
0.0
 11
7.753409989
 21
9.0962051983
 31
0.0
 11
7.8664567582
 21
9.0977019834
 31
0.0
 11
7.9790484358
 21
9.0997935513
 31
0.0
 11
8.0910481824
 21
9.102463961
 31
0.0
 11
8.2023601199
 21
9.1056736853
 31
0.0
 11
8.3128615415
 21
9.1093946286
 31
0.0
 11
8.4223078915
 21
9.1136531166
 31
0.0
  0
SPLINE
  5
33C
100
AcDbEntity
  8
0
100
AcDbSpline
 62
9
  6
CONTINUOUS
 70
0
 71
3
 72
21
 73
17
 74
15
 42
0.0000001
 43
0.0000001
 44
0.0000000001
 12
0.0475183462
 22
-0.0228588616
 32
0.0
 13
0.0020587161
 23
-0.05269044
 33
0.0
 40
0.0
 40
0.0
 40
0.0
 40
0.0
 40
0.0283174307
 40
0.0441455923
 40
0.061200209
 40
0.0991991155
 40
0.1426272968
 40
0.1915596608
 40
0.24585038
 40
0.3052447846
 40
0.3694375438
 40
0.4380738214
 40
0.5107025859
 40
0.6659635221
 40
0.8309377609
 40
1.0
 40
1.0
 40
1.0
 40
1.0
 10
8.4223054981
 20
9.1137313075
 30
0.0
 10
8.4227540306
 20
9.1135155395
 30
0.0
 10
8.4234078796
 20
9.1130820719
 30
0.0
 10
8.4242141274
 20
9.1123695252
 30
0.0
 10
8.4250773896
 20
9.1114691236
 30
0.0
 10
8.4261344341
 20
9.1100921465
 30
0.0
 10
8.4273297685
 20
9.1081336947
 30
0.0
 10
8.4284831331
 20
9.1058256701
 30
0.0
 10
8.4295881686
 20
9.1031877969
 30
0.0
 10
8.4306366773
 20
9.1002409059
 30
0.0
 10
8.4316200743
 20
9.0970073985
 30
0.0
 10
8.4325295728
 20
9.0935115716
 30
0.0
 10
8.4336607887
 20
9.0884229049
 30
0.0
 10
8.4348278254
 20
9.0816121533
 30
0.0
 10
8.4358081189
 20
9.0730643506
 30
0.0
 10
8.4361852846
 20
9.0672022352
 30
0.0
 10
8.4363013017
 20
9.064232914
 30
0.0
 11
8.4223054981
 21
9.1137313075
 31
0.0
 11
8.4235631209
 21
9.1129263104
 31
0.0
 11
8.4241903892
 21
9.1123757286
 31
0.0
 11
8.4248146739
 21
9.1117284182
 31
0.0
 11
8.4260484277
 21
9.1101495919
 31
0.0
 11
8.4272526526
 21
9.1082017922
 31
0.0
 11
8.4284161861
 21
9.1058987936
 31
0.0
 11
8.4295301337
 21
9.1032616254
 31
0.0
 11
8.4305861677
 21
9.1003131304
 31
0.0
 11
8.4315759605
 21
9.0970761518
 31
0.0
 11
8.432491497
 21
9.0935746299
 31
0.0
 11
8.4333260124
 21
9.0898368956
 31
0.0
 11
8.4347261708
 21
9.081770504
 31
0.0
 11
8.4357286882
 21
9.0731292656
 31
0.0
 11
8.4363013017
 21
9.064232914
 31
0.0
  0
SPLINE
  5
33D
100
AcDbEntity
  8
0
100
AcDbSpline
 62
9
  6
CONTINUOUS
 70
0
 71
3
 72
12
 73
8
 74
6
 42
0.0000001
 43
0.0000001
 44
0.0000000001
 12
-0.081449112
 22
-0.0026579576
 32
0.0
 13
-0.0814924692
 23
0.0000061469
 33
0.0
 40
0.0
 40
0.0
 40
0.0
 40
0.0
 40
0.2491586624
 40
0.4990463725
 40
0.6241825728
 40
0.7494095313
 40
1.0
 40
1.0
 40
1.0
 40
1.0
 10
11.6080584068
 20
7.6357021505
 30
0.0
 10
11.6012938229
 20
7.6354813994
 30
0.0
 10
11.5877407399
 20
7.6351643246
 30
0.0
 10
11.5707864105
 20
7.6349610043
 30
0.0
 10
11.5571978244
 20
7.6348674972
 30
0.0
 10
11.5435899663
 20
7.6348069726
 30
0.0
 10
11.5333811846
 20
7.634792947
 30
0.0
 10
11.5265741059
 20
7.6347934604
 30
0.0
 11
11.6080584068
 21
7.6357021505
 31
0.0
 11
11.5877599809
 21
7.6352033041
 31
0.0
 11
11.5673976719
 21
7.634943482
 31
0.0
 11
11.5572002669
 21
7.6348716485
 31
0.0
 11
11.5469953167
 21
7.634825603
 31
0.0
 11
11.5265741059
 21
7.6347934604
 31
0.0
  0
SPLINE
  5
33E
100
AcDbEntity
  8
0
100
AcDbSpline
 62
9
  6
CONTINUOUS
 70
0
 71
3
 72
31
 73
27
 74
25
 42
0.0000001
 43
0.0000001
 44
0.0000000001
 12
-0.0021907645
 22
-0.0360539889
 32
0.0
 13
0.0360006859
 23
-0.0029394191
 33
0.0
 40
0.0
 40
0.0
 40
0.0
 40
0.0
 40
0.0013355371
 40
0.0027505569
 40
0.0044637202
 40
0.0065997975
 40
0.0092205501
 40
0.0123566293
 40
0.0202283841
 40
0.0302707388
 40
0.0424918554
 40
0.0568854877
 40
0.0734407471
 40
0.0921411356
 40
0.1129487541
 40
0.1358196304
 40
0.1607096557
 40
0.2163704431
 40
0.2795776784
 40
0.3499589566
 40
0.4270485267
 40
0.5103535605
 40
0.599383048
 40
0.6936070983
 40
0.7923036641
 40
1.0
 40
1.0
 40
1.0
 40
1.0
 10
6.5809347634
 20
9.0672654915
 30
0.0
 10
6.5809337881
 20
9.067249441
 30
0.0
 10
6.5809388034
 20
9.0672153472
 30
0.0
 10
6.5809704649
 20
9.0671701801
 30
0.0
 10
6.5810218995
 20
9.067132085
 30
0.0
 10
6.5810924773
 20
9.0670984638
 30
0.0
 10
6.581182739
 20
9.0670682622
 30
0.0
 10
6.5813421107
 20
9.0670287367
 30
0.0
 10
6.5815925881
 20
9.0669881303
 30
0.0
 10
6.5819530637
 20
9.0669468415
 30
0.0
 10
6.5823926606
 20
9.0669070433
 30
0.0
 10
6.5829107142
 20
9.0668648852
 30
0.0
 10
6.5835065548
 20
9.0668166599
 30
0.0
 10
6.5841790689
 20
9.0667586321
 30
0.0
 10
6.5849271239
 20
9.0666915967
 30
0.0
 10
6.585749253
 20
9.0666162298
 30
0.0
 10
6.5869891461
 20
9.0665012383
 30
0.0
 10
6.5887125565
 20
9.0663407133
 30
0.0
 10
6.5909816846
 20
9.0661332266
 30
0.0
 10
6.5935084647
 20
9.0659101935
 30
0.0
 10
6.5962773432
 20
9.0656780782
 30
0.0
 10
6.5992712917
 20
9.0654435134
 30
0.0
 10
6.6024724482
 20
9.0652131243
 30
0.0
 10
6.6058601203
 20
9.0649940827
 30
0.0
 10
6.6106739786
 20
9.0646900346
 30
0.0
 10
6.6143545066
 20
9.0644364162
 30
0.0
 10
6.6168469101
 20
9.064232914
 30
0.0
 11
6.5809347634
 21
9.0672654915
 31
0.0
 11
6.5809420757
 21
9.0672178087
 31
0.0
 11
6.5809700639
 21
9.0671750417
 31
0.0
 11
6.5810186351
 21
9.0671367009
 31
0.0
 11
6.581087696
 21
9.0671022966
 31
0.0
 11
6.5811771538
 21
9.0670713391
 31
0.0
 11
6.5812869153
 21
9.0670433388
 31
0.0
 11
6.5815669775
 21
9.0669942507
 31
0.0
 11
6.5819271383
 21
9.0669511151
 31
0.0
 11
6.5823666534
 21
9.0669100144
 31
0.0
 11
6.5828847786
 21
9.0668670312
 31
0.0
 11
6.5834807694
 21
9.0668182482
 31
0.0
 11
6.5841537603
 21
9.0667604626
 31
0.0
 11
6.584902359
 21
9.0666935711
 31
0.0
 11
6.5857250307
 21
9.0666183098
 31
0.0
 11
6.5866202408
 21
9.0665354148
 31
0.0
 11
6.5886221367
 21
9.0663496681
 31
0.0
 11
6.5908957686
 21
9.0661422201
 31
0.0
 11
6.5934281618
 21
9.0659190701
 31
0.0
 11
6.5962029663
 21
9.0656867521
 31
0.0
 11
6.5992028105
 21
9.0654519619
 31
0.0
 11
6.6024103227
 21
9.0652213956
 31
0.0
 11
6.6058064268
 21
9.0649983825
 31
0.0
 11
6.6093641085
 21
9.0647705724
 31
0.0
 11
6.6168469101
 21
9.064232914
 31
0.0
  0
LINE
  5
33F
100
AcDbEntity
  8
0
100
AcDbLine
 62
9
  6
CONTINUOUS
 10
6.5488957528
 20
7.9631482445
 11
6.6168412319
 21
9.0641398049
  0
SPLINE
  5
340
100
AcDbEntity
  8
0
100
AcDbSpline
 62
9
  6
CONTINUOUS
 70
0
 71
3
 72
33
 73
29
 74
27
 42
0.0000001
 43
0.0000001
 44
0.0000000001
 12
0.0021249334
 22
0.0349705864
 32
0.0
 13
0.0350009455
 23
-0.0015463075
 33
0.0
 40
0.0
 40
0.0
 40
0.0
 40
0.0
 40
0.0003260059
 40
0.0006587085
 40
0.0010621627
 40
0.0015735435
 40
0.0029805755
 40
0.0049406273
 40
0.0074672451
 40
0.0105623634
 40
0.0142237797
 40
0.0184476365
 40
0.0232294285
 40
0.0285644737
 40
0.0408760216
 40
0.0553483788
 40
0.0719532014
 40
0.1114584302
 40
0.1591400073
 40
0.2146929697
 40
0.2777942612
 40
0.3480964271
 40
0.4251584232
 40
0.508506659
 40
0.5976678857
 40
0.6921320606
 40
0.7911877144
 40
1.0
 40
1.0
 40
1.0
 40
1.0
 10
6.5140324938
 20
7.9662367312
 30
0.0
 10
6.5140327247
 20
7.9662405314
 30
0.0
 10
6.514034786
 20
7.9662483103
 30
0.0
 10
6.5140437938
 20
7.9662574504
 30
0.0
 10
6.5140572895
 20
7.9662634392
 30
0.0
 10
6.5140839731
 20
7.9662688523
 30
0.0
 10
6.5141295836
 20
7.9662685493
 30
0.0
 10
6.5141979896
 20
7.9662612277
 30
0.0
 10
6.5142854079
 20
7.9662467886
 30
0.0
 10
6.5143917904
 20
7.9662259392
 30
0.0
 10
6.5145172126
 20
7.9661992022
 30
0.0
 10
6.5146616473
 20
7.9661672381
 30
0.0
 10
6.514825088
 20
7.9661306939
 30
0.0
 10
6.5150807987
 20
7.9660739703
 30
0.0
 10
6.5154475973
 20
7.9659954537
 30
0.0
 10
6.5159448367
 20
7.9658977851
 30
0.0
 10
6.5167570044
 20
7.9657564736
 30
0.0
 10
6.5179585553
 20
7.9655940821
 30
0.0
 10
6.5196159321
 20
7.9654149769
 30
0.0
 10
6.5215504552
 20
7.965238042
 30
0.0
 10
6.5237498166
 20
7.9650580749
 30
0.0
 10
6.5262005186
 20
7.9648701393
 30
0.0
 10
6.5288873214
 20
7.9646687245
 30
0.0
 10
6.5317935627
 20
7.9644483088
 30
0.0
 10
6.5349017747
 20
7.9642037146
 30
0.0
 10
6.5381915685
 20
7.9639286302
 30
0.0
 10
6.5428746989
 20
7.9635490525
 30
0.0
 10
6.5464630836
 20
7.9633117829
 30
0.0
 10
6.5488992928
 20
7.9632041536
 30
0.0
 11
6.5140324938
 21
7.9662367312
 31
0.0
 11
6.5140356284
 21
7.9662477142
 31
0.0
 11
6.5140435452
 21
7.9662562695
 31
0.0
 11
6.514056242
 21
7.9662624817
 31
0.0
 11
6.5140737165
 21
7.9662664357
 31
0.0
 11
6.51412299
 21
7.966267908
 31
0.0
 11
6.5141913481
 21
7.9662613645
 31
0.0
 11
6.5142787733
 21
7.9662474835
 31
0.0
 11
6.5143852478
 21
7.966226943
 31
0.0
 11
6.5145107542
 21
7.9662004214
 31
0.0
 11
6.5146552749
 21
7.9661685967
 31
0.0
 11
6.5148187921
 21
7.9661321471
 31
0.0
 11
6.5150012884
 21
7.9660917509
 31
0.0
 11
6.5154231478
 21
7.9660018312
 31
0.0
 11
6.5159207122
 21
7.965904263
 31
0.0
 11
6.5164938407
 21
7.9658044718
 31
0.0
 11
6.5178645207
 21
7.9656124207
 31
0.0
 11
6.5195249555
 21
7.9654290611
 31
0.0
 11
6.5214629081
 21
7.965248966
 31
0.0
 11
6.5236661417
 21
7.9650667084
 31
0.0
 11
6.5261218554
 21
7.9648768443
 31
0.0
 11
6.528814086
 21
7.9646738362
 31
0.0
 11
6.5317257688
 21
7.9644521139
 31
0.0
 11
6.5348398381
 21
7.9642061074
 31
0.0
 11
6.538138232
 21
7.963934467
 31
0.0
 11
6.5415976342
 21
7.9636581076
 31
0.0
 11
6.5488992928
 21
7.9632041536
 31
0.0
  0
SPLINE
  5
341
100
AcDbEntity
  8
0
100
AcDbSpline
 62
9
  6
CONTINUOUS
 70
0
 71
3
 72
29
 73
25
 74
23
 42
0.0000001
 43
0.0000001
 44
0.0000000001
 12
-1.9240659366
 22
-0.0833106269
 32
0.0
 13
-1.9240658989
 23
0.0833114994
 33
0.0
 40
0.0
 40
0.0
 40
0.0
 40
0.0
 40
0.0303691568
 40
0.0609219496
 40
0.0916326661
 40
0.122479528
 40
0.1534541539
 40
0.1845510084
 40
0.247083712
 40
0.3099909149
 40
0.3731727375
 40
0.4365377511
 40
0.499995907
 40
0.5634539867
 40
0.6268190359
 40
0.6900013629
 40
0.7529088827
 40
0.8154406315
 40
0.8465372885
 40
0.8775126705
 40
0.9083615736
 40
0.939075039
 40
0.9696299788
 40
1.0
 40
1.0
 40
1.0
 40
1.0
 10
8.4892089812
 20
7.9136217116
 30
0.0
 10
8.4697315611
 20
7.9127783538
 30
0.0
 10
8.4306563737
 20
7.9111454408
 30
0.0
 10
8.3718768196
 20
7.908853302
 30
0.0
 10
8.312785091
 20
7.9067016495
 30
0.0
 10
8.2534177385
 20
7.9046823751
 30
0.0
 10
8.1937977206
 20
7.9028046677
 30
0.0
 10
8.1138405405
 20
7.9004956752
 30
0.0
 10
8.0133809914
 20
7.8980095771
 30
0.0
 10
7.892315942
 20
7.8956787098
 30
0.0
 10
7.770705704
 20
7.8940008367
 30
0.0
 10
7.6487344009
 20
7.8929877076
 30
0.0
 10
7.5265820068
 20
7.8926499471
 30
0.0
 10
7.4044295896
 20
7.8929876864
 30
0.0
 10
7.2824579892
 20
7.8940008419
 30
0.0
 10
7.1608471963
 20
7.8956782691
 30
0.0
 10
7.0397822195
 20
7.8980085881
 30
0.0
 10
6.9393232378
 20
7.9004960066
 30
0.0
 10
6.8593663303
 20
7.9028055931
 30
0.0
 10
6.7997446295
 20
7.9046828507
 30
0.0
 10
6.7403736558
 20
7.9067003649
 30
0.0
 10
6.6812773737
 20
7.9088493472
 30
0.0
 10
6.6224940402
 20
7.9111394861
 30
0.0
 10
6.5834168928
 20
7.9127718261
 30
0.0
 10
6.5639389188
 20
7.9136152167
 30
0.0
 11
8.4892089812
 21
7.9136217116
 31
0.0
 11
8.4307730688
 21
7.9111774451
 31
0.0
 11
8.3719771731
 21
7.9088824685
 31
0.0
 11
8.312871604
 21
7.9067283804
 31
0.0
 11
8.2534988942
 21
7.9047100091
 31
0.0
 11
8.1938753664
 21
7.9028330669
 31
0.0
 11
8.1340118271
 21
7.9011055573
 31
0.0
 11
8.0136189275
 21
7.8981253946
 31
0.0
 11
7.8924903853
 21
7.8957919827
 31
0.0
 11
7.7708220639
 21
7.8941136319
 31
0.0
 11
7.6487935683
 21
7.893100818
 31
0.0
 11
7.5265819579
 21
7.8927625855
 31
0.0
 11
7.404370494
 21
7.8931008039
 31
0.0
 11
7.2823419293
 21
7.8941135544
 31
0.0
 11
7.1606726313
 21
7.8957915281
 31
0.0
 11
7.0395434757
 21
7.8981247822
 31
0.0
 11
6.9191524413
 21
7.9011059882
 31
0.0
 11
6.8592892917
 21
7.9028338153
 31
0.0
 11
6.7996642902
 21
7.9047102265
 31
0.0
 11
6.7402875901
 21
7.9067269179
 31
0.0
 11
6.681176637
 21
7.9088786385
 31
0.0
 11
6.6223765292
 21
7.9111717148
 31
0.0
 11
6.5639389188
 21
7.9136152167
 31
0.0
  0
SPLINE
  5
342
100
AcDbEntity
  8
0
100
AcDbSpline
 62
9
  6
CONTINUOUS
 70
0
 71
3
 72
30
 73
26
 74
24
 42
0.0000001
 43
0.0000001
 44
0.0000000001
 12
-1.9541650503
 22
-0.0835146414
 32
0.0
 13
-1.9541650412
 23
0.0835148554
 33
0.0
 40
0.0
 40
0.0
 40
0.0
 40
0.0
 40
0.0303582703
 40
0.0608899119
 40
0.0915822778
 40
0.1224230233
 40
0.1534009617
 40
0.184505178
 40
0.24704834
 40
0.3099616613
 40
0.3731528371
 40
0.4365294842
 40
0.4999991101
 40
0.5634687527
 40
0.6268454819
 40
0.690036815
 40
0.752950333
 40
0.7842740694
 40
0.8154937221
 40
0.8465980681
 40
0.8775762047
 40
0.9084172176
 40
0.9391098506
 40
0.9696416682
 40
1.0
 40
1.0
 40
1.0
 40
1.0
 10
8.5042520128
 20
7.9631554839
 30
0.0
 10
8.4844769892
 20
7.9623103639
 30
0.0
 10
8.4448114784
 20
7.9606740472
 30
0.0
 10
8.3851455319
 20
7.958376959
 30
0.0
 10
8.3251595687
 20
7.9562206179
 30
0.0
 10
8.2648778581
 20
7.9541965351
 30
0.0
 10
8.2043229055
 20
7.9523138085
 30
0.0
 10
8.1231022485
 20
7.9499982697
 30
0.0
 10
8.021057246
 20
7.9475051097
 30
0.0
 10
7.898083818
 20
7.945167848
 30
0.0
 10
7.7745562009
 20
7.9434853215
 30
0.0
 10
7.6506585799
 20
7.9424692801
 30
0.0
 10
7.5265756938
 20
7.9421305625
 30
0.0
 10
7.4024927556
 20
7.9424693343
 30
0.0
 10
7.2785949647
 20
7.9434855339
 30
0.0
 10
7.1550670751
 20
7.945167517
 30
0.0
 10
7.0524443102
 20
7.9471179564
 30
0.0
 10
6.9706702426
 20
7.9490053688
 30
0.0
 10
6.9096337798
 20
7.950581324
 30
0.0
 10
6.8488270277
 20
7.9523152691
 30
0.0
 10
6.7882716787
 20
7.9541976034
 30
0.0
 10
6.7279894243
 20
7.956219711
 30
0.0
 10
6.6680028861
 20
7.9583729381
 30
0.0
 10
6.6083365149
 20
7.9606675676
 30
0.0
 10
6.5686708163
 20
7.9623031206
 30
0.0
 10
6.5488957528
 20
7.9631482445
 30
0.0
 11
8.5042520128
 21
7.9631554839
 31
0.0
 11
8.4449233417
 21
7.9607058166
 31
0.0
 11
8.385249304
 21
7.9584062685
 31
0.0
 11
8.325255427
 21
7.9562477098
 31
0.0
 11
8.2649664483
 21
7.9542244345
 31
0.0
 11
8.2044044242
 21
7.9523423536
 31
0.0
 11
8.1435908432
 21
7.9506098388
 31
0.0
 11
8.0212961322
 21
7.9476212231
 31
0.0
 11
7.8982631425
 21
7.9452814572
 31
0.0
 11
7.7746758967
 21
7.9435984358
 31
0.0
 11
7.6507185806
 21
7.9425827192
 31
0.0
 11
7.5265757049
 21
7.9422435325
 31
0.0
 11
7.4024327967
 21
7.9425827905
 31
0.0
 11
7.2784753204
 21
7.9435985302
 31
0.0
 11
7.1548877623
 21
7.9452812104
 31
0.0
 11
7.0318543853
 21
7.9476208455
 31
0.0
 11
6.9706030812
 21
7.9490349257
 31
0.0
 11
6.9095593743
 21
7.9506107205
 31
0.0
 11
6.8487455523
 21
7.9523436804
 31
0.0
 11
6.7881831239
 21
7.9542252344
 31
0.0
 11
6.7278935579
 21
7.956246607
 31
0.0
 11
6.6678990571
 21
7.9584023526
 31
0.0
 11
6.6082245845
 21
7.9606995549
 31
0.0
 11
6.5488957528
 21
7.9631482445
 31
0.0
  0
LINE
  5
343
100
AcDbEntity
  8
0
100
AcDbLine
 62
9
  6
CONTINUOUS
 10
8.4363063105
 20
9.064150641
 11
8.5042520128
 21
7.9631554839
  0
SPLINE
  5
344
100
AcDbEntity
  8
0
100
AcDbSpline
 62
9
  6
CONTINUOUS
 70
0
 71
3
 72
31
 73
27
 74
25
 42
0.0000001
 43
0.0000001
 44
0.0000000001
 12
0.0021907644
 22
-0.0360539886
 32
0.0
 13
-0.0360006851
 23
-0.0029394235
 33
0.0
 40
0.0
 40
0.0
 40
0.0
 40
0.0
 40
0.0013355338
 40
0.0027505511
 40
0.0044637126
 40
0.0065997888
 40
0.0092205406
 40
0.0123566193
 40
0.0202283736
 40
0.0302707282
 40
0.0424918448
 40
0.0568854772
 40
0.0734407367
 40
0.0921411254
 40
0.112948744
 40
0.1358196205
 40
0.160709646
 40
0.2163704339
 40
0.27957767
 40
0.3499589489
 40
0.4270485199
 40
0.5103535547
 40
0.5993830433
 40
0.6936070947
 40
0.7923036616
 40
1.0
 40
1.0
 40
1.0
 40
1.0
 10
8.4722134484
 20
9.0672654915
 30
0.0
 10
8.4722144237
 20
9.0672494411
 30
0.0
 10
8.4722094084
 20
9.0672153473
 30
0.0
 10
8.4721777468
 20
9.0671701803
 30
0.0
 10
8.4721263123
 20
9.0671320853
 30
0.0
 10
8.4720557345
 20
9.0670984643
 30
0.0
 10
8.4719654728
 20
9.0670682627
 30
0.0
 10
8.4718061011
 20
9.0670287374
 30
0.0
 10
8.4715556236
 20
9.0669881312
 30
0.0
 10
8.471195148
 20
9.0669468426
 30
0.0
 10
8.4707555511
 20
9.0669070445
 30
0.0
 10
8.4702374975
 20
9.0668648865
 30
0.0
 10
8.4696416569
 20
9.0668166614
 30
0.0
 10
8.4689691428
 20
9.0667586337
 30
0.0
 10
8.4682210878
 20
9.0666915983
 30
0.0
 10
8.4673989587
 20
9.0666162315
 30
0.0
 10
8.4661590656
 20
9.0665012401
 30
0.0
 10
8.4644356552
 20
9.0663407152
 30
0.0
 10
8.4621665271
 20
9.0661332285
 30
0.0
 10
8.459639747
 20
9.0659101954
 30
0.0
 10
8.4568708685
 20
9.0656780799
 30
0.0
 10
8.4538769199
 20
9.065443515
 30
0.0
 10
8.4506757635
 20
9.0652131258
 30
0.0
 10
8.4472880914
 20
9.0649940838
 30
0.0
 10
8.4424742332
 20
9.0646900353
 30
0.0
 10
8.4387937052
 20
9.0644364165
 30
0.0
 10
8.4363013017
 20
9.064232914
 30
0.0
 11
8.4722134484
 21
9.0672654915
 31
0.0
 11
8.4722061361
 21
9.0672178088
 31
0.0
 11
8.4721781478
 21
9.0671750419
 31
0.0
 11
8.4721295767
 21
9.0671367013
 31
0.0
 11
8.4720605158
 21
9.0671022971
 31
0.0
 11
8.471971058
 21
9.0670713397
 31
0.0
 11
8.4718612965
 21
9.0670433394
 31
0.0
 11
8.4715812342
 21
9.0669942516
 31
0.0
 11
8.4712210734
 21
9.0669511161
 31
0.0
 11
8.4707815583
 21
9.0669100156
 31
0.0
 11
8.4702634331
 21
9.0668670325
 31
0.0
 11
8.4696674423
 21
9.0668182496
 31
0.0
 11
8.4689944514
 21
9.0667604641
 31
0.0
 11
8.4682458527
 21
9.0666935728
 31
0.0
 11
8.467423181
 21
9.0666183115
 31
0.0
 11
8.4665279709
 21
9.0665354166
 31
0.0
 11
8.464526075
 21
9.06634967
 31
0.0
 11
8.4622524431
 21
9.066142222
 31
0.0
 11
8.4597200499
 21
9.0659190719
 31
0.0
 11
8.4569452454
 21
9.0656867538
 31
0.0
 11
8.4539454012
 21
9.0654519635
 31
0.0
 11
8.450737889
 21
9.065221397
 31
0.0
 11
8.4473417849
 21
9.0649983836
 31
0.0
 11
8.4437841032
 21
9.0647705733
 31
0.0
 11
8.4363013017
 21
9.064232914
 31
0.0
  0
SPLINE
  5
345
100
AcDbEntity
  8
0
100
AcDbSpline
 62
9
  6
CONTINUOUS
 70
0
 71
3
 72
22
 73
18
 74
16
 42
0.0000001
 43
0.0000001
 44
0.0000000001
 12
-0.0317559871
 22
-0.0010358096
 32
0.0
 13
0.0009763045
 23
-0.0317578723
 33
0.0
 40
0.0
 40
0.0
 40
0.0
 40
0.0
 40
0.0110161099
 40
0.0224865952
 40
0.0347783977
 40
0.0481809129
 40
0.0790761277
 40
0.1163110737
 40
0.1603640723
 40
0.2112370473
 40
0.2687075135
 40
0.3324557816
 40
0.4020789977
 40
0.4770222972
 40
0.6404002105
 40
0.8171617997
 40
1.0
 40
1.0
 40
1.0
 40
1.0
 10
11.6080584217
 20
7.6357016945
 30
0.0
 10
11.6079418125
 20
7.635697891
 30
0.0
 10
11.6077039556
 20
7.6356647355
 30
0.0
 10
11.6073546162
 20
7.6355415841
 30
0.0
 10
11.6070105672
 20
7.6353467555
 30
0.0
 10
11.6065375625
 20
7.6349757551
 30
0.0
 10
11.6059675162
 20
7.6343177109
 30
0.0
 10
11.6053470903
 20
7.6333007739
 30
0.0
 10
11.6047635782
 20
7.6320257117
 30
0.0
 10
11.6042195986
 20
7.6305046506
 30
0.0
 10
11.6037196716
 20
7.6287508352
 30
0.0
 10
11.6032689421
 20
7.6267797483
 30
0.0
 10
11.6028725459
 20
7.6246087714
 30
0.0
 10
11.6024070089
 20
7.62138014
 30
0.0
 10
11.6019971573
 20
7.617000186
 30
0.0
 10
11.6017781708
 20
7.6114636637
 30
0.0
 10
11.601806109
 20
7.6076536074
 30
0.0
 10
11.601865611
 20
7.60571809
 30
0.0
 11
11.6080584217
 21
7.6357016945
 31
0.0
 11
11.6077116383
 21
7.6356542527
 31
0.0
 11
11.6073672256
 21
7.6355350726
 31
0.0
 11
11.6070261351
 21
7.6353448533
 31
0.0
 11
11.6066893183
 21
7.635084294
 31
0.0
 11
11.6060323123
 21
7.6343549517
 31
0.0
 11
11.60540382
 21
7.6333526386
 31
0.0
 11
11.6048109782
 21
7.6320846986
 31
0.0
 11
11.6042590216
 21
7.6305654782
 31
0.0
 11
11.6037527095
 21
7.6288110748
 31
0.0
 11
11.603296801
 21
7.6268375858
 31
0.0
 11
11.6028957836
 21
7.6246621081
 31
0.0
 11
11.602553058
 21
7.6223057376
 31
0.0
 11
11.6020549983
 21
7.6171387004
 31
0.0
 11
11.6018238481
 21
7.6115272352
 31
0.0
 11
11.601865611
 21
7.60571809
 31
0.0
  0
SPLINE
  5
346
100
AcDbEntity
  8
0
100
AcDbSpline
 62
9
  6
CONTINUOUS
 70
0
 71
3
 72
30
 73
26
 74
24
 42
0.0000001
 43
0.0000001
 44
0.0000000001
 12
0.0021245888
 22
-0.0349649561
 32
0.0
 13
-0.0349515275
 23
-0.0023351136
 33
0.0
 40
0.0
 40
0.0
 40
0.0
 40
0.0
 40
0.0006066147
 40
0.0016109747
 40
0.0031214566
 40
0.0051654688
 40
0.0077518989
 40
0.0108836858
 40
0.0187837894
 40
0.0288591897
 40
0.0410956143
 40
0.0554761653
 40
0.0719827096
 40
0.090596458
 40
0.1112982408
 40
0.1588767697
 40
0.2144194998
 40
0.27754162
 40
0.3478561559
 40
0.4249757119
 40
0.5085104743
 40
0.5979403813
 40
0.6925436002
 40
0.7915808545
 40
1.0
 40
1.0
 40
1.0
 40
1.0
 10
8.539115718
 20
7.9662367312
 30
0.0
 10
8.5391161476
 20
7.9662296611
 30
0.0
 10
8.5391048229
 20
7.9662117734
 30
0.0
 10
8.5390736476
 20
7.9661933523
 30
0.0
 10
8.5390246763
 20
7.9661717994
 30
0.0
 10
8.5389564781
 20
7.9661496448
 30
0.0
 10
8.5388689968
 20
7.9661257924
 30
0.0
 10
8.5387141366
 20
7.9660896065
 30
0.0
 10
8.5384720971
 20
7.9660427559
 30
0.0
 10
8.5381240554
 20
7.965985105
 30
0.0
 10
8.5377001383
 20
7.9659228854
 30
0.0
 10
8.5372010277
 20
7.9658562459
 30
0.0
 10
8.5366273855
 20
7.9657853765
 30
0.0
 10
8.5359799007
 20
7.9657104094
 30
0.0
 10
8.5349713077
 20
7.9655999635
 30
0.0
 10
8.533532862
 20
7.9654539424
 30
0.0
 10
8.5316003062
 20
7.9652715072
 30
0.0
 10
8.5294023701
 20
7.9650758988
 30
0.0
 10
8.5269525843
 20
7.9648683552
 30
0.0
 10
8.5242645212
 20
7.9646501095
 30
0.0
 10
8.5213532968
 20
7.9644225116
 30
0.0
 10
8.5182379266
 20
7.9641870652
 30
0.0
 10
8.5149415061
 20
7.9639453763
 30
0.0
 10
8.5102587453
 20
7.9636115599
 30
0.0
 10
8.5066771082
 20
7.9633663811
 30
0.0
 10
8.504248919
 20
7.9632041536
 30
0.0
 11
8.539115718
 21
7.9662367312
 31
0.0
 11
8.5391069434
 21
7.9662173781
 31
0.0
 11
8.5390783998
 21
7.96619681
 31
0.0
 11
8.5390301741
 21
7.9661750407
 31
0.0
 11
8.5389623534
 21
7.9661520843
 31
0.0
 11
8.5388750245
 21
7.9661279546
 31
0.0
 11
8.5387682743
 21
7.9661026656
 31
0.0
 11
8.5384968578
 21
7.9660486655
 31
0.0
 11
8.5381487991
 21
7.9659901956
 31
0.0
 11
8.5377247935
 21
7.9659273672
 31
0.0
 11
8.5372255364
 21
7.9658602921
 31
0.0
 11
8.5366517231
 21
7.9657890816
 31
0.0
 11
8.5360040488
 21
7.9657138474
 31
0.0
 11
8.5352832088
 21
7.9656347009
 31
0.0
 11
8.533625208
 21
7.9654651317
 31
0.0
 11
8.5316882673
 21
7.965281445
 31
0.0
 11
8.5294858944
 21
7.9650848181
 31
0.0
 11
8.5270316464
 21
7.9648764303
 31
0.0
 11
8.5243390802
 21
7.9646574607
 31
0.0
 11
8.5214218287
 21
7.9644290924
 31
0.0
 11
8.5182980765
 21
7.9641927533
 31
0.0
 11
8.514993063
 21
7.9639502504
 31
0.0
 11
8.5115326347
 21
7.9637034231
 31
0.0
 11
8.504248919
 21
7.9632041536
 31
0.0
  0
LINE
  5
347
100
AcDbEntity
  8
0
100
AcDbLine
 62
9
  6
CONTINUOUS
 10
6.5608885637
 20
7.8635705446
 11
6.5643647346
 21
7.9206363061
  0
SPLINE
  5
348
100
AcDbEntity
  8
0
100
AcDbSpline
 62
9
  6
CONTINUOUS
 70
0
 71
3
 72
19
 73
15
 74
13
 42
0.0000001
 43
0.0000001
 44
0.0000000001
 12
-0.0049116669
 22
-0.0808314806
 32
0.0
 13
0.0809804872
 23
-0.0001158287
 33
0.0
 40
0.0
 40
0.0
 40
0.0
 40
0.0
 40
0.0618937329
 40
0.124060039
 40
0.1863855502
 40
0.2487599249
 40
0.3733331584
 40
0.4980544871
 40
0.6230775597
 40
0.7485060901
 40
0.8114749908
 40
0.8744742305
 40
0.9373639973
 40
1.0
 40
1.0
 40
1.0
 40
1.0
 10
6.5109806137
 20
7.9160111138
 30
0.0
 10
6.5108792799
 20
7.9143434598
 30
0.0
 10
6.5108524033
 20
7.9109876038
 30
0.0
 10
6.5113280601
 20
7.905970747
 30
0.0
 10
6.5123128741
 20
7.9010142846
 30
0.0
 10
6.5142938831
 20
7.8945731646
 30
0.0
 10
6.5180204397
 20
7.886958222
 30
0.0
 10
6.52424535
 20
7.8789119817
 30
0.0
 10
6.5319927019
 20
7.8722838996
 30
0.0
 10
6.5394468398
 20
7.8681501391
 30
0.0
 10
6.5458248519
 20
7.8658039976
 30
0.0
 10
6.5507699767
 20
7.8645290455
 30
0.0
 10
6.5558072659
 20
7.8637523275
 30
0.0
 10
6.559197799
 20
7.863572921
 30
0.0
 10
6.5608885637
 20
7.8635705027
 30
0.0
 11
6.5109806137
 21
7.9160111138
 31
0.0
 11
6.510937955
 21
7.9109991056
 31
0.0
 11
6.5114120345
 21
7.9059872146
 31
0.0
 11
6.5123960062
 21
7.9010369037
 31
0.0
 11
6.5138830244
 21
7.896209636
 31
0.0
 11
6.5183095765
 21
7.8871446699
 31
0.0
 11
6.5244907228
 21
7.8791569595
 31
0.0
 11
6.5321798672
 21
7.8725705084
 31
0.0
 11
6.5410648634
 21
7.8676484097
 31
0.0
 11
6.5458497061
 21
7.8658855407
 31
0.0
 11
6.5507897135
 21
7.8646112503
 31
0.0
 11
6.5558232209
 21
7.8638360628
 31
0.0
 11
6.5608885637
 21
7.8635705027
 31
0.0
  0
SPLINE
  5
349
100
AcDbEntity
  8
0
100
AcDbSpline
 62
9
  6
CONTINUOUS
 70
0
 71
3
 72
13
 73
9
 74
7
 42
0.0000001
 43
0.0000001
 44
0.0000000001
 12
-0.0752485443
 22
-0.0026933259
 32
0.0
 13
-0.0752967282
 23
0.0000121687
 33
0.0
 40
0.0
 40
0.0
 40
0.0
 40
0.0
 40
0.2467850312
 40
0.3712724706
 40
0.4963232134
 40
0.6218377052
 40
0.7477105245
 40
1.0
 40
1.0
 40
1.0
 40
1.0
 10
11.6018655999
 20
7.60571809
 30
0.0
 10
11.5956755285
 20
7.6054965325
 30
0.0
 10
11.5863577809
 20
7.605307047
 30
0.0
 10
11.5739010964
 20
7.6052053842
 30
0.0
 10
11.5644876616
 20
7.6051787495
 30
0.0
 10
11.5550394806
 20
7.6051824751
 30
0.0
 10
11.5423977515
 20
7.6051986948
 30
0.0
 10
11.5329062966
 20
7.6052120382
 30
0.0
 10
11.5265741059
 20
7.6052130615
 30
0.0
 11
11.6018655999
 21
7.60571809
 31
0.0
 11
11.5832883172
 21
7.6052947498
 31
0.0
 11
11.5739151696
 21
7.60521381
 31
0.0
 11
11.5644993054
 21
7.6051838322
 31
0.0
 11
11.5550484747
 21
7.6051838694
 31
0.0
 11
11.5455706694
 21
7.605194753
 31
0.0
 11
11.5265741059
 21
7.6052130615
 31
0.0
  0
LINE
  5
34A
100
AcDbEntity
  8
0
100
AcDbLine
 62
9
  6
CONTINUOUS
 10
6.536122805
 20
7.4613951971
 11
6.5608885637
 21
7.8635705446
  0
SPLINE
  5
34B
100
AcDbEntity
  8
0
100
AcDbSpline
 62
9
  6
CONTINUOUS
 70
0
 71
3
 72
21
 73
17
 74
15
 42
0.0000001
 43
0.0000001
 44
0.0000000001
 12
-0.0046412185
 22
-0.0763659975
 32
0.0
 13
0.0764997327
 23
-0.001047565
 33
0.0
 40
0.0
 40
0.0
 40
0.0
 40
0.0
 40
0.0581173774
 40
0.1166481098
 40
0.1756349383
 40
0.2351122824
 40
0.2951441171
 40
0.3558396335
 40
0.4172738446
 40
0.4794893858
 40
0.5425100939
 40
0.6063185843
 40
0.7359286941
 40
0.8017154811
 40
0.8678632901
 40
1.0
 40
1.0
 40
1.0
 40
1.0
 10
6.4862148651
 20
7.5084343195
 30
0.0
 10
6.4861249532
 20
7.5069549224
 30
0.0
 10
6.4861198198
 20
7.5039722135
 30
0.0
 10
6.4866250779
 20
7.4995125509
 30
0.0
 10
6.4876357457
 20
7.4951035746
 30
0.0
 10
6.4891451832
 20
7.4907988929
 30
0.0
 10
6.4911470983
 20
7.4866517425
 30
0.0
 10
6.4936111612
 20
7.4827032598
 30
0.0
 10
6.4965085292
 20
7.4789903364
 30
0.0
 10
6.4998106434
 20
7.4755500136
 30
0.0
 10
6.5034884843
 20
7.4724200534
 30
0.0
 10
6.5088624479
 20
7.4686796707
 30
0.0
 10
6.5148108125
 20
7.4656916727
 30
0.0
 10
6.5211359725
 20
7.4635510845
 30
0.0
 10
6.5276891211
 20
7.4619715379
 30
0.0
 10
6.5327533307
 20
7.4614408598
 30
0.0
 10
6.536122805
 20
7.4613947192
 30
0.0
 11
6.4862148651
 21
7.5084343195
 31
0.0
 11
6.4862044107
 21
7.5039879512
 31
0.0
 11
6.4867063645
 21
7.4995381677
 31
0.0
 11
6.4877136063
 21
7.4951391079
 31
0.0
 11
6.4892190158
 21
7.4908449103
 31
0.0
 11
6.4912118954
 21
7.4867069518
 31
0.0
 11
6.4936672369
 21
7.482765561
 31
0.0
 11
6.4965564546
 21
7.4790583046
 31
0.0
 11
6.4998509629
 21
7.4756227495
 31
0.0
 11
6.5035201681
 21
7.4724948137
 31
0.0
 11
6.5075254438
 21
7.469703821
 31
0.0
 11
6.5163816698
 21
7.4652433645
 31
0.0
 11
6.5211479724
 21
7.4636263016
 31
0.0
 11
6.5260675346
 21
7.4624391865
 31
0.0
 11
6.536122805
 21
7.4613947192
 31
0.0
  0
SPLINE
  5
34C
100
AcDbEntity
  8
0
100
AcDbSpline
 62
9
  6
CONTINUOUS
 70
0
 71
3
 72
23
 73
19
 74
17
 42
0.0000001
 43
0.0000001
 44
0.0000000001
 12
-0.0254907568
 22
-0.0670883709
 32
0.0
 13
0.0694737467
 23
-0.0180007421
 33
0.0
 40
0.0
 40
0.0
 40
0.0
 40
0.0
 40
0.0414603314
 40
0.0843413209
 40
0.1295752569
 40
0.1778859523
 40
0.2298020621
 40
0.2855750541
 40
0.3452263407
 40
0.4086350858
 40
0.4755682465
 40
0.5456284714
 40
0.618334117
 40
0.6931694111
 40
0.7695591521
 40
0.8467256941
 40
0.9238225356
 40
1.0
 40
1.0
 40
1.0
 40
1.0
 10
6.2327745398
 20
6.3303312303
 30
0.0
 10
6.2324222547
 20
6.3294040616
 30
0.0
 10
6.2319064082
 20
6.3274357975
 30
0.0
 10
6.2317328197
 20
6.3243229594
 30
0.0
 10
6.2321453672
 20
6.3210690048
 30
0.0
 10
6.2331406751
 20
6.3177203189
 30
0.0
 10
6.2347131432
 20
6.3143236497
 30
0.0
 10
6.236828891
 20
6.3109153341
 30
0.0
 10
6.2394580892
 20
6.3075317231
 30
0.0
 10
6.242570763
 20
6.3042116832
 30
0.0
 10
6.2461339823
 20
6.3009968603
 30
0.0
 10
6.2501020944
 20
6.297920768
 30
0.0
 10
6.2544286283
 20
6.2950191674
 30
0.0
 10
6.2590654748
 20
6.2923290427
 30
0.0
 10
6.2639582857
 20
6.289889723
 30
0.0
 10
6.2690373734
 20
6.2877252982
 30
0.0
 10
6.2742291735
 20
6.285862924
 30
0.0
 10
6.2777504606
 20
6.284830858
 30
0.0
 10
6.2795145719
 20
6.2843737744
 30
0.0
 11
6.2327745398
 21
6.3303312303
 31
0.0
 11
6.2320124471
 21
6.3274549595
 31
0.0
 11
6.2318270323
 21
6.3243830725
 31
0.0
 11
6.232219585
 21
6.3211605504
 31
0.0
 11
6.2331913947
 21
6.3178323741
 31
0.0
 11
6.2347384248
 21
6.3144428173
 31
0.0
 11
6.2368353344
 21
6.3110333229
 31
0.0
 11
6.2394514564
 21
6.3076446267
 31
0.0
 11
6.2425561238
 21
6.3043174641
 31
0.0
 11
6.2461157463
 21
6.3010919177
 31
0.0
 11
6.2500850401
 21
6.2980054585
 31
0.0
 11
6.2544157983
 21
6.2950949044
 31
0.0
 11
6.2590598138
 21
6.2923970733
 31
0.0
 11
6.2639643524
 21
6.2899472899
 31
0.0
 11
6.2690585715
 21
6.2877749064
 31
0.0
 11
6.2742671012
 21
6.2859077816
 31
0.0
 11
6.2795145719
 21
6.2843737744
 31
0.0
  0
SPLINE
  5
34D
100
AcDbEntity
  8
0
100
AcDbSpline
 62
9
  6
CONTINUOUS
 70
0
 71
3
 72
46
 73
42
 74
40
 42
0.0000001
 43
0.0000001
 44
0.0000000001
 12
-0.2001370722
 22
-0.1340315426
 32
0.0
 13
-0.2407185214
 23
-0.0085962528
 33
0.0
 40
0.0
 40
0.0
 40
0.0
 40
0.0
 40
0.0000182353
 40
0.0000407917
 40
0.0000723047
 40
0.0001621925
 40
0.0002878826
 40
0.0004493589
 40
0.0006466054
 40
0.000879606
 40
0.0011483446
 40
0.0017929718
 40
0.0025803583
 40
0.0035103756
 40
0.0045828952
 40
0.0057977885
 40
0.0071549271
 40
0.0102954261
 40
0.0140033643
 40
0.0182777107
 40
0.023116784
 40
0.0285174869
 40
0.0344765367
 40
0.0409906529
 40
0.0556709698
 40
0.0725322114
 40
0.0915439758
 40
0.1126666132
 40
0.1358593016
 40
0.1610812383
 40
0.1882872225
 40
0.2174245866
 40
0.2812802759
 40
0.3521988565
 40
0.4296764768
 40
0.5131814088
 40
0.6021416208
 40
0.6959522092
 40
0.7939759483
 40
0.8955650817
 40
1.0
 40
1.0
 40
1.0
 40
1.0
 10
11.8415741059
 20
7.6280069668
 30
0.0
 10
11.8415728894
 20
7.6280061521
 30
0.0
 10
11.8415692957
 20
7.628006548
 30
0.0
 10
11.8415637417
 20
7.6280052004
 30
0.0
 10
11.8415522128
 20
7.6280037097
 30
0.0
 10
11.8415326782
 20
7.6280005218
 30
0.0
 10
11.8415027114
 20
7.6279960619
 30
0.0
 10
11.8414642727
 20
7.6279901876
 30
0.0
 10
11.8414172941
 20
7.6279830811
 30
0.0
 10
11.841361806
 20
7.6279746772
 30
0.0
 10
11.8412707971
 20
7.6279609188
 30
0.0
 10
11.8411357729
 20
7.6279405342
 30
0.0
 10
11.8409482415
 20
7.6279122721
 30
0.0
 10
11.8407267306
 20
7.6278789394
 30
0.0
 10
11.8404712689
 20
7.6278405535
 30
0.0
 10
11.8401818853
 20
7.6277971302
 30
0.0
 10
11.8397282871
 20
7.6277291572
 30
0.0
 10
11.8390767018
 20
7.6276317152
 30
0.0
 10
11.8381934189
 20
7.6274999594
 30
0.0
 10
11.8371751946
 20
7.6273484465
 30
0.0
 10
11.8360224699
 20
7.6271773829
 30
0.0
 10
11.8347358377
 20
7.6269871843
 30
0.0
 10
11.8333160228
 20
7.6267782553
 30
0.0
 10
11.8311588451
 20
7.6264624546
 30
0.0
 10
11.828134999
 20
7.6260236645
 30
0.0
 10
11.8241170777
 20
7.6254479234
 30
0.0
 10
11.8195858617
 20
7.6248077046
 30
0.0
 10
11.8145496546
 20
7.624108021
 30
0.0
 10
11.8090176265
 20
7.6233538492
 30
0.0
 10
11.8029994071
 20
7.6225502316
 30
0.0
 10
11.7965055535
 20
7.6217025916
 30
0.0
 10
11.7869318911
 20
7.6204842511
 30
0.0
 10
11.7738678475
 20
7.6188921705
 30
0.0
 10
11.7569357013
 20
7.6169600663
 30
0.0
 10
11.7384188254
 20
7.6150056096
 30
0.0
 10
11.7184428499
 20
7.6130820977
 30
0.0
 10
11.6971423474
 20
7.6112421858
 30
0.0
 10
11.6746614047
 20
7.6095358586
 30
0.0
 10
11.6511511968
 20
7.6080101673
 30
0.0
 10
11.6267733172
 20
7.6067065052
 30
0.0
 10
11.6102454063
 20
7.6060173396
 30
0.0
 10
11.6018655999
 20
7.60571809
 30
0.0
 11
11.8415741059
 21
7.6280069668
 31
0.0
 11
11.8415697684
 21
7.628006275
 31
0.0
 11
11.8415643989
 21
7.6280054453
 31
0.0
 11
11.8415568962
 21
7.6280042934
 31
0.0
 11
11.841535493
 21
7.6280010239
 31
0.0
 11
11.8415055624
 21
7.6279964688
 31
0.0
 11
11.8414671081
 21
7.6279906299
 31
0.0
 11
11.8414201336
 21
7.6279835093
 31
0.0
 11
11.8413646424
 21
7.6279751092
 31
0.0
 11
11.8413006384
 21
7.6279654314
 31
0.0
 11
11.8411471058
 21
7.6279422512
 31
0.0
 11
11.8409595646
 21
7.6279139851
 31
0.0
 11
11.8407380437
 21
7.6278806493
 31
0.0
 11
11.8404825721
 21
7.6278422602
 31
0.0
 11
11.8401931784
 21
7.627798834
 31
0.0
 11
11.8398698917
 21
7.6277503871
 31
0.0
 11
11.8391217545
 21
7.6276384961
 31
0.0
 11
11.8382383913
 21
7.6275067177
 31
0.0
 11
11.8372200338
 21
7.6273551826
 31
0.0
 11
11.8360670599
 21
7.6271841041
 31
0.0
 11
11.834780166
 21
7.6269938748
 31
0.0
 11
11.83336009
 21
7.6267849111
 31
0.0
 11
11.8318075704
 21
7.6265576294
 31
0.0
 11
11.8283081526
 21
7.6260497773
 31
0.0
 11
11.8242878227
 21
7.6254736518
 31
0.0
 11
11.819753446
 21
7.624833073
 31
0.0
 11
11.8147139977
 21
7.6241329377
 31
0.0
 11
11.8091787353
 21
7.6233782864
 31
0.0
 11
11.8031569298
 21
7.622574165
 31
0.0
 11
11.7966588875
 21
7.6217260276
 31
0.0
 11
11.7896966636
 21
7.6208400186
 31
0.0
 11
11.7744285914
 21
7.6189792328
 31
0.0
 11
11.7574564223
 21
7.6170426465
 31
0.0
 11
11.7388973338
 21
7.6150837088
 31
0.0
 11
11.7188759385
 21
7.6131558603
 31
0.0
 11
11.6975274161
 21
7.6113117704
 31
0.0
 11
11.6749958768
 21
7.6096017008
 31
0.0
 11
11.6514342718
 21
7.6080726033
 31
0.0
 11
11.6269992107
 21
7.6067659254
 31
0.0
 11
11.6018655999
 21
7.60571809
 31
0.0
  0
SPLINE
  5
34E
100
AcDbEntity
  8
0
100
AcDbSpline
 62
9
  6
CONTINUOUS
 70
0
 71
3
 72
24
 73
20
 74
18
 42
0.0000001
 43
0.0000001
 44
0.0000000001
 12
-0.0258309862
 22
-0.0655415755
 32
0.0
 13
0.0677954385
 23
-0.0191498429
 33
0.0
 40
0.0
 40
0.0
 40
0.0
 40
0.0
 40
0.0196818347
 40
0.0396007276
 40
0.0807045883
 40
0.1244211777
 40
0.1715469599
 40
0.2226408896
 40
0.277944083
 40
0.3374525385
 40
0.401015889
 40
0.4683685504
 40
0.5390754693
 40
0.6126180872
 40
0.6884448357
 40
0.7659432146
 40
0.844294016
 40
0.9226098034
 40
1.0
 40
1.0
 40
1.0
 40
1.0
 10
6.2149883839
 20
6.2843738597
 30
0.0
 10
6.2148189168
 20
6.2839438669
 30
0.0
 10
6.214526449
 20
6.2830586754
 30
0.0
 10
6.2141312275
 20
6.2812020503
 30
0.0
 10
6.2140080146
 20
6.2787271092
 30
0.0
 10
6.2144436171
 20
6.2756436028
 30
0.0
 10
6.2154538351
 20
6.272453028
 30
0.0
 10
6.2170325444
 20
6.26920025
 30
0.0
 10
6.2191463783
 20
6.265918328
 30
0.0
 10
6.221766329
 20
6.2626420141
 30
0.0
 10
6.2248628739
 20
6.259408643
 30
0.0
 10
6.2284034171
 20
6.2562584429
 30
0.0
 10
6.2323431809
 20
6.2532242191
 30
0.0
 10
6.2366363288
 20
6.25034116
 30
0.0
 10
6.2412353177
 20
6.2476456503
 30
0.0
 10
6.2460864494
 20
6.2451764456
 30
0.0
 10
6.2511211996
 20
6.2429585122
 30
0.0
 10
6.2562670319
 20
6.2410199281
 30
0.0
 10
6.2597571032
 20
6.2399218257
 30
0.0
 10
6.2615060039
 20
6.2394278223
 30
0.0
 11
6.2149883839
 21
6.2843738597
 31
0.0
 11
6.2145525401
 21
6.2830575937
 31
0.0
 11
6.2142591651
 21
6.2816853554
 31
0.0
 11
6.2141002797
 21
6.2787940279
 31
0.0
 11
6.2145126439
 21
6.2757420079
 31
0.0
 11
6.2154971742
 21
6.2725714262
 31
0.0
 11
6.2170495691
 21
6.269323925
 31
0.0
 11
6.2191446559
 21
6.2660391913
 31
0.0
 11
6.2217520439
 21
6.2627564237
 31
0.0
 11
6.2248413426
 21
6.2595148208
 31
0.0
 11
6.2283792962
 21
6.256353071
 31
0.0
 11
6.2323211888
 21
6.2533078232
 31
0.0
 11
6.2366194394
 21
6.2504152163
 31
0.0
 11
6.2412264669
 21
6.2477113893
 31
0.0
 11
6.2460902416
 21
6.2452312491
 31
0.0
 11
6.2511409384
 21
6.2430047757
 31
0.0
 11
6.2563042838
 21
6.2410607174
 31
0.0
 11
6.2615060039
 21
6.2394278223
 31
0.0
  0
LINE
  5
34F
100
AcDbEntity
  8
0
100
AcDbLine
 62
9
  6
CONTINUOUS
 10
8.4922596482
 20
7.8635705446
 11
8.5170254068
 21
7.4613951971
  0
SPLINE
  5
350
100
AcDbEntity
  8
0
100
AcDbSpline
 62
9
  6
CONTINUOUS
 70
0
 71
3
 72
19
 73
15
 74
13
 42
0.0000001
 43
0.0000001
 44
0.0000000001
 12
0.0049119081
 22
-0.0808316108
 32
0.0
 13
-0.0809806318
 23
-0.0001158153
 33
0.0
 40
0.0
 40
0.0
 40
0.0
 40
0.0
 40
0.0618937325
 40
0.1240600388
 40
0.1863855504
 40
0.2487599252
 40
0.3733331575
 40
0.4980544848
 40
0.6230775566
 40
0.7485060873
 40
0.811474989
 40
0.8744742299
 40
0.9373639975
 40
1.0
 40
1.0
 40
1.0
 40
1.0
 10
8.5421675957
 20
7.9160111137
 30
0.0
 10
8.5422689345
 20
7.914343457
 30
0.0
 10
8.5422958205
 20
7.9109875951
 30
0.0
 10
8.5418201759
 20
7.905970728
 30
0.0
 10
8.5408353719
 20
7.9010142544
 30
0.0
 10
8.5388543736
 20
7.8945731184
 30
0.0
 10
8.5351278248
 20
7.886958155
 30
0.0
 10
8.5289029156
 20
7.8789118907
 30
0.0
 10
8.5211555573
 20
7.8722837877
 30
0.0
 10
8.513701409
 20
7.868150014
 30
0.0
 10
8.5073233866
 20
7.8658038653
 30
0.0
 10
8.5023782532
 20
7.8645289094
 30
0.0
 10
8.4973409551
 20
7.8637521895
 30
0.0
 10
8.4939504158
 20
7.8635727829
 30
0.0
 10
8.4922596482
 20
7.8635703648
 30
0.0
 11
8.5421675957
 21
7.9160111137
 31
0.0
 11
8.5422102684
 21
7.9109990967
 31
0.0
 11
8.5417362011
 21
7.9059871954
 31
0.0
 11
8.5407522395
 21
7.9010368734
 31
0.0
 11
8.5392652293
 21
7.8962095937
 31
0.0
 11
8.5348386866
 21
7.887144603
 31
0.0
 11
8.5286575416
 21
7.879156869
 31
0.0
 11
8.520968391
 21
7.8725703974
 31
0.0
 11
8.5120833827
 21
7.8676482832
 31
0.0
 11
8.5072985323
 21
7.8658854086
 31
0.0
 11
8.5023585163
 21
7.8646111145
 31
0.0
 11
8.4973249999
 21
7.8638359251
 31
0.0
 11
8.4922596482
 21
7.8635703648
 31
0.0
  0
SPLINE
  5
351
100
AcDbEntity
  8
0
100
AcDbSpline
 62
9
  6
CONTINUOUS
 70
0
 71
3
 72
21
 73
17
 74
15
 42
0.0000001
 43
0.0000001
 44
0.0000000001
 12
0.004640906
 22
-0.0763657541
 32
0.0
 13
-0.0764994685
 23
-0.0010477265
 33
0.0
 40
0.0
 40
0.0
 40
0.0
 40
0.0
 40
0.0581173751
 40
0.1166481089
 40
0.1756349417
 40
0.2351122924
 40
0.2951441348
 40
0.3558396586
 40
0.4172738756
 40
0.4794894204
 40
0.5425101294
 40
0.6063186176
 40
0.7359287171
 40
0.8017154957
 40
0.8678632965
 40
1.0
 40
1.0
 40
1.0
 40
1.0
 10
8.5669332449
 20
7.5084343134
 30
0.0
 10
8.5670231506
 20
7.506954921
 30
0.0
 10
8.5670282731
 20
7.5039722224
 30
0.0
 10
8.5665230021
 20
7.4995125767
 30
0.0
 10
8.5655123249
 20
7.4951036181
 30
0.0
 10
8.5640028819
 20
7.4907989545
 30
0.0
 10
8.5620009651
 20
7.4866518219
 30
0.0
 10
8.5595369042
 20
7.4827033563
 30
0.0
 10
8.5566395414
 20
7.4789904487
 30
0.0
 10
8.5533374356
 20
7.4755501402
 30
0.0
 10
8.549659606
 20
7.4724201921
 30
0.0
 10
8.544285661
 20
7.4686798228
 30
0.0
 10
8.538337319
 20
7.4656918325
 30
0.0
 10
8.5320121834
 20
7.4635512456
 30
0.0
 10
8.52545906
 20
7.4619716958
 30
0.0
 10
8.5203948693
 20
7.4614410106
 30
0.0
 10
8.5170254068
 20
7.4613948629
 30
0.0
 11
8.5669332449
 21
7.5084343134
 31
0.0
 11
8.5669436828
 21
7.5039879603
 31
0.0
 11
8.5664417161
 21
7.4995381937
 31
0.0
 11
8.565434465
 21
7.4951391515
 31
0.0
 11
8.5639290499
 21
7.4908449719
 31
0.0
 11
8.5619361686
 21
7.486707031
 31
0.0
 11
8.559480829
 21
7.4827656571
 31
0.0
 11
8.5565916164
 21
7.4790584165
 31
0.0
 11
8.5532971165
 21
7.4756228756
 31
0.0
 11
8.5496279225
 21
7.472494952
 31
0.0
 11
8.5456226605
 21
7.4697039691
 31
0.0
 11
8.5367664676
 21
7.465243524
 31
0.0
 11
8.5320001835
 21
7.4636264621
 31
0.0
 11
8.5270806404
 21
7.4624393448
 31
0.0
 11
8.5170254068
 21
7.4613948629
 31
0.0
  0
SPLINE
  5
352
100
AcDbEntity
  8
0
100
AcDbSpline
 62
9
  6
CONTINUOUS
 70
0
 71
3
 72
23
 73
19
 74
17
 42
0.0000001
 43
0.0000001
 44
0.0000000001
 12
0.025490257
 22
-0.0670883352
 32
0.0
 13
-0.0694735175
 23
-0.018000786
 33
0.0
 40
0.0
 40
0.0
 40
0.0
 40
0.0
 40
0.0414603401
 40
0.0843413637
 40
0.1295753471
 40
0.1778860922
 40
0.2298022449
 40
0.2855752675
 40
0.3452265695
 40
0.4086353143
 40
0.4755684597
 40
0.545628657
 40
0.6183342664
 40
0.6931695195
 40
0.769559219
 40
0.8467257248
 40
0.923822542
 40
1.0
 40
1.0
 40
1.0
 40
1.0
 10
8.8203735879
 20
6.3303311983
 30
0.0
 10
8.8207258662
 20
6.3294040299
 30
0.0
 10
8.8212416996
 20
6.3274357677
 30
0.0
 10
8.8214152723
 20
6.3243229359
 30
0.0
 10
8.8210027128
 20
6.3210689895
 30
0.0
 10
8.8200073972
 20
6.3177203133
 30
0.0
 10
8.8184349256
 20
6.3143236547
 30
0.0
 10
8.8163191781
 20
6.3109153504
 30
0.0
 10
8.8136899839
 20
6.3075317509
 30
0.0
 10
8.8105773176
 20
6.3042117224
 30
0.0
 10
8.8070141088
 20
6.3009969105
 30
0.0
 10
8.80304601
 20
6.2979208283
 30
0.0
 10
8.7987194916
 20
6.2950192366
 30
0.0
 10
8.7940826624
 20
6.2923291191
 30
0.0
 10
8.7891898701
 20
6.2898898047
 30
0.0
 10
8.7841108014
 20
6.287725383
 30
0.0
 10
8.7789190199
 20
6.2858630094
 30
0.0
 10
8.7753977452
 20
6.2848309423
 30
0.0
 10
8.7736336399
 20
6.2843738576
 30
0.0
 11
8.8203735879
 21
6.3303311983
 31
0.0
 11
8.8211356615
 21
6.3274549309
 31
0.0
 11
8.8213210606
 21
6.3243830495
 31
0.0
 11
8.820928496
 21
6.321160535
 31
0.0
 11
8.8199566784
 21
6.317832368
 31
0.0
 11
8.8184096444
 21
6.3144428216
 31
0.0
 11
8.816312735
 21
6.3110333384
 31
0.0
 11
8.8136966168
 21
6.3076446537
 31
0.0
 11
8.8105919567
 21
6.3043175026
 31
0.0
 11
8.8070323447
 21
6.3010919673
 31
0.0
 11
8.8030630641
 21
6.2980055183
 31
0.0
 11
8.7987323215
 21
6.2950949731
 31
0.0
 11
8.7940883235
 21
6.2923971493
 31
0.0
 11
8.7891838035
 21
6.2899473713
 31
0.0
 11
8.7840896036
 21
6.2877749909
 31
0.0
 11
8.7788810928
 21
6.2859078668
 31
0.0
 11
8.7736336399
 21
6.2843738576
 31
0.0
  0
SPLINE
  5
353
100
AcDbEntity
  8
0
100
AcDbSpline
 62
9
  6
CONTINUOUS
 70
0
 71
3
 72
37
 73
33
 74
31
 42
0.0000001
 43
0.0000001
 44
0.0000000001
 12
-0.5602773688
 22
-0.8494235196
 32
0.0
 13
-0.5602851554
 23
0.8494183835
 33
0.0
 40
0.0
 40
0.0
 40
0.0
 40
0.0
 40
0.0253495036
 40
0.0515318788
 40
0.0786009546
 40
0.1065830675
 40
0.1354828337
 40
0.1652859909
 40
0.1959623615
 40
0.2274650129
 40
0.2597344883
 40
0.2926989557
 40
0.326277177
 40
0.3603791918
 40
0.3949083623
 40
0.4297625985
 40
0.4999994944
 40
0.5702364119
 40
0.6050906749
 40
0.6396198825
 40
0.673721944
 40
0.7073002214
 40
0.7402647534
 40
0.7725343011
 40
0.8040370313
 40
0.8347134858
 40
0.8645167303
 40
0.8934165858
 40
0.9213987886
 40
0.9484679525
 40
0.9746504133
 40
1.0
 40
1.0
 40
1.0
 40
1.0
 10
21.9776934486
 20
6.4214575584
 30
0.0
 10
21.9729591975
 20
6.4142800702
 30
0.0
 10
21.9626360097
 20
6.4001398803
 30
0.0
 10
21.945069784
 20
6.3800448178
 30
0.0
 10
21.9252740986
 20
6.3608369604
 30
0.0
 10
21.9033590235
 20
6.342614965
 30
0.0
 10
21.8794388172
 20
6.3254765068
 30
0.0
 10
21.853643421
 20
6.3095082172
 30
0.0
 10
21.8261082797
 20
6.2947962223
 30
0.0
 10
21.7969808903
 20
6.2814150886
 30
0.0
 10
21.7664150593
 20
6.2694374432
 30
0.0
 10
21.7345737769
 20
6.2589249424
 30
0.0
 10
21.7016259793
 20
6.2499338345
 30
0.0
 10
21.6677470334
 20
6.2425118368
 30
0.0
 10
21.6331164013
 20
6.2366972191
 30
0.0
 10
21.586073381
 20
6.2311178053
 30
0.0
 10
21.5265758632
 20
6.2283339039
 30
0.0
 10
21.4670783235
 20
6.2311175314
 30
0.0
 10
21.4200352482
 20
6.2366967274
 30
0.0
 10
21.3854045513
 20
6.2425111851
 30
0.0
 10
21.3515255226
 20
6.2499330266
 30
0.0
 10
21.3185776246
 20
6.258923982
 30
0.0
 10
21.286736225
 20
6.2694363361
 30
0.0
 10
21.2561702602
 20
6.2814138401
 30
0.0
 10
21.2270427215
 20
6.2947948394
 30
0.0
 10
21.1995074161
 20
6.3095067068
 30
0.0
 10
21.1737118421
 20
6.3254748769
 30
0.0
 10
21.1497914454
 20
6.342613224
 30
0.0
 10
21.1278761674
 20
6.360835117
 30
0.0
 10
21.1080802683
 20
6.3800428819
 30
0.0
 10
21.0905138172
 20
6.4001378627
 30
0.0
 10
21.0801904702
 20
6.414278007
 30
0.0
 10
21.0754561378
 20
6.4214554753
 30
0.0
 11
21.9776934486
 21
6.4214575584
 31
0.0
 11
21.9625140539
 21
6.4006020746
 31
0.0
 11
21.9450078805
 21
6.3805187671
 31
0.0
 11
21.9252655636
 21
6.3613110251
 31
0.0
 11
21.9033935011
 21
6.3430804468
 31
0.0
 11
21.8795079529
 21
6.3259261775
 31
0.0
 11
21.8537375998
 21
6.3099390596
 31
0.0
 11
21.8262187933
 21
6.2952048472
 31
0.0
 11
21.7970994888
 21
6.2818016563
 31
0.0
 11
21.7665345554
 21
6.2698017015
 31
0.0
 11
21.7346878297
 21
6.2592687278
 31
0.0
 11
21.701729173
 21
6.2502591613
 31
0.0
 11
21.6678347941
 21
6.2428212223
 31
0.0
 11
21.6331857839
 21
6.2369943144
 31
0.0
 11
21.5979671426
 21
6.232810136
 31
0.0
 11
21.526575868
 21
6.2294490877
 31
0.0
 11
21.4551845557
 21
6.2328098059
 31
0.0
 11
21.4199658677
 21
6.2369938216
 31
0.0
 11
21.3853167923
 21
6.2428205692
 31
0.0
 11
21.3514223303
 21
6.2502583516
 31
0.0
 11
21.3184635727
 21
6.2592677656
 31
0.0
 11
21.2866167291
 21
6.2698005922
 31
0.0
 11
21.2560516612
 21
6.2818004056
 31
0.0
 11
21.2269322067
 21
6.2952034621
 31
0.0
 11
21.1994132351
 21
6.3099375473
 31
0.0
 11
21.1736427035
 21
6.3259245459
 31
0.0
 11
21.1497569639
 21
6.3430787045
 31
0.0
 11
21.1278846977
 21
6.3613091813
 31
0.0
 11
21.1081421664
 21
6.3805168314
 31
0.0
 11
21.0906357677
 21
6.4006000581
 31
0.0
 11
21.0754561378
 21
6.4214554753
 31
0.0
  0
SPLINE
  5
354
100
AcDbEntity
  8
0
100
AcDbSpline
 62
9
  6
CONTINUOUS
 70
0
 71
3
 72
24
 73
20
 74
18
 42
0.0000001
 43
0.0000001
 44
0.0000000001
 12
0.0258327035
 22
-0.0655409581
 32
0.0
 13
-0.0677954423
 23
-0.019150033
 33
0.0
 40
0.0
 40
0.0
 40
0.0
 40
0.0
 40
0.0196818836
 40
0.0396007869
 40
0.0807045701
 40
0.1244209888
 40
0.1715465513
 40
0.2226402518
 40
0.2779432364
 40
0.337451523
 40
0.4010147571
 40
0.4683673623
 40
0.5390742878
 40
0.6126169744
 40
0.6884438516
 40
0.7659424153
 40
0.8442934491
 40
0.9226095065
 40
1.0
 40
1.0
 40
1.0
 40
1.0
 10
8.8381594542
 20
6.2843737124
 30
0.0
 10
8.8383289329
 20
6.2839437226
 30
0.0
 10
8.8386214242
 20
6.2830585365
 30
0.0
 10
8.8390166918
 20
6.2812019201
 30
0.0
 10
8.8391399608
 20
6.278726985
 30
0.0
 10
8.8387044188
 20
6.275643478
 30
0.0
 10
8.8376942543
 20
6.2724528983
 30
0.0
 10
8.8361155912
 20
6.2692001114
 30
0.0
 10
8.8340017966
 20
6.265918177
 30
0.0
 10
8.8313818783
 20
6.2626418477
 30
0.0
 10
8.8282853588
 20
6.2594084583
 30
0.0
 10
8.8247448337
 20
6.2562582378
 30
0.0
 10
8.8208050815
 20
6.2532239918
 30
0.0
 10
8.8165119385
 20
6.2503409094
 30
0.0
 10
8.8119129485
 20
6.2476453755
 30
0.0
 10
8.8070618098
 20
6.2451761468
 30
0.0
 10
8.8020270477
 20
6.2429581896
 30
0.0
 10
8.7968811992
 20
6.2410195828
 30
0.0
 10
8.7933911154
 20
6.2399214662
 30
0.0
 10
8.7916422079
 20
6.239427456
 30
0.0
 11
8.8381594542
 21
6.2843737124
 31
0.0
 11
8.838595333
 21
6.2830574532
 31
0.0
 11
8.8388887422
 21
6.2816852204
 31
0.0
 11
8.8390476927
 21
6.2787938996
 31
0.0
 11
8.8386353884
 21
6.2757418812
 31
0.0
 11
8.8376509121
 21
6.2725712963
 31
0.0
 11
8.8360985643
 21
6.2693237873
 31
0.0
 11
8.8340035177
 21
6.2660390418
 31
0.0
 11
8.8313961627
 21
6.262756259
 31
0.0
 11
8.8283068899
 21
6.2595146379
 31
0.0
 11
8.8247689549
 21
6.2563528676
 31
0.0
 11
8.820827074
 21
6.2533075975
 31
0.0
 11
8.8165288286
 21
6.250414967
 31
0.0
 11
8.8119217999
 21
6.2477111156
 31
0.0
 11
8.8070580183
 21
6.2452309511
 31
0.0
 11
8.8020073094
 21
6.2430044538
 31
0.0
 11
8.7968439477
 21
6.2410603725
 31
0.0
 11
8.7916422079
 21
6.239427456
 31
0.0
  0
SPLINE
  5
355
100
AcDbEntity
  8
0
100
AcDbSpline
 62
6
  6
CONTINUOUS
 70
0
 71
3
 72
21
 73
17
 74
15
 42
0.0000001
 43
0.0000001
 44
0.0000000001
 12
-0.0216282448
 22
0.0607574129
 32
0.0
 13
-0.0644922026
 23
0.0
 33
0.0
 40
0.0
 40
0.0
 40
0.0
 40
0.0
 40
0.0315362132
 40
0.0664147884
 40
0.1055114227
 40
0.1493637191
 40
0.1982909232
 40
0.2523585285
 40
0.3114260815
 40
0.3752683555
 40
0.4435039036
 40
0.5156498243
 40
0.5911940343
 40
0.6695964927
 40
0.8326881526
 40
1.0
 40
1.0
 40
1.0
 40
1.0
 10
22.4011077597
 20
10.037184607
 30
0.0
 10
22.4008804021
 20
10.0378232932
 30
0.0
 10
22.4002410966
 20
10.0391142029
 30
0.0
 10
22.3988518059
 20
10.0409208688
 30
0.0
 10
22.3970044972
 20
10.0426664184
 30
0.0
 10
22.3947105889
 20
10.0443423933
 30
0.0
 10
22.3919800974
 20
10.0459356968
 30
0.0
 10
22.3888315557
 20
10.0474348649
 30
0.0
 10
22.3852886723
 20
10.048828627
 30
0.0
 10
22.381379439
 20
10.050101507
 30
0.0
 10
22.3771387999
 20
10.051244433
 30
0.0
 10
22.3726055207
 20
10.052249044
 30
0.0
 10
22.3678199243
 20
10.053105628
 30
0.0
 10
22.3610699398
 20
10.0540577155
 30
0.0
 10
22.3523094862
 20
10.0548335871
 30
0.0
 10
22.3452050606
 20
10.055035116
 30
0.0
 10
22.3416082908
 20
10.055035116
 30
0.0
 11
22.4011077597
 21
10.037184607
 31
0.0
 11
22.4002202412
 21
10.0390145839
 31
0.0
 11
22.3988660549
 21
10.0408106803
 31
0.0
 11
22.3970474289
 21
10.0425571621
 31
0.0
 11
22.3947739981
 21
10.0442393745
 31
0.0
 11
22.3920562977
 21
10.0458427459
 31
0.0
 11
22.3889134267
 21
10.0473530788
 31
0.0
 11
22.3853719716
 21
10.0487565024
 31
0.0
 11
22.3814596281
 21
10.0500394543
 31
0.0
 11
22.3772123705
 21
10.0511912433
 31
0.0
 11
22.3726708081
 21
10.0522027856
 31
0.0
 11
22.3678758186
 21
10.0530656772
 31
0.0
 11
22.3628695083
 21
10.0537752573
 31
0.0
 11
22.3523940532
 21
10.0547218922
 31
0.0
 11
22.3416082908
 21
10.055035116
 31
0.0
  0
SPLINE
  5
356
100
AcDbEntity
  8
0
100
AcDbSpline
 62
9
  6
CONTINUOUS
 70
0
 71
3
 72
19
 73
15
 74
13
 42
0.0000001
 43
0.0000001
 44
0.0000000001
 12
-0.3899148557
 22
1.0829682481
 32
0.0
 13
-0.0046033367
 23
1.1510137403
 33
0.0
 40
0.0
 40
0.0
 40
0.0
 40
0.0
 40
0.1174693723
 40
0.1770292899
 40
0.2371355017
 40
0.2977883793
 40
0.3589889891
 40
0.4830264356
 40
0.6092194953
 40
0.673109049
 40
0.7375131391
 40
0.8024222627
 40
0.8678231425
 40
1.0
 40
1.0
 40
1.0
 40
1.0
 10
22.3416082908
 20
10.0550351082
 30
0.0
 10
22.3263406063
 20
10.0974403083
 30
0.0
 10
22.3047956084
 20
10.1618864438
 30
0.0
 10
22.2788571591
 20
10.2490986403
 30
0.0
 10
22.2606203618
 20
10.3158419845
 30
0.0
 10
22.2437168913
 20
10.3835839077
 30
0.0
 10
22.222894259
 20
10.47560596
 30
0.0
 10
22.2003668623
 20
10.5929920697
 30
0.0
 10
22.1827394263
 20
10.7122545029
 30
0.0
 10
22.1715041722
 20
10.8092518619
 30
0.0
 10
22.1645063862
 20
10.8830532076
 30
0.0
 10
22.1589847329
 20
10.9575612496
 30
0.0
 10
22.1535864784
 20
11.0581306945
 30
0.0
 10
22.1518082063
 20
11.1339416594
 30
0.0
 10
22.1516053881
 20
11.1846541191
 30
0.0
 11
22.3416082908
 21
10.0550351082
 31
0.0
 11
22.298708219
 21
10.1832587897
 31
0.0
 11
22.2791613614
 21
10.2489678859
 31
0.0
 11
22.2609221517
 21
10.3157039762
 31
0.0
 11
22.2440157673
 21
10.3834388174
 31
0.0
 11
22.2284650952
 21
10.4521442465
 31
0.0
 11
22.2015199568
 21
10.5923484451
 31
0.0
 11
22.1802458156
 21
10.7360331522
 31
0.0
 11
22.1717791556
 21
10.8090824743
 31
0.0
 11
22.1647768672
 21
10.8828816048
 31
0.0
 11
22.1592506077
 21
10.957388833
 31
0.0
 11
22.1552101556
 21
11.0325582349
 31
0.0
 11
22.1516053881
 21
11.1846541191
 31
0.0
  0
LINE
  5
357
100
AcDbEntity
  8
0
100
AcDbLine
 62
9
  6
CONTINUOUS
 10
22.2226354723
 20
10.9210579142
 11
22.2222454271
 21
10.9269340981
  0
SPLINE
  5
358
100
AcDbEntity
  8
0
100
AcDbSpline
 62
9
  6
CONTINUOUS
 70
0
 71
3
 72
26
 73
22
 74
20
 42
0.0000001
 43
0.0000001
 44
0.0000000001
 12
0.0698803143
 22
0.0
 32
0.0
 13
0.0
 23
-0.0698803143
 33
0.0
 40
0.0
 40
0.0
 40
0.0
 40
0.0
 40
0.0875635138
 40
0.1745537935
 40
0.3433150015
 40
0.423672862
 40
0.5005044666
 40
0.5732353368
 40
0.6413329515
 40
0.7043294805
 40
0.7338168154
 40
0.761919288
 40
0.8138699987
 40
0.8601707027
 40
0.8812872917
 40
0.9011145048
 40
0.9372261794
 40
0.9538246753
 40
0.9696711309
 40
0.984981425
 40
1.0
 40
1.0
 40
1.0
 40
1.0
 10
22.1515741059
 20
11.2005304424
 30
0.0
 10
22.1536137612
 20
11.2005304424
 30
0.0
 10
22.1576801431
 20
11.2004618187
 30
0.0
 10
22.1656678423
 20
11.2000586649
 30
0.0
 10
22.1734650373
 20
11.1992648858
 30
0.0
 10
22.1809628018
 20
11.198058613
 30
0.0
 10
22.1862121193
 20
11.1969879801
 30
0.0
 10
22.1911302266
 20
11.1957479032
 30
0.0
 10
22.1956703214
 20
11.1943512019
 30
0.0
 10
22.1991760736
 20
11.193038528
 30
0.0
 10
22.2017502769
 20
11.1919129899
 30
0.0
 10
22.2040471346
 20
11.1908005324
 30
0.0
 10
22.2066148405
 20
11.1893533109
 30
0.0
 10
22.2088856686
 20
11.1877359818
 30
0.0
 10
22.2104111
 20
11.1863901925
 30
0.0
 10
22.2116622982
 20
11.1851021157
 30
0.0
 10
22.2126838871
 20
11.1837393273
 30
0.0
 10
22.213411239
 20
11.1823139188
 30
0.0
 10
22.2137923716
 20
11.1812654949
 30
0.0
 10
22.2140224189
 20
11.1802114892
 30
0.0
 10
22.2140741059
 20
11.1795040177
 30
0.0
 10
22.2140741059
 20
11.1791541834
 30
0.0
 11
22.1515741059
 21
11.2005304424
 31
0.0
 11
22.1576922021
 21
11.2004272805
 31
0.0
 11
22.1637633164
 21
11.2001195557
 31
0.0
 11
22.1754934872
 21
11.1989030131
 31
0.0
 11
22.1810368607
 21
11.1980063004
 31
0.0
 11
22.1862964416
 21
11.1969278066
 31
0.0
 11
22.1912228637
 21
11.1956781168
 31
0.0
 11
22.1957682797
 21
11.1942694811
 31
0.0
 11
22.1998868549
 21
11.1927148573
 31
0.0
 11
22.2017741137
 21
11.1918876562
 31
0.0
 11
22.2035407035
 21
11.1910299216
 31
0.0
 11
22.2066940084
 21
11.189231039
 31
0.0
 11
22.2093158211
 21
11.1873350937
 31
0.0
 11
22.2104200641
 21
11.1863562461
 31
0.0
 11
22.2113827396
 21
11.185359775
 31
0.0
 11
22.2128727535
 21
11.1833231389
 31
0.0
 11
22.2133968972
 21
11.1822884118
 31
0.0
 11
22.2137724807
 21
11.1812466956
 31
0.0
 11
22.2139985387
 21
11.1802009621
 31
0.0
 11
22.2140741059
 21
11.1791541834
 31
0.0
  0
SPLINE
  5
359
100
AcDbEntity
  8
0
100
AcDbSpline
 62
9
  6
CONTINUOUS
 70
0
 71
3
 72
19
 73
15
 74
13
 42
0.0000001
 43
0.0000001
 44
0.0000000001
 12
-0.0060592163
 22
-1.1402064
 32
0.0
 13
-0.3845956138
 23
-1.073402796
 33
0.0
 40
0.0
 40
0.0
 40
0.0
 40
0.0
 40
0.132140415
 40
0.1975251052
 40
0.2624201004
 40
0.3268124451
 40
0.390692891
 40
0.5168766801
 40
0.6409178278
 40
0.7021253984
 40
0.7627886876
 40
0.822908743
 40
0.8824859101
 40
1.0
 40
1.0
 40
1.0
 40
1.0
 10
20.8997911052
 20
11.1741419851
 30
0.0
 10
20.8995242161
 20
11.1239195361
 30
0.0
 10
20.8976753342
 20
11.048842443
 30
0.0
 10
20.8922358881
 20
10.949247136
 30
0.0
 10
20.8867100239
 20
10.8754585221
 30
0.0
 10
20.8797345226
 20
10.8023672499
 30
0.0
 10
20.8685635583
 20
10.7062964461
 30
0.0
 10
20.8510808548
 20
10.588162428
 30
0.0
 10
20.8287857361
 20
10.4718739361
 30
0.0
 10
20.8081991285
 20
10.3806980749
 30
0.0
 10
20.7914954483
 20
10.3135694101
 30
0.0
 10
20.7734818863
 20
10.2474218858
 30
0.0
 10
20.7478691689
 20
10.1609736192
 30
0.0
 10
20.7266047737
 20
10.0970817622
 30
0.0
 10
20.7115396392
 20
10.0550351113
 30
0.0
 11
20.8997911052
 21
11.1741419851
 31
0.0
 11
20.8960455813
 21
11.0235190734
 31
0.0
 11
20.8919744552
 21
10.9490772176
 31
0.0
 11
20.8864441051
 21
10.8752894419
 31
0.0
 11
20.8794642232
 21
10.8022003687
 31
0.0
 11
20.8710463188
 21
10.7298505123
 31
0.0
 11
20.849947925
 21
10.5875282714
 31
0.0
 11
20.8232803639
 21
10.4486306073
 31
0.0
 11
20.8079055589
 21
10.3805549565
 31
0.0
 11
20.791199033
 21
10.3134331858
 31
0.0
 11
20.7731831061
 21
10.2472927159
 31
0.0
 11
20.7538823123
 21
10.1821610733
 31
0.0
 11
20.7115396392
 21
10.0550351113
 31
0.0
  0
SPLINE
  5
35A
100
AcDbEntity
  8
0
100
AcDbSpline
 62
6
  6
CONTINUOUS
 70
0
 71
3
 72
21
 73
17
 74
15
 42
0.0000001
 43
0.0000001
 44
0.0000000001
 12
-0.0645076819
 22
0.0
 32
0.0
 13
-0.0215394707
 23
-0.0608053635
 33
0.0
 40
0.0
 40
0.0
 40
0.0
 40
0.0
 40
0.1673670759
 40
0.3305021011
 40
0.4089189176
 40
0.4844717266
 40
0.5566201014
 40
0.624852097
 40
0.6886851208
 40
0.7477389153
 40
0.801789305
 40
0.8506969919
 40
0.8945296491
 40
0.9336081299
 40
0.9684721384
 40
1.0
 40
1.0
 40
1.0
 40
1.0
 10
20.7115396392
 20
10.0550351113
 30
0.0
 10
20.7079408185
 20
10.0550351113
 30
0.0
 10
20.7008325632
 20
10.0548332152
 30
0.0
 10
20.6920676551
 20
10.0540559912
 30
0.0
 10
20.6853147953
 20
10.0531023402
 30
0.0
 10
20.6805276906
 20
10.0522444419
 30
0.0
 10
20.6759934212
 20
10.0512383895
 30
0.0
 10
20.6717523264
 20
10.0500939439
 30
0.0
 10
20.6678431677
 20
10.0488194773
 30
0.0
 10
20.6643008508
 20
10.0474241281
 30
0.0
 10
20.6611533203
 20
10.0459233967
 30
0.0
 10
20.6584242477
 20
10.0443285408
 30
0.0
 10
20.6561320968
 20
10.042651072
 30
0.0
 10
20.6542868481
 20
10.0409040622
 30
0.0
 10
20.6528999454
 20
10.0390959518
 30
0.0
 10
20.6522625694
 20
10.0378042286
 30
0.0
 10
20.6520362049
 20
10.0371652076
 30
0.0
 11
20.7115396392
 21
10.0550351113
 31
0.0
 11
20.7007477383
 21
10.0547213126
 31
0.0
 11
20.6902670877
 21
10.0537730392
 31
0.0
 11
20.6852587791
 21
10.0530623097
 31
0.0
 11
20.6804622765
 21
10.0521980932
 31
0.0
 11
20.6759197313
 21
10.0511850988
 31
0.0
 11
20.6716720338
 21
10.0500317727
 31
0.0
 11
20.6677597996
 21
10.0487472318
 31
0.0
 11
20.6642189477
 21
10.0473422144
 31
0.0
 11
20.661077136
 21
10.0458303101
 31
0.0
 11
20.6583609211
 21
10.0442254093
 31
0.0
 11
20.6560893109
 21
10.0425417267
 31
0.0
 11
20.6542728188
 21
10.0407938415
 31
0.0
 11
20.6529210598
 21
10.0389964177
 31
0.0
 11
20.6520362049
 21
10.0371652076
 31
0.0
  0
LINE
  5
35B
100
AcDbEntity
  8
0
100
AcDbLine
 62
9
  6
CONTINUOUS
 10
20.8289841723
 20
10.9186975709
 11
20.8285749942
 21
10.9126104468
  0
SPLINE
  5
35C
100
AcDbEntity
  8
0
100
AcDbSpline
 62
9
  6
CONTINUOUS
 70
0
 71
3
 72
26
 73
22
 74
20
 42
0.0000001
 43
0.0000001
 44
0.0000000001
 12
-0.0698451756
 22
0.000322401
 32
0.0
 13
-0.0003700981
 23
-0.0698449392
 33
0.0
 40
0.0
 40
0.0
 40
0.0
 40
0.0
 40
0.087499095
 40
0.1744148216
 40
0.3430124795
 40
0.4232891701
 40
0.5000452593
 40
0.5727104082
 40
0.6407566478
 40
0.7037203096
 40
0.7331994781
 40
0.7613001096
 40
0.8132685619
 40
0.8596188002
 40
0.8807734916
 40
0.9006483174
 40
0.9368843493
 40
0.953558718
 40
0.9694888451
 40
0.9848886859
 40
1.0
 40
1.0
 40
1.0
 40
1.0
 10
20.8997911052
 20
11.1741419921
 30
0.0
 10
20.8977539753
 20
11.1741513953
 30
0.0
 10
20.8936925506
 20
11.1741012224
 30
0.0
 10
20.8857141424
 20
11.1737330961
 30
0.0
 10
20.8779249682
 20
11.1729716721
 30
0.0
 10
20.8704339062
 20
11.1717943984
 30
0.0
 10
20.8651886507
 20
11.1707430036
 30
0.0
 10
20.8602734983
 20
11.1695197652
 30
0.0
 10
20.8557351006
 20
11.1681373476
 30
0.0
 10
20.8522298832
 20
11.1668345802
 30
0.0
 10
20.8496554404
 20
11.1657155347
 30
0.0
 10
20.8473573599
 20
11.164608071
 30
0.0
 10
20.844787098
 20
11.1631651664
 30
0.0
 10
20.8425131761
 20
11.1615502518
 30
0.0
 10
20.8409844897
 20
11.1602049063
 30
0.0
 10
20.8397289225
 20
11.1589154717
 30
0.0
 10
20.8387026211
 20
11.1575500845
 30
0.0
 10
20.8379698221
 20
11.1561209458
 30
0.0
 10
20.8375841228
 20
11.1550686232
 30
0.0
 10
20.837349108
 20
11.1540099448
 30
0.0
 10
20.8372938072
 20
11.1532988701
 30
0.0
 10
20.837291943
 20
11.1529470539
 30
0.0
 11
20.8997911052
 21
11.1741419921
 31
0.0
 11
20.8936801158
 21
11.1740665721
 31
0.0
 11
20.8876159197
 21
11.1737854472
 31
0.0
 11
20.8758981278
 21
11.1726174592
 31
0.0
 11
20.8703598652
 21
11.1717421944
 31
0.0
 11
20.8651044455
 21
11.1706829713
 31
0.0
 11
20.8601810823
 21
11.1694501633
 31
0.0
 11
20.8556374586
 21
11.1680558399
 31
0.0
 11
20.8515193048
 21
11.1665127726
 31
0.0
 11
20.8496317218
 21
11.1656902704
 31
0.0
 11
20.8478644304
 21
11.1648364968
 31
0.0
 11
20.8447085376
 21
11.1630432665
 31
0.0
 11
20.8420825835
 21
11.161149867
 31
0.0
 11
20.8409756752
 21
11.1601711106
 31
0.0
 11
20.8400099253
 21
11.1591739354
 31
0.0
 11
20.8385125477
 21
11.1571334668
 31
0.0
 11
20.8379841582
 21
11.1560955925
 31
0.0
 11
20.8376039528
 21
11.155049914
 31
0.0
 11
20.8373728937
 21
11.1539994086
 31
0.0
 11
20.837291943
 21
11.1529470539
 31
0.0
  0
SPLINE
  5
35D
100
AcDbEntity
  8
0
100
AcDbSpline
 62
9
  6
CONTINUOUS
 70
0
 71
3
 72
26
 73
22
 74
20
 42
0.0000001
 43
0.0000001
 44
0.0000000001
 12
0.0697955765
 22
0.0002428723
 32
0.0
 13
0.0002783993
 23
-0.0697954438
 33
0.0
 40
0.0
 40
0.0
 40
0.0
 40
0.0
 40
0.08758871
 40
0.1745950897
 40
0.3433663457
 40
0.4237203886
 40
0.5005440524
 40
0.5732642174
 40
0.6413499304
 40
0.704334448
 40
0.7338160584
 40
0.7619132617
 40
0.8138554972
 40
0.8601507158
 40
0.8812659835
 40
0.9010929978
 40
0.9372077751
 40
0.9538094853
 40
0.9696602273
 40
0.9849756966
 40
1.0
 40
1.0
 40
1.0
 40
1.0
 10
22.1516053881
 20
11.1846541191
 30
0.0
 10
22.1536431562
 20
11.1846612101
 30
0.0
 10
22.1577058061
 20
11.1846068526
 30
0.0
 10
22.165686426
 20
11.1842321861
 30
0.0
 10
22.173477486
 20
11.1834669095
 30
0.0
 10
22.180970392
 20
11.1822886747
 30
0.0
 10
22.1862166267
 20
11.1812380563
 30
0.0
 10
22.191132469
 20
11.180017063
 30
0.0
 10
22.1956712236
 20
11.1786383365
 30
0.0
 10
22.199176703
 20
11.1773398449
 30
0.0
 10
22.2017512418
 20
11.1762249145
 30
0.0
 10
22.2040487988
 20
11.1751220398
 30
0.0
 10
22.2066180571
 20
11.1736857615
 30
0.0
 10
22.2088914591
 20
11.1720784858
 30
0.0
 10
22.2104195936
 20
11.1707397364
 30
0.0
 10
22.2116737921
 20
11.1694575587
 30
0.0
 10
22.2126990248
 20
11.1680999139
 30
0.0
 10
22.2134307041
 20
11.1666786184
 30
0.0
 10
22.2138153014
 20
11.1656325843
 30
0.0
 10
22.2140491051
 20
11.1645803817
 30
0.0
 10
22.2141035078
 20
11.163873723
 30
0.0
 10
22.214104902
 20
11.1635241804
 30
0.0
 11
22.1516053881
 21
11.1846541191
 31
0.0
 11
22.1577181835
 21
11.1845724056
 31
0.0
 11
22.163784138
 21
11.184286316
 31
0.0
 11
22.175505078
 21
11.1831126208
 31
0.0
 11
22.1810446418
 21
11.182236676
 31
0.0
 11
22.1863011225
 21
11.1811782399
 31
0.0
 11
22.1912252681
 21
11.1799476839
 31
0.0
 11
22.1957693539
 21
11.1785570593
 31
0.0
 11
22.1998876232
 21
11.1770191172
 31
0.0
 11
22.2017751287
 21
11.176199699
 31
0.0
 11
22.2035422471
 21
11.1753493477
 31
0.0
 11
22.2066974945
 21
11.1735639484
 31
0.0
 11
22.2093224101
 21
11.1716796429
 31
0.0
 11
22.2104286487
 21
11.170705883
 31
0.0
 11
22.2113936255
 21
11.1697139908
 31
0.0
 11
22.2128891496
 21
11.1676849098
 31
0.0
 11
22.2134164695
 21
11.1666531173
 31
0.0
 11
22.2137955101
 21
11.1656137576
 31
0.0
 11
22.2140253085
 21
11.1645697916
 31
0.0
 11
22.214104902
 21
11.1635241804
 31
0.0
  0
SPLINE
  5
35E
100
AcDbEntity
  8
0
100
AcDbSpline
 62
9
  6
CONTINUOUS
 70
0
 71
3
 72
20
 73
16
 74
14
 42
0.0000001
 43
0.0000001
 44
0.0000000001
 12
-0.0280684045
 22
0.0094050633
 32
0.0
 13
-0.0106276009
 23
-0.0276286924
 33
0.0
 40
0.0
 40
0.0
 40
0.0
 40
0.0
 40
0.1781846985
 40
0.3482060339
 40
0.504522888
 40
0.5763317931
 40
0.6433573024
 40
0.7052660641
 40
0.7618682975
 40
0.8130766459
 40
0.8589340535
 40
0.8997161985
 40
0.9360700566
 40
0.9690152712
 40
1.0
 40
1.0
 40
1.0
 40
1.0
 10
2.6754074392
 20
5.6216540612
 30
0.0
 10
2.6737403192
 20
5.622212674
 30
0.0
 10
2.6704479166
 20
5.6232046398
 30
0.0
 10
2.6655953511
 20
5.6243320945
 30
0.0
 10
2.661707701
 20
5.6249331327
 30
0.0
 10
2.6588044399
 20
5.6251762059
 30
0.0
 10
2.6568235588
 20
5.625238674
 30
0.0
 10
2.6549922747
 20
5.6251853232
 30
0.0
 10
2.6533243263
 20
5.6250174862
 30
0.0
 10
2.6518319836
 20
5.6247366107
 30
0.0
 10
2.6505263819
 20
5.6243436285
 30
0.0
 10
2.6494182299
 20
5.6238375771
 30
0.0
 10
2.6485154512
 20
5.6232217572
 30
0.0
 10
2.6478273597
 20
5.6224988555
 30
0.0
 10
2.6475172372
 20
5.621939417
 30
0.0
 10
2.6474074727
 20
5.6216540611
 30
0.0
 11
2.6754074392
 21
5.6216540612
 31
0.0
 11
2.6703558852
 21
5.6231719017
 31
0.0
 11
2.6654505866
 21
5.6242984894
 31
0.0
 11
2.6608748058
 21
5.6249872226
 31
0.0
 11
2.6587562284
 21
5.6251611151
 31
0.0
 11
2.656772982
 21
5.6252194048
 31
0.0
 11
2.6549412733
 21
5.6251611151
 31
0.0
 11
2.6532747703
 21
5.6249872226
 31
0.0
 11
2.651786506
 21
5.6246991923
 31
0.0
 11
2.6504895132
 21
5.6242984893
 31
0.0
 11
2.6493957713
 21
5.6237874507
 31
0.0
 11
2.648513044
 21
5.6231719016
 31
0.0
 11
2.6478480412
 21
5.6224585393
 31
0.0
 11
2.6474074727
 21
5.6216540611
 31
0.0
  0
SPLINE
  5
35F
100
AcDbEntity
  8
0
100
AcDbSpline
 62
9
  6
CONTINUOUS
 70
0
 71
3
 72
26
 73
22
 74
20
 42
0.0000001
 43
0.0000001
 44
0.0000000001
 12
-0.0697676258
 22
0.0003223289
 32
0.0
 13
-0.0003691316
 23
-0.0697673939
 33
0.0
 40
0.0
 40
0.0
 40
0.0
 40
0.0
 40
0.0875970426
 40
0.1746087738
 40
0.3433834614
 40
0.4237363111
 40
0.5005574194
 40
0.5732741091
 40
0.6413559383
 40
0.7043365191
 40
0.733816246
 40
0.7619117096
 40
0.8138511274
 40
0.8601444898
 40
0.8812592884
 40
0.9010861976
 40
0.9372019045
 40
0.9538046233
 40
0.9696567266
 40
0.9849738522
 40
1.0
 40
1.0
 40
1.0
 40
1.0
 10
20.8998468946
 20
11.1846541191
 30
0.0
 10
20.8978097487
 20
11.1846635308
 30
0.0
 10
20.8937483296
 20
11.1846138423
 30
0.0
 10
20.8857700454
 20
11.1842484989
 30
0.0
 10
20.8779810123
 20
11.183492551
 30
0.0
 10
20.8704897151
 20
11.1823234937
 30
0.0
 10
20.8652445035
 20
11.1812794267
 30
0.0
 10
20.8603294165
 20
11.1800646808
 30
0.0
 10
20.8557911144
 20
11.1786918395
 30
0.0
 10
20.8522857357
 20
11.1773979922
 30
0.0
 10
20.8497110961
 20
11.176286536
 30
0.0
 10
20.8474133193
 20
11.1751868006
 30
0.0
 10
20.8448435639
 20
11.1737541083
 30
0.0
 10
20.8425693301
 20
11.1721501282
 30
0.0
 10
20.8410403194
 20
11.1708136876
 30
0.0
 10
20.8397851471
 20
11.1695334459
 30
0.0
 10
20.8387587295
 20
11.1681774904
 30
0.0
 10
20.8380256416
 20
11.1667575475
 30
0.0
 10
20.8376399157
 20
11.1657123007
 30
0.0
 10
20.837404888
 20
11.1646606937
 30
0.0
 10
20.8373496
 20
11.1639543052
 30
0.0
 10
20.8373477511
 20
11.1636048601
 30
0.0
 11
20.8998468946
 21
11.1846541191
 31
0.0
 11
20.8937358481
 21
11.1845794256
 31
0.0
 11
20.8876715964
 21
11.184300417
 31
0.0
 11
20.8759537057
 21
11.1831407452
 31
0.0
 11
20.8704154028
 21
11.182271598
 31
0.0
 11
20.8651599508
 21
11.1812197274
 31
0.0
 11
20.8602365643
 21
11.1799954351
 31
0.0
 11
20.8556929278
 21
11.1786107076
 31
0.0
 11
20.8515747723
 21
11.1770782283
 31
0.0
 11
20.8496871929
 21
11.1762613593
 31
0.0
 11
20.8479199082
 21
11.1754134266
 31
0.0
 11
20.8447640384
 21
11.1736324454
 31
0.0
 11
20.84213812
 21
11.1717519558
 31
0.0
 11
20.8410312346
 21
11.1707798647
 31
0.0
 11
20.8400655107
 21
11.1697894749
 31
0.0
 11
20.8385681951
 21
11.1677628755
 31
0.0
 11
20.8380398412
 21
11.1667320484
 31
0.0
 11
20.8376596746
 21
11.1656934652
 31
0.0
 11
20.8374286572
 21
11.1646500834
 31
0.0
 11
20.8373477511
 21
11.1636048601
 31
0.0
  0
SPLINE
  5
360
100
AcDbEntity
  8
0
100
AcDbSpline
 62
9
  6
CONTINUOUS
 70
0
 71
3
 72
61
 73
57
 74
55
 42
0.0000001
 43
0.0000001
 44
0.0000000001
 12
0.0
 22
-1.2727018487
 32
0.0
 13
0.0
 23
1.2727018487
 33
0.0
 40
0.0
 40
0.0
 40
0.0
 40
0.0
 40
0.01208429
 40
0.0242172317
 40
0.0364337473
 40
0.0487685356
 40
0.0612582314
 40
0.0739378241
 40
0.0868391451
 40
0.0999887937
 40
0.1134092748
 40
0.1271198362
 40
0.1411354762
 40
0.1554674971
 40
0.1701241389
 40
0.1851093879
 40
0.2004238606
 40
0.2160657322
 40
0.2320296519
 40
0.2483074889
 40
0.2817556182
 40
0.3163077446
 40
0.3339582058
 40
0.3518299778
 40
0.3881467643
 40
0.4250798476
 40
0.4437186667
 40
0.4624365111
 40
0.5
 40
0.5375634889
 40
0.5562813333
 40
0.5749201524
 40
0.6118532357
 40
0.6481700222
 40
0.6660417942
 40
0.6836922554
 40
0.7182443818
 40
0.7516925111
 40
0.7679703481
 40
0.7839342678
 40
0.7995761394
 40
0.8148906121
 40
0.8298758611
 40
0.8445325029
 40
0.8588645238
 40
0.8728801638
 40
0.8865907252
 40
0.9000112063
 40
0.9131608549
 40
0.9260621759
 40
0.9387417686
 40
0.9512314644
 40
0.9635662527
 40
0.9757827683
 40
0.98791571
 40
1.0
 40
1.0
 40
1.0
 40
1.0
 10
21.0390741059
 20
6.0271858057
 30
0.0
 10
21.0390741059
 20
6.0220592396
 30
0.0
 10
21.0394683791
 20
6.0117812012
 30
0.0
 10
21.0412350932
 20
5.9964119492
 30
0.0
 10
21.0441731093
 20
5.9811140688
 30
0.0
 10
21.048278703
 20
5.9659312136
 30
0.0
 10
21.0535383436
 20
5.9509008423
 30
0.0
 10
21.0599382082
 20
5.9360579686
 30
0.0
 10
21.0674644055
 20
5.9214383533
 30
0.0
 10
21.0760960617
 20
5.9070758498
 30
0.0
 10
21.0858116135
 20
5.8930047295
 30
0.0
 10
21.0965895349
 20
5.8792606238
 30
0.0
 10
21.1084016356
 20
5.8658751515
 30
0.0
 10
21.1212187835
 20
5.8528794954
 30
0.0
 10
21.1350117512
 20
5.8403063252
 30
0.0
 10
21.1497459307
 20
5.828184304
 30
0.0
 10
21.1653854058
 20
5.8165415868
 30
0.0
 10
21.1818939225
 20
5.805407975
 30
0.0
 10
21.1992311032
 20
5.7948086589
 30
0.0
 10
21.2236145032
 20
5.7813005231
 30
0.0
 10
21.2559473833
 20
5.7659430327
 30
0.0
 10
21.2899007868
 20
5.7529044112
 30
0.0
 10
21.3181924362
 20
5.7437585629
 30
0.0
 10
21.3475093613
 20
5.735411016
 30
0.0
 10
21.3852194495
 20
5.7267654181
 30
0.0
 10
21.4237374879
 20
5.7205807201
 30
0.0
 10
21.4550644727
 20
5.7170899166
 30
0.0
 10
21.4867535395
 20
5.7145786024
 30
0.0
 10
21.5265741059
 20
5.7133257913
 30
0.0
 10
21.5663946723
 20
5.7145786024
 30
0.0
 10
21.5980837391
 20
5.7170899166
 30
0.0
 10
21.6294107239
 20
5.7205807201
 30
0.0
 10
21.6679287623
 20
5.7267654181
 30
0.0
 10
21.7056388505
 20
5.735411016
 30
0.0
 10
21.7349557756
 20
5.7437585629
 30
0.0
 10
21.763247425
 20
5.7529044112
 30
0.0
 10
21.7972008285
 20
5.7659430327
 30
0.0
 10
21.8295337086
 20
5.7813005231
 30
0.0
 10
21.8539171086
 20
5.7948086589
 30
0.0
 10
21.8712542893
 20
5.805407975
 30
0.0
 10
21.887762806
 20
5.8165415868
 30
0.0
 10
21.9034022811
 20
5.828184304
 30
0.0
 10
21.9181364606
 20
5.8403063252
 30
0.0
 10
21.9319294283
 20
5.8528794954
 30
0.0
 10
21.9447465762
 20
5.8658751515
 30
0.0
 10
21.9565586769
 20
5.8792606238
 30
0.0
 10
21.9673365983
 20
5.8930047295
 30
0.0
 10
21.9770521501
 20
5.9070758498
 30
0.0
 10
21.9856838063
 20
5.9214383533
 30
0.0
 10
21.9932100036
 20
5.9360579686
 30
0.0
 10
21.9996098682
 20
5.9509008423
 30
0.0
 10
22.0048695088
 20
5.9659312136
 30
0.0
 10
22.0089751025
 20
5.9811140688
 30
0.0
 10
22.0119131186
 20
5.9964119492
 30
0.0
 10
22.0136798327
 20
6.0117812012
 30
0.0
 10
22.0140741059
 20
6.0220592396
 30
0.0
 10
22.0140741059
 20
6.0271858057
 30
0.0
 11
21.0390741059
 21
6.0271858057
 31
0.0
 11
21.0396618163
 21
6.0118173407
 31
0.0
 11
21.041422072
 21
5.996476381
 31
0.0
 11
21.0443505601
 21
5.9812066823
 31
0.0
 11
21.0484417395
 21
5.966050647
 31
0.0
 11
21.0536844013
 21
5.9510444327
 31
0.0
 11
21.060065703
 21
5.9362223963
 31
0.0
 11
21.0675717843
 21
5.9216189762
 31
0.0
 11
21.0761833607
 21
5.9072690473
 31
0.0
 11
21.0858793479
 21
5.8932076288
 31
0.0
 11
21.0966378445
 21
5.8794694231
 31
0.0
 11
21.108431915
 21
5.8660871756
 31
0.0
 11
21.1212327059
 21
5.8530928859
 31
0.0
 11
21.1350107293
 21
5.8405182908
 31
0.0
 11
21.1497319801
 21
5.8283932515
 31
0.0
 11
21.1653604817
 21
5.8167468111
 31
0.0
 11
21.1818597832
 21
5.805607728
 31
0.0
 11
21.1991895341
 21
5.7950024074
 31
0.0
 11
21.2173074403
 21
5.7849560819
 31
0.0
 11
21.2557339706
 21
5.7666376825
 31
0.0
 11
21.2967683114
 21
5.7508280533
 31
0.0
 11
21.3181412739
 21
5.7439130233
 31
0.0
 11
21.3400159999
 21
5.7376799434
 31
0.0
 11
21.3850605152
 21
5.7273203669
 31
0.0
 11
21.4314675925
 21
5.7198481036
 31
0.0
 11
21.455043096
 21
5.717218889
 31
0.0
 11
21.478790793
 21
5.715335867
 31
0.0
 11
21.5265741059
 21
5.713827257
 31
0.0
 11
21.5743574188
 21
5.715335867
 31
0.0
 11
21.5981051158
 21
5.717218889
 31
0.0
 11
21.6216806193
 21
5.7198481036
 31
0.0
 11
21.6680876966
 21
5.7273203669
 31
0.0
 11
21.7131322119
 21
5.7376799434
 31
0.0
 11
21.7350069379
 21
5.7439130233
 31
0.0
 11
21.7563799004
 21
5.7508280533
 31
0.0
 11
21.7974142412
 21
5.7666376825
 31
0.0
 11
21.8358407715
 21
5.7849560819
 31
0.0
 11
21.8539586778
 21
5.7950024074
 31
0.0
 11
21.8712884286
 21
5.805607728
 31
0.0
 11
21.8877877301
 21
5.8167468111
 31
0.0
 11
21.9034162317
 21
5.8283932515
 31
0.0
 11
21.9181374825
 21
5.8405182908
 31
0.0
 11
21.9319155059
 21
5.8530928859
 31
0.0
 11
21.9447162968
 21
5.8660871756
 31
0.0
 11
21.9565103673
 21
5.8794694231
 31
0.0
 11
21.9672688639
 21
5.8932076288
 31
0.0
 11
21.9769648511
 21
5.9072690473
 31
0.0
 11
21.9855764275
 21
5.9216189762
 31
0.0
 11
21.9930825088
 21
5.9362223963
 31
0.0
 11
21.9994638105
 21
5.9510444327
 31
0.0
 11
22.0047064723
 21
5.966050647
 31
0.0
 11
22.0087976517
 21
5.9812066823
 31
0.0
 11
22.0117261398
 21
5.996476381
 31
0.0
 11
22.0134863955
 21
6.0118173407
 31
0.0
 11
22.0140741059
 21
6.0271858057
 31
0.0
  0
SPLINE
  5
361
100
AcDbEntity
  8
0
100
AcDbSpline
 62
9
  6
CONTINUOUS
 70
0
 71
3
 72
20
 73
16
 74
14
 42
0.0000001
 43
0.0000001
 44
0.0000000001
 12
-0.0106276012
 22
0.0276286926
 32
0.0
 13
-0.0280684047
 23
-0.0094050633
 33
0.0
 40
0.0
 40
0.0
 40
0.0
 40
0.0
 40
0.0309847288
 40
0.0639299435
 40
0.1002838017
 40
0.141065947
 40
0.1869233549
 40
0.2381317037
 40
0.2947339374
 40
0.3566426995
 40
0.423668209
 40
0.4954771143
 40
0.6517939682
 40
0.8218153028
 40
1.0
 40
1.0
 40
1.0
 40
1.0
 10
12.4057407394
 20
5.6216540612
 30
0.0
 10
12.4056309749
 20
5.6219394171
 30
0.0
 10
12.4053208524
 20
5.6224988556
 30
0.0
 10
12.4046327608
 20
5.6232217573
 30
0.0
 10
12.4037299821
 20
5.6238375772
 30
0.0
 10
12.4026218301
 20
5.6243436286
 30
0.0
 10
12.4013162284
 20
5.6247366107
 30
0.0
 10
12.3998238857
 20
5.6250174863
 30
0.0
 10
12.3981559373
 20
5.6251853233
 30
0.0
 10
12.3963246531
 20
5.625238674
 30
0.0
 10
12.394343772
 20
5.6251762059
 30
0.0
 10
12.3914405108
 20
5.6249331326
 30
0.0
 10
12.3875528607
 20
5.6243320944
 30
0.0
 10
12.3827002952
 20
5.6232046397
 30
0.0
 10
12.3794078926
 20
5.6222126739
 30
0.0
 10
12.3777407726
 20
5.6216540611
 30
0.0
 11
12.4057407394
 21
5.6216540612
 31
0.0
 11
12.4053001709
 21
5.6224585394
 31
0.0
 11
12.4046351681
 21
5.6231719017
 31
0.0
 11
12.4037524407
 21
5.6237874508
 31
0.0
 11
12.4026586988
 21
5.6242984894
 31
0.0
 11
12.401361706
 21
5.6246991924
 31
0.0
 11
12.3998734416
 21
5.6249872226
 31
0.0
 11
12.3982069386
 21
5.6251611151
 31
0.0
 11
12.3963752299
 21
5.6252194048
 31
0.0
 11
12.3943919834
 21
5.6251611151
 31
0.0
 11
12.392273406
 21
5.6249872226
 31
0.0
 11
12.3876976252
 21
5.6242984893
 31
0.0
 11
12.3827923266
 21
5.6231719016
 31
0.0
 11
12.3777407726
 21
5.6216540611
 31
0.0
  0
SPLINE
  5
362
100
AcDbEntity
  8
0
100
AcDbSpline
 62
9
  6
CONTINUOUS
 70
0
 71
3
 72
20
 73
16
 74
14
 42
0.0000001
 43
0.0000001
 44
0.0000000001
 12
-0.0280684045
 22
0.0094050633
 32
0.0
 13
-0.0106276009
 23
-0.0276286924
 33
0.0
 40
0.0
 40
0.0
 40
0.0
 40
0.0
 40
0.1781846985
 40
0.3482060339
 40
0.504522888
 40
0.5763317931
 40
0.6433573024
 40
0.7052660641
 40
0.7618682975
 40
0.8130766459
 40
0.8589340535
 40
0.8997161985
 40
0.9360700566
 40
0.9690152712
 40
1.0
 40
1.0
 40
1.0
 40
1.0
 10
10.6754074392
 20
5.6216540612
 30
0.0
 10
10.6737403192
 20
5.622212674
 30
0.0
 10
10.6704479166
 20
5.6232046398
 30
0.0
 10
10.6655953511
 20
5.6243320945
 30
0.0
 10
10.661707701
 20
5.6249331327
 30
0.0
 10
10.6588044399
 20
5.6251762059
 30
0.0
 10
10.6568235588
 20
5.625238674
 30
0.0
 10
10.6549922747
 20
5.6251853232
 30
0.0
 10
10.6533243263
 20
5.6250174862
 30
0.0
 10
10.6518319836
 20
5.6247366107
 30
0.0
 10
10.6505263819
 20
5.6243436285
 30
0.0
 10
10.6494182299
 20
5.6238375771
 30
0.0
 10
10.6485154512
 20
5.6232217572
 30
0.0
 10
10.6478273597
 20
5.6224988555
 30
0.0
 10
10.6475172372
 20
5.621939417
 30
0.0
 10
10.6474074727
 20
5.6216540611
 30
0.0
 11
10.6754074392
 21
5.6216540612
 31
0.0
 11
10.6703558852
 21
5.6231719017
 31
0.0
 11
10.6654505866
 21
5.6242984894
 31
0.0
 11
10.6608748058
 21
5.6249872226
 31
0.0
 11
10.6587562284
 21
5.6251611151
 31
0.0
 11
10.656772982
 21
5.6252194048
 31
0.0
 11
10.6549412733
 21
5.6251611151
 31
0.0
 11
10.6532747703
 21
5.6249872226
 31
0.0
 11
10.651786506
 21
5.6246991923
 31
0.0
 11
10.6504895132
 21
5.6242984893
 31
0.0
 11
10.6493957713
 21
5.6237874507
 31
0.0
 11
10.648513044
 21
5.6231719016
 31
0.0
 11
10.6478480412
 21
5.6224585393
 31
0.0
 11
10.6474074727
 21
5.6216540611
 31
0.0
  0
SPLINE
  5
363
100
AcDbEntity
  8
0
100
AcDbSpline
 62
9
  6
CONTINUOUS
 70
0
 71
3
 72
55
 73
51
 74
49
 42
0.0000001
 43
0.0000001
 44
0.0000000001
 12
0.0
 22
-1.279155079
 32
0.0
 13
-0.0
 23
1.279155079
 33
0.0
 40
0.0
 40
0.0
 40
0.0
 40
0.0
 40
0.0120853767
 40
0.024215767
 40
0.0364277928
 40
0.0487598214
 40
0.0612492218
 40
0.0739300741
 40
0.0868323587
 40
0.0999828777
 40
0.1271034707
 40
0.1411204758
 40
0.1554540302
 40
0.1850887516
 40
0.2160390677
 40
0.2320042138
 40
0.2482833931
 40
0.2648665618
 40
0.2817409337
 40
0.3162961973
 40
0.3518160306
 40
0.3698898113
 40
0.3881412899
 40
0.4250778503
 40
0.4624331219
 40
0.5000001413
 40
0.5375671588
 40
0.5749224281
 40
0.6118589863
 40
0.6301104608
 40
0.6481842391
 40
0.6837040647
 40
0.718259322
 40
0.7351336862
 40
0.7517168534
 40
0.7679960262
 40
0.7839611657
 40
0.8149114757
 40
0.8445461936
 40
0.8588797409
 40
0.8728967428
 40
0.900017314
 40
0.9131678202
 40
0.9260700867
 40
0.9387509203
 40
0.9512403037
 40
0.9635723019
 40
0.9757842843
 40
0.9879146371
 40
1.0
 40
1.0
 40
1.0
 40
1.0
 10
22.0165741059
 20
6.1996947482
 30
0.0
 10
22.0165741059
 20
6.1945417245
 30
0.0
 10
22.0161786556
 20
6.1842121983
 30
0.0
 10
22.0144043932
 20
6.1687673435
 30
0.0
 10
22.0114505118
 20
6.1533963441
 30
0.0
 10
22.007326274
 20
6.1381393299
 30
0.0
 10
22.0020413084
 20
6.1230330009
 30
0.0
 10
21.9956089106
 20
6.1081141959
 30
0.0
 10
21.9880462985
 20
6.0934174846
 30
0.0
 10
21.9763616121
 20
6.0739729145
 30
0.0
 10
21.9625562376
 20
6.0553080129
 30
0.0
 10
21.9469007664
 20
6.0375672564
 30
0.0
 10
21.9295315201
 20
6.0199554583
 30
0.0
 10
21.9053004056
 20
5.9990488435
 30
0.0
 10
21.8786003676
 20
5.980190276
 30
0.0
 10
21.8556056185
 20
5.9661314837
 30
0.0
 10
21.8373887073
 20
5.9560390181
 30
0.0
 10
21.8184242964
 20
5.9465344028
 30
0.0
 10
21.7919959978
 20
5.9345803326
 30
0.0
 10
21.7573511357
 20
5.9212768684
 30
0.0
 10
21.7213504601
 20
5.9103656187
 30
0.0
 10
21.6916108893
 20
5.9029975889
 30
0.0
 10
21.6610485598
 20
5.8965119048
 30
0.0
 10
21.6220579879
 20
5.8902527639
 30
0.0
 10
21.5745458802
 20
5.8857351477
 30
0.0
 10
21.5265739259
 20
5.8842242259
 30
0.0
 10
21.4786019737
 20
5.8857351774
 30
0.0
 10
21.4310898706
 20
5.8902528083
 30
0.0
 10
21.3920993034
 20
5.8965119589
 30
0.0
 10
21.3615369834
 20
5.9029976695
 30
0.0
 10
21.3317974224
 20
5.9103657138
 30
0.0
 10
21.2957967617
 20
5.9212769859
 30
0.0
 10
21.2611519065
 20
5.934580445
 30
0.0
 10
21.2347236314
 20
5.9465345507
 30
0.0
 10
21.2157592237
 20
5.9560391571
 30
0.0
 10
21.1975423269
 20
5.9661316366
 30
0.0
 10
21.1745475998
 20
5.9801904492
 30
0.0
 10
21.1478475796
 20
5.9990490275
 30
0.0
 10
21.1236164702
 20
6.0199556401
 30
0.0
 10
21.1062472624
 20
6.0375674675
 30
0.0
 10
21.0905918031
 20
6.0553082164
 30
0.0
 10
21.0767864732
 20
6.0739731306
 30
0.0
 10
21.0651017961
 20
6.0934176794
 30
0.0
 10
21.0575392064
 20
6.1081143794
 30
0.0
 10
21.051106848
 20
6.1230331758
 30
0.0
 10
21.0458218859
 20
6.1381394761
 30
0.0
 10
21.0416976784
 20
6.1533964586
 30
0.0
 10
21.0387438063
 20
6.1687674109
 30
0.0
 10
21.0369695499
 20
6.1842122259
 30
0.0
 10
21.0365741059
 20
6.1945417304
 30
0.0
 10
21.0365741059
 20
6.1996947482
 30
0.0
 11
22.0165741059
 21
6.1996947482
 31
0.0
 11
22.0159841162
 21
6.1842469397
 31
0.0
 11
22.0142159191
 21
6.1688313658
 31
0.0
 11
22.0112728986
 21
6.1534900292
 31
0.0
 11
22.0071626962
 21
6.1382603373
 31
0.0
 11
22.0018945979
 21
6.1231780337
 31
0.0
 11
21.9954810408
 21
6.1082790445
 31
0.0
 11
21.9879382163
 21
6.0935995155
 31
0.0
 11
21.9792831178
 21
6.0791754413
 31
0.0
 11
21.9587246569
 21
6.0512318196
 31
0.0
 11
21.9468700835
 21
6.0377800078
 31
0.0
 11
21.9340033041
 21
6.0247181433
 31
0.0
 11
21.905358322
 21
5.9998900078
 31
0.0
 11
21.873065756
 21
5.9769863315
 31
0.0
 11
21.8556470406
 21
5.966326019
 31
0.0
 11
21.8374359236
 21
5.956227637
 31
0.0
 11
21.8184754746
 21
5.9467161084
 31
0.0
 11
21.7988117626
 21
5.937813974
 31
0.0
 11
21.7575657602
 21
5.9219223561
 31
0.0
 11
21.7140951162
 21
5.9087058354
 31
0.0
 11
21.6916554381
 21
5.9031419522
 31
0.0
 11
21.6688182487
 21
5.8982921572
 31
0.0
 11
21.6221714457
 21
5.8907814701
 31
0.0
 11
21.5746040209
 21
5.8862457335
 31
0.0
 11
21.5265739253
 21
5.8847288195
 31
0.0
 11
21.478543833
 21
5.8862457607
 31
0.0
 11
21.4309764128
 21
5.8907815142
 31
0.0
 11
21.3843296156
 21
5.89829222
 31
0.0
 11
21.361492435
 21
5.9031420313
 31
0.0
 11
21.3390527634
 21
5.9087059275
 31
0.0
 11
21.2955821357
 21
5.9219224683
 31
0.0
 11
21.2543361473
 21
5.9378140997
 31
0.0
 11
21.234672453
 21
5.9467162495
 31
0.0
 11
21.2157120075
 21
5.9562277808
 31
0.0
 11
21.1975009052
 21
5.9663261723
 31
0.0
 11
21.1800822076
 21
5.9769864976
 31
0.0
 11
21.1477896616
 21
5.9998901888
 31
0.0
 11
21.1191446969
 21
6.0247183375
 31
0.0
 11
21.1062779427
 21
6.037780214
 31
0.0
 11
21.0944233807
 21
6.0512320305
 31
0.0
 11
21.0738649659
 21
6.0791756513
 31
0.0
 11
21.0652098794
 21
6.0935997138
 31
0.0
 11
21.057667079
 21
6.108279229
 31
0.0
 11
21.0512535526
 21
6.1231782055
 31
0.0
 11
21.045985466
 21
6.1382604901
 31
0.0
 11
21.0418752865
 21
6.153490148
 31
0.0
 11
21.0389322803
 21
6.1688314308
 31
0.0
 11
21.0371640908
 21
6.1842469571
 31
0.0
 11
21.0365741059
 21
6.1996947482
 31
0.0
  0
SPLINE
  5
364
100
AcDbEntity
  8
0
100
AcDbSpline
 62
9
  6
CONTINUOUS
 70
0
 71
3
 72
20
 73
16
 74
14
 42
0.0000001
 43
0.0000001
 44
0.0000000001
 12
-0.0106276012
 22
0.0276286926
 32
0.0
 13
-0.0280684047
 23
-0.0094050633
 33
0.0
 40
0.0
 40
0.0
 40
0.0
 40
0.0
 40
0.0309847288
 40
0.0639299435
 40
0.1002838017
 40
0.141065947
 40
0.1869233549
 40
0.2381317037
 40
0.2947339374
 40
0.3566426995
 40
0.423668209
 40
0.4954771143
 40
0.6517939682
 40
0.8218153028
 40
1.0
 40
1.0
 40
1.0
 40
1.0
 10
4.4057407394
 20
5.6216540612
 30
0.0
 10
4.4056309749
 20
5.6219394171
 30
0.0
 10
4.4053208524
 20
5.6224988556
 30
0.0
 10
4.4046327608
 20
5.6232217573
 30
0.0
 10
4.4037299821
 20
5.6238375772
 30
0.0
 10
4.4026218301
 20
5.6243436286
 30
0.0
 10
4.4013162284
 20
5.6247366107
 30
0.0
 10
4.3998238857
 20
5.6250174863
 30
0.0
 10
4.3981559373
 20
5.6251853233
 30
0.0
 10
4.3963246531
 20
5.625238674
 30
0.0
 10
4.394343772
 20
5.6251762059
 30
0.0
 10
4.3914405108
 20
5.6249331326
 30
0.0
 10
4.3875528607
 20
5.6243320944
 30
0.0
 10
4.3827002952
 20
5.6232046397
 30
0.0
 10
4.3794078926
 20
5.6222126739
 30
0.0
 10
4.3777407726
 20
5.6216540611
 30
0.0
 11
4.4057407394
 21
5.6216540612
 31
0.0
 11
4.4053001709
 21
5.6224585394
 31
0.0
 11
4.4046351681
 21
5.6231719017
 31
0.0
 11
4.4037524407
 21
5.6237874508
 31
0.0
 11
4.4026586988
 21
5.6242984894
 31
0.0
 11
4.401361706
 21
5.6246991924
 31
0.0
 11
4.3998734416
 21
5.6249872226
 31
0.0
 11
4.3982069386
 21
5.6251611151
 31
0.0
 11
4.3963752299
 21
5.6252194048
 31
0.0
 11
4.3943919834
 21
5.6251611151
 31
0.0
 11
4.392273406
 21
5.6249872226
 31
0.0
 11
4.3876976252
 21
5.6242984893
 31
0.0
 11
4.3827923266
 21
5.6231719016
 31
0.0
 11
4.3777407726
 21
5.6216540611
 31
0.0
  0
SPLINE
  5
365
100
AcDbEntity
  8
0
100
AcDbSpline
 62
9
  6
CONTINUOUS
 70
0
 71
3
 72
9
 73
5
 74
3
 42
0.0000001
 43
0.0000001
 44
0.0000000001
 12
0.0101074811
 22
0.0410681291
 32
0.0
 13
0.0176340657
 23
0.038442062
 33
0.0
 40
0.0
 40
0.0
 40
0.0
 40
0.0
 40
0.4953590432
 40
1.0
 40
1.0
 40
1.0
 40
1.0
 10
21.0425929219
 20
6.2489093817
 30
0.0
 10
21.044261866
 20
6.2556905381
 30
0.0
 10
21.0483069106
 20
6.2692215114
 30
0.0
 10
21.0536134704
 20
6.2823068063
 30
0.0
 10
21.056579761
 20
6.2887732859
 30
0.0
 11
21.0425929219
 21
6.2489093817
 31
0.0
 11
21.0485789162
 21
6.2689865572
 31
0.0
 11
21.056579761
 21
6.2887732859
 31
0.0
  0
SPLINE
  5
366
100
AcDbEntity
  8
0
100
AcDbSpline
 62
9
  6
CONTINUOUS
 70
0
 71
3
 72
9
 73
5
 74
3
 42
0.0000001
 43
0.0000001
 44
0.0000000001
 12
0.0176345764
 22
-0.0384414482
 32
0.0
 13
0.0101082693
 23
-0.0410675799
 33
0.0
 40
0.0
 40
0.0
 40
0.0
 40
0.0
 40
0.5046413166
 40
1.0
 40
1.0
 40
1.0
 40
1.0
 10
21.996566687
 20
6.2887771369
 30
0.0
 10
21.9995330657
 20
6.2823107559
 30
0.0
 10
22.0048398265
 20
6.2692256685
 30
0.0
 10
22.0088851221
 20
6.2556948911
 30
0.0
 10
22.0105541951
 20
6.2489138303
 30
0.0
 11
21.996566687
 21
6.2887771369
 31
0.0
 11
22.0045678389
 21
6.2689907037
 31
0.0
 11
22.0105541951
 21
6.2489138303
 31
0.0
  0
SPLINE
  5
367
100
AcDbEntity
  8
0
100
AcDbSpline
 62
6
  6
CONTINUOUS
 70
0
 71
3
 72
35
 73
31
 74
29
 42
0.0000001
 43
0.0000001
 44
0.0000000001
 12
0.6379463644
 22
-0.6896574568
 32
0.0
 13
0.6379463582
 23
0.6896574625
 33
0.0
 40
0.0
 40
0.0
 40
0.0
 40
0.0
 40
0.0533030867
 40
0.0811565546
 40
0.1097992965
 40
0.139214658
 40
0.1693746536
 40
0.2002417075
 40
0.2317688514
 40
0.2639018571
 40
0.2965791415
 40
0.3297337147
 40
0.3632933016
 40
0.3971817768
 40
0.4313196795
 40
0.5000000005
 40
0.5686803215
 40
0.6028182242
 40
0.6367066994
 40
0.6702662863
 40
0.7034208593
 40
0.7360981437
 40
0.7682311493
 40
0.7997582931
 40
0.830625347
 40
0.8607853424
 40
0.8902007039
 40
0.9188434457
 40
0.9466969135
 40
1.0
 40
1.0
 40
1.0
 40
1.0
 10
21.0968075226
 20
9.4596557597
 30
0.0
 10
21.1081423594
 20
9.447402136
 30
0.0
 10
21.1268321408
 20
9.4300236015
 30
0.0
 10
21.1541554167
 20
9.4091299037
 30
0.0
 10
21.1765062221
 20
9.3941217683
 30
0.0
 10
21.2003121055
 20
9.3800767095
 30
0.0
 10
21.2254762979
 20
9.3670488788
 30
0.0
 10
21.2518939938
 20
9.3550941334
 30
0.0
 10
21.2794548659
 20
9.3442599624
 30
0.0
 10
21.3080448085
 20
9.3345928996
 30
0.0
 10
21.337544434
 20
9.326131486
 30
0.0
 10
21.36783131
 20
9.3189118826
 30
0.0
 10
21.3987790814
 20
9.3129634842
 30
0.0
 10
21.4302595364
 20
9.3083109125
 30
0.0
 10
21.4728482238
 20
9.303853619
 30
0.0
 10
21.5265741079
 20
9.301628768
 30
0.0
 10
21.5802999919
 20
9.3038536193
 30
0.0
 10
21.6228886793
 20
9.308310913
 30
0.0
 10
21.6543691342
 20
9.3129634848
 30
0.0
 10
21.6853169055
 20
9.3189118834
 30
0.0
 10
21.7156037815
 20
9.326131487
 30
0.0
 10
21.7451034068
 20
9.3345929007
 30
0.0
 10
21.7736933493
 20
9.3442599637
 30
0.0
 10
21.8012542213
 20
9.3550941348
 30
0.0
 10
21.827671917
 20
9.3670488803
 30
0.0
 10
21.8528361092
 20
9.3800767112
 30
0.0
 10
21.8766419925
 20
9.3941217701
 30
0.0
 10
21.8989927977
 20
9.4091299055
 30
0.0
 10
21.9263160734
 20
9.4300236035
 30
0.0
 10
21.9450058546
 20
9.4474021381
 30
0.0
 10
21.9563406912
 20
9.4596557619
 30
0.0
 11
21.0968075226
 21
9.4596557597
 31
0.0
 11
21.1333425856
 21
9.4254087519
 31
0.0
 11
21.1541143618
 21
9.4094942763
 31
0.0
 11
21.1764421726
 21
9.3944755471
 31
0.0
 11
21.2002329005
 21
9.3804154832
 31
0.0
 11
21.2253868143
 21
9.3673725296
 31
0.0
 11
21.2517992832
 21
9.3554015836
 31
0.0
 11
21.279359459
 21
9.3445521841
 31
0.0
 11
21.3079526779
 21
9.3348701426
 31
0.0
 11
21.3374590809
 21
9.3263954759
 31
0.0
 11
21.3677556866
 21
9.3191639084
 31
0.0
 11
21.3987157441
 21
9.3132054863
 31
0.0
 11
21.4302099868
 21
9.3085450882
 31
0.0
 11
21.4621068308
 21
9.3052023845
 31
0.0
 11
21.5265741079
 21
9.302519758
 31
0.0
 11
21.5910413849
 21
9.3052023848
 31
0.0
 11
21.6229382289
 21
9.3085450887
 31
0.0
 11
21.6544324715
 21
9.3132054869
 31
0.0
 11
21.6853925289
 21
9.3191639092
 31
0.0
 11
21.7156891345
 21
9.3263954768
 31
0.0
 11
21.7451955374
 21
9.3348701437
 31
0.0
 11
21.7737887562
 21
9.3445521854
 31
0.0
 11
21.8013489319
 21
9.3554015849
 31
0.0
 11
21.8277614006
 21
9.3673725311
 31
0.0
 11
21.8529153143
 21
9.3804154849
 31
0.0
 11
21.876706042
 21
9.3944755489
 31
0.0
 11
21.8990338526
 21
9.4094942782
 31
0.0
 11
21.9198056286
 21
9.4254087539
 31
0.0
 11
21.9563406912
 21
9.4596557619
 31
0.0
  0
SPLINE
  5
368
100
AcDbEntity
  8
0
100
AcDbSpline
 62
9
  6
CONTINUOUS
 70
0
 71
3
 72
22
 73
18
 74
16
 42
0.0000001
 43
0.0000001
 44
0.0000000001
 12
0.032008582
 22
-0.0000000001
 32
0.0
 13
0.0000000001
 23
-0.032008582
 33
0.0
 40
0.0
 40
0.0
 40
0.0
 40
0.0
 40
0.0109951343
 40
0.0224477995
 40
0.0347269994
 40
0.048123193
 40
0.0790254233
 40
0.1162919738
 40
0.1603972915
 40
0.211336995
 40
0.2688818136
 40
0.3327054976
 40
0.4023985885
 40
0.4773986629
 40
0.6408198811
 40
0.8174788201
 40
1.0
 40
1.0
 40
1.0
 40
1.0
 10
16.4441119934
 20
7.6343738594
 30
0.0
 10
16.4442293063
 20
7.6343738594
 30
0.0
 10
16.4444694795
 20
7.6343482069
 30
0.0
 10
16.4448246028
 20
7.6342353561
 30
0.0
 10
16.4451767212
 20
7.6340499857
 30
0.0
 10
16.4456642695
 20
7.6336909522
 30
0.0
 10
16.4462585384
 20
7.6330454112
 30
0.0
 10
16.4469148862
 20
7.6320395614
 30
0.0
 10
16.4475423502
 20
7.6307721331
 30
0.0
 10
16.4481378646
 20
7.6292554034
 30
0.0
 10
16.4486963976
 20
7.6275027348
 30
0.0
 10
16.4492122229
 20
7.6255297437
 30
0.0
 10
16.4496795633
 20
7.6233539728
 30
0.0
 10
16.4502495279
 20
7.620115717
 30
0.0
 10
16.450799244
 20
7.6157182473
 30
0.0
 10
16.4511923504
 20
7.6101541698
 30
0.0
 10
16.451282612
 20
7.6063212741
 30
0.0
 10
16.451282612
 20
7.6043738594
 30
0.0
 11
16.4441119934
 21
7.6343738594
 31
0.0
 11
16.4444620367
 21
7.634337383
 31
0.0
 11
16.4448120481
 21
7.6342284083
 31
0.0
 11
16.4451610389
 21
7.6340476163
 31
0.0
 11
16.44550802
 21
7.6337956885
 31
0.0
 11
16.4461919981
 21
7.6330811501
 31
0.0
 11
16.4468560714
 21
7.6320902432
 31
0.0
 11
16.4474927551
 21
7.6308302161
 31
0.0
 11
16.4480962705
 21
7.6293155134
 31
0.0
 11
16.4486612654
 21
7.6275623791
 31
0.0
 11
16.4491823876
 21
7.6255870576
 31
0.0
 11
16.4496545299
 21
7.6234068173
 31
0.0
 11
16.4500735646
 21
7.6210430256
 31
0.0
 11
16.4507367815
 21
7.6158543587
 31
0.0
 11
16.4511444176
 21
7.6102144688
 31
0.0
 11
16.451282612
 21
7.6043738594
 31
0.0
  0
LINE
  5
369
100
AcDbEntity
  8
0
100
AcDbLine
 62
9
  6
CONTINUOUS
 10
16.5265741059
 20
7.6347934604
 11
16.4441119934
 21
7.6343738594
  0
LINE
  5
36A
100
AcDbEntity
  8
0
100
AcDbLine
 62
9
  6
CONTINUOUS
 10
16.5265741059
 20
7.6052130615
 11
16.4512826119
 21
7.6043738594
  0
SPLINE
  5
36B
100
AcDbEntity
  8
0
100
AcDbSpline
 62
9
  6
CONTINUOUS
 70
0
 71
3
 72
12
 73
8
 74
6
 42
0.0000001
 43
0.0000001
 44
0.0000000001
 12
-0.081449112
 22
-0.0026579576
 32
0.0
 13
-0.0814924692
 23
0.0000061469
 33
0.0
 40
0.0
 40
0.0
 40
0.0
 40
0.0
 40
0.2491586624
 40
0.4990463725
 40
0.6241825728
 40
0.7494095313
 40
1.0
 40
1.0
 40
1.0
 40
1.0
 10
16.6080584068
 20
7.6357021505
 30
0.0
 10
16.6012938229
 20
7.6354813994
 30
0.0
 10
16.5877407399
 20
7.6351643246
 30
0.0
 10
16.5707864105
 20
7.6349610043
 30
0.0
 10
16.5571978244
 20
7.6348674972
 30
0.0
 10
16.5435899663
 20
7.6348069726
 30
0.0
 10
16.5333811846
 20
7.634792947
 30
0.0
 10
16.5265741059
 20
7.6347934604
 30
0.0
 11
16.6080584068
 21
7.6357021505
 31
0.0
 11
16.5877599809
 21
7.6352033041
 31
0.0
 11
16.5673976719
 21
7.634943482
 31
0.0
 11
16.5572002669
 21
7.6348716485
 31
0.0
 11
16.5469953167
 21
7.634825603
 31
0.0
 11
16.5265741059
 21
7.6347934604
 31
0.0
  0
SPLINE
  5
36C
100
AcDbEntity
  8
0
100
AcDbSpline
 62
9
  6
CONTINUOUS
 70
0
 71
3
 72
22
 73
18
 74
16
 42
0.0000001
 43
0.0000001
 44
0.0000000001
 12
-0.0317559871
 22
-0.0010358096
 32
0.0
 13
0.0009763045
 23
-0.0317578723
 33
0.0
 40
0.0
 40
0.0
 40
0.0
 40
0.0
 40
0.0110161099
 40
0.0224865952
 40
0.0347783977
 40
0.0481809129
 40
0.0790761277
 40
0.1163110737
 40
0.1603640723
 40
0.2112370473
 40
0.2687075135
 40
0.3324557816
 40
0.4020789977
 40
0.4770222972
 40
0.6404002105
 40
0.8171617997
 40
1.0
 40
1.0
 40
1.0
 40
1.0
 10
16.6080584217
 20
7.6357016945
 30
0.0
 10
16.6079418125
 20
7.635697891
 30
0.0
 10
16.6077039556
 20
7.6356647355
 30
0.0
 10
16.6073546162
 20
7.6355415841
 30
0.0
 10
16.6070105672
 20
7.6353467555
 30
0.0
 10
16.6065375625
 20
7.6349757551
 30
0.0
 10
16.6059675162
 20
7.6343177109
 30
0.0
 10
16.6053470903
 20
7.6333007739
 30
0.0
 10
16.6047635782
 20
7.6320257117
 30
0.0
 10
16.6042195986
 20
7.6305046506
 30
0.0
 10
16.6037196716
 20
7.6287508352
 30
0.0
 10
16.6032689421
 20
7.6267797483
 30
0.0
 10
16.6028725459
 20
7.6246087714
 30
0.0
 10
16.6024070089
 20
7.62138014
 30
0.0
 10
16.6019971573
 20
7.617000186
 30
0.0
 10
16.6017781708
 20
7.6114636637
 30
0.0
 10
16.601806109
 20
7.6076536074
 30
0.0
 10
16.601865611
 20
7.60571809
 30
0.0
 11
16.6080584217
 21
7.6357016945
 31
0.0
 11
16.6077116383
 21
7.6356542527
 31
0.0
 11
16.6073672256
 21
7.6355350726
 31
0.0
 11
16.6070261351
 21
7.6353448533
 31
0.0
 11
16.6066893183
 21
7.635084294
 31
0.0
 11
16.6060323123
 21
7.6343549517
 31
0.0
 11
16.60540382
 21
7.6333526386
 31
0.0
 11
16.6048109782
 21
7.6320846986
 31
0.0
 11
16.6042590216
 21
7.6305654782
 31
0.0
 11
16.6037527095
 21
7.6288110748
 31
0.0
 11
16.603296801
 21
7.6268375858
 31
0.0
 11
16.6028957836
 21
7.6246621081
 31
0.0
 11
16.602553058
 21
7.6223057376
 31
0.0
 11
16.6020549983
 21
7.6171387004
 31
0.0
 11
16.6018238481
 21
7.6115272352
 31
0.0
 11
16.601865611
 21
7.60571809
 31
0.0
  0
SPLINE
  5
36D
100
AcDbEntity
  8
0
100
AcDbSpline
 62
9
  6
CONTINUOUS
 70
0
 71
3
 72
13
 73
9
 74
7
 42
0.0000001
 43
0.0000001
 44
0.0000000001
 12
-0.0752485443
 22
-0.0026933259
 32
0.0
 13
-0.0752967282
 23
0.0000121687
 33
0.0
 40
0.0
 40
0.0
 40
0.0
 40
0.0
 40
0.2467850312
 40
0.3712724706
 40
0.4963232134
 40
0.6218377052
 40
0.7477105245
 40
1.0
 40
1.0
 40
1.0
 40
1.0
 10
16.6018655999
 20
7.60571809
 30
0.0
 10
16.5956755285
 20
7.6054965325
 30
0.0
 10
16.5863577809
 20
7.605307047
 30
0.0
 10
16.5739010964
 20
7.6052053842
 30
0.0
 10
16.5644876616
 20
7.6051787495
 30
0.0
 10
16.5550394806
 20
7.6051824751
 30
0.0
 10
16.5423977515
 20
7.6051986948
 30
0.0
 10
16.5329062966
 20
7.6052120382
 30
0.0
 10
16.5265741059
 20
7.6052130615
 30
0.0
 11
16.6018655999
 21
7.60571809
 31
0.0
 11
16.5832883172
 21
7.6052947498
 31
0.0
 11
16.5739151696
 21
7.60521381
 31
0.0
 11
16.5644993054
 21
7.6051838322
 31
0.0
 11
16.5550484747
 21
7.6051838694
 31
0.0
 11
16.5455706694
 21
7.605194753
 31
0.0
 11
16.5265741059
 21
7.6052130615
 31
0.0
  0
SPLINE
  5
36E
100
AcDbEntity
  8
0
100
AcDbSpline
 62
9
  6
CONTINUOUS
 70
0
 71
3
 72
46
 73
42
 74
40
 42
0.0000001
 43
0.0000001
 44
0.0000000001
 12
-0.2001370721
 22
-0.1340315426
 32
0.0
 13
-0.2407185214
 23
-0.0085962528
 33
0.0
 40
0.0
 40
0.0
 40
0.0
 40
0.0
 40
0.0000182353
 40
0.0000407917
 40
0.0000723047
 40
0.0001621925
 40
0.0002878826
 40
0.0004493589
 40
0.0006466054
 40
0.000879606
 40
0.0011483446
 40
0.0017929718
 40
0.0025803583
 40
0.0035103756
 40
0.0045828952
 40
0.0057977885
 40
0.0071549271
 40
0.0102954261
 40
0.0140033643
 40
0.0182777107
 40
0.023116784
 40
0.0285174869
 40
0.0344765367
 40
0.0409906529
 40
0.0556709698
 40
0.0725322114
 40
0.0915439758
 40
0.1126666132
 40
0.1358593016
 40
0.1610812383
 40
0.1882872225
 40
0.2174245866
 40
0.2812802759
 40
0.3521988565
 40
0.4296764768
 40
0.5131814088
 40
0.6021416208
 40
0.6959522092
 40
0.7939759483
 40
0.8955650817
 40
1.0
 40
1.0
 40
1.0
 40
1.0
 10
16.8415741059
 20
7.6280069668
 30
0.0
 10
16.8415728894
 20
7.6280061521
 30
0.0
 10
16.8415692957
 20
7.628006548
 30
0.0
 10
16.8415637417
 20
7.6280052004
 30
0.0
 10
16.8415522128
 20
7.6280037097
 30
0.0
 10
16.8415326782
 20
7.6280005218
 30
0.0
 10
16.8415027114
 20
7.6279960619
 30
0.0
 10
16.8414642727
 20
7.6279901876
 30
0.0
 10
16.8414172941
 20
7.6279830811
 30
0.0
 10
16.841361806
 20
7.6279746772
 30
0.0
 10
16.8412707971
 20
7.6279609188
 30
0.0
 10
16.8411357729
 20
7.6279405342
 30
0.0
 10
16.8409482415
 20
7.6279122721
 30
0.0
 10
16.8407267306
 20
7.6278789394
 30
0.0
 10
16.8404712689
 20
7.6278405535
 30
0.0
 10
16.8401818853
 20
7.6277971302
 30
0.0
 10
16.8397282871
 20
7.6277291572
 30
0.0
 10
16.8390767018
 20
7.6276317152
 30
0.0
 10
16.8381934189
 20
7.6274999594
 30
0.0
 10
16.8371751946
 20
7.6273484465
 30
0.0
 10
16.8360224699
 20
7.6271773829
 30
0.0
 10
16.8347358377
 20
7.6269871843
 30
0.0
 10
16.8333160228
 20
7.6267782553
 30
0.0
 10
16.8311588451
 20
7.6264624546
 30
0.0
 10
16.828134999
 20
7.6260236645
 30
0.0
 10
16.8241170777
 20
7.6254479234
 30
0.0
 10
16.8195858617
 20
7.6248077046
 30
0.0
 10
16.8145496546
 20
7.624108021
 30
0.0
 10
16.8090176265
 20
7.6233538492
 30
0.0
 10
16.8029994071
 20
7.6225502316
 30
0.0
 10
16.7965055535
 20
7.6217025916
 30
0.0
 10
16.7869318911
 20
7.6204842511
 30
0.0
 10
16.7738678475
 20
7.6188921705
 30
0.0
 10
16.7569357013
 20
7.6169600663
 30
0.0
 10
16.7384188254
 20
7.6150056096
 30
0.0
 10
16.7184428499
 20
7.6130820977
 30
0.0
 10
16.6971423474
 20
7.6112421858
 30
0.0
 10
16.6746614047
 20
7.6095358586
 30
0.0
 10
16.6511511968
 20
7.6080101673
 30
0.0
 10
16.6267733172
 20
7.6067065052
 30
0.0
 10
16.6102454063
 20
7.6060173396
 30
0.0
 10
16.6018655999
 20
7.60571809
 30
0.0
 11
16.8415741059
 21
7.6280069668
 31
0.0
 11
16.8415697684
 21
7.628006275
 31
0.0
 11
16.8415643989
 21
7.6280054453
 31
0.0
 11
16.8415568962
 21
7.6280042934
 31
0.0
 11
16.841535493
 21
7.6280010239
 31
0.0
 11
16.8415055624
 21
7.6279964688
 31
0.0
 11
16.8414671081
 21
7.6279906299
 31
0.0
 11
16.8414201336
 21
7.6279835093
 31
0.0
 11
16.8413646424
 21
7.6279751092
 31
0.0
 11
16.8413006384
 21
7.6279654314
 31
0.0
 11
16.8411471058
 21
7.6279422512
 31
0.0
 11
16.8409595646
 21
7.6279139851
 31
0.0
 11
16.8407380437
 21
7.6278806493
 31
0.0
 11
16.8404825721
 21
7.6278422602
 31
0.0
 11
16.8401931784
 21
7.627798834
 31
0.0
 11
16.8398698917
 21
7.6277503871
 31
0.0
 11
16.8391217545
 21
7.6276384961
 31
0.0
 11
16.8382383913
 21
7.6275067177
 31
0.0
 11
16.8372200338
 21
7.6273551826
 31
0.0
 11
16.8360670599
 21
7.6271841041
 31
0.0
 11
16.834780166
 21
7.6269938748
 31
0.0
 11
16.83336009
 21
7.6267849111
 31
0.0
 11
16.8318075704
 21
7.6265576294
 31
0.0
 11
16.8283081526
 21
7.6260497773
 31
0.0
 11
16.8242878227
 21
7.6254736518
 31
0.0
 11
16.819753446
 21
7.624833073
 31
0.0
 11
16.8147139977
 21
7.6241329377
 31
0.0
 11
16.8091787353
 21
7.6233782864
 31
0.0
 11
16.8031569298
 21
7.622574165
 31
0.0
 11
16.7966588875
 21
7.6217260276
 31
0.0
 11
16.7896966636
 21
7.6208400186
 31
0.0
 11
16.7744285914
 21
7.6189792328
 31
0.0
 11
16.7574564223
 21
7.6170426465
 31
0.0
 11
16.7388973338
 21
7.6150837088
 31
0.0
 11
16.7188759385
 21
7.6131558603
 31
0.0
 11
16.6975274161
 21
7.6113117704
 31
0.0
 11
16.6749958768
 21
7.6096017008
 31
0.0
 11
16.6514342718
 21
7.6080726033
 31
0.0
 11
16.6269992107
 21
7.6067659254
 31
0.0
 11
16.6018655999
 21
7.60571809
 31
0.0
  0
SPLINE
  5
36F
100
AcDbEntity
  8
0
100
AcDbSpline
 62
9
  6
CONTINUOUS
 70
0
 71
3
 72
25
 73
21
 74
19
 42
0.0000001
 43
0.0000001
 44
0.0000000001
 12
0.0542564348
 22
0.0023864142
 32
0.0
 13
-0.0032185315
 23
0.054213437
 33
0.0
 40
0.0
 40
0.0
 40
0.0
 40
0.0
 40
0.0135170765
 40
0.0276523594
 40
0.0425692742
 40
0.0584015646
 40
0.0931864431
 40
0.1123751628
 40
0.1328828567
 40
0.1781160678
 40
0.2292408453
 40
0.2863104279
 40
0.3492056298
 40
0.4175748199
 40
0.490926906
 40
0.5687329561
 40
0.6504388779
 40
0.8224787452
 40
0.9109999346
 40
1.0
 40
1.0
 40
1.0
 40
1.0
 10
8.4912173892
 20
7.9132519597
 30
0.0
 10
8.491461852
 20
7.9132627121
 30
0.0
 10
8.4919608646
 20
7.9133263249
 30
0.0
 10
8.4927042857
 20
7.9135386521
 30
0.0
 10
8.4934495675
 20
7.9138684776
 30
0.0
 10
8.4944675112
 20
7.9144827402
 30
0.0
 10
8.495425623
 20
7.9153241226
 30
0.0
 10
8.496305469
 20
7.9163469597
 30
0.0
 10
8.4972097626
 20
7.9175924653
 30
0.0
 10
8.4982626134
 20
7.9194343223
 30
0.0
 10
8.499384787
 20
7.9219787377
 30
0.0
 10
8.5004051289
 20
7.9249058952
 30
0.0
 10
8.50132259
 20
7.9281913709
 30
0.0
 10
8.502134964
 20
7.9318067478
 30
0.0
 10
8.5028382374
 20
7.9357191814
 30
0.0
 10
8.503427811
 20
7.9398942252
 30
0.0
 10
8.5040683814
 20
7.9458626876
 30
0.0
 10
8.5044331341
 20
7.9520538152
 30
0.0
 10
8.5044612271
 20
7.9583830269
 30
0.0
 10
8.5043444022
 20
7.9615958204
 30
0.0
 10
8.504248919
 20
7.9632041536
 30
0.0
 11
8.4912173892
 21
7.9132519597
 31
0.0
 11
8.491945862
 21
7.9133426593
 31
0.0
 11
8.4926847252
 21
7.9135509879
 31
0.0
 11
8.4934266151
 21
7.9138764039
 31
0.0
 11
8.4941641681
 21
7.9143183658
 31
0.0
 11
8.4955968138
 21
7.91554976
 31
0.0
 11
8.496279078
 21
7.9163374945
 31
0.0
 11
8.4969360141
 21
7.9172368689
 31
0.0
 11
8.4981735438
 21
7.9193589515
 31
0.0
 11
8.4993086877
 21
7.9218928354
 31
0.0
 11
8.5003407304
 21
7.924815348
 31
0.0
 11
8.5012687641
 21
7.9281026309
 31
0.0
 11
8.5020898947
 21
7.9317237525
 31
0.0
 11
8.5028000578
 21
7.935643612
 31
0.0
 11
8.5033951737
 21
7.9398270553
 31
0.0
 11
8.5038710601
 21
7.9442388212
 31
0.0
 11
8.5044102138
 21
7.9535665468
 31
0.0
 11
8.5044285923
 21
7.9583739993
 31
0.0
 11
8.504248919
 21
7.9632041536
 31
0.0
  0
SPLINE
  5
370
100
AcDbEntity
  8
0
100
AcDbSpline
 62
9
  6
CONTINUOUS
 70
0
 71
3
 72
26
 73
22
 74
20
 42
0.0000001
 43
0.0000001
 44
0.0000000001
 12
-0.0541004087
 22
0.0025371436
 32
0.0
 13
0.0021078945
 23
0.0541188332
 33
0.0
 40
0.0
 40
0.0
 40
0.0
 40
0.0
 40
0.0135222781
 40
0.0273782815
 40
0.057115491
 40
0.0735142975
 40
0.0911482071
 40
0.1101434948
 40
0.1305764505
 40
0.1758972065
 40
0.2272725362
 40
0.2552204016
 40
0.2846468085
 40
0.3478119142
 40
0.4164031413
 40
0.4899340726
 40
0.5678847444
 40
0.6497129697
 40
0.7347335932
 40
0.8220635955
 40
1.0
 40
1.0
 40
1.0
 40
1.0
 10
6.5617765363
 20
7.9132581253
 30
0.0
 10
6.5615326827
 20
7.9132695613
 30
0.0
 10
6.5610399412
 20
7.913333005
 30
0.0
 10
6.5600471857
 20
7.9136243317
 30
0.0
 10
6.5590894255
 20
7.9141621408
 30
0.0
 10
6.5581960075
 20
7.9148898258
 30
0.0
 10
6.5575184246
 20
7.9155686077
 30
0.0
 10
6.5568581567
 20
7.9163607789
 30
0.0
 10
6.5559702916
 20
7.9176083312
 30
0.0
 10
6.554921075
 20
7.9194502322
 30
0.0
 10
6.5540026489
 20
7.9215074083
 30
0.0
 10
6.5533056657
 20
7.9233431772
 30
0.0
 10
6.552606225
 20
7.9254042867
 30
0.0
 10
6.5518083733
 20
7.9282046209
 30
0.0
 10
6.5509843304
 20
7.9318193939
 30
0.0
 10
6.5502793527
 20
7.9357306465
 30
0.0
 10
6.5497006917
 20
7.9399037723
 30
0.0
 10
6.5492564747
 20
7.9443017551
 30
0.0
 10
6.5489513393
 20
7.9488812394
 30
0.0
 10
6.5487287468
 20
7.955201812
 30
0.0
 10
6.548774269
 20
7.9599942501
 30
0.0
 10
6.5488992928
 20
7.9632041536
 30
0.0
 11
6.5617765363
 21
7.9132581253
 31
0.0
 11
6.5610500614
 21
7.9133508209
 31
0.0
 11
6.5603294651
 21
7.9135603445
 31
0.0
 11
6.5589139483
 21
7.9143286065
 31
0.0
 11
6.5582230479
 21
7.9148867103
 31
0.0
 11
6.5575460649
 21
7.9155603682
 31
0.0
 11
6.5568848093
 21
7.9163484887
 31
0.0
 11
6.5562406689
 21
7.9172483492
 31
0.0
 11
6.5550090715
 21
7.9193715692
 31
0.0
 11
6.5538619472
 21
7.9219065853
 31
0.0
 11
6.5533233982
 21
7.9233211911
 31
0.0
 11
6.5528099705
 21
7.9248299549
 31
0.0
 11
6.5518635729
 21
7.9281174566
 31
0.0
 11
6.5510309964
 21
7.9317378485
 31
0.0
 11
6.5503193223
 21
7.9356561687
 31
0.0
 11
6.5497356217
 21
7.9398374212
 31
0.0
 11
6.5492869139
 21
7.9442464534
 31
0.0
 11
6.5489778089
 21
7.9488407727
 31
0.0
 11
6.5488095268
 21
7.9535675595
 31
0.0
 11
6.5488992928
 21
7.9632041536
 31
0.0
  0
SPLINE
  5
371
100
AcDbEntity
  8
0
100
AcDbSpline
 62
6
  6
CONTINUOUS
 70
0
 71
3
 72
57
 73
53
 74
51
 42
0.0000001
 43
0.0000001
 44
0.0000000001
 12
0.223065561
 22
-1.1753452378
 32
0.0
 13
0.223111449
 23
1.1753365279
 33
0.0
 40
0.0
 40
0.0
 40
0.0
 40
0.0
 40
0.0120378667
 40
0.0241959071
 40
0.036504663
 40
0.0489927211
 40
0.0616859761
 40
0.07460606
 40
0.0877716408
 40
0.1011989128
 40
0.1149007869
 40
0.128887181
 40
0.1577327909
 40
0.1877702162
 40
0.2032364826
 40
0.2189923031
 40
0.2513364549
 40
0.2679109328
 40
0.284735465
 40
0.319073956
 40
0.3542306983
 40
0.3720740131
 40
0.3900668617
 40
0.4264164382
 40
0.4447355617
 40
0.4631207952
 40
0.4999981702
 40
0.5368755704
 40
0.5552608351
 40
0.5735800022
 40
0.6099297019
 40
0.6279226294
 40
0.6457660345
 40
0.6809229887
 40
0.71526173
 40
0.7320863999
 40
0.748661023
 40
0.7810054842
 40
0.7967614666
 40
0.8122278986
 40
0.8422656608
 40
0.8711116065
 40
0.8850981638
 40
0.8988001963
 40
0.9122276204
 40
0.9253933448
 40
0.9383135626
 40
0.9510069401
 40
0.9634951074
 40
0.9758039568
 40
0.987962074
 40
1.0
 40
1.0
 40
1.0
 40
1.0
 10
21.0426659045
 20
6.1464092424
 30
0.0
 10
21.0435609823
 20
6.141693026
 30
0.0
 10
21.0456897945
 20
6.1322728703
 30
0.0
 10
21.0498589632
 20
6.1183146712
 30
0.0
 10
21.0550064512
 20
6.1044948511
 30
0.0
 10
21.0611217559
 20
6.0908416624
 30
0.0
 10
21.0681933484
 20
6.0773828699
 30
0.0
 10
21.0762043593
 20
6.0641449976
 30
0.0
 10
21.0851380039
 20
6.0511550935
 30
0.0
 10
21.0949774897
 20
6.0384412592
 30
0.0
 10
21.105701403
 20
6.0260284371
 30
0.0
 10
21.1213068535
 20
6.0097465669
 30
0.0
 10
21.1429695962
 20
5.9903064546
 30
0.0
 10
21.1667789865
 20
5.9725728786
 30
0.0
 10
21.18725177
 20
5.9592344339
 30
0.0
 10
21.2090397716
 20
5.9462678894
 30
0.0
 10
21.2319708696
 20
5.934400354
 30
0.0
 10
21.2558796116
 20
5.9236346483
 30
0.0
 10
21.2808925826
 20
5.9134226637
 30
0.0
 10
21.3134220957
 20
5.90208097
 30
0.0
 10
21.3470117311
 20
5.8927808775
 30
0.0
 10
21.3746235243
 20
5.8865134378
 30
0.0
 10
21.4028819691
 20
5.8810089712
 30
0.0
 10
21.4315669342
 20
5.8767708216
 30
0.0
 10
21.460549845
 20
5.8737945613
 30
0.0
 10
21.4898181687
 20
5.8716554752
 30
0.0
 10
21.5265678672
 20
5.8705883232
 30
0.0
 10
21.5633175957
 20
5.8716548709
 30
0.0
 10
21.5925859946
 20
5.8737934745
 30
0.0
 10
21.6215690336
 20
5.8767692594
 30
0.0
 10
21.6502541674
 20
5.8810069367
 30
0.0
 10
21.6785128217
 20
5.8865109371
 30
0.0
 10
21.7061248734
 20
5.8927779242
 30
0.0
 10
21.739714889
 20
5.9020774676
 30
0.0
 10
21.7722448426
 20
5.9134186227
 30
0.0
 10
21.7972582125
 20
5.9236301924
 30
0.0
 10
21.8211673891
 20
5.9343955079
 30
0.0
 10
21.8440989589
 20
5.9462626649
 30
0.0
 10
21.8658874708
 20
5.959228848
 30
0.0
 10
21.8863607888
 20
5.9725669572
 30
0.0
 10
21.9101708856
 20
5.9903001421
 30
0.0
 10
21.9318343984
 20
6.0097398929
 30
0.0
 10
21.9474404966
 20
6.026021505
 30
0.0
 10
21.9581649034
 20
6.03843415
 30
0.0
 10
21.9680048961
 20
6.0511478206
 30
0.0
 10
21.976939058
 20
6.0641375766
 30
0.0
 10
21.9849505956
 20
6.0773753163
 30
0.0
 10
21.9920227244
 20
6.0908339913
 30
0.0
 10
21.9981385739
 20
6.1044870778
 30
0.0
 10
22.0032866122
 20
6.1183068116
 30
0.0
 10
22.0074563374
 20
6.1322649397
 30
0.0
 10
22.0095855278
 20
6.1416850654
 30
0.0
 10
22.0104807941
 20
6.1464012702
 30
0.0
 11
21.0426659045
 21
6.1464092424
 31
0.0
 11
21.0458362952
 21
6.1323613465
 31
0.0
 11
21.0499932851
 21
6.118423065
 31
0.0
 11
21.0551270544
 21
6.1046216797
 31
0.0
 11
21.0612275147
 21
6.0909841771
 31
0.0
 11
21.0682832366
 21
6.0775376517
 31
0.0
 11
21.0762785099
 21
6.0643095421
 31
0.0
 11
21.0851967723
 21
6.0513273555
 31
0.0
 11
21.0950209922
 21
6.0386184165
 31
0.0
 11
21.1057303478
 21
6.0262085765
 31
0.0
 11
21.1173021841
 21
6.0141229741
 31
0.0
 11
21.1429396696
 21
5.9910237888
 31
0.0
 11
21.1717220224
 21
5.9695094412
 31
0.0
 11
21.1872206061
 21
5.9594028398
 31
0.0
 11
21.2034148525
 21
5.9497573971
 31
0.0
 11
21.2377569512
 21
5.9319288752
 31
0.0
 11
21.2558346896
 21
5.9237824885
 31
0.0
 11
21.2744672895
 21
5.9161701846
 31
0.0
 11
21.3132451017
 21
5.9026111039
 31
0.0
 11
21.3537716784
 21
5.8913617383
 31
0.0
 11
21.374587853
 21
5.8866335046
 31
0.0
 11
21.3957155864
 21
5.882515548
 31
0.0
 11
21.4387322306
 21
5.8761442082
 31
0.0
 11
21.4605330627
 21
5.8739039515
 31
0.0
 11
21.4824692269
 21
5.8723000308
 31
0.0
 11
21.5265678607
 21
5.8710153107
 31
0.0
 11
21.5706665458
 21
5.8722993044
 31
0.0
 11
21.5926027738
 21
5.8739028639
 31
0.0
 11
21.6144036951
 21
5.8761427618
 31
0.0
 11
21.6574205935
 21
5.8825133928
 31
0.0
 11
21.6785484908
 21
5.8866310017
 31
0.0
 11
21.699364854
 21
5.8913588926
 31
0.0
 11
21.7398918791
 21
5.9026075907
 31
0.0
 11
21.7786702319
 21
5.9161660325
 31
0.0
 11
21.7973031351
 21
5.9237780297
 31
0.0
 11
21.8153811979
 21
5.9319241189
 31
0.0
 11
21.8497240076
 21
5.9497520749
 31
0.0
 11
21.8659186381
 21
5.9593972512
 31
0.0
 11
21.8814176247
 21
5.9695035973
 31
0.0
 11
21.9102008351
 21
5.9910174708
 31
0.0
 11
21.9358392417
 21
6.0141162338
 31
0.0
 11
21.9474115595
 21
6.0262016456
 31
0.0
 11
21.9581214095
 21
6.0386113093
 31
0.0
 11
21.9679461363
 21
6.0513200863
 31
0.0
 11
21.9768649162
 21
6.064302126
 31
0.0
 11
21.9848607164
 21
6.0775301042
 31
0.0
 11
21.9919169745
 21
6.0909765138
 31
0.0
 11
21.9980179787
 21
6.1046139161
 31
0.0
 11
22.0031522977
 21
6.1184152163
 31
0.0
 11
22.0073098431
 21
6.132353428
 31
0.0
 11
22.0104807941
 21
6.1464012702
 31
0.0
  0
LINE
  5
372
100
AcDbEntity
  8
0
100
AcDbLine
 62
9
  6
CONTINUOUS
 10
8.4101442541
 20
9.3143737607
 11
8.4223078915
 21
9.1136531166
  0
LINE
  5
373
100
AcDbEntity
  8
0
100
AcDbLine
 62
9
  6
CONTINUOUS
 10
8.4887834781
 20
7.9206362932
 11
8.4922596482
 21
7.8635705446
  0
SPLINE
  5
374
100
AcDbEntity
  8
0
100
AcDbSpline
 62
9
  6
CONTINUOUS
 70
0
 71
3
 72
20
 73
16
 74
14
 42
0.0000001
 43
0.0000001
 44
0.0000000001
 12
-0.0106276012
 22
0.0276286926
 32
0.0
 13
-0.0280684047
 23
-0.0094050633
 33
0.0
 40
0.0
 40
0.0
 40
0.0
 40
0.0
 40
0.0309847288
 40
0.0639299435
 40
0.1002838017
 40
0.141065947
 40
0.1869233549
 40
0.2381317037
 40
0.2947339374
 40
0.3566426995
 40
0.423668209
 40
0.4954771143
 40
0.6517939682
 40
0.8218153028
 40
1.0
 40
1.0
 40
1.0
 40
1.0
 10
17.4057407394
 20
5.6216540612
 30
0.0
 10
17.4056309749
 20
5.6219394171
 30
0.0
 10
17.4053208524
 20
5.6224988556
 30
0.0
 10
17.4046327608
 20
5.6232217573
 30
0.0
 10
17.4037299821
 20
5.6238375772
 30
0.0
 10
17.4026218301
 20
5.6243436286
 30
0.0
 10
17.4013162284
 20
5.6247366107
 30
0.0
 10
17.3998238857
 20
5.6250174863
 30
0.0
 10
17.3981559373
 20
5.6251853233
 30
0.0
 10
17.3963246531
 20
5.625238674
 30
0.0
 10
17.394343772
 20
5.6251762059
 30
0.0
 10
17.3914405108
 20
5.6249331326
 30
0.0
 10
17.3875528607
 20
5.6243320944
 30
0.0
 10
17.3827002952
 20
5.6232046397
 30
0.0
 10
17.3794078926
 20
5.6222126739
 30
0.0
 10
17.3777407726
 20
5.6216540611
 30
0.0
 11
17.4057407394
 21
5.6216540612
 31
0.0
 11
17.4053001709
 21
5.6224585394
 31
0.0
 11
17.4046351681
 21
5.6231719017
 31
0.0
 11
17.4037524407
 21
5.6237874508
 31
0.0
 11
17.4026586988
 21
5.6242984894
 31
0.0
 11
17.401361706
 21
5.6246991924
 31
0.0
 11
17.3998734416
 21
5.6249872226
 31
0.0
 11
17.3982069386
 21
5.6251611151
 31
0.0
 11
17.3963752299
 21
5.6252194048
 31
0.0
 11
17.3943919834
 21
5.6251611151
 31
0.0
 11
17.392273406
 21
5.6249872226
 31
0.0
 11
17.3876976252
 21
5.6242984893
 31
0.0
 11
17.3827923266
 21
5.6231719016
 31
0.0
 11
17.3777407726
 21
5.6216540611
 31
0.0
  0
SPLINE
  5
375
100
AcDbEntity
  8
0
100
AcDbSpline
 62
9
  6
CONTINUOUS
 70
0
 71
3
 72
20
 73
16
 74
14
 42
0.0000001
 43
0.0000001
 44
0.0000000001
 12
-0.0280684045
 22
0.0094050633
 32
0.0
 13
-0.0106276009
 23
-0.0276286924
 33
0.0
 40
0.0
 40
0.0
 40
0.0
 40
0.0
 40
0.1781846985
 40
0.3482060339
 40
0.504522888
 40
0.5763317931
 40
0.6433573024
 40
0.7052660641
 40
0.7618682975
 40
0.8130766459
 40
0.8589340535
 40
0.8997161985
 40
0.9360700566
 40
0.9690152712
 40
1.0
 40
1.0
 40
1.0
 40
1.0
 10
15.6754074392
 20
5.6216540612
 30
0.0
 10
15.6737403192
 20
5.622212674
 30
0.0
 10
15.6704479166
 20
5.6232046398
 30
0.0
 10
15.6655953511
 20
5.6243320945
 30
0.0
 10
15.661707701
 20
5.6249331327
 30
0.0
 10
15.6588044399
 20
5.6251762059
 30
0.0
 10
15.6568235588
 20
5.625238674
 30
0.0
 10
15.6549922747
 20
5.6251853232
 30
0.0
 10
15.6533243263
 20
5.6250174862
 30
0.0
 10
15.6518319836
 20
5.6247366107
 30
0.0
 10
15.6505263819
 20
5.6243436285
 30
0.0
 10
15.6494182299
 20
5.6238375771
 30
0.0
 10
15.6485154512
 20
5.6232217572
 30
0.0
 10
15.6478273597
 20
5.6224988555
 30
0.0
 10
15.6475172372
 20
5.621939417
 30
0.0
 10
15.6474074727
 20
5.6216540611
 30
0.0
 11
15.6754074392
 21
5.6216540612
 31
0.0
 11
15.6703558852
 21
5.6231719017
 31
0.0
 11
15.6654505866
 21
5.6242984894
 31
0.0
 11
15.6608748058
 21
5.6249872226
 31
0.0
 11
15.6587562284
 21
5.6251611151
 31
0.0
 11
15.656772982
 21
5.6252194048
 31
0.0
 11
15.6549412733
 21
5.6251611151
 31
0.0
 11
15.6532747703
 21
5.6249872226
 31
0.0
 11
15.651786506
 21
5.6246991923
 31
0.0
 11
15.6504895132
 21
5.6242984893
 31
0.0
 11
15.6493957713
 21
5.6237874507
 31
0.0
 11
15.648513044
 21
5.6231719016
 31
0.0
 11
15.6478480412
 21
5.6224585393
 31
0.0
 11
15.6474074727
 21
5.6216540611
 31
0.0
  0
SPLINE
  5
376
100
AcDbEntity
  8
0
100
AcDbSpline
 62
9
  6
CONTINUOUS
 70
0
 71
3
 72
22
 73
18
 74
16
 42
0.0000001
 43
0.0000001
 44
0.0000000001
 12
0.0317565727
 22
-0.0010347257
 32
0.0
 13
-0.0009765184
 23
-0.0317584158
 33
0.0
 40
0.0
 40
0.0
 40
0.0
 40
0.0
 40
0.01101613
 40
0.0224865667
 40
0.0347782687
 40
0.0481806492
 40
0.079075547
 40
0.1163101845
 40
0.1603629329
 40
0.2112357392
 40
0.2687061272
 40
0.3324544118
 40
0.4020777377
 40
0.477021223
 40
0.6403996408
 40
0.8171617184
 40
1.0
 40
1.0
 40
1.0
 40
1.0
 10
3.4450898057
 20
7.6357021713
 30
0.0
 10
3.4452064172
 20
7.6356983717
 30
0.0
 10
3.4454442792
 20
7.635665224
 30
0.0
 10
3.4457936272
 20
7.6355420817
 30
0.0
 10
3.4461376846
 20
7.6353472599
 30
0.0
 10
3.4466107006
 20
7.6349762663
 30
0.0
 10
3.4471807605
 20
7.634318224
 30
0.0
 10
3.4478011999
 20
7.6333012818
 30
0.0
 10
3.4483847238
 20
7.6320262066
 30
0.0
 10
3.4489287134
 20
7.6305051249
 30
0.0
 10
3.4494286484
 20
7.6287512814
 30
0.0
 10
3.4498793836
 20
7.6267801594
 30
0.0
 10
3.450275783
 20
7.6246091409
 30
0.0
 10
3.4507413207
 20
7.621380444
 30
0.0
 10
3.451151165
 20
7.6170004002
 30
0.0
 10
3.4513701304
 20
7.6114637696
 30
0.0
 10
3.4513421706
 20
7.6076536414
 30
0.0
 10
3.4512826557
 20
7.60571809
 30
0.0
 11
3.4450898057
 21
7.6357021713
 31
0.0
 11
3.4454365973
 21
7.6356547403
 31
0.0
 11
3.4457810182
 21
7.6355355692
 31
0.0
 11
3.4461221167
 21
7.6353453569
 31
0.0
 11
3.4464589412
 21
7.6350848026
 31
0.0
 11
3.4471159621
 21
7.6343554644
 31
0.0
 11
3.4477444681
 21
7.6333531473
 31
0.0
 11
3.4483373221
 21
7.632085195
 31
0.0
 11
3.448889289
 21
7.6305659544
 31
0.0
 11
3.4493956094
 21
7.6288115231
 31
0.0
 11
3.4498515238
 21
7.6268379988
 31
0.0
 11
3.4502525446
 21
7.6246624793
 31
0.0
 11
3.4505952707
 21
7.6223060613
 31
0.0
 11
3.4510933225
 21
7.617138917
 31
0.0
 11
3.4513244518
 21
7.6115273381
 31
0.0
 11
3.4512826557
 21
7.60571809
 31
0.0
  0
SPLINE
  5
377
100
AcDbEntity
  8
0
100
AcDbSpline
 62
9
  6
CONTINUOUS
 70
0
 71
3
 72
46
 73
42
 74
40
 42
0.0000001
 43
0.0000001
 44
0.0000000001
 12
-0.2407185285
 22
0.0085961025
 32
0.0
 13
-0.1971765846
 23
0.1383499094
 33
0.0
 40
0.0
 40
0.0
 40
0.0
 40
0.0
 40
0.1044288565
 40
0.2060075159
 40
0.3040245435
 40
0.3978309741
 40
0.4867876844
 40
0.570292774
 40
0.6477724153
 40
0.7186951608
 40
0.7825554679
 40
0.8116962279
 40
0.8389044402
 40
0.8641278731
 40
0.8873230061
 40
0.908448089
 40
0.9274612908
 40
0.9443234682
 40
0.9590054037
 40
0.9655203451
 40
0.9714800984
 40
0.9768812834
 40
0.9817205183
 40
0.9859948475
 40
0.9897028712
 40
0.9928435433
 40
0.9942007955
 40
0.9954158174
 40
0.9964884781
 40
0.9974186469
 40
0.9982061927
 40
0.9988509849
 40
0.9991198075
 40
0.9993528925
 40
0.9995502237
 40
0.9997117846
 40
0.999837559
 40
0.9999275305
 40
0.999959085
 40
0.9999816827
 40
1.0
 40
1.0
 40
1.0
 40
1.0
 10
3.4512826119
 20
7.60571809
 30
0.0
 10
3.4429032916
 20
7.606017317
 30
0.0
 10
3.426376706
 20
7.6067063942
 30
0.0
 10
3.4020006866
 20
7.6080099017
 30
0.0
 10
3.3784921936
 20
7.6095355447
 30
0.0
 10
3.3560123828
 20
7.611241548
 30
0.0
 10
3.334712493
 20
7.6130815525
 30
0.0
 10
3.3147365996
 20
7.6150048097
 30
0.0
 10
3.2962192257
 20
7.6169594031
 30
0.0
 10
3.2792861945
 20
7.6188914008
 30
0.0
 10
3.2662211806
 20
7.6204836073
 30
0.0
 10
3.2566467079
 20
7.621702094
 30
0.0
 10
3.2501522806
 20
7.6225497559
 30
0.0
 10
3.24413356
 20
7.6233533633
 30
0.0
 10
3.2386010308
 20
7.6241076563
 30
0.0
 10
3.2335643293
 20
7.6248074732
 30
0.0
 10
3.2290327268
 20
7.6254477214
 30
0.0
 10
3.2250144778
 20
7.6260234361
 30
0.0
 10
3.2219903689
 20
7.626462305
 30
0.0
 10
3.2198329454
 20
7.6267781713
 30
0.0
 10
3.2184129726
 20
7.6269871366
 30
0.0
 10
3.2171262331
 20
7.6271773484
 30
0.0
 10
3.2159734538
 20
7.6273483867
 30
0.0
 10
3.2149552035
 20
7.6274998506
 30
0.0
 10
3.2140718968
 20
7.6276315786
 30
0.0
 10
3.2134202795
 20
7.6277290088
 30
0.0
 10
3.2129666475
 20
7.627796981
 30
0.0
 10
3.2126772333
 20
7.6278404079
 30
0.0
 10
3.2124217385
 20
7.627878801
 30
0.0
 10
3.2122001925
 20
7.6279121442
 30
0.0
 10
3.2120126245
 20
7.6279404199
 30
0.0
 10
3.2118775693
 20
7.6279608187
 30
0.0
 10
3.2117865353
 20
7.6279745903
 30
0.0
 10
3.2117310283
 20
7.6279830046
 30
0.0
 10
3.2116840304
 20
7.6279901215
 30
0.0
 10
3.2116455739
 20
7.6279960084
 30
0.0
 10
3.2116155857
 20
7.6280004772
 30
0.0
 10
3.2115960413
 20
7.6280036824
 30
0.0
 10
3.2115844928
 20
7.628005174
 30
0.0
 10
3.2115789403
 20
7.6280065449
 30
0.0
 10
3.2115753098
 20
7.6280061221
 30
0.0
 10
3.2115741059
 20
7.6280069668
 30
0.0
 11
3.4512826119
 21
7.60571809
 31
0.0
 11
3.4261504582
 21
7.6067658259
 31
0.0
 11
3.4017179143
 21
7.6080723357
 31
0.0
 11
3.3781579218
 21
7.6096013181
 31
0.0
 11
3.3556273716
 21
7.6113111893
 31
0.0
 11
3.3342796906
 21
7.6131552208
 31
0.0
 11
3.3142582452
 21
7.6150829463
 31
0.0
 11
3.2956986703
 21
7.6170419143
 31
0.0
 11
3.2787254902
 21
7.6189784911
 31
0.0
 11
3.2634563128
 21
7.6208394028
 31
0.0
 11
3.256493279
 21
7.6217255282
 31
0.0
 11
3.2499946987
 21
7.6225736908
 31
0.0
 11
3.2439725296
 21
7.6233778115
 31
0.0
 11
3.2384366885
 21
7.6241325779
 31
0.0
 11
3.2333966629
 21
7.6248328392
 31
0.0
 11
3.2288619403
 21
7.6254734447
 31
0.0
 11
3.2248413813
 21
7.6260495604
 31
0.0
 11
3.2213415819
 21
7.6265574978
 31
0.0
 11
3.2197888684
 21
7.6267848279
 31
0.0
 11
3.2183686265
 21
7.6269938273
 31
0.0
 11
3.2170816167
 21
7.6271840672
 31
0.0
 11
3.2159285995
 21
7.627355119
 31
0.0
 11
3.2149102394
 21
7.6275066083
 31
0.0
 11
3.2140268511
 21
7.6276383585
 31
0.0
 11
3.21327867
 21
7.6277502379
 31
0.0
 11
3.2129553556
 21
7.627798685
 31
0.0
 11
3.2126659313
 21
7.627842115
 31
0.0
 11
3.2124104263
 21
7.6278805115
 31
0.0
 11
3.2121888702
 21
7.6279138581
 31
0.0
 11
3.2120012923
 21
7.6279421382
 31
0.0
 11
3.2118477221
 21
7.6279653355
 31
0.0
 11
3.211783699
 21
7.6279750229
 31
0.0
 11
3.2117281889
 21
7.6279834334
 31
0.0
 11
3.2116811954
 21
7.627990565
 31
0.0
 11
3.2116427222
 21
7.6279964156
 31
0.0
 11
3.211612773
 21
7.6280009831
 31
0.0
 11
3.2115913514
 21
7.6280042656
 31
0.0
 11
3.2115838396
 21
7.6280054242
 31
0.0
 11
3.2115784612
 21
7.6280062608
 31
0.0
 11
3.2115741059
 21
7.6280069668
 31
0.0
  0
SPLINE
  5
378
100
AcDbEntity
  8
0
100
AcDbSpline
 62
9
  6
CONTINUOUS
 70
0
 71
3
 72
11
 73
7
 74
5
 42
0.0000001
 43
0.0000001
 44
0.0000000001
 12
-0.0814924743
 22
-0.000011392
 32
0.0
 13
-0.0814491758
 23
0.0026561742
 33
0.0
 40
0.0
 40
0.0
 40
0.0
 40
0.0
 40
0.2505757204
 40
0.5009515673
 40
0.7508587212
 40
1.0
 40
1.0
 40
1.0
 40
1.0
 10
3.5265741059
 20
7.6347934604
 30
0.0
 10
3.5197674274
 20
7.6347925089
 30
0.0
 10
3.5061594767
 20
7.6348077345
 30
0.0
 10
3.485763263
 20
7.6349223736
 30
0.0
 10
3.4654070168
 20
7.6351621378
 30
0.0
 10
3.4518539223
 20
7.6354815629
 30
0.0
 10
3.445089805
 20
7.6357021505
 30
0.0
 11
3.5265741059
 21
7.6347934604
 31
0.0
 11
3.5061540917
 21
7.6348230674
 31
0.0
 11
3.4857506991
 21
7.6349434029
 31
0.0
 11
3.4653867941
 21
7.6352024465
 31
0.0
 11
3.445089805
 21
7.6357021505
 31
0.0
  0
SPLINE
  5
379
100
AcDbEntity
  8
0
100
AcDbSpline
 62
9
  6
CONTINUOUS
 70
0
 71
3
 72
12
 73
8
 74
6
 42
0.0000001
 43
0.0000001
 44
0.0000000001
 12
-0.0752967291
 22
-0.0000227627
 32
0.0
 13
-0.0752489164
 23
0.0026830053
 33
0.0
 40
0.0
 40
0.0
 40
0.0
 40
0.0
 40
0.2522364262
 40
0.5036780704
 40
0.6287739921
 40
0.753277423
 40
1.0
 40
1.0
 40
1.0
 40
1.0
 10
3.5265741059
 20
7.6052130615
 30
0.0
 10
3.5202432466
 20
7.6052111477
 30
0.0
 10
3.5076014944
 20
7.6051863053
 30
0.0
 10
3.4918199536
 20
7.6051709543
 30
0.0
 10
3.4792443554
 20
7.605206209
 30
0.0
 10
3.4667876727
 20
7.605305731
 30
0.0
 10
3.4574711474
 20
7.6054974373
 30
0.0
 10
3.4512826119
 20
7.60571809
 30
0.0
 11
3.5265741059
 21
7.6052130615
 31
0.0
 11
3.5075815419
 21
7.6051894124
 31
0.0
 11
3.4886488085
 21
7.6051837833
 31
0.0
 11
3.4792295441
 21
7.605214411
 31
0.0
 11
3.469855184
 21
7.6052944144
 31
0.0
 11
3.4512826119
 21
7.60571809
 31
0.0
  0
LINE
  5
37A
100
AcDbEntity
  8
0
100
AcDbLine
 62
9
  6
CONTINUOUS
 10
3.6090362184
 20
7.6343738594
 11
3.5265741059
 21
7.6347934604
  0
SPLINE
  5
37B
100
AcDbEntity
  8
0
100
AcDbSpline
 62
9
  6
CONTINUOUS
 70
0
 71
3
 72
22
 73
18
 74
16
 42
0.0000001
 43
0.0000001
 44
0.0000000001
 12
-0.0320085564
 22
-0.0000000001
 32
0.0
 13
-0.0000001114
 23
-0.0320085564
 33
0.0
 40
0.0
 40
0.0
 40
0.0
 40
0.0
 40
0.0109949867
 40
0.022447518
 40
0.0347266005
 40
0.0481226938
 40
0.0790247734
 40
0.1162912349
 40
0.1603965043
 40
0.2113361811
 40
0.2688809986
 40
0.3327047149
 40
0.4023978646
 40
0.4773980133
 40
0.6408194443
 40
0.8174786314
 40
1.0
 40
1.0
 40
1.0
 40
1.0
 10
3.6090362184
 20
7.6343738594
 30
0.0
 10
3.6089189072
 20
7.6343738594
 30
0.0
 10
3.6086787372
 20
7.6343482069
 30
0.0
 10
3.6083236186
 20
7.6342353563
 30
0.0
 10
3.6079715047
 20
7.6340499861
 30
0.0
 10
3.6074839618
 20
7.6336909527
 30
0.0
 10
3.6068896992
 20
7.6330454119
 30
0.0
 10
3.6062333578
 20
7.6320395627
 30
0.0
 10
3.6056058989
 20
7.6307721352
 30
0.0
 10
3.6050103878
 20
7.6292554066
 30
0.0
 10
3.6044518566
 20
7.6275027389
 30
0.0
 10
3.6039360319
 20
7.6255297483
 30
0.0
 10
3.6034686907
 20
7.6233539777
 30
0.0
 10
3.6028987227
 20
7.6201157214
 30
0.0
 10
3.6023489994
 20
7.6157182505
 30
0.0
 10
3.6019558801
 20
7.6101541715
 30
0.0
 10
3.6018656066
 20
7.6063212745
 30
0.0
 10
3.6018655999
 20
7.6043738594
 30
0.0
 11
3.6090362184
 21
7.6343738594
 31
0.0
 11
3.6086861801
 21
7.6343373831
 31
0.0
 11
3.6083361734
 21
7.6342284086
 31
0.0
 11
3.6079871871
 21
7.634047617
 31
0.0
 11
3.6076402101
 21
7.6337956895
 31
0.0
 11
3.6069562394
 21
7.6330811518
 31
0.0
 11
3.6062921723
 21
7.6320902453
 31
0.0
 11
3.6056554935
 21
7.6308302187
 31
0.0
 11
3.6050519816
 21
7.6293155169
 31
0.0
 11
3.6044869887
 21
7.6275623836
 31
0.0
 11
3.6039658671
 21
7.6255870626
 31
0.0
 11
3.6034937239
 21
7.6234068224
 31
0.0
 11
3.6030746869
 21
7.6210430306
 31
0.0
 11
3.6024114615
 21
7.6158543621
 31
0.0
 11
3.6020038123
 21
7.6102144698
 31
0.0
 11
3.6018655999
 21
7.6043738594
 31
0.0
  0
LINE
  5
37C
100
AcDbEntity
  8
0
100
AcDbLine
 62
9
  6
CONTINUOUS
 10
3.6018655999
 20
7.6043738594
 11
3.5265741059
 21
7.6052130615
  0
ELLIPSE
  5
37D
100
AcDbEntity
  8
0
100
AcDbEllipse
 62
6
  6
CONTINUOUS
 10
20.9015748613
 20
11.4935422219
 30
0.0
 11
0.0625007554
 21
-0.0
 31
0.0
 40
0.3420160097
 41
1.5707963268
 42
3.1397636696
  0
ENDSEC
  0
SECTION
  2
OBJECTS
  0
DICTIONARY
  5
C
100
AcDbDictionary
280
0
281
1
  3
ACAD_GROUP
350
D
  3
ACAD_MLINESTYLE
350
17
  3
ACAD_LAYOUT
350
1A
  3
ACAD_PLOTSETTINGS
350
19
  3
ACAD_PLOTSTYLENAME
350
E
  0
DICTIONARY
  5
D
102
{ACAD_REACTORS
330
C
102
}
100
AcDbDictionary
280
0
281
1
  0
ACDBDICTIONARYWDFLT
  5
E
102
{ACAD_REACTORS
330
C
102
}
100
AcDbDictionary
281
1
  3
Normal
350
F
100
AcDbDictionaryWithDefault
340
F
  0
DICTIONARY
  5
17
102
{ACAD_REACTORS
330
C
102
}
100
AcDbDictionary
280
0
281
1
  3
Standard
350
18
  0
DICTIONARY
  5
19
102
{ACAD_REACTORS
330
C
102
}
100
AcDbDictionary
281
1
  0
DICTIONARY
  5
1A
102
{ACAD_REACTORS
330
C
102
}
100
AcDbDictionary
281
1
  3
Model
350
37E
  3
Layout1
350
37F
  0
ACDBPLACEHOLDER
  5
F
102
{ACAD_REACTORS
330
E
102
}
  0
MLINESTYLE
  5
18
102
{ACAD_REACTORS
330
17
102
}
100
AcDbMlineStyle
  2
STANDARD
 70
0
  3

 62
256
 51
90.0
 52
90.0
 71
2
 49
0.5
 62
256
  6
BYLAYER
 49
-0.5
 62
256
  6
BYLAYER
  0
LAYOUT
  5
37E
102
{ACAD_REACTORS
330
1A
102
}
100
AcDbPlotSettings
  1

  2
none_device
  4
ISO_A2_(594.00_x_420.00_MM)
  6

 40
0.0
 41
0.0
 42
0.0
 43
0.0
 44
594.0
 45
420.0
 46
0.0
 47
0.0
 48
0.0
 49
0.0
140
0.0
141
0.0
142
1.0
143
1.0
 70
1024
 72
0
 73
0
 74
0
  7

 75
0
147
1.0
148
0.0
149
0.0
100
AcDbLayout
  1
Model
 70
0
 71
0
 10
0.0
 20
0.0
 11
23.3858267717
 21
16.5354330709
 12
0.0
 22
0.0
 32
0.0
 14
0.0
 24
0.0
 34
0.0
 15
0.0
 25
0.0
 35
0.0
146
0.0
 13
0.0
 23
0.0
 33
0.0
 16
1.0
 26
0.0
 36
0.0
 17
0.0
 27
1.0
 37
0.0
 76
0
330
204
345
0
346
0
  0
LAYOUT
  5
37F
102
{ACAD_REACTORS
330
1A
102
}
100
AcDbPlotSettings
  1

  2
none_device
  4
ISO_A2_(594.00_x_420.00_MM)
  6

 40
0.0
 41
0.0
 42
0.0
 43
0.0
 44
594.0
 45
420.0
 46
0.0
 47
0.0
 48
0.0
 49
0.0
140
0.0
141
0.0
142
1.0
143
1.0
 70
0
 72
0
 73
0
 74
0
  7

 75
0
147
1.0
148
0.0
149
0.0
100
AcDbLayout
  1
Layout1
 70
0
 71
1
 10
0.0
 20
0.0
 11
23.3858267717
 21
16.5354330709
 12
0.0
 22
0.0
 32
0.0
 14
0.0
 24
0.0
 34
0.0
 15
0.0
 25
0.0
 35
0.0
146
0.0
 13
0.0
 23
0.0
 33
0.0
 16
1.0
 26
0.0
 36
0.0
 17
0.0
 27
1.0
 37
0.0
 76
0
330
205
345
0
346
0
  0
ENDSEC
  0
EOF
