999
DXF file: E:\BT Custom\CADOUTPUT\_TOP.dxf
999
Pro/ENGINEER 2018400 by Parametric Technology Corporation
  0
SECTION
  2
HEADER
  9
$ACADVER
  1
AC1018
  9
$DWGCODEPAGE
  3
ANSI_1252
  9
$EXTMAX
 10
22.0
 20
17.0
 30
0.0
  9
$EXTMIN
 10
0.0
 20
0.0
 30
0.0
  9
$LIMMIN
 10
0.0
 20
0.0
  9
$LIMMAX
 10
22.0
 20
17.0
  9
$VIEWCTR
 10
11.0
 20
8.5
  9
$VIEWSIZE
 40
17.0
  9
$CLAYER
  8
0
  9
$LTSCALE
 40
1.21
  9
$CELTYPE
  6
BYLAYER
  9
$DIMSCALE
 40
1.0
  9
$DIMASZ
 40
0.1
  9
$DIMEXO
 40
0.0625
  9
$DIMDLI
 40
0.836
  9
$DIMEXE
 40
0.125
  9
$DIMCEN
 40
0.198
  9
$DIMLFAC
 40
1.0
  9
$DIMBLK
  1
_FILLED
  9
$DIMALT
 70
1
  9
$DIMALTD
 70
2
  9
$DIMALTTD
 70
2
  9
$DIMALTF
 40
25.4
  9
$DIMTXT
 40
0.08
  9
$DIMTOL
 70
1
  9
$DIMLIM
 70
0
  9
$DIMTFAC
 40
1.0
  9
$DIMTP
 40
0.001
  9
$DIMTM
 40
0.001
  9
$DIMGAP
 40
0.09
  9
$DIMDSEP
 70
46
  9
$AUNITS
 70
0
  9
$PDMODE
 70
3
  9
$PDSIZE
 40
0.06
  9
$HANDSEED
  5
333
  9
$TILEMODE
 70
1
  9
$MEASUREMENT
 70
0
  9
$INSUNITS
 70
1
  0
ENDSEC
  0
SECTION
  2
CLASSES
  0
CLASS
  1
ACDBDICTIONARYWDFLT
  2
AcDbDictionaryWithDefault
  3
AutoCAD 2000
 90
0
 91
1
280
0
281
0
  0
CLASS
  1
ACDBPLACEHOLDER
  2
AcDbPlaceHolder
  3
AutoCAD 2000
 90
0
 91
1
280
0
281
0
  0
CLASS
  1
LAYOUT
  2
AcDbLayout
  3
AutoCAD 2000
 90
0
 91
0
280
0
281
0
  0
ENDSEC
  0
SECTION
  2
TABLES
  0
TABLE
  2
VPORT
  5
8
100
AcDbSymbolTable
 70
2
  0
VPORT
  5
1F4
100
AcDbSymbolTableRecord
100
AcDbViewportTableRecord
  2
*ACTIVE
 70
0
 10
0.0
 20
0.0
 11
1.0
 21
1.0
 12
11.0
 22
8.5
 13
0.0
 23
0.0
 14
1.0
 24
1.0
 15
0.0
 25
0.0
 16
0.0
 26
0.0
 36
1.0
 17
0.0
 27
0.0
 37
0.0
 40
17.0
 41
1.2941176471
 42
50.0
 43
0.0
 44
0.0
 50
0.0
 51
0.0
 71
0
 72
100
 73
1
 74
1
 75
0
 76
0
 77
0
 78
0
  0
ENDTAB
  0
TABLE
  2
LTYPE
  5
5
100
AcDbSymbolTable
 70
6
  0
LTYPE
  5
14
100
AcDbSymbolTableRecord
100
AcDbLinetypeTableRecord
  2
BYBLOCK
 70
0
  3

 72
65
 73
0
 40
0.0
  0
LTYPE
  5
15
100
AcDbSymbolTableRecord
100
AcDbLinetypeTableRecord
  2
BYLAYER
 70
0
  3

 72
65
 73
0
 40
0.0
  0
LTYPE
  5
16
100
AcDbSymbolTableRecord
100
AcDbLinetypeTableRecord
  2
CONTINUOUS
 70
64
  3
Solid line
 72
65
 73
0
 40
0.0
  0
LTYPE
  5
1F5
100
AcDbSymbolTableRecord
100
AcDbLinetypeTableRecord
  2
CENTER
 70
64
  3
____ _ ____ _ ____ _ ____ _ ____ _ ____ _ ____
 72
65
 73
4
 40
0.6
 49
0.375
 74
0
 49
-0.075
 74
0
 49
0.075
 74
0
 49
-0.075
 74
0
  0
LTYPE
  5
1F6
100
AcDbSymbolTableRecord
100
AcDbLinetypeTableRecord
  2
HIDDEN
 70
64
  3
- - - - - - - - - - - - - - - - - - - -
 72
65
 73
2
 40
0.2
 49
0.1
 74
0
 49
-0.1
 74
0
  0
LTYPE
  5
1F7
100
AcDbSymbolTableRecord
100
AcDbLinetypeTableRecord
  2
PHANTOM
 70
64
  3
_____ _ _ _____ _ _ _____ _ _ _____
 72
65
 73
6
 40
0.8
 49
0.45
 74
0
 49
-0.05
 74
0
 49
0.1
 74
0
 49
-0.05
 74
0
 49
0.1
 74
0
 49
-0.05
 74
0
  0
LTYPE
  5
1F8
100
AcDbSymbolTableRecord
100
AcDbLinetypeTableRecord
  2
DOT
 70
64
  3
. . . . . . . . . . . . . . . . . . . .
 72
65
 73
2
 40
0.2
 49
0.1
 74
0
 49
-0.1
 74
0
  0
LTYPE
  5
1F9
100
AcDbSymbolTableRecord
100
AcDbLinetypeTableRecord
  2
DASHED
 70
64
  3
- - - - - - - - - - - - - - - - - - - -
 72
65
 73
2
 40
0.2
 49
0.1
 74
0
 49
-0.1
 74
0
  0
ENDTAB
  0
TABLE
  2
LAYER
  5
2
100
AcDbSymbolTable
 70
36
  0
LAYER
  5
10
100
AcDbSymbolTableRecord
100
AcDbLayerTableRecord
  2
0
 70
0
 62
7
  6
CONTINUOUS
370
-3
390
F
  0
LAYER
  5
1FA
100
AcDbSymbolTableRecord
100
AcDbLayerTableRecord
  2
DEFAULT_1
 70
0
 62
7
  6
CENTER
370
-3
390
F
  0
LAYER
  5
1FB
100
AcDbSymbolTableRecord
100
AcDbLayerTableRecord
  2
DEFAULT_2
 70
0
 62
8
  6
HIDDEN
370
-3
390
F
  0
LAYER
  5
1FC
100
AcDbSymbolTableRecord
100
AcDbLayerTableRecord
  2
DEFAULT_3
 70
0
 62
7
  6
PHANTOM
370
-3
390
F
  0
LAYER
  5
1FD
100
AcDbSymbolTableRecord
100
AcDbLayerTableRecord
  2
ALL_FEATURES
 70
0
 62
7
  6
CONTINUOUS
370
-3
390
F
  0
LAYER
  5
1FE
100
AcDbSymbolTableRecord
100
AcDbLayerTableRecord
  2
AXES_FEATURES
 70
0
 62
7
  6
CONTINUOUS
370
-3
390
F
  0
LAYER
  5
1FF
100
AcDbSymbolTableRecord
100
AcDbLayerTableRecord
  2
DEFAULT_COORDINATE_SYSTEM
 70
0
 62
7
  6
CONTINUOUS
370
-3
390
F
  0
LAYER
  5
200
100
AcDbSymbolTableRecord
100
AcDbLayerTableRecord
  2
DEFAULT_DATUM_AXES
 70
0
 62
7
  6
CONTINUOUS
370
-3
390
F
  0
LAYER
  5
201
100
AcDbSymbolTableRecord
100
AcDbLayerTableRecord
  2
DEFAULT_DATUM_PLANES
 70
0
 62
7
  6
CONTINUOUS
370
-3
390
F
  0
LAYER
  5
202
100
AcDbSymbolTableRecord
100
AcDbLayerTableRecord
  2
DIMENSIONS
 70
0
 62
7
  6
CONTINUOUS
370
-3
390
F
  0
ENDTAB
  0
TABLE
  2
STYLE
  5
3
100
AcDbSymbolTable
 70
1
  0
STYLE
  5
11
100
AcDbSymbolTableRecord
100
AcDbTextStyleTableRecord
  2
STANDARD
 70
0
 40
0.0
 41
0.8
 50
0.0
 71
0
 42
0.2
  3
txt
  4

  0
STYLE
  5
203
100
AcDbSymbolTableRecord
100
AcDbTextStyleTableRecord
  2
TEXTSTYLE_1
 70
0
 40
0.0
 41
0.8
 50
0.0
 71
0
 42
0.2
  3
gdt
  4

  0
ENDTAB
  0
TABLE
  2
VIEW
  5
6
100
AcDbSymbolTable
 70
0
  0
ENDTAB
  0
TABLE
  2
UCS
  5
7
100
AcDbSymbolTable
 70
0
  0
ENDTAB
  0
TABLE
  2
APPID
  5
9
100
AcDbSymbolTable
 70
1
  0
APPID
  5
204
100
AcDbSymbolTableRecord
100
AcDbRegAppTableRecord
  2
ACAD
 70
0
  0
ENDTAB
  0
TABLE
  2
BLOCK_RECORD
  5
1
100
AcDbSymbolTable
 70
0
  0
BLOCK_RECORD
  5
205
100
AcDbSymbolTableRecord
100
AcDbBlockTableRecord
  2
*Model_Space
  0
BLOCK_RECORD
  5
206
100
AcDbSymbolTableRecord
100
AcDbBlockTableRecord
  2
*Paper_Space
  0
BLOCK_RECORD
  5
207
100
AcDbSymbolTableRecord
100
AcDbBlockTableRecord
  2
_FILLED
  0
ENDTAB
  0
TABLE
  2
DIMSTYLE
  5
A
100
AcDbSymbolTable
 70
1
100
AcDbDimStyleTable
 71
0
  0
DIMSTYLE
105
208
100
AcDbSymbolTableRecord
100
AcDbDimStyleTableRecord
  2
STANDARD
 70
0
  3

  4

 40
1.0
 41
0.1
 42
0.0625
 43
0.38
 44
0.125
 45
0.0
 46
0.0
 47
0.001
 48
0.001
140
0.08
141
0.09
142
0.0
143
25.4
144
1.0
145
0.0
146
1.0
147
0.09
 71
1.0
 72
0.0
 73
1
 74
1
 75
0
 76
0
 77
0
 78
4
 79
1
170
1
171
2
172
0
173
0
174
0
175
0
176
0
177
0
178
0
270
2
179
3
271
3
272
3
273
2
274
2
275
0
280
0
281
0
282
0
283
1
284
4
285
0
286
0
287
3
288
0
340
11
278
46
341
207
342
207
343
207
344
207
  0
ENDTAB
  0
ENDSEC
  0
SECTION
  2
BLOCKS
  0
BLOCK
  5
20
100
AcDbEntity
  8
0
100
AcDbBlockBegin
  2
*Model_Space
 70
0
 10
0.0
 20
0.0
 30
0.0
  3
*Model_Space
  1

  0
ENDBLK
  5
21
100
AcDbEntity
  8
0
100
AcDbBlockEnd
  0
BLOCK
  5
1C
100
AcDbEntity
  8
0
100
AcDbBlockBegin
  2
*Paper_Space
 70
0
 10
0.0
 20
0.0
 30
0.0
  3
*Paper_Space
  1

  0
ENDBLK
  5
1D
100
AcDbEntity
  8
0
100
AcDbBlockEnd
  0
BLOCK
  5
209
100
AcDbEntity
  8
0
100
AcDbBlockBegin
  2
_FILLED
 70
64
 10
0.0
 20
0.0
  3
_FILLED
  1

  0
SOLID
  5
20A
100
AcDbEntity
  8
0
  6
BYBLOCK
 62
0
100
AcDbTrace
 10
0.0
 20
0.0
 11
-1.0
 21
0.2
 12
-1.0
 22
-0.2
 13
-1.0
 23
-0.2
  0
ENDBLK
  5
20B
100
AcDbEntity
  8
0
  6
BYBLOCK
 62
0
100
AcDbBlockEnd
  0
ENDSEC
  0
SECTION
  2
ENTITIES
  0
LINE
  5
20C
100
AcDbEntity
  8
0
100
AcDbLine
 62
7
  6
CONTINUOUS
 10
9.1423183383
 20
5.3277726261
 11
9.1423183383
 21
5.1983375589
  0
LINE
  5
20D
100
AcDbEntity
  8
0
100
AcDbLine
 62
7
  6
CONTINUOUS
 10
12.2473198831
 20
10.6532409815
 11
12.3323183383
 21
10.7032409815
  0
LINE
  5
20E
100
AcDbEntity
  8
0
100
AcDbLine
 62
7
  6
CONTINUOUS
 10
9.4273183383
 20
5.4851550294
 11
9.4273183383
 21
5.4611215783
  0
LINE
  5
20F
100
AcDbEntity
  8
0
100
AcDbLine
 62
7
  6
CONTINUOUS
 10
9.7623183383
 20
10.7032409815
 11
9.7623183383
 21
10.8532409815
  0
LINE
  5
210
100
AcDbEntity
  8
0
100
AcDbLine
 62
7
  6
CONTINUOUS
 10
9.8573183383
 20
11.6072409815
 11
9.8573183383
 21
11.3750677343
  0
LWPOLYLINE
  5
211
100
AcDbEntity
  8
0
100
AcDbPolyline
 62
7
  6
CONTINUOUS
 90
18
 70
0
 10
10.1010230041
 20
10.44902263
 10
10.1074324378
 20
10.3671363096
 10
10.1196544996
 20
10.2647702356
 10
10.135898292
 20
10.167003799
 10
10.155770245
 20
10.0737058855
 10
10.1788911509
 20
9.9847264176
 10
10.2049054195
 20
9.8998870792
 10
10.2334909812
 20
9.8189762619
 10
10.2643622935
 20
9.7417622468
 10
10.2972339763
 20
9.6680824112
 10
10.3317591095
 20
9.5979339567
 10
10.3675816909
 20
9.5313164195
 10
10.4043492118
 20
9.4682117301
 10
10.4417154998
 20
9.4085873619
 10
10.4793475074
 20
9.3523919383
 10
10.5169210883
 20
9.2995661244
 10
10.5541112787
 20
9.2500546428
 10
10.5905564193
 20
9.2038424284
  0
LWPOLYLINE
  5
212
100
AcDbEntity
  8
0
100
AcDbPolyline
 62
7
  6
CONTINUOUS
 90
15
 70
0
 10
10.0424640226
 20
10.4682012326
 10
10.050346909
 20
10.3653709115
 10
10.0637159819
 20
10.2597075327
 10
10.0821165808
 20
10.156847036
 10
10.1054794123
 20
10.0563863766
 10
10.1338051885
 20
9.9579526449
 10
10.1671675703
 20
9.861187827
 10
10.2057130924
 20
9.7657538298
 10
10.2496437825
 20
9.6713699457
 10
10.2991768223
 20
9.5778671703
 10
10.354549838
 20
9.4851329729
 10
10.4160072174
 20
9.3931105065
 10
10.4838064261
 20
9.3017683291
 10
10.5582201029
 20
9.2110824755
 10
10.6374127358
 20
9.1232409815
  0
LWPOLYLINE
  5
213
100
AcDbEntity
  8
0
100
AcDbPolyline
 62
7
  6
CONTINUOUS
 90
19
 70
0
 10
11.4687173093
 20
9.1608560367
 10
11.5040822003
 20
9.2038448374
 10
11.5405283204
 20
9.2500584354
 10
11.5777194709
 20
9.2995714303
 10
11.6152939717
 20
9.352398889
 10
11.65292684
 20
9.4085960935
 10
11.6902939099
 20
9.4682223825
 10
11.7270621124
 20
9.5313291341
 10
11.7628852525
 20
9.5979488731
 10
11.7974107993
 20
9.6680996651
 10
11.8302827288
 20
9.741781968
 10
11.8611541011
 20
9.8189985728
 10
11.8897395173
 20
9.8999120979
 10
11.9157534162
 20
9.9847542569
 10
11.9388737102
 20
10.0737366486
 10
11.958744793
 20
10.1670375741
 10
11.9749874452
 20
10.2648070967
 10
11.9872080891
 20
10.3671763164
 10
11.9936136722
 20
10.4490226263
  0
LINE
  5
214
100
AcDbEntity
  8
0
100
AcDbLine
 62
7
  6
CONTINUOUS
 10
11.4535683383
 20
9.143034296
 11
11.4687173093
 21
9.1608560367
  0
LWPOLYLINE
  5
215
100
AcDbEntity
  8
0
100
AcDbPolyline
 62
7
  6
CONTINUOUS
 90
15
 70
0
 10
11.4572239407
 20
9.1232409815
 10
11.5364165736
 20
9.2110824755
 10
11.6108302504
 20
9.3017683291
 10
11.6786294591
 20
9.3931105065
 10
11.7400868386
 20
9.4851329729
 10
11.7954598542
 20
9.5778671703
 10
11.844992894
 20
9.6713699457
 10
11.8889235842
 20
9.7657538298
 10
11.9274691063
 20
9.861187827
 10
11.9608314881
 20
9.9579526449
 10
11.9891572643
 20
10.0563863766
 10
12.0125200958
 20
10.156847036
 10
12.0309206947
 20
10.2597075327
 10
12.0442897675
 20
10.3653709115
 10
12.052172654
 20
10.4682012326
  0
LINE
  5
216
100
AcDbEntity
  8
0
100
AcDbLine
 62
7
  6
CONTINUOUS
 10
11.0472850862
 20
6.5342421554
 11
11.0473493819
 21
6.5342421553
  0
LWPOLYLINE
  5
217
100
AcDbEntity
  8
0
100
AcDbPolyline
 62
7
  6
CONTINUOUS
 90
11
 70
0
 10
10.3750210146
 20
10.3606630561
 10
10.3764740566
 20
10.3431487172
 10
10.3871683877
 20
10.2378385485
 10
10.4010607549
 20
10.1345987009
 10
10.4181904285
 20
10.0331907728
 10
10.438609795
 20
9.9334038901
 10
10.4623890612
 20
9.8350401826
 10
10.4896177383
 20
9.7379168645
 10
10.5203975347
 20
9.6418845768
 10
10.5548335045
 20
9.5468166949
 10
10.5696964256
 20
9.508926622
  0
LWPOLYLINE
  5
218
100
AcDbEntity
  8
0
100
AcDbPolyline
 62
7
  6
CONTINUOUS
 90
15
 70
0
 10
10.2137360751
 20
10.4222255746
 10
10.2182408498
 20
10.3651073115
 10
10.2298105819
 20
10.2600765223
 10
10.2452626092
 20
10.158355894
 10
10.2645740018
 20
10.0591548081
 10
10.2878341256
 20
9.9617239144
 10
10.3152465921
 20
9.8653536356
 10
10.3471287084
 20
9.7693845889
 10
10.3837966252
 20
9.6734980288
 10
10.4248655463
 20
9.5790587567
 10
10.4693966351
 20
9.4879293081
 10
10.5161361723
 20
9.4017587727
 10
10.5635479981
 20
9.3219915124
 10
10.6098748708
 20
9.2498430758
 10
10.6410683383
 20
9.2039113315
  0
LINE
  5
219
100
AcDbEntity
  8
0
100
AcDbLine
 62
7
  6
CONTINUOUS
 10
10.3723109136
 20
10.3968101001
 11
10.3750210146
 21
10.3606630561
  0
LINE
  5
21A
100
AcDbEntity
  8
0
100
AcDbLine
 62
7
  6
CONTINUOUS
 10
10.6261846159
 20
8.6787989614
 11
10.6302229256
 21
8.6113410515
  0
LWPOLYLINE
  5
21B
100
AcDbEntity
  8
0
100
AcDbPolyline
 62
7
  6
CONTINUOUS
 90
4
 70
0
 10
10.6350167488
 20
8.5252063251
 10
10.6371391113
 20
8.484392153
 10
10.6393878397
 20
8.4387818655
 10
10.6410683383
 20
8.4027566553
  0
LINE
  5
21C
100
AcDbEntity
  8
0
100
AcDbLine
 62
7
  6
CONTINUOUS
 10
10.4723183383
 20
6.6208627351
 11
10.4723183383
 21
5.9561823608
  0
LINE
  5
21D
100
AcDbEntity
  8
0
100
AcDbLine
 62
7
  6
CONTINUOUS
 10
10.5948183383
 20
7.1370506854
 11
10.5948183383
 21
6.909271898
  0
LINE
  5
21E
100
AcDbEntity
  8
0
100
AcDbLine
 62
7
  6
CONTINUOUS
 10
10.6410683383
 20
11.1903838792
 11
10.6410683383
 21
7.3425012461
  0
LINE
  5
21F
100
AcDbEntity
  8
0
100
AcDbLine
 62
7
  6
CONTINUOUS
 10
10.6410683383
 20
7.2603898439
 11
10.6410683383
 21
7.2429926138
  0
LINE
  5
220
100
AcDbEntity
  8
0
100
AcDbLine
 62
7
  6
CONTINUOUS
 10
10.6410683383
 20
7.2091612713
 11
10.6410683383
 21
7.1932751954
  0
LINE
  5
221
100
AcDbEntity
  8
0
100
AcDbLine
 62
7
  6
CONTINUOUS
 10
10.6410683383
 20
7.1578614209
 11
10.6410683383
 21
7.1435459954
  0
LINE
  5
222
100
AcDbEntity
  8
0
100
AcDbLine
 62
7
  6
CONTINUOUS
 10
10.6410685839
 20
7.3119853632
 11
10.6410683383
 21
7.2927813287
  0
LWPOLYLINE
  5
223
100
AcDbEntity
  8
0
100
AcDbPolyline
 62
7
  6
CONTINUOUS
 90
6
 70
0
 10
10.6410683383
 20
7.5106875636
 10
10.638059122
 20
7.478735032
 10
10.6295110068
 20
7.4015547288
 10
10.6201660007
 20
7.3266178301
 10
10.610285713
 20
7.2542659632
 10
10.6001200079
 20
7.1849553736
  0
LWPOLYLINE
  5
224
100
AcDbEntity
  8
0
100
AcDbPolyline
 62
7
  6
CONTINUOUS
 90
8
 70
0
 10
10.5961424066
 20
7.1593308456
 10
10.5897230396
 20
7.1179981229
 10
10.5793339757
 20
7.0541385346
 10
10.5690038153
 20
6.9930029581
 10
10.5587941889
 20
6.9344477913
 10
10.5487472896
 20
6.8783296682
 10
10.5388912858
 20
6.8244951313
 10
10.5353029179
 20
6.8052585759
  0
LWPOLYLINE
  5
225
100
AcDbEntity
  8
0
100
AcDbPolyline
 62
7
  6
CONTINUOUS
 90
15
 70
0
 10
11.4535683383
 20
9.2039062717
 10
11.4838123588
 20
9.2484142899
 10
11.5299270885
 20
9.3201185967
 10
11.5773023271
 20
9.3996561838
 10
11.6241314313
 20
9.4857832136
 10
11.6688271304
 20
9.5770172367
 10
11.7100908699
 20
9.6716658055
 10
11.7469468332
 20
9.7678140731
 10
11.7789815436
 20
9.8640284886
 10
11.8065123211
 20
9.9606144264
 10
11.8298651896
 20
10.0582435958
 10
11.8492499015
 20
10.1576395745
 10
11.8647592336
 20
10.2595665145
 10
11.8763710107
 20
10.3648307848
 10
11.8809005961
 20
10.4222254969
  0
LWPOLYLINE
  5
226
100
AcDbEntity
  8
0
100
AcDbPolyline
 62
7
  6
CONTINUOUS
 90
10
 70
0
 10
10.5876553179
 20
9.1784325538
 10
10.5919037219
 20
9.1313310122
 10
10.597232032
 20
9.070106062
 10
10.6022469497
 20
9.0102473764
 10
10.6069556626
 20
8.9517224955
 10
10.6113654286
 20
8.8945027474
 10
10.615482144
 20
8.8385847874
 10
10.619314692
 20
8.7839885504
 10
10.6228775287
 20
8.730722398
 10
10.6261846159
 20
8.6787989614
  0
LINE
  5
227
100
AcDbEntity
  8
0
100
AcDbLine
 62
7
  6
CONTINUOUS
 10
12.0643262471
 20
10.4824263424
 11
12.082130969
 21
10.5294627012
  0
LWPOLYLINE
  5
228
100
AcDbEntity
  8
0
100
AcDbPolyline
 62
7
  6
CONTINUOUS
 90
11
 70
0
 10
11.524936188
 20
9.508916489
 10
11.5385887019
 20
9.5436565963
 10
11.5735292581
 20
9.6398065169
 10
11.6047197174
 20
9.7369208416
 10
11.6322712727
 20
9.8351308873
 10
11.6562916245
 20
9.9345922989
 10
11.6768754739
 20
10.0354961636
 10
11.6940969821
 20
10.1380496609
 10
11.7080113127
 20
10.2424736803
 10
11.7186596666
 20
10.349018071
 10
11.7196207553
 20
10.3607264276
  0
LINE
  5
229
100
AcDbEntity
  8
0
100
AcDbLine
 62
9
  6
CONTINUOUS
 10
10.6410685839
 20
7.3119853632
 11
10.6434889297
 21
7.312971584
  0
LINE
  5
22A
100
AcDbEntity
  8
0
100
AcDbLine
 62
7
  6
CONTINUOUS
 10
11.1568904109
 20
6.7382189364
 11
11.1568904109
 21
6.5988284967
  0
LINE
  5
22B
100
AcDbEntity
  8
0
100
AcDbLine
 62
7
  6
CONTINUOUS
 10
11.1770814628
 20
6.2247651893
 11
11.1770814628
 21
5.9772778159
  0
LINE
  5
22C
100
AcDbEntity
  8
0
100
AcDbLine
 62
7
  6
CONTINUOUS
 10
11.3727462656
 20
6.82634172
 11
11.3727462656
 21
6.6869512803
  0
LINE
  5
22D
100
AcDbEntity
  8
0
100
AcDbLine
 62
7
  6
CONTINUOUS
 10
11.4535683383
 20
7.2860343074
 11
11.4535683383
 21
7.2678936138
  0
LINE
  5
22E
100
AcDbEntity
  8
0
100
AcDbLine
 62
7
  6
CONTINUOUS
 10
11.4535683383
 20
7.2347689064
 11
11.4535683383
 21
7.2182144969
  0
LINE
  5
22F
100
AcDbEntity
  8
0
100
AcDbLine
 62
7
  6
CONTINUOUS
 10
11.4535683383
 20
7.1834307389
 11
11.4535683383
 21
7.1684124525
  0
LINE
  5
230
100
AcDbEntity
  8
0
100
AcDbLine
 62
7
  6
CONTINUOUS
 10
11.4675552138
 20
6.3433506016
 11
11.4675552138
 21
6.0958632282
  0
LINE
  5
231
100
AcDbEntity
  8
0
100
AcDbLine
 62
7
  6
CONTINUOUS
 10
11.4535683383
 20
11.1903838792
 11
11.4535680927
 21
7.3421853913
  0
LINE
  5
232
100
AcDbEntity
  8
0
100
AcDbLine
 62
7
  6
CONTINUOUS
 10
11.4535683383
 20
8.4026994323
 11
11.4563973978
 21
8.4624200579
  0
LINE
  5
233
100
AcDbEntity
  8
0
100
AcDbLine
 62
7
  6
CONTINUOUS
 10
11.4563973978
 20
8.4624200579
 11
11.4598314841
 21
8.5294174633
  0
LINE
  5
234
100
AcDbEntity
  8
0
100
AcDbLine
 62
7
  6
CONTINUOUS
 10
11.4598314841
 20
8.5294174633
 11
11.4644145569
 21
8.6113390341
  0
LWPOLYLINE
  5
235
100
AcDbEntity
  8
0
100
AcDbPolyline
 62
7
  6
CONTINUOUS
 90
9
 70
0
 10
11.4644145569
 20
8.6113390341
 10
11.4678289887
 20
8.6687873827
 10
11.4724338199
 20
8.7410503404
 10
11.4774701977
 20
8.814957071
 10
11.4829586601
 20
8.8904586257
 10
11.4889125506
 20
8.9675220468
 10
11.4953389426
 20
9.0461264833
 10
11.502259922
 20
9.126437324
 10
11.5069651529
 20
9.1784145783
  0
LINE
  5
236
100
AcDbEntity
  8
0
100
AcDbLine
 62
7
  6
CONTINUOUS
 10
10.0303104295
 20
10.4824263424
 11
10.0125408363
 21
10.5293698985
  0
LWPOLYLINE
  5
237
100
AcDbEntity
  8
0
100
AcDbPolyline
 62
7
  6
CONTINUOUS
 90
5
 70
0
 10
11.5500914399
 20
6.8176603861
 10
11.536734165
 20
6.8868684767
 10
11.5214437161
 20
6.9700676291
 10
11.5061502276
 20
7.058578452
 10
11.4998183383
 20
7.098256876
  0
LWPOLYLINE
  5
238
100
AcDbEntity
  8
0
100
AcDbPolyline
 62
7
  6
CONTINUOUS
 90
4
 70
0
 10
11.480041365
 20
7.2299432087
 10
11.4771867828
 20
7.2498052668
 10
11.4643822443
 20
7.3521936278
 10
11.4535683383
 20
7.4569443892
  0
LINE
  5
239
100
AcDbEntity
  8
0
100
AcDbLine
 62
7
  6
CONTINUOUS
 10
11.4998183383
 20
7.1370506854
 11
11.4998183383
 21
6.909271898
  0
LINE
  5
23A
100
AcDbEntity
  8
0
100
AcDbLine
 62
7
  6
CONTINUOUS
 10
11.6223183383
 20
6.6208627351
 11
11.6223183383
 21
5.9561823608
  0
LINE
  5
23B
100
AcDbEntity
  8
0
100
AcDbLine
 62
7
  6
CONTINUOUS
 10
11.7223257629
 20
10.3968101001
 11
11.7196207553
 21
10.3607264276
  0
LWPOLYLINE
  5
23C
100
AcDbEntity
  8
0
100
AcDbPolyline
 62
7
  6
CONTINUOUS
 90
3
 70
0
 10
10.5905564193
 20
9.2038424284
 10
10.6259203297
 20
9.1608548884
 10
10.6410683383
 20
9.1430342875
  0
LINE
  5
23D
100
AcDbEntity
  8
0
100
AcDbLine
 62
7
  6
CONTINUOUS
 10
12.2373183383
 20
11.6072409815
 11
12.2373183383
 21
11.3750677343
  0
LINE
  5
23E
100
AcDbEntity
  8
0
100
AcDbLine
 62
7
  6
CONTINUOUS
 10
12.3323183383
 20
10.7032409815
 11
12.3323183383
 21
10.8532409815
  0
LINE
  5
23F
100
AcDbEntity
  8
0
100
AcDbLine
 62
7
  6
CONTINUOUS
 10
11.4675552138
 20
6.3433506016
 11
11.1770814628
 21
6.2247651893
  0
LINE
  5
240
100
AcDbEntity
  8
0
100
AcDbLine
 62
7
  6
CONTINUOUS
 10
11.4675552138
 20
6.0958632282
 11
11.1770814628
 21
5.9772778159
  0
LINE
  5
241
100
AcDbEntity
  8
0
100
AcDbLine
 62
7
  6
CONTINUOUS
 10
12.6673183383
 20
5.4851550294
 11
12.6673183383
 21
5.4611215783
  0
LINE
  5
242
100
AcDbEntity
  8
0
100
AcDbLine
 62
7
  6
CONTINUOUS
 10
12.9523183383
 20
5.3277726261
 11
12.9523183383
 21
5.1983375589
  0
LINE
  5
243
100
AcDbEntity
  8
0
100
AcDbLine
 62
7
  6
CONTINUOUS
 10
11.457224194
 20
9.1232409815
 11
11.4535683383
 21
9.1232409815
  0
LINE
  5
244
100
AcDbEntity
  8
0
100
AcDbLine
 62
7
  6
CONTINUOUS
 10
10.6410683383
 20
9.1232409815
 11
10.6374124826
 21
9.1232409815
  0
LINE
  5
245
100
AcDbEntity
  8
0
100
AcDbLine
 62
9
  6
CONTINUOUS
 10
11.4535683383
 20
9.3572409815
 11
10.6410683383
 21
9.3572409815
  0
LINE
  5
246
100
AcDbEntity
  8
0
100
AcDbLine
 62
7
  6
CONTINUOUS
 10
9.8473167935
 20
10.6532409815
 11
9.7623183383
 21
10.7032409815
  0
LINE
  5
247
100
AcDbEntity
  8
0
100
AcDbLine
 62
9
  6
CONTINUOUS
 10
12.0643262471
 20
10.4824263424
 11
11.4535683383
 21
10.4824263424
  0
LINE
  5
248
100
AcDbEntity
  8
0
100
AcDbLine
 62
9
  6
CONTINUOUS
 10
10.0303104295
 20
10.4824263424
 11
10.6410683383
 21
10.4824263424
  0
LINE
  5
249
100
AcDbEntity
  8
0
100
AcDbLine
 62
7
  6
CONTINUOUS
 10
12.2473187032
 20
10.6532409815
 11
11.4535683383
 21
10.6532409815
  0
LINE
  5
24A
100
AcDbEntity
  8
0
100
AcDbLine
 62
7
  6
CONTINUOUS
 10
9.8473179734
 20
10.6532409815
 11
10.6410683383
 21
10.6532409815
  0
LINE
  5
24B
100
AcDbEntity
  8
0
100
AcDbLine
 62
7
  6
CONTINUOUS
 10
12.3323183383
 20
10.7032409815
 11
11.4535683383
 21
10.7032409815
  0
LINE
  5
24C
100
AcDbEntity
  8
0
100
AcDbLine
 62
7
  6
CONTINUOUS
 10
9.7623183383
 20
10.7032409815
 11
10.6410683383
 21
10.7032409815
  0
LINE
  5
24D
100
AcDbEntity
  8
0
100
AcDbLine
 62
7
  6
CONTINUOUS
 10
13.800896524
 20
10.8532409815
 11
11.4535683383
 21
10.8532409815
  0
LINE
  5
24E
100
AcDbEntity
  8
0
100
AcDbLine
 62
7
  6
CONTINUOUS
 10
10.6410683383
 20
10.8532409815
 11
8.2937401526
 21
10.8532409815
  0
LINE
  5
24F
100
AcDbEntity
  8
0
100
AcDbLine
 62
7
  6
CONTINUOUS
 10
11.4945333056
 20
11.1903838792
 11
11.4978849088
 21
11.1905716878
  0
LINE
  5
250
100
AcDbEntity
  8
0
100
AcDbLine
 62
9
  6
CONTINUOUS
 10
14.0191074311
 20
10.9812409815
 11
11.4535683383
 21
10.9812409815
  0
LINE
  5
251
100
AcDbEntity
  8
0
100
AcDbLine
 62
9
  6
CONTINUOUS
 10
10.6410683383
 20
10.9812409815
 11
8.0755292454
 21
10.9812409815
  0
LINE
  5
252
100
AcDbEntity
  8
0
100
AcDbLine
 62
7
  6
CONTINUOUS
 10
7.8541822079
 20
11.1092311463
 11
10.6410683383
 21
11.1092311463
  0
LINE
  5
253
100
AcDbEntity
  8
0
100
AcDbLine
 62
7
  6
CONTINUOUS
 10
11.4535683383
 20
11.1092311463
 11
14.2404544687
 21
11.1092311463
  0
LINE
  5
254
100
AcDbEntity
  8
0
100
AcDbLine
 62
7
  6
CONTINUOUS
 10
10.600103371
 20
11.1903838792
 11
11.4945333056
 21
11.1903838792
  0
LINE
  5
255
100
AcDbEntity
  8
0
100
AcDbLine
 62
9
  6
CONTINUOUS
 10
11.4978849088
 20
11.1905716878
 11
10.5967517678
 21
11.1905716878
  0
LINE
  5
256
100
AcDbEntity
  8
0
100
AcDbLine
 62
9
  6
CONTINUOUS
 10
14.4563911441
 20
11.2332387863
 11
11.7857136707
 21
11.2332387863
  0
LINE
  5
257
100
AcDbEntity
  8
0
100
AcDbLine
 62
9
  6
CONTINUOUS
 10
10.3089230059
 20
11.2332387863
 11
7.6382455324
 21
11.2332387863
  0
LINE
  5
258
100
AcDbEntity
  8
0
100
AcDbLine
 62
7
  6
CONTINUOUS
 10
10.600103371
 20
11.1903838792
 11
10.5967517678
 21
11.1905716878
  0
LINE
  5
259
100
AcDbEntity
  8
0
100
AcDbLine
 62
9
  6
CONTINUOUS
 10
12.2007135508
 20
11.3268954572
 11
9.8939231258
 21
11.3268954572
  0
LINE
  5
25A
100
AcDbEntity
  8
0
100
AcDbLine
 62
7
  6
CONTINUOUS
 10
14.6723183383
 20
11.3572409815
 11
12.2338935402
 21
11.3572409815
  0
LINE
  5
25B
100
AcDbEntity
  8
0
100
AcDbLine
 62
7
  6
CONTINUOUS
 10
9.8607431363
 20
11.3572409815
 11
7.4223183383
 21
11.3572409815
  0
LINE
  5
25C
100
AcDbEntity
  8
0
100
AcDbLine
 62
9
  6
CONTINUOUS
 10
12.2373183383
 20
11.3750677343
 11
9.8573183383
 21
11.3750677343
  0
LINE
  5
25D
100
AcDbEntity
  8
0
100
AcDbLine
 62
7
  6
CONTINUOUS
 10
14.9223183383
 20
11.6072409815
 11
7.1723183383
 21
11.6072409815
  0
ARC
  5
25E
100
AcDbEntity
  8
0
100
AcDbCircle
 62
9
  6
CONTINUOUS
 10
0.6059925083
 20
8.6139282263
 40
10.1026127673
100
AcDbArc
 50
349.7891371878
 51
351.3991239554
  0
ARC
  5
25F
100
AcDbEntity
  8
0
100
AcDbCircle
 62
7
  6
CONTINUOUS
 10
9.0950305907
 20
10.4829795247
 40
2.6178693644
100
AcDbArc
 50
334.4802933466
 51
338.1559001593
  0
ARC
  5
260
100
AcDbEntity
  8
0
100
AcDbCircle
 62
7
  6
CONTINUOUS
 10
9.1096193025
 20
10.4762145533
 40
2.6017894799
100
AcDbArc
 50
334.2976949102
 51
334.4763257161
  0
ARC
  5
261
100
AcDbEntity
  8
0
100
AcDbCircle
 62
7
  6
CONTINUOUS
 10
7.8541822079
 20
11.3592421237
 40
0.2500109774
100
AcDbArc
 50
210.2644101313
 51
270.0
  0
ARC
  5
262
100
AcDbEntity
  8
0
100
AcDbCircle
 62
7
  6
CONTINUOUS
 10
7.4223183383
 20
11.6072409815
 40
0.25
100
AcDbArc
 50
180.0
 51
270.0
  0
ARC
  5
263
100
AcDbEntity
  8
0
100
AcDbCircle
 62
7
  6
CONTINUOUS
 10
7.4223183383
 20
11.1072409815
 40
0.25
100
AcDbArc
 50
30.2644101313
 51
90.0
  0
ARC
  5
264
100
AcDbEntity
  8
0
100
AcDbCircle
 62
7
  6
CONTINUOUS
 10
8.2937401526
 20
11.1032409815
 40
0.25
100
AcDbArc
 50
209.2092119338
 51
270.0
  0
ARC
  5
265
100
AcDbEntity
  8
0
100
AcDbCircle
 62
7
  6
CONTINUOUS
 10
7.8573183383
 20
10.8592409815
 40
0.25
100
AcDbArc
 50
29.2092119338
 51
89.9454355169
  0
ARC
  5
266
100
AcDbEntity
  8
0
100
AcDbCircle
 62
9
  6
CONTINUOUS
 10
18.9221286207
 20
8.1944599651
 40
7.5106921631
100
AcDbArc
 50
188.7967795518
 51
190.4245767345
  0
ARC
  5
267
100
AcDbEntity
  8
0
100
AcDbCircle
 62
9
  6
CONTINUOUS
 10
16.7813861469
 20
7.8847002865
 40
5.3473863586
100
AcDbArc
 50
184.8966434632
 51
186.8618412372
  0
ARC
  5
268
100
AcDbEntity
  8
0
100
AcDbCircle
 62
9
  6
CONTINUOUS
 10
11.0608226995
 20
6.575750094
 40
2.5142245632
100
AcDbArc
 50
278.9558965502
 51
280.9089920332
  0
ARC
  5
269
100
AcDbEntity
  8
0
100
AcDbCircle
 62
9
  6
CONTINUOUS
 10
11.0473119721
 20
6.5970423481
 40
2.3027444852
100
AcDbArc
 50
264.6690262679
 51
275.3331943293
  0
ARC
  5
26A
100
AcDbEntity
  8
0
100
AcDbCircle
 62
7
  6
CONTINUOUS
 10
10.9477282044
 20
4.7493020519
 40
1.8731122582
100
AcDbArc
 50
112.0766801313
 51
112.2076301149
  0
ARC
  5
26B
100
AcDbEntity
  8
0
100
AcDbCircle
 62
9
  6
CONTINUOUS
 10
11.170935693
 20
6.1806265764
 40
1.7971216183
100
AcDbArc
 50
292.1832656346
 51
295.641946258
  0
ARC
  5
26C
100
AcDbEntity
  8
0
100
AcDbCircle
 62
7
  6
CONTINUOUS
 10
9.9753470841
 20
4.8977699657
 40
1.0779628474
100
AcDbArc
 50
176.7935549872
 51
188.355866337
  0
ARC
  5
26D
100
AcDbEntity
  8
0
100
AcDbCircle
 62
7
  6
CONTINUOUS
 10
12.119294681
 20
4.8977695224
 40
1.0779577543
100
AcDbArc
 50
351.6440544798
 51
3.2064837354
  0
ARC
  5
26E
100
AcDbEntity
  8
0
100
AcDbCircle
 62
9
  6
CONTINUOUS
 10
10.237426949
 20
5.4851539682
 40
0.8101085696
100
AcDbArc
 50
179.999924943
 51
181.6008109692
  0
ARC
  5
26F
100
AcDbEntity
  8
0
100
AcDbCircle
 62
7
  6
CONTINUOUS
 10
11.0761547833
 20
6.8457171631
 40
0.5620113138
100
AcDbArc
 50
291.1910826387
 51
292.2069104658
  0
ARC
  5
270
100
AcDbEntity
  8
0
100
AcDbCircle
 62
7
  6
CONTINUOUS
 10
11.0783346624
 20
6.8140217703
 40
0.52981766
100
AcDbArc
 50
292.2054844149
 51
293.284233737
  0
ARC
  5
271
100
AcDbEntity
  8
0
100
AcDbCircle
 62
7
  6
CONTINUOUS
 10
11.0472788636
 20
6.4539611048
 40
0.4890463565
100
AcDbArc
 50
28.6909618198
 51
34.9078803139
  0
ARC
  5
272
100
AcDbEntity
  8
0
100
AcDbCircle
 62
7
  6
CONTINUOUS
 10
11.0473543554
 20
6.4539631808
 40
0.4890423268
100
AcDbArc
 50
145.0930674069
 51
151.3090570666
  0
ARC
  5
273
100
AcDbEntity
  8
0
100
AcDbCircle
 62
7
  6
CONTINUOUS
 10
11.2760837413
 20
6.5711763781
 40
0.2337422218
100
AcDbArc
 50
4.3869031145
 51
8.626603761
  0
ARC
  5
274
100
AcDbEntity
  8
0
100
AcDbCircle
 62
7
  6
CONTINUOUS
 10
10.8180665382
 20
6.5712318541
 40
0.233253007
100
AcDbArc
 50
171.3689481225
 51
175.6175450067
  0
ARC
  5
275
100
AcDbEntity
  8
0
100
AcDbCircle
 62
7
  6
CONTINUOUS
 10
11.2347953147
 20
7.2186967448
 40
0.2188029428
100
AcDbArc
 50
350.0120359435
 51
350.8124167262
  0
ARC
  5
276
100
AcDbEntity
  8
0
100
AcDbCircle
 62
7
  6
CONTINUOUS
 10
11.237954761
 20
7.2182551063
 40
0.2156135251
100
AcDbArc
 50
350.7942172995
 51
359.9892087155
  0
ARC
  5
277
100
AcDbEntity
  8
0
100
AcDbCircle
 62
7
  6
CONTINUOUS
 10
11.2379631651
 20
7.2860135677
 40
0.2156051181
100
AcDbArc
 50
0.0055114505
 51
7.5082958554
  0
ARC
  5
278
100
AcDbEntity
  8
0
100
AcDbCircle
 62
7
  6
CONTINUOUS
 10
11.2380026238
 20
7.2679283021
 40
0.2155656612
100
AcDbArc
 50
351.2329810127
 51
359.9907801035
  0
ARC
  5
279
100
AcDbEntity
  8
0
100
AcDbCircle
 62
7
  6
CONTINUOUS
 10
11.2383315411
 20
7.1834238736
 40
0.2152367413
100
AcDbArc
 50
0.001827534
 51
4.6423993284
  0
ARC
  5
27A
100
AcDbEntity
  8
0
100
AcDbCircle
 62
7
  6
CONTINUOUS
 10
11.2384381157
 20
7.2347632549
 40
0.2151301666
100
AcDbArc
 50
0.0015051766
 51
4.4196955532
  0
ARC
  5
27B
100
AcDbEntity
  8
0
100
AcDbCircle
 62
7
  6
CONTINUOUS
 10
11.2384983432
 20
7.2860360097
 40
0.215069939
100
AcDbArc
 50
355.1896593587
 51
359.999546499
  0
ARC
  5
27C
100
AcDbEntity
  8
0
100
AcDbCircle
 62
7
  6
CONTINUOUS
 10
11.2385127322
 20
7.1834316298
 40
0.21505555
100
AcDbArc
 50
356.0142972097
 51
359.9997626557
  0
ARC
  5
27D
100
AcDbEntity
  8
0
100
AcDbCircle
 62
7
  6
CONTINUOUS
 10
11.2385540499
 20
7.2347701518
 40
0.2150142323
100
AcDbArc
 50
355.6077456209
 51
359.9996681375
  0
ARC
  5
27E
100
AcDbEntity
  8
0
100
AcDbCircle
 62
7
  6
CONTINUOUS
 10
10.8452288073
 20
7.3425360769
 40
0.2041604717
100
AcDbArc
 50
180.0097749445
 51
188.5743828241
  0
ARC
  5
27F
100
AcDbEntity
  8
0
100
AcDbCircle
 62
7
  6
CONTINUOUS
 10
10.8377736363
 20
7.2435413676
 40
0.1967417925
100
AcDbArc
 50
189.9555284938
 51
190.5495302863
  0
ARC
  5
280
100
AcDbEntity
  8
0
100
AcDbCircle
 62
7
  6
CONTINUOUS
 10
10.8345597764
 20
7.1933301263
 40
0.1934914178
100
AcDbArc
 50
180.016265881
 51
190.3499504072
  0
ARC
  5
281
100
AcDbEntity
  8
0
100
AcDbCircle
 62
7
  6
CONTINUOUS
 10
10.834455103
 20
7.2430408512
 40
0.1933867147
100
AcDbArc
 50
180.0142915511
 51
189.9794499793
  0
ARC
  5
282
100
AcDbEntity
  8
0
100
AcDbCircle
 62
7
  6
CONTINUOUS
 10
10.8343274239
 20
7.2928229099
 40
0.1932590553
100
AcDbArc
 50
180.0123276379
 51
189.5282153787
  0
ARC
  5
283
100
AcDbEntity
  8
0
100
AcDbCircle
 62
7
  6
CONTINUOUS
 10
10.8333526984
 20
7.1578468945
 40
0.1922843253
100
AcDbArc
 50
174.3631666192
 51
179.9956715035
  0
ARC
  5
284
100
AcDbEntity
  8
0
100
AcDbCircle
 62
7
  6
CONTINUOUS
 10
10.8332328032
 20
7.2603993337
 40
0.192164409
100
AcDbArc
 50
180.0028294828
 51
185.1620473608
  0
ARC
  5
285
100
AcDbEntity
  8
0
100
AcDbCircle
 62
7
  6
CONTINUOUS
 10
10.8331546231
 20
7.2091680566
 40
0.1920862288
100
AcDbArc
 50
180.0020239469
 51
184.7167863593
  0
ARC
  5
286
100
AcDbEntity
  8
0
100
AcDbCircle
 62
7
  6
CONTINUOUS
 10
10.8330535827
 20
7.2091593379
 40
0.1919851883
100
AcDbArc
 50
174.9437829096
 51
179.9994229968
  0
ARC
  5
287
100
AcDbEntity
  8
0
100
AcDbCircle
 62
7
  6
CONTINUOUS
 10
10.8330283854
 20
7.3116747098
 40
0.1919600529
100
AcDbArc
 50
175.4983186472
 51
179.9072768827
  0
ARC
  5
288
100
AcDbEntity
  8
0
100
AcDbCircle
 62
7
  6
CONTINUOUS
 10
10.8330206395
 20
7.2603884585
 40
0.1919522452
100
AcDbArc
 50
175.4275746351
 51
179.9995864742
  0
ARC
  5
289
100
AcDbEntity
  8
0
100
AcDbCircle
 62
7
  6
CONTINUOUS
 10
10.8329470625
 20
7.1578613223
 40
0.1918786888
100
AcDbArc
 50
179.9999705769
 51
184.257831228
  0
ARC
  5
28A
100
AcDbEntity
  8
0
100
AcDbCircle
 62
7
  6
CONTINUOUS
 10
10.2174143421
 20
10.5532509815
 40
0.20006
100
AcDbArc
 50
200.73321
 51
209.5393123694
  0
ARC
  5
28B
100
AcDbEntity
  8
0
100
AcDbCircle
 62
7
  6
CONTINUOUS
 10
9.9640299282
 20
10.6282507964
 40
0.1000097694
100
AcDbArc
 50
267.1350897075
 51
274.7069410115
  0
ARC
  5
28C
100
AcDbEntity
  8
0
100
AcDbCircle
 62
7
  6
CONTINUOUS
 10
9.9533442525
 20
10.62824098
 40
0.0999999991
100
AcDbArc
 50
165.5224868807
 51
277.7952284544
  0
ARC
  5
28D
100
AcDbEntity
  8
0
100
AcDbCircle
 62
7
  6
CONTINUOUS
 10
10.0274160885
 20
10.6282410368
 40
0.0999999903
100
AcDbArc
 50
165.5224867846
 51
289.6749543003
  0
ARC
  5
28E
100
AcDbEntity
  8
0
100
AcDbCircle
 62
7
  6
CONTINUOUS
 10
9.9799930295
 20
10.6282409978
 40
0.0999999901
100
AcDbArc
 50
165.5224873532
 51
283.6318840839
  0
ARC
  5
28F
100
AcDbEntity
  8
0
100
AcDbCircle
 62
7
  6
CONTINUOUS
 10
10.6710961811
 20
10.6282409923
 40
0.0999999866
100
AcDbArc
 50
212.8664267723
 51
252.5156248288
  0
ARC
  5
290
100
AcDbEntity
  8
0
100
AcDbCircle
 62
7
  6
CONTINUOUS
 10
10.5308996112
 20
10.6282409592
 40
0.0999999755
100
AcDbArc
 50
205.2018425982
 51
314.5224817752
  0
ARC
  5
291
100
AcDbEntity
  8
0
100
AcDbCircle
 62
7
  6
CONTINUOUS
 10
10.0946899055
 20
10.6282410175
 40
0.0999995114
100
AcDbArc
 50
165.5224378085
 51
295.4232790375
  0
ARC
  5
292
100
AcDbEntity
  8
0
100
AcDbCircle
 62
7
  6
CONTINUOUS
 10
10.0011562239
 20
10.6282400159
 40
0.0999990231
100
AcDbArc
 50
263.7590880914
 51
276.6257704192
  0
ARC
  5
293
100
AcDbEntity
  8
0
100
AcDbCircle
 62
7
  6
CONTINUOUS
 10
9.9479872381
 20
10.628241287
 40
0.0999987713
100
AcDbArc
 50
165.5224867962
 51
271.4718967959
  0
ARC
  5
294
100
AcDbEntity
  8
0
100
AcDbCircle
 62
7
  6
CONTINUOUS
 10
10.1805050932
 20
10.6282410813
 40
0.0999985839
100
AcDbArc
 50
165.5223403699
 51
300.9490549245
  0
ARC
  5
295
100
AcDbEntity
  8
0
100
AcDbCircle
 62
7
  6
CONTINUOUS
 10
10.4007531137
 20
10.6282411043
 40
0.0999985529
100
AcDbArc
 50
165.5223487008
 51
310.6864951459
  0
ARC
  5
296
100
AcDbEntity
  8
0
100
AcDbCircle
 62
7
  6
CONTINUOUS
 10
10.2831908732
 20
10.6282412449
 40
0.0999967424
100
AcDbArc
 50
165.5221673201
 51
306.00983945
  0
ARC
  5
297
100
AcDbEntity
  8
0
100
AcDbCircle
 62
7
  6
CONTINUOUS
 10
9.9073183383
 20
11.3750677343
 40
0.05
100
AcDbArc
 50
180.0
 51
254.4604045097
  0
ARC
  5
298
100
AcDbEntity
  8
0
100
AcDbCircle
 62
7
  6
CONTINUOUS
 10
11.8772223345
 20
10.5532509815
 40
0.20006
100
AcDbArc
 50
330.4606876306
 51
339.26679
  0
ARC
  5
299
100
AcDbEntity
  8
0
100
AcDbCircle
 62
7
  6
CONTINUOUS
 10
12.1306066724
 20
10.6282495211
 40
0.1000084922
100
AcDbArc
 50
265.293388803
 51
273.1602991477
  0
ARC
  5
29A
100
AcDbEntity
  8
0
100
AcDbCircle
 62
7
  6
CONTINUOUS
 10
11.4235404666
 20
10.6282410804
 40
0.100000067
100
AcDbArc
 50
287.5012902717
 51
327.1335826487
  0
ARC
  5
29B
100
AcDbEntity
  8
0
100
AcDbCircle
 62
7
  6
CONTINUOUS
 10
12.067220535
 20
10.6282410414
 40
0.1000000433
100
AcDbArc
 50
250.2590076708
 51
14.4775018463
  0
ARC
  5
29C
100
AcDbEntity
  8
0
100
AcDbCircle
 62
7
  6
CONTINUOUS
 10
11.5637370586
 20
10.6282410084
 40
0.1000000106
100
AcDbArc
 50
225.4522897433
 51
334.7974409875
  0
ARC
  5
29D
100
AcDbEntity
  8
0
100
AcDbCircle
 62
7
  6
CONTINUOUS
 10
12.1412924437
 20
10.6282409809
 40
0.0999999795
100
AcDbArc
 50
262.3702897405
 51
14.4775154304
  0
ARC
  5
29E
100
AcDbEntity
  8
0
100
AcDbCircle
 62
7
  6
CONTINUOUS
 10
11.9141302453
 20
10.6282409464
 40
0.0999999219
100
AcDbArc
 50
239.0965850479
 51
14.4774882961
  0
ARC
  5
29F
100
AcDbEntity
  8
0
100
AcDbCircle
 62
7
  6
CONTINUOUS
 10
12.114643741
 20
10.6282409231
 40
0.0999998962
100
AcDbArc
 50
256.4222927608
 51
14.4775183313
  0
ARC
  5
2A0
100
AcDbEntity
  8
0
100
AcDbCircle
 62
7
  6
CONTINUOUS
 10
11.9999466351
 20
10.6282410222
 40
0.0999996473
100
AcDbArc
 50
244.5804997687
 51
14.4775400969
  0
ARC
  5
2A1
100
AcDbEntity
  8
0
100
AcDbCircle
 62
7
  6
CONTINUOUS
 10
12.0934804544
 20
10.6282400251
 40
0.0999990325
100
AcDbArc
 50
263.3742292145
 51
276.2239772218
  0
ARC
  5
2A2
100
AcDbEntity
  8
0
100
AcDbCircle
 62
7
  6
CONTINUOUS
 10
12.1466494384
 20
10.628241287
 40
0.0999987713
100
AcDbArc
 50
268.8415672404
 51
14.4775132033
  0
ARC
  5
2A3
100
AcDbEntity
  8
0
100
AcDbCircle
 62
7
  6
CONTINUOUS
 10
11.811445381
 20
10.6282412194
 40
0.0999971648
100
AcDbArc
 50
233.9782943133
 51
14.4777864256
  0
ARC
  5
2A4
100
AcDbEntity
  8
0
100
AcDbCircle
 62
7
  6
CONTINUOUS
 10
11.6938860033
 20
10.6282413139
 40
0.0999961125
100
AcDbArc
 50
229.3842272808
 51
14.4778845566
  0
ARC
  5
2A5
100
AcDbEntity
  8
0
100
AcDbCircle
 62
7
  6
CONTINUOUS
 10
12.1873183383
 20
11.3750677343
 40
0.05
100
AcDbArc
 50
285.5395954903
 51
360.0
  0
ARC
  5
2A6
100
AcDbEntity
  8
0
100
AcDbCircle
 62
7
  6
CONTINUOUS
 10
11.0994922504
 20
15.6624003973
 40
4.5
100
AcDbArc
 50
254.4604045096
 51
263.5855182739
  0
ARC
  5
2A7
100
AcDbEntity
  8
0
100
AcDbCircle
 62
7
  6
CONTINUOUS
 10
10.9951444261
 20
15.6624003973
 40
4.5
100
AcDbArc
 50
276.4144817261
 51
285.5395954904
  0
ARC
  5
2A8
100
AcDbEntity
  8
0
100
AcDbCircle
 62
7
  6
CONTINUOUS
 10
12.9996072861
 20
10.482980067
 40
2.6178706812
100
AcDbArc
 50
201.8438621442
 51
205.5197060476
  0
ARC
  5
2A9
100
AcDbEntity
  8
0
100
AcDbCircle
 62
7
  6
CONTINUOUS
 10
12.9850173743
 20
10.4762145534
 40
2.6017894801
100
AcDbArc
 50
205.5236742839
 51
205.7023050898
  0
ARC
  5
2AA
100
AcDbEntity
  8
0
100
AcDbCircle
 62
7
  6
CONTINUOUS
 10
14.2404544687
 20
11.3592421237
 40
0.2500109774
100
AcDbArc
 50
270.0
 51
329.7355898687
  0
ARC
  5
2AB
100
AcDbEntity
  8
0
100
AcDbCircle
 62
7
  6
CONTINUOUS
 10
14.6723183383
 20
11.6072409815
 40
0.25
100
AcDbArc
 50
270.0
 51
360.0
  0
ARC
  5
2AC
100
AcDbEntity
  8
0
100
AcDbCircle
 62
7
  6
CONTINUOUS
 10
14.6723183383
 20
11.1072409815
 40
0.25
100
AcDbArc
 50
90.0
 51
149.7355898687
  0
ARC
  5
2AD
100
AcDbEntity
  8
0
100
AcDbCircle
 62
7
  6
CONTINUOUS
 10
13.800896524
 20
11.1032409815
 40
0.25
100
AcDbArc
 50
270.0
 51
330.7907880662
  0
ARC
  5
2AE
100
AcDbEntity
  8
0
100
AcDbCircle
 62
7
  6
CONTINUOUS
 10
14.2373183383
 20
10.8592409815
 40
0.25
100
AcDbArc
 50
90.0545644831
 51
150.7907880662
  0
SPLINE
  5
2AF
100
AcDbEntity
  8
0
100
AcDbSpline
 62
7
  6
CONTINUOUS
 70
0
 71
3
 72
26
 73
22
 74
0
 42
0.0000001
 43
0.0000001
 44
0.0000000001
 40
0.0
 40
0.0
 40
0.0
 40
0.0
 40
0.0253240185
 40
0.0507140859
 40
0.0762351392
 40
0.1019498682
 40
0.1279177673
 40
0.1541942786
 40
0.1808299976
 40
0.2078703098
 40
0.2632922825
 40
0.3207319391
 40
0.3803374207
 40
0.4421643616
 40
0.5061838922
 40
0.5722920447
 40
0.6403201998
 40
0.7100451217
 40
0.7811990481
 40
0.85347967
 40
1.0
 40
1.0
 40
1.0
 40
1.0
 10
10.6410683402
 20
7.1435459954
 30
0.0
 10
10.6410683263
 20
7.1389742196
 30
0.0
 10
10.6413957893
 20
7.1298153968
 30
0.0
 10
10.6428669081
 20
7.1161203509
 30
0.0
 10
10.6453148456
 20
7.1024935612
 30
0.0
 10
10.6487332102
 20
7.0889701335
 30
0.0
 10
10.6531133414
 20
7.0755835912
 30
0.0
 10
10.6584444395
 20
7.0623676327
 30
0.0
 10
10.6647132009
 20
7.0493545345
 30
0.0
 10
10.6743780101
 20
7.0321805107
 30
0.0
 10
10.688800346
 20
7.011365665
 30
0.0
 10
10.7094028092
 20
6.9879383319
 30
0.0
 10
10.733243344
 20
6.9660715455
 30
0.0
 10
10.7600880469
 20
6.9459789304
 30
0.0
 10
10.7896786422
 20
6.9278537475
 30
0.0
 10
10.8217313878
 20
6.9118727277
 30
0.0
 10
10.855940263
 20
6.8981928891
 30
0.0
 10
10.8919774817
 20
6.886950451
 30
0.0
 10
10.929503183
 20
6.8782583472
 30
0.0
 10
10.9812492962
 20
6.8701558494
 30
0.0
 10
11.0208718642
 20
6.868203791
 30
0.0
 10
11.0473183383
 20
6.8687190447
 30
0.0
  0
SPLINE
  5
2B0
100
AcDbEntity
  8
0
100
AcDbSpline
 62
7
  6
CONTINUOUS
 70
0
 71
3
 72
14
 73
10
 74
0
 42
0.0000001
 43
0.0000001
 44
0.0000000001
 40
0.0
 40
0.0
 40
0.0
 40
0.0
 40
0.119539421
 40
0.2401527607
 40
0.3621155546
 40
0.4856813197
 40
0.6110748993
 40
0.7385014341
 40
1.0
 40
1.0
 40
1.0
 40
1.0
 10
10.6442166992
 20
7.1585674781
 30
0.0
 10
10.6450573645
 20
7.1539525512
 30
0.0
 10
10.6470784806
 20
7.1447384058
 30
0.0
 10
10.6510925334
 20
7.1310959748
 30
0.0
 10
10.6560899138
 20
7.1176131837
 30
0.0
 10
10.6620578597
 20
7.104326033
 30
0.0
 10
10.6689812843
 20
7.0912671015
 30
0.0
 10
10.679550158
 20
7.0740618758
 30
0.0
 10
10.6887378652
 20
7.0618157816
 30
0.0
 10
10.6953467171
 20
7.0539658238
 30
0.0
  0
SPLINE
  5
2B1
100
AcDbEntity
  8
0
100
AcDbSpline
 62
7
  6
CONTINUOUS
 70
0
 71
3
 72
25
 73
21
 74
0
 42
0.0000001
 43
0.0000001
 44
0.0000000001
 40
0.0
 40
0.0
 40
0.0
 40
0.0
 40
0.0252027852
 40
0.0506085776
 40
0.0762653451
 40
0.1022175682
 40
0.1551450066
 40
0.2096898234
 40
0.2660541079
 40
0.3243663231
 40
0.3542812368
 40
0.384698981
 40
0.4470129683
 40
0.511255613
 40
0.5773067764
 40
0.6450013456
 40
0.7141363176
 40
0.7844777039
 40
0.8557674277
 40
1.0
 40
1.0
 40
1.0
 40
1.0
 10
10.6443573696
 20
7.2075208083
 30
0.0
 10
10.6451355644
 20
7.2033421574
 30
0.0
 10
10.6469705072
 20
7.1949993978
 30
0.0
 10
10.6505287525
 20
7.182630734
 30
0.0
 10
10.6548958481
 20
7.1703889737
 30
0.0
 10
10.6618272429
 20
7.1541684641
 30
0.0
 10
10.6725254064
 20
7.1343082346
 30
0.0
 10
10.6883232514
 20
7.1115728419
 30
0.0
 10
10.7070329968
 20
7.0899558755
 30
0.0
 10
10.7247715286
 20
7.07316413
 30
0.0
 10
10.7402224885
 20
7.0604409776
 30
0.0
 10
10.7567704749
 20
7.0480202894
 30
0.0
 10
10.7789723005
 20
7.0335363234
 30
0.0
 10
10.8075676627
 20
7.0180557305
 30
0.0
 10
10.8381014494
 20
7.0044622588
 30
0.0
 10
10.8703258264
 20
6.9928708536
 30
0.0
 10
10.9039801093
 20
6.9833796278
 30
0.0
 10
10.9387957504
 20
6.976069993
 30
0.0
 10
10.9865525269
 20
6.9692947425
 30
0.0
 10
11.0229978853
 20
6.9677005251
 30
0.0
 10
11.0473183383
 20
6.9681751956
 30
0.0
  0
SPLINE
  5
2B2
100
AcDbEntity
  8
0
100
AcDbSpline
 62
7
  6
CONTINUOUS
 70
0
 71
3
 72
35
 73
31
 74
0
 42
0.0000001
 43
0.0000001
 44
0.0000000001
 40
0.0
 40
0.0
 40
0.0
 40
0.0
 40
0.0619984221
 40
0.0939824959
 40
0.126562087
 40
0.1932664602
 40
0.227290114
 40
0.2616567791
 40
0.3310777222
 40
0.3659863792
 40
0.4009038041
 40
0.4703918175
 40
0.5048112635
 40
0.538895269
 40
0.605720486
 40
0.6383440511
 40
0.6703502657
 40
0.7016873785
 40
0.7323137231
 40
0.7621989727
 40
0.7913255055
 40
0.8196898447
 40
0.8473037061
 40
0.8741951471
 40
0.8873864269
 40
0.9004155133
 40
0.9260149813
 40
0.9510793824
 40
0.9757044744
 40
1.0
 40
1.0
 40
1.0
 40
1.0
 10
11.3431286757
 20
7.1147744769
 30
0.0
 10
11.3296669961
 20
7.1042796498
 30
0.0
 10
11.3081329417
 20
7.0897636752
 30
0.0
 10
11.2775624699
 20
7.0730152355
 30
0.0
 10
11.2448734656
 20
7.0575581232
 30
0.0
 10
11.2103767839
 20
7.0447679904
 30
0.0
 10
11.1745653603
 20
7.0346733142
 30
0.0
 10
11.1375409428
 20
7.0263134799
 30
0.0
 10
11.0996754501
 20
7.0208062566
 30
0.0
 10
11.0614170242
 20
7.0181591583
 30
0.0
 10
11.0230554257
 20
7.0174331382
 30
0.0
 10
10.9848177805
 20
7.0195795459
 30
0.0
 10
10.9471458227
 20
7.0246038302
 30
0.0
 10
10.9105060983
 20
7.0314337709
 30
0.0
 10
10.8749211018
 20
7.04100585
 30
0.0
 10
10.8408703968
 20
7.0533151374
 30
0.0
 10
10.8165672457
 20
7.0637212018
 30
0.0
 10
10.7934228008
 20
7.0753182926
 30
0.0
 10
10.7715520984
 20
7.088046436
 30
0.0
 10
10.7510652744
 20
7.1018396425
 30
0.0
 10
10.7320653858
 20
7.116626794
 30
0.0
 10
10.7146480882
 20
7.1323321734
 30
0.0
 10
10.6989022249
 20
7.1488743944
 30
0.0
 10
10.6871638602
 20
7.1633814141
 30
0.0
 10
10.6787085094
 20
7.1753164853
 30
0.0
 10
10.6709717425
 20
7.1873078941
 30
0.0
 10
10.6624494559
 20
7.2026631723
 30
0.0
 10
10.6541053495
 20
7.2216717545
 30
0.0
 10
10.6477469369
 20
7.2410561731
 30
0.0
 10
10.6448393294
 20
7.2542350023
 30
0.0
 10
10.643734531
 20
7.260832104
 30
0.0
  0
SPLINE
  5
2B3
100
AcDbEntity
  8
0
100
AcDbSpline
 62
7
  6
CONTINUOUS
 70
0
 71
3
 72
17
 73
13
 74
0
 42
0.0000001
 43
0.0000001
 44
0.0000000001
 40
0.0
 40
0.0
 40
0.0
 40
0.0
 40
0.0580936815
 40
0.116462871
 40
0.1751926514
 40
0.2343638586
 40
0.3542873542
 40
0.4768149738
 40
0.6023817507
 40
0.731310671
 40
0.8638164893
 40
1.0
 40
1.0
 40
1.0
 40
1.0
 10
11.4449642643
 20
7.2837335345
 30
0.0
 10
11.4445083576
 20
7.2798424024
 30
0.0
 10
11.4433733155
 20
7.2720657943
 30
0.0
 10
11.4410135403
 20
7.2604832655
 30
0.0
 10
11.4379980208
 20
7.2489781949
 30
0.0
 10
11.4330899991
 20
7.233702175
 30
0.0
 10
11.4253092472
 20
7.2148635243
 30
0.0
 10
11.4135079198
 20
7.1929841566
 30
0.0
 10
11.3992847921
 20
7.1718618163
 30
0.0
 10
11.3827408833
 20
7.1516304339
 30
0.0
 10
11.3639920339
 20
7.1324163165
 30
0.0
 10
11.3502910563
 20
7.1205230689
 30
0.0
 10
11.3431286757
 20
7.1147744769
 30
0.0
  0
SPLINE
  5
2B4
100
AcDbEntity
  8
0
100
AcDbSpline
 62
7
  6
CONTINUOUS
 70
0
 71
3
 72
11
 73
7
 74
0
 42
0.0000001
 43
0.0000001
 44
0.0000000001
 40
0.0
 40
0.0
 40
0.0
 40
0.0
 40
0.2455659975
 40
0.4929683975
 40
0.7439316989
 40
1.0
 40
1.0
 40
1.0
 40
1.0
 10
11.4535680927
 20
7.3421853913
 30
0.0
 10
11.4535552053
 20
7.3338975289
 30
0.0
 10
11.4525066439
 20
7.3172438382
 30
0.0
 10
11.4478848665
 20
7.2925055632
 30
0.0
 10
11.4402533738
 20
7.2681545819
 30
0.0
 10
11.4332793717
 20
7.252481642
 30
0.0
 10
11.4293433939
 20
7.2447876262
 30
0.0
  0
SPLINE
  5
2B5
100
AcDbEntity
  8
0
100
AcDbSpline
 62
7
  6
CONTINUOUS
 70
0
 71
3
 72
21
 73
17
 74
0
 42
0.0000001
 43
0.0000001
 44
0.0000000001
 40
0.0
 40
0.0
 40
0.0
 40
0.0
 40
0.0525037492
 40
0.1063084814
 40
0.1615376145
 40
0.2182733314
 40
0.3363119275
 40
0.3976704923
 40
0.4604873847
 40
0.5246708058
 40
0.590103775
 40
0.6566474349
 40
0.72414438
 40
0.7924223157
 40
0.861295734
 40
1.0
 40
1.0
 40
1.0
 40
1.0
 10
11.4293433939
 20
7.2447876262
 30
0.0
 10
11.4257811191
 20
7.2378241219
 30
0.0
 10
11.4178719965
 20
7.2240703907
 30
0.0
 10
11.4039802087
 20
7.2043822948
 30
0.0
 10
11.3880050063
 20
7.1855079917
 30
0.0
 10
11.363745798
 20
7.1612650576
 30
0.0
 10
11.3359450925
 20
7.1394525846
 30
0.0
 10
11.3053615427
 20
7.120269124
 30
0.0
 10
11.2806166716
 20
7.106988345
 30
0.0
 10
11.2545164316
 20
7.0950850676
 30
0.0
 10
11.2272097772
 20
7.0846256235
 30
0.0
 10
11.1988562731
 20
7.0756709713
 30
0.0
 10
11.1696211846
 20
7.0682726783
 30
0.0
 10
11.1396726672
 20
7.0624734606
 30
0.0
 10
11.0989415011
 20
7.0569063686
 30
0.0
 10
11.0679818878
 20
7.0552391163
 30
0.0
 10
11.0473183383
 20
7.0552391163
 30
0.0
  0
SPLINE
  5
2B6
100
AcDbEntity
  8
0
100
AcDbSpline
 62
7
  6
CONTINUOUS
 70
0
 71
3
 72
25
 73
21
 74
0
 42
0.0000001
 43
0.0000001
 44
0.0000000001
 40
0.0
 40
0.0
 40
0.0
 40
0.0
 40
0.1430919014
 40
0.2139337163
 40
0.2839022518
 40
0.3527366217
 40
0.4202013556
 40
0.4860936983
 40
0.5502507192
 40
0.6125562958
 40
0.6729486144
 40
0.7314267689
 40
0.788057102
 40
0.8429773495
 40
0.8698704163
 40
0.8964209875
 40
0.9226665055
 40
0.9486480706
 40
0.9744098792
 40
1.0
 40
1.0
 40
1.0
 40
1.0
 10
11.0473183383
 20
7.0552391163
 30
0.0
 10
11.0226106991
 20
7.0552391163
 30
0.0
 10
10.9856091188
 20
7.057619942
 30
0.0
 10
10.9372125744
 20
7.0655751943
 30
0.0
 10
10.9019371226
 20
7.0738342629
 30
0.0
 10
10.8678741211
 20
7.084335276
 30
0.0
 10
10.8353033262
 20
7.0969922553
 30
0.0
 10
10.8044965474
 20
7.1117011158
 30
0.0
 10
10.7757099359
 20
7.128341381
 30
0.0
 10
10.7491834447
 20
7.1467771649
 30
0.0
 10
10.7251389823
 20
7.1668580466
 30
0.0
 10
10.70377851
 20
7.1884213784
 30
0.0
 10
10.685284743
 20
7.2112890207
 30
0.0
 10
10.6723011483
 20
7.2314248924
 30
0.0
 10
10.663544492
 20
7.2479706312
 30
0.0
 10
10.6578258631
 20
7.2604950655
 30
0.0
 10
10.652923762
 20
7.2731923633
 30
0.0
 10
10.6488489439
 20
7.2860365236
 30
0.0
 10
10.645609798
 20
7.2989994576
 30
0.0
 10
10.6440079349
 20
7.3077277156
 30
0.0
 10
10.6433502086
 20
7.3120971284
 30
0.0
  0
SPLINE
  5
2B7
100
AcDbEntity
  8
0
100
AcDbSpline
 62
7
  6
CONTINUOUS
 70
0
 71
3
 72
19
 73
15
 74
0
 42
0.0000001
 43
0.0000001
 44
0.0000000001
 40
0.0
 40
0.0
 40
0.0
 40
0.0
 40
0.136169
 40
0.2683756421
 40
0.3330778648
 40
0.3968851809
 40
0.5219742837
 40
0.6441655106
 40
0.7043821861
 40
0.7641092256
 40
0.8234373632
 40
0.8824620829
 40
0.941282452
 40
1.0
 40
1.0
 40
1.0
 40
1.0
 10
11.4978667454
 20
6.8734801104
 30
0.0
 10
11.5076971266
 20
6.8647137976
 30
0.0
 10
11.526355407
 20
6.8466101957
 30
0.0
 10
11.547383259
 20
6.8221352587
 30
0.0
 10
11.5623915726
 20
6.8018572575
 30
0.0
 10
11.5759969925
 20
6.7814357962
 30
0.0
 10
11.5907654654
 20
6.7551527606
 30
0.0
 10
11.6025050133
 20
6.7277540198
 30
0.0
 10
11.6098893578
 20
6.705516134
 30
0.0
 10
11.614413664
 20
6.6887659523
 30
0.0
 10
11.6179407306
 20
6.6718958463
 30
0.0
 10
11.6204648406
 20
6.6549350422
 30
0.0
 10
11.6219810366
 20
6.6379144481
 30
0.0
 10
11.6223183317
 20
6.6265423668
 30
0.0
 10
11.6223183042
 20
6.6208627351
 30
0.0
  0
SPLINE
  5
2B8
100
AcDbEntity
  8
0
100
AcDbSpline
 62
7
  6
CONTINUOUS
 70
0
 71
3
 72
35
 73
31
 74
0
 42
0.0000001
 43
0.0000001
 44
0.0000000001
 40
0.0
 40
0.0
 40
0.0
 40
0.0
 40
0.0667176644
 40
0.1007491132
 40
0.1351402801
 40
0.2047095938
 40
0.2397643529
 40
0.2748942188
 40
0.3450599589
 40
0.3799653394
 40
0.4146486663
 40
0.483051134
 40
0.5166608146
 40
0.5497904947
 40
0.58238814
 40
0.6144084728
 40
0.6458138709
 40
0.676575301
 40
0.7066732559
 40
0.7360986296
 40
0.7648536282
 40
0.7929524659
 40
0.8204220089
 40
0.8473021419
 40
0.8736458143
 40
0.8995187378
 40
0.9249985
 40
0.9501732109
 40
0.9751394943
 40
1.0
 40
1.0
 40
1.0
 40
1.0
 10
11.3348183383
 20
5.6040682103
 30
0.0
 10
11.3127711879
 20
5.5950674988
 30
0.0
 10
11.2787204984
 20
5.5832493467
 30
0.0
 10
11.2320911376
 20
5.5708542242
 30
0.0
 10
11.1839141199
 20
5.5605316537
 30
0.0
 10
11.1346883295
 20
5.5536381951
 30
0.0
 10
11.0849118214
 20
5.5501753117
 30
0.0
 10
11.0348152097
 20
5.5490168746
 30
0.0
 10
10.984741193
 20
5.5513276833
 30
0.0
 10
10.935179024
 20
5.5571075381
 30
0.0
 10
10.8865663834
 20
5.5651136123
 30
0.0
 10
10.8390212566
 20
5.5764744969
 30
0.0
 10
10.7930644508
 20
5.5911811518
 30
0.0
 10
10.7598770783
 20
5.6037094088
 30
0.0
 10
10.727917404
 20
5.6177448573
 30
0.0
 10
10.6973205333
 20
5.6332284543
 30
0.0
 10
10.6682174134
 20
5.650094554
 30
0.0
 10
10.6407322792
 20
5.6682718798
 30
0.0
 10
10.6149827027
 20
5.6876836515
 30
0.0
 10
10.591078982
 20
5.7082479372
 30
0.0
 10
10.5691237699
 20
5.7298779509
 30
0.0
 10
10.5492117013
 20
5.7524824033
 30
0.0
 10
10.5314290746
 20
5.7759657976
 30
0.0
 10
10.5158534962
 20
5.8002287004
 30
0.0
 10
10.5025535582
 20
5.8251679963
 30
0.0
 10
10.4915884601
 20
5.850677234
 30
0.0
 10
10.4830075576
 20
5.8766465604
 30
0.0
 10
10.4768498981
 20
5.9029644193
 30
0.0
 10
10.4731438502
 20
5.9295131942
 30
0.0
 10
10.4723183442
 20
5.9473088602
 30
0.0
 10
10.4723183791
 20
5.9561823608
 30
0.0
  0
SPLINE
  5
2B9
100
AcDbEntity
  8
0
100
AcDbSpline
 62
7
  6
CONTINUOUS
 70
0
 71
3
 72
31
 73
27
 74
0
 42
0.0000001
 43
0.0000001
 44
0.0000000001
 40
0.0
 40
0.0
 40
0.0
 40
0.0
 40
0.0667240216
 40
0.1007584923
 40
0.1351529054
 40
0.2047287181
 40
0.2749010157
 40
0.3450733123
 40
0.4146491584
 40
0.4830580044
 40
0.5166708272
 40
0.5498036148
 40
0.6144034231
 40
0.6458117474
 40
0.6765760532
 40
0.7360739828
 40
0.7648316575
 40
0.7929331198
 40
0.8204052338
 40
0.8472878744
 40
0.8736340153
 40
0.8995093432
 40
0.9249914854
 40
0.9501685501
 40
0.9751371661
 40
1.0
 40
1.0
 40
1.0
 40
1.0
 10
11.2785683383
 20
6.323498348
 30
0.0
 10
11.2608347278
 20
6.3162586318
 30
0.0
 10
11.2334460559
 20
6.3067527122
 30
0.0
 10
11.195940051
 20
6.2967827836
 30
0.0
 10
11.1571880826
 20
6.288479688
 30
0.0
 10
11.1076002868
 20
6.2815354834
 30
0.0
 10
11.0473189371
 20
6.2787538479
 30
0.0
 10
10.9870339996
 20
6.2815358145
 30
0.0
 10
10.9277710299
 20
6.2898347652
 30
0.0
 10
10.8797763358
 20
6.3013030796
 30
0.0
 10
10.8428088095
 20
6.3131330258
 30
0.0
 10
10.807521882
 20
6.3264537968
 30
0.0
 10
10.7738919098
 20
6.3422627959
 30
0.0
 10
10.7423888808
 20
6.3605200091
 30
0.0
 10
10.7132432508
 20
6.3797948017
 30
0.0
 10
10.6864943771
 20
6.4012346491
 30
0.0
 10
10.6626841052
 20
6.4246926849
 30
0.0
 10
10.6466672223
 20
6.4428751056
 30
0.0
 10
10.632363969
 20
6.4617637679
 30
0.0
 10
10.6198357293
 20
6.4812796145
 30
0.0
 10
10.6091379716
 20
6.5013394746
 30
0.0
 10
10.6003182456
 20
6.5218577879
 30
0.0
 10
10.5934162208
 20
6.5427461559
 30
0.0
 10
10.5884633026
 20
6.5639148631
 30
0.0
 10
10.585482297
 20
6.5852693097
 30
0.0
 10
10.5848183383
 20
6.5995832169
 30
0.0
 10
10.5848183383
 20
6.6067205995
 30
0.0
  0
SPLINE
  5
2BA
100
AcDbEntity
  8
0
100
AcDbSpline
 62
7
  6
CONTINUOUS
 70
0
 71
3
 72
23
 73
19
 74
0
 42
0.0000001
 43
0.0000001
 44
0.0000000001
 40
0.0
 40
0.0
 40
0.0
 40
0.0
 40
0.0619185747
 40
0.1245331377
 40
0.187583276
 40
0.2508227699
 40
0.3139887879
 40
0.3767844615
 40
0.4387715391
 40
0.5
 40
0.5612284609
 40
0.6232155385
 40
0.6860112121
 40
0.7491772301
 40
0.812416724
 40
0.8754668623
 40
0.9380814253
 40
1.0
 40
1.0
 40
1.0
 40
1.0
 10
11.453678485
 20
8.6308632258
 30
0.0
 10
11.455169496
 20
8.628809927
 30
0.0
 10
11.4579985674
 20
8.6245542081
 30
0.0
 10
11.4617286441
 20
8.617823095
 30
0.0
 10
11.4649213031
 20
8.6107609306
 30
0.0
 10
11.4675466183
 20
8.6034454874
 30
0.0
 10
11.4695913005
 20
8.595957855
 30
0.0
 10
11.4710340009
 20
8.5883838535
 30
0.0
 10
11.4718901554
 20
8.5808016751
 30
0.0
 10
11.4721698667
 20
8.5732409815
 30
0.0
 10
11.4718901554
 20
8.5656802878
 30
0.0
 10
11.4710340009
 20
8.5580981094
 30
0.0
 10
11.4695913005
 20
8.550524108
 30
0.0
 10
11.4675466183
 20
8.5430364755
 30
0.0
 10
11.4649213031
 20
8.5357210323
 30
0.0
 10
11.4617286441
 20
8.528658868
 30
0.0
 10
11.4579985674
 20
8.5219277549
 30
0.0
 10
11.455169496
 20
8.5176720359
 30
0.0
 10
11.453678485
 20
8.5156187371
 30
0.0
  0
SPLINE
  5
2BB
100
AcDbEntity
  8
0
100
AcDbSpline
 62
7
  6
CONTINUOUS
 70
0
 71
3
 72
23
 73
19
 74
0
 42
0.0000001
 43
0.0000001
 44
0.0000000001
 40
0.0
 40
0.0
 40
0.0
 40
0.0
 40
0.0619185747
 40
0.1245331377
 40
0.187583276
 40
0.2508227699
 40
0.3139887879
 40
0.3767844615
 40
0.4387715391
 40
0.5
 40
0.5612284609
 40
0.6232155385
 40
0.6860112121
 40
0.7491772301
 40
0.812416724
 40
0.8754668623
 40
0.9380814253
 40
1.0
 40
1.0
 40
1.0
 40
1.0
 10
10.6409581916
 20
8.6308632258
 30
0.0
 10
10.6394671806
 20
8.628809927
 30
0.0
 10
10.6366381091
 20
8.6245542081
 30
0.0
 10
10.6329080324
 20
8.617823095
 30
0.0
 10
10.6297153735
 20
8.6107609306
 30
0.0
 10
10.6270900583
 20
8.6034454874
 30
0.0
 10
10.6250453761
 20
8.595957855
 30
0.0
 10
10.6236026757
 20
8.5883838535
 30
0.0
 10
10.6227465211
 20
8.5808016751
 30
0.0
 10
10.6224668099
 20
8.5732409815
 30
0.0
 10
10.6227465211
 20
8.5656802878
 30
0.0
 10
10.6236026757
 20
8.5580981094
 30
0.0
 10
10.6250453761
 20
8.550524108
 30
0.0
 10
10.6270900583
 20
8.5430364755
 30
0.0
 10
10.6297153735
 20
8.5357210323
 30
0.0
 10
10.6329080325
 20
8.528658868
 30
0.0
 10
10.6366381091
 20
8.5219277549
 30
0.0
 10
10.6394671806
 20
8.5176720359
 30
0.0
 10
10.6409581916
 20
8.5156187371
 30
0.0
  0
SPLINE
  5
2BC
100
AcDbEntity
  8
0
100
AcDbSpline
 62
7
  6
CONTINUOUS
 70
0
 71
3
 72
22
 73
18
 74
0
 42
0.0000001
 43
0.0000001
 44
0.0000000001
 40
0.0
 40
0.0
 40
0.0
 40
0.0
 40
0.0615560036
 40
0.1231198216
 40
0.1847032936
 40
0.246319119
 40
0.3079875169
 40
0.3697332204
 40
0.4315886628
 40
0.4935920461
 40
0.5557861967
 40
0.6182178267
 40
0.6809332797
 40
0.7439765634
 40
0.8073871825
 40
0.8711928483
 40
1.0
 40
1.0
 40
1.0
 40
1.0
 10
11.4998183383
 20
6.909271898
 30
0.0
 10
11.4998183383
 20
6.9001591113
 30
0.0
 10
11.499039148
 20
6.8819228174
 30
0.0
 10
11.4955458653
 20
6.8547716884
 30
0.0
 10
11.4897668665
 20
6.8280031273
 30
0.0
 10
11.4817640835
 20
6.8017984975
 30
0.0
 10
11.471619882
 20
6.7763212476
 30
0.0
 10
11.4594326803
 20
6.7517174677
 30
0.0
 10
11.4453124666
 20
6.7281135212
 30
0.0
 10
11.4293766784
 20
6.7056156215
 30
0.0
 10
11.411745813
 20
6.6843109669
 30
0.0
 10
11.3925407562
 20
6.6642694871
 30
0.0
 10
11.3718800333
 20
6.6455464435
 30
0.0
 10
11.3498796755
 20
6.6281854232
 30
0.0
 10
11.3266496424
 20
6.6122202545
 30
0.0
 10
11.2940939777
 20
6.592777125
 30
0.0
 10
11.268279832
 20
6.5804524959
 30
0.0
 10
11.2506256592
 20
6.57324521
 30
0.0
  0
LINE
  5
2BD
100
AcDbEntity
  8
0
100
AcDbLine
 62
7
  6
CONTINUOUS
 10
11.0472850862
 20
6.5342421662
 11
11.0468031895
 21
6.5342424005
  0
SPLINE
  5
2BE
100
AcDbEntity
  8
0
100
AcDbSpline
 62
7
  6
CONTINUOUS
 70
0
 71
3
 72
28
 73
24
 74
0
 42
0.0000001
 43
0.0000001
 44
0.0000000001
 40
0.0
 40
0.0
 40
0.0
 40
0.0
 40
0.0654536805
 40
0.1307410209
 40
0.1957107399
 40
0.2602367714
 40
0.3242275867
 40
0.3876319504
 40
0.4504425937
 40
0.512691227
 40
0.5744426477
 40
0.6357844217
 40
0.6968097607
 40
0.7272451436
 40
0.7576356452
 40
0.7879903574
 40
0.818317429
 40
0.8486232794
 40
0.8789135147
 40
0.9091932372
 40
0.9394662941
 40
0.9697325603
 40
1.0
 40
1.0
 40
1.0
 40
1.0
 10
11.0468031895
 20
6.5342424005
 30
0.0
 10
11.0325809723
 20
6.5342554119
 30
0.0
 10
11.0041617716
 20
6.535359736
 30
0.0
 10
10.9618781976
 20
6.5402463591
 30
0.0
 10
10.9202917908
 20
6.5483430189
 30
0.0
 10
10.8797436688
 20
6.5596192399
 30
0.0
 10
10.8405620779
 20
6.5740355789
 30
0.0
 10
10.8030688562
 20
6.5915450521
 30
0.0
 10
10.7675824662
 20
6.6120926047
 30
0.0
 10
10.7344247065
 20
6.6356108621
 30
0.0
 10
10.7039266307
 20
6.6620129613
 30
0.0
 10
10.676436154
 20
6.6911743141
 30
0.0
 10
10.6563071695
 20
6.7176687823
 30
0.0
 10
10.6420896854
 20
6.7400180779
 30
0.0
 10
10.6324095811
 20
6.7573173945
 30
0.0
 10
10.623748975
 20
6.7751225706
 30
0.0
 10
10.6161486238
 20
6.7933860849
 30
0.0
 10
10.609646686
 20
6.8120542906
 30
0.0
 10
10.6042768547
 20
6.8310686608
 30
0.0
 10
10.6000683393
 20
6.8503661941
 30
0.0
 10
10.5970451925
 20
6.8698796643
 30
0.0
 10
10.5952238147
 20
6.8895384008
 30
0.0
 10
10.5948183383
 20
6.9026951818
 30
0.0
 10
10.5948183383
 20
6.909271898
 30
0.0
  0
SPLINE
  5
2BF
100
AcDbEntity
  8
0
100
AcDbSpline
 62
7
  6
CONTINUOUS
 70
0
 71
3
 72
11
 73
7
 74
0
 42
0.0000001
 43
0.0000001
 44
0.0000000001
 40
0.0
 40
0.0
 40
0.0
 40
0.0
 40
0.2470580453
 40
0.4965259357
 40
0.7477874897
 40
1.0
 40
1.0
 40
1.0
 40
1.0
 10
11.2506256592
 20
6.57324521
 30
0.0
 10
11.2347522603
 20
6.5667649221
 30
0.0
 10
11.2021510958
 20
6.5553934084
 30
0.0
 10
11.1516251245
 20
6.543214826
 30
0.0
 10
11.0998140831
 20
6.5358770203
 30
0.0
 10
11.0648523196
 20
6.5342431617
 30
0.0
 10
11.0473493819
 20
6.5342421662
 30
0.0
  0
SPLINE
  5
2C0
100
AcDbEntity
  8
0
100
AcDbSpline
 62
7
  6
CONTINUOUS
 70
0
 71
3
 72
15
 73
11
 74
0
 42
0.0000001
 43
0.0000001
 44
0.0000000001
 40
0.0
 40
0.0
 40
0.0
 40
0.0
 40
0.1211615122
 40
0.2427131108
 40
0.3650361109
 40
0.4884948475
 40
0.6134292388
 40
0.7401487539
 40
0.8689273403
 40
1.0
 40
1.0
 40
1.0
 40
1.0
 10
11.4998182951
 20
7.1370506854
 30
0.0
 10
11.499818325
 20
7.1431194144
 30
0.0
 10
11.4993281973
 20
7.1552820527
 30
0.0
 10
11.4971267586
 20
7.1734516136
 30
0.0
 10
11.4934658717
 20
7.1915024646
 30
0.0
 10
11.4883582881
 20
7.2093738563
 30
0.0
 10
11.4818214982
 20
7.2270077821
 30
0.0
 10
11.4738772188
 20
7.2443469296
 30
0.0
 10
11.4645527709
 20
7.2613342166
 30
0.0
 10
11.4575013327
 20
7.2722882987
 30
0.0
 10
11.4537653763
 20
7.2776868103
 30
0.0
  0
SPLINE
  5
2C1
100
AcDbEntity
  8
0
100
AcDbSpline
 62
7
  6
CONTINUOUS
 70
0
 71
3
 72
15
 73
11
 74
0
 42
0.0000001
 43
0.0000001
 44
0.0000000001
 40
0.0
 40
0.0
 40
0.0
 40
0.0
 40
0.1211073849
 40
0.2426107813
 40
0.364897039
 40
0.4883355753
 40
0.6132708621
 40
0.7400157157
 40
0.8688465054
 40
1.0
 40
1.0
 40
1.0
 40
1.0
 10
10.5948183815
 20
7.1370506854
 30
0.0
 10
10.5948184116
 20
7.143166644
 30
0.0
 10
10.5953160378
 20
7.1554243404
 30
0.0
 10
10.5975521402
 20
7.1737346929
 30
0.0
 10
10.6012701379
 20
7.1919235286
 30
0.0
 10
10.6064570803
 20
7.209928686
 30
0.0
 10
10.6130951671
 20
7.2276907115
 30
0.0
 10
10.6211617179
 20
7.2451510524
 30
0.0
 10
10.6306284562
 20
7.2622514397
 30
0.0
 10
10.6377860827
 20
7.2732727512
 30
0.0
 10
10.6415778573
 20
7.2787032593
 30
0.0
  0
SPLINE
  5
2C2
100
AcDbEntity
  8
0
100
AcDbSpline
 62
7
  6
CONTINUOUS
 70
0
 71
3
 72
21
 73
17
 74
0
 42
0.0000001
 43
0.0000001
 44
0.0000000001
 40
0.0
 40
0.0
 40
0.0
 40
0.0
 40
0.0554312148
 40
0.1110880321
 40
0.1671896965
 40
0.2239431172
 40
0.2815377411
 40
0.3401414715
 40
0.3998975498
 40
0.4609228936
 40
0.5233071806
 40
0.58711286
 40
0.7190393707
 40
0.7872246345
 40
0.8568278075
 40
1.0
 40
1.0
 40
1.0
 40
1.0
 10
11.5098183383
 20
6.6067205995
 30
0.0
 10
11.5098183383
 20
6.5997409571
 30
0.0
 10
11.5091835268
 20
6.5857450569
 30
0.0
 10
11.5063331066
 20
6.5648599839
 30
0.0
 10
11.5015964784
 20
6.5441484522
 30
0.0
 10
11.4949944427
 20
6.5236989385
 30
0.0
 10
11.4865556534
 20
6.5035954514
 30
0.0
 10
11.4763163747
 20
6.4839208654
 30
0.0
 10
11.4643201635
 20
6.4647554699
 30
0.0
 10
11.450617808
 20
6.4461774624
 30
0.0
 10
11.4352655362
 20
6.428261255
 30
0.0
 10
11.412434139
 20
6.4051011874
 30
0.0
 10
11.3867534541
 20
6.3838408055
 30
0.0
 10
11.3587329084
 20
6.3646266091
 30
0.0
 10
11.3284237605
 20
6.3463496338
 30
0.0
 10
11.3043269808
 20
6.3344813957
 30
0.0
 10
11.2877677453
 20
6.3273550089
 30
0.0
  0
SPLINE
  5
2C3
100
AcDbEntity
  8
0
100
AcDbSpline
 62
7
  6
CONTINUOUS
 70
0
 71
3
 72
21
 73
17
 74
0
 42
0.0000001
 43
0.0000001
 44
0.0000000001
 40
0.0
 40
0.0
 40
0.0
 40
0.0
 40
0.0552266317
 40
0.1106882439
 40
0.16661287
 40
0.2232151743
 40
0.2806908359
 40
0.3392122553
 40
0.3989253796
 40
0.4599478627
 40
0.5223683293
 40
0.5862464221
 40
0.7184063054
 40
0.7867418665
 40
0.8565069269
 40
1.0
 40
1.0
 40
1.0
 40
1.0
 10
11.6223182974
 20
5.9561823608
 30
0.0
 10
11.6223182626
 20
5.9473088594
 30
0.0
 10
11.6214928994
 20
5.9295131907
 30
0.0
 10
11.6177868192
 20
5.9029644101
 30
0.0
 10
11.6116291413
 20
5.8766465514
 30
0.0
 10
11.6030481872
 20
5.8506772393
 30
0.0
 10
11.5920830682
 20
5.8251680058
 30
0.0
 10
11.5787831623
 20
5.8002287207
 30
0.0
 10
11.5632075648
 20
5.7759657556
 30
0.0
 10
11.5454251734
 20
5.7524825329
 30
0.0
 10
11.5255122952
 20
5.7298773594
 30
0.0
 10
11.4959102578
 20
5.7007133602
 30
0.0
 10
11.4626550744
 20
5.6740584286
 30
0.0
 10
11.4264195943
 20
5.6500950958
 30
0.0
 10
11.3872555258
 20
5.6273975256
 30
0.0
 10
11.3561637241
 20
5.6127824275
 30
0.0
 10
11.3348183383
 20
5.6040682103
 30
0.0
  0
SPLINE
  5
2C4
100
AcDbEntity
  8
0
100
AcDbSpline
 62
7
  6
CONTINUOUS
 70
0
 71
3
 72
21
 73
17
 74
0
 42
0.0000001
 43
0.0000001
 44
0.0000000001
 40
0.0
 40
0.0
 40
0.0
 40
0.0
 40
0.0587066593
 40
0.1175162975
 40
0.1765306262
 40
0.2358488864
 40
0.2955666403
 40
0.3557749107
 40
0.416558881
 40
0.4779975984
 40
0.5401628963
 40
0.6031192895
 40
0.6669231289
 40
0.7316230971
 40
0.8638288087
 40
1.0
 40
1.0
 40
1.0
 40
1.0
 10
10.4723183724
 20
6.6208627351
 30
0.0
 10
10.4723184
 20
6.6265476543
 30
0.0
 10
10.4726561976
 20
6.6379303473
 30
0.0
 10
10.4741753768
 20
6.6549667412
 30
0.0
 10
10.4767039852
 20
6.6719431934
 30
0.0
 10
10.4802378836
 20
6.6888287135
 30
0.0
 10
10.4847701419
 20
6.7055937097
 30
0.0
 10
10.4902931098
 20
6.7222083042
 30
0.0
 10
10.4967962696
 20
6.7386433596
 30
0.0
 10
10.5042684216
 20
6.7548696893
 30
0.0
 10
10.5126957719
 20
6.7708589536
 30
0.0
 10
10.5220635005
 20
6.7865828126
 30
0.0
 10
10.5323549393
 20
6.802014085
 30
0.0
 10
10.5473900212
 20
6.8223058782
 30
0.0
 10
10.5684553497
 20
6.8467964053
 30
0.0
 10
10.587145661
 20
6.8649088067
 30
0.0
 10
10.5969927739
 20
6.8736787694
 30
0.0
  0
SPLINE
  5
2C5
100
AcDbEntity
  8
0
100
AcDbSpline
 62
7
  6
CONTINUOUS
 70
0
 71
3
 72
42
 73
38
 74
0
 42
0.0000001
 43
0.0000001
 44
0.0000000001
 40
0.0
 40
0.0
 40
0.0
 40
0.0
 40
0.0125789037
 40
0.0252170324
 40
0.0379247024
 40
0.0507113767
 40
0.0635858732
 40
0.0765564404
 40
0.0896306776
 40
0.102815477
 40
0.1295358911
 40
0.1567639427
 40
0.1845297595
 40
0.212853223
 40
0.2417449117
 40
0.2712070866
 40
0.3012345742
 40
0.331815486
 40
0.3629317621
 40
0.3945595804
 40
0.4266696845
 40
0.4592276833
 40
0.4921943709
 40
0.5255260935
 40
0.5591751744
 40
0.5930904034
 40
0.6272175822
 40
0.6615001193
 40
0.6958796629
 40
0.7302967593
 40
0.7646915278
 40
0.7990043408
 40
0.8331765016
 40
0.8671509127
 40
0.9008726923
 40
0.9342898931
 40
1.0
 40
1.0
 40
1.0
 40
1.0
 10
8.9090524215
 20
4.7411524635
 30
0.0
 10
8.9113895793
 20
4.7251989728
 30
0.0
 10
8.9167660517
 20
4.6933138588
 30
0.0
 10
8.9268945732
 20
4.6457541369
 30
0.0
 10
8.9390969257
 20
4.5984079669
 30
0.0
 10
8.9533623192
 20
4.5513258471
 30
0.0
 10
8.9696784475
 20
4.5045576188
 30
0.0
 10
8.9880292462
 20
4.4581535887
 30
0.0
 10
9.0083969026
 20
4.4121629654
 30
0.0
 10
9.0383438018
 20
4.3511965112
 30
0.0
 10
9.0808011385
 20
4.2762411116
 30
0.0
 10
9.1391809352
 20
4.1891659683
 30
0.0
 10
9.2049612512
 20
4.1049174999
 30
0.0
 10
9.2778437924
 20
4.0238497498
 30
0.0
 10
9.3575043863
 20
3.9462887172
 30
0.0
 10
9.4435951158
 20
3.8725375542
 30
0.0
 10
9.5357495023
 20
3.802874322
 30
0.0
 10
9.633585713
 20
3.7375531282
 30
0.0
 10
9.7367090096
 20
3.6768052101
 30
0.0
 10
9.8447131636
 20
3.620840384
 30
0.0
 10
9.9571812175
 20
3.5698483707
 30
0.0
 10
10.0736858494
 20
3.5239998902
 30
0.0
 10
10.1937895721
 20
3.4834473341
 30
0.0
 10
10.3170450115
 20
3.4483250863
 30
0.0
 10
10.4429953895
 20
3.4187495387
 30
0.0
 10
10.5711752822
 20
3.3948188958
 30
0.0
 10
10.7011116654
 20
3.376612813
 30
0.0
 10
10.832325247
 20
3.364192071
 30
0.0
 10
10.9643320216
 20
3.3575982458
 30
0.0
 10
11.0966449721
 20
3.3568534472
 30
0.0
 10
11.2287759616
 20
3.3619601937
 30
0.0
 10
11.360237351
 20
3.3729013234
 30
0.0
 10
11.4905447727
 20
3.389640372
 30
0.0
 10
11.6192154423
 20
3.4121207272
 30
0.0
 10
11.7457825261
 20
3.4402699412
 30
0.0
 10
11.9101382784
 20
3.4849699609
 30
0.0
 10
12.0303198851
 20
3.5270346385
 30
0.0
 10
12.1082998157
 20
3.5588697685
 30
0.0
  0
SPLINE
  5
2C6
100
AcDbEntity
  8
0
100
AcDbSpline
 62
7
  6
CONTINUOUS
 70
0
 71
3
 72
26
 73
22
 74
0
 42
0.0000001
 43
0.0000001
 44
0.0000000001
 40
0.0
 40
0.0
 40
0.0
 40
0.0
 40
0.140319671
 40
0.2089580899
 40
0.2764956035
 40
0.3428915034
 40
0.4081162265
 40
0.4721524739
 40
0.5037269744
 40
0.5350041069
 40
0.5966663006
 40
0.6571741923
 40
0.6870133877
 40
0.7165827478
 40
0.7749387327
 40
0.8323380829
 40
0.8888887271
 40
0.9168908013
 40
0.9447304212
 40
0.9724266061
 40
1.0
 40
1.0
 40
1.0
 40
1.0
 10
12.1082998168
 20
3.5588697688
 30
0.0
 10
12.1807194048
 20
3.5884349776
 30
0.0
 10
12.2865917841
 20
3.6376179442
 30
0.0
 10
12.4210019864
 20
3.7131614681
 30
0.0
 10
12.5164296173
 20
3.7736492232
 30
0.0
 10
12.6068444283
 20
3.8381767714
 30
0.0
 10
12.6919133683
 20
3.9065338322
 30
0.0
 10
12.7583929178
 20
3.9667828323
 30
0.0
 10
12.808543592
 20
4.0166800415
 30
0.0
 10
12.8561867727
 20
4.0671716196
 30
0.0
 10
12.9118772274
 20
4.1321850361
 30
0.0
 10
12.962610677
 20
4.2001466072
 30
0.0
 10
12.9997389448
 20
4.2557510581
 30
0.0
 10
13.0342384997
 20
4.3116172816
 30
0.0
 10
13.0730580706
 20
4.3828137486
 30
0.0
 10
13.1126363519
 20
4.4704307152
 30
0.0
 10
13.1395797618
 20
4.5449294784
 30
0.0
 10
13.1573415921
 20
4.6050272619
 30
0.0
 10
13.1687447885
 20
4.650192
 30
0.0
 10
13.178261999
 20
4.6955459278
 30
0.0
 10
13.1833560338
 20
4.725942649
 30
0.0
 10
13.1855840877
 20
4.7411512781
 30
0.0
  0
SPLINE
  5
2C7
100
AcDbEntity
  8
0
100
AcDbSpline
 62
7
  6
CONTINUOUS
 70
0
 71
3
 72
29
 73
25
 74
0
 42
0.0000001
 43
0.0000001
 44
0.0000000001
 40
0.0
 40
0.0
 40
0.0
 40
0.0
 40
0.0277605309
 40
0.0555501839
 40
0.0833944724
 40
0.1113213811
 40
0.1393578261
 40
0.1675295214
 40
0.1958615083
 40
0.2243778046
 40
0.253101174
 40
0.2820530761
 40
0.3407087298
 40
0.4004997226
 40
0.461541758
 40
0.5239233426
 40
0.5877055457
 40
0.6201381028
 40
0.652931384
 40
0.7195912341
 40
0.7876775746
 40
0.8571513177
 40
0.9279515439
 40
1.0
 40
1.0
 40
1.0
 40
1.0
 10
9.4273183383
 20
5.4851550294
 30
0.0
 10
9.4273183383
 20
5.4977880358
 30
0.0
 10
9.4279030255
 20
5.5230711858
 30
0.0
 10
9.430531773
 20
5.5609432469
 30
0.0
 10
9.4349097071
 20
5.5987301355
 30
0.0
 10
9.4410310626
 20
5.6363874548
 30
0.0
 10
9.4488879351
 20
5.673873418
 30
0.0
 10
9.4584709829
 20
5.7111457943
 30
0.0
 10
9.4697680157
 20
5.7481631194
 30
0.0
 10
9.4827653451
 20
5.7848841994
 30
0.0
 10
9.4974476237
 20
5.8212693909
 30
0.0
 10
9.5193383392
 20
5.8694847714
 30
0.0
 10
9.5509085911
 20
5.928762162
 30
0.0
 10
9.5950399589
 20
5.9975920726
 30
0.0
 10
9.6453843081
 20
6.0641533914
 30
0.0
 10
9.7017102876
 20
6.1281647628
 30
0.0
 10
9.7531424022
 20
6.1788852563
 30
0.0
 10
9.7969731563
 20
6.2179559553
 30
0.0
 10
9.8430761152
 20
6.2563975088
 30
0.0
 10
9.9039837494
 20
6.3023499319
 30
0.0
 10
9.9815297529
 20
6.353668791
 30
0.0
 10
10.0636038919
 20
6.401257501
 30
0.0
 10
10.1498517649
 20
6.4449186296
 30
0.0
 10
10.2094040491
 20
6.4710749518
 30
0.0
 10
10.2397590488
 20
6.4834673285
 30
0.0
  0
SPLINE
  5
2C8
100
AcDbEntity
  8
0
100
AcDbSpline
 62
7
  6
CONTINUOUS
 70
0
 71
3
 72
9
 73
5
 74
0
 42
0.0000001
 43
0.0000001
 44
0.0000000001
 40
0.0
 40
0.0
 40
0.0
 40
0.0
 40
0.2469242933
 40
1.0
 40
1.0
 40
1.0
 40
1.0
 10
10.2437243437
 20
6.4850808673
 30
0.0
 10
10.2621076287
 20
6.4925368399
 30
0.0
 10
10.3370321071
 20
6.5215502455
 30
0.0
 10
10.4137591816
 20
6.5458781307
 30
0.0
 10
10.4721756928
 20
6.5616250195
 30
0.0
  0
SPLINE
  5
2C9
100
AcDbEntity
  8
0
100
AcDbSpline
 62
7
  6
CONTINUOUS
 70
0
 71
3
 72
29
 73
25
 74
0
 42
0.0000001
 43
0.0000001
 44
0.0000000001
 40
0.0
 40
0.0
 40
0.0
 40
0.0
 40
0.0728195494
 40
0.1445078611
 40
0.2149167283
 40
0.283920145
 40
0.3514177027
 40
0.4173380465
 40
0.4816421146
 40
0.5443261866
 40
0.605424565
 40
0.6650114712
 40
0.694280002
 40
0.723217298
 40
0.7518440607
 40
0.7801833983
 40
0.8082607221
 40
0.8361035815
 40
0.8637414979
 40
0.8912058296
 40
0.9185292763
 40
0.9457458218
 40
0.9728914435
 40
1.0
 40
1.0
 40
1.0
 40
1.0
 10
11.6225300187
 20
6.561606401
 30
0.0
 10
11.6602726914
 20
6.5514310901
 30
0.0
 10
11.7346192705
 20
6.52911316
 30
0.0
 10
11.843043839
 20
6.4894989657
 30
0.0
 10
11.9469946448
 20
6.4441954542
 30
0.0
 10
12.0458825588
 20
6.3934505946
 30
0.0
 10
12.1391520145
 20
6.3375391486
 30
0.0
 10
12.2262762756
 20
6.2767633373
 30
0.0
 10
12.3067608549
 20
6.2114510514
 30
0.0
 10
12.3801458916
 20
6.1419523818
 30
0.0
 10
12.4460030708
 20
6.0686471386
 30
0.0
 10
12.4945844728
 20
6.0043219214
 30
0.0
 10
12.5292108638
 20
5.9513911755
 30
0.0
 10
12.5529228409
 20
5.911240315
 30
0.0
 10
12.5744913571
 20
5.8704621235
 30
0.0
 10
12.5938835103
 20
5.8291136264
 30
0.0
 10
12.6110688836
 20
5.7872543245
 30
0.0
 10
12.6260201787
 20
5.7449446328
 30
0.0
 10
12.6387131344
 20
5.702246203
 30
0.0
 10
12.6491271852
 20
5.6592219188
 30
0.0
 10
12.6572451887
 20
5.6159358234
 30
0.0
 10
12.6630535416
 20
5.5724517605
 30
0.0
 10
12.6665422904
 20
5.5288372627
 30
0.0
 10
12.6673183383
 20
5.4997071626
 30
0.0
 10
12.6673183383
 20
5.4851550294
 30
0.0
  0
SPLINE
  5
2CA
100
AcDbEntity
  8
0
100
AcDbSpline
 62
7
  6
CONTINUOUS
 70
0
 71
3
 72
30
 73
26
 74
0
 42
0.0000001
 43
0.0000001
 44
0.0000000001
 40
0.0
 40
0.0
 40
0.0
 40
0.0
 40
0.0280965774
 40
0.0562177629
 40
0.0843872458
 40
0.1126291422
 40
0.1409669825
 40
0.1694236813
 40
0.1980215459
 40
0.2267821184
 40
0.2557259951
 40
0.2848727843
 40
0.3438353945
 40
0.4038161534
 40
0.4342296098
 40
0.4649373959
 40
0.5272652744
 40
0.5908745047
 40
0.6231773585
 40
0.6558131899
 40
0.7220784794
 40
0.7896707742
 40
0.8585594253
 40
0.9286923418
 40
1.0
 40
1.0
 40
1.0
 40
1.0
 10
9.1423183383
 20
5.3277726261
 30
0.0
 10
9.1423183383
 20
5.3429742255
 30
0.0
 10
9.1430194211
 20
5.3733953856
 30
0.0
 10
9.1461716926
 20
5.4189593253
 30
0.0
 10
9.1514199279
 20
5.4644096938
 30
0.0
 10
9.1587558651
 20
5.50968844
 30
0.0
 10
9.1681676376
 20
5.5547402734
 30
0.0
 10
9.1796409273
 20
5.5995102744
 30
0.0
 10
9.1931582621
 20
5.643944977
 30
0.0
 10
9.2086991891
 20
5.687992096
 30
0.0
 10
9.2262418644
 20
5.7316015898
 30
0.0
 10
9.2523637334
 20
5.7893125804
 30
0.0
 10
9.2899836465
 20
5.860166121
 30
0.0
 10
9.3335584032
 20
5.9283250498
 30
0.0
 10
9.3719890027
 20
5.9814097992
 30
0.0
 10
9.41318562
 20
6.0340015804
 30
0.0
 10
9.4691450663
 20
6.097759442
 30
0.0
 10
9.5300855084
 20
6.1579967631
 30
0.0
 10
9.5819628403
 20
6.204338434
 30
0.0
 10
9.6364481103
 20
6.2498600402
 30
0.0
 10
9.7083631026
 20
6.3042172357
 30
0.0
 10
9.7998519462
 20
6.3648568045
 30
0.0
 10
9.8965856509
 20
6.421013015
 30
0.0
 10
9.9981496321
 20
6.4724687354
 30
0.0
 10
10.0682520562
 20
6.503268492
 30
0.0
 10
10.1039710028
 20
6.5178506909
 30
0.0
  0
SPLINE
  5
2CB
100
AcDbEntity
  8
0
100
AcDbSpline
 62
7
  6
CONTINUOUS
 70
0
 71
3
 72
10
 73
6
 74
0
 42
0.0000001
 43
0.0000001
 44
0.0000000001
 40
0.0
 40
0.0
 40
0.0
 40
0.0
 40
0.4949207831
 40
0.7463392162
 40
1.0
 40
1.0
 40
1.0
 40
1.0
 10
10.1039710028
 20
6.5178506909
 30
0.0
 10
10.1630382768
 20
6.5419648046
 30
0.0
 10
10.2537523833
 20
6.5744658078
 30
0.0
 10
10.3775636102
 20
6.6104324137
 30
0.0
 10
10.4407916443
 20
6.626066592
 30
0.0
 10
10.4726836107
 20
6.6332876907
 30
0.0
  0
SPLINE
  5
2CC
100
AcDbEntity
  8
0
100
AcDbSpline
 62
7
  6
CONTINUOUS
 70
0
 71
3
 72
30
 73
26
 74
0
 42
0.0000001
 43
0.0000001
 44
0.0000000001
 40
0.0
 40
0.0
 40
0.0
 40
0.0
 40
0.0722213712
 40
0.1434373289
 40
0.213484864
 40
0.2822242838
 40
0.3495431039
 40
0.4153598036
 40
0.4796273412
 40
0.5423361753
 40
0.6035166441
 40
0.6335618713
 40
0.6632554077
 40
0.6926126691
 40
0.7216515709
 40
0.7503924241
 40
0.7788578447
 40
0.8070726126
 40
0.8350634649
 40
0.8628589185
 40
0.8904890874
 40
0.917985402
 40
0.9453802949
 40
0.9727073282
 40
1.0
 40
1.0
 40
1.0
 40
1.0
 10
11.62188768
 20
6.6333025014
 30
0.0
 10
11.6690792029
 20
6.6226186039
 30
0.0
 10
11.7622108577
 20
6.5986567075
 30
0.0
 10
11.8984085646
 20
6.5547083686
 30
0.0
 10
12.0294452919
 20
6.5032185731
 30
0.0
 10
12.1545218657
 20
6.4444769698
 30
0.0
 10
12.272881949
 20
6.3788086251
 30
0.0
 10
12.3838037789
 20
6.3065743929
 30
0.0
 10
12.4866066419
 20
6.2281665926
 30
0.0
 10
12.5806428377
 20
6.1440164445
 30
0.0
 10
12.6516370829
 20
6.0690220206
 30
0.0
 10
12.7033436858
 20
6.0066282082
 30
0.0
 10
12.7393418842
 20
5.9589865706
 30
0.0
 10
12.7727234365
 20
5.910291671
 30
0.0
 10
12.8034291509
 20
5.8606141824
 30
0.0
 10
12.8314021037
 20
5.810028954
 30
0.0
 10
12.856589027
 20
5.7586135898
 30
0.0
 10
12.8789402087
 20
5.7064489355
 30
0.0
 10
12.8984101671
 20
5.6536191495
 30
0.0
 10
12.9149582142
 20
5.600211736
 30
0.0
 10
12.92854865
 20
5.5463172145
 30
0.0
 10
12.9391511958
 20
5.4920292171
 30
0.0
 10
12.9467420122
 20
5.4374430695
 30
0.0
 10
12.951303583
 20
5.3826591445
 30
0.0
 10
12.9523183383
 20
5.3460577638
 30
0.0
 10
12.9523183383
 20
5.3277726261
 30
0.0
  0
SPLINE
  5
2CD
100
AcDbEntity
  8
0
100
AcDbSpline
 62
7
  6
CONTINUOUS
 70
0
 71
3
 72
20
 73
16
 74
0
 42
0.0000001
 43
0.0000001
 44
0.0000000001
 40
0.0
 40
0.0
 40
0.0
 40
0.0
 40
0.0601464379
 40
0.1204044664
 40
0.180820771
 40
0.241443236
 40
0.3023182811
 40
0.3634906109
 40
0.4250036085
 40
0.4868988421
 40
0.5492158402
 40
0.6119919955
 40
0.7390349185
 40
0.8683025148
 40
1.0
 40
1.0
 40
1.0
 40
1.0
 10
8.8990731305
 20
4.9580644672
 30
0.0
 10
8.9000018876
 20
4.97460833
 30
0.0
 10
8.9025985593
 20
5.0076900435
 30
0.0
 10
8.9086950981
 20
5.0571459492
 30
0.0
 10
8.9169875162
 20
5.1064152442
 30
0.0
 10
8.9274636802
 20
5.1554401728
 30
0.0
 10
8.9401084006
 20
5.2041660841
 30
0.0
 10
8.9549044731
 20
5.2525386857
 30
0.0
 10
8.9718312385
 20
5.3005053831
 30
0.0
 10
8.990866043
 20
5.3480145516
 30
0.0
 10
9.011984564
 20
5.3950170641
 30
0.0
 10
9.0430029061
 20
5.4571858446
 30
0.0
 10
9.0869442258
 20
5.5334365139
 30
0.0
 10
9.1473105402
 20
5.6217659245
 30
0.0
 10
9.1921788133
 20
5.6780350483
 30
0.0
 10
9.2157752005
 20
5.7055954032
 30
0.0
  0
SPLINE
  5
2CE
100
AcDbEntity
  8
0
100
AcDbSpline
 62
7
  6
CONTINUOUS
 70
0
 71
3
 72
20
 73
16
 74
0
 42
0.0000001
 43
0.0000001
 44
0.0000000001
 40
0.0
 40
0.0
 40
0.0
 40
0.0
 40
0.1316928176
 40
0.2609573297
 40
0.3879987043
 40
0.4507746178
 40
0.5130917118
 40
0.5749873579
 40
0.6365010486
 40
0.6976743335
 40
0.7585505537
 40
0.819174395
 40
0.8795922078
 40
0.9398518425
 40
1.0
 40
1.0
 40
1.0
 40
1.0
 10
12.8791158974
 20
5.7052981881
 30
0.0
 10
12.9026933531
 20
5.6777459202
 30
0.0
 10
12.9475254736
 20
5.6214943195
 30
0.0
 10
13.0078424699
 20
5.5331957062
 30
0.0
 10
13.0517476568
 20
5.456973915
 30
0.0
 10
13.0827405506
 20
5.3948297164
 30
0.0
 10
13.1038418547
 20
5.3478461326
 30
0.0
 10
13.1228611489
 20
5.3003564975
 30
0.0
 10
13.1397742801
 20
5.2524099254
 30
0.0
 10
13.1545584939
 20
5.2040579287
 30
0.0
 10
13.1671932686
 20
5.1553530636
 30
0.0
 10
13.1776613808
 20
5.1063495431
 30
0.0
 10
13.1859476545
 20
5.0571019497
 30
0.0
 10
13.1920400251
 20
5.0076679613
 30
0.0
 10
13.1946352019
 20
4.974600974
 30
0.0
 10
13.1955635461
 20
4.9580644672
 30
0.0
  0
SPLINE
  5
2CF
100
AcDbEntity
  8
0
100
AcDbSpline
 62
7
  6
CONTINUOUS
 70
0
 71
3
 72
18
 73
14
 74
0
 42
0.0000001
 43
0.0000001
 44
0.0000000001
 40
0.0
 40
0.0
 40
0.0
 40
0.0
 40
0.053664652
 40
0.108677107
 40
0.1650612995
 40
0.2228258017
 40
0.3423483967
 40
0.4040643586
 40
0.4669726871
 40
0.5959546618
 40
0.728480153
 40
0.8635331387
 40
1.0
 40
1.0
 40
1.0
 40
1.0
 10
10.6953467171
 20
7.0539658238
 30
0.0
 10
10.6998293669
 20
7.0486440426
 30
0.0
 10
10.7093207906
 20
7.0382087558
 30
0.0
 10
10.7248290258
 20
7.0234363021
 30
0.0
 10
10.7417180907
 20
7.0094154658
 30
0.0
 10
10.7662513855
 20
6.9916087602
 30
0.0
 10
10.7930047156
 20
6.9757967479
 30
0.0
 10
10.8215282262
 20
6.9620410402
 30
0.0
 10
10.8518987001
 20
6.9493964146
 30
0.0
 10
10.8919750727
 20
6.936357246
 30
0.0
 10
10.9422872957
 20
6.925372333
 30
0.0
 10
10.9943754288
 20
6.919115612
 30
0.0
 10
11.0296275188
 20
6.918181456
 30
0.0
 10
11.0473183383
 20
6.9185277047
 30
0.0
  0
SPLINE
  5
2D0
100
AcDbEntity
  8
0
100
AcDbSpline
 62
7
  6
CONTINUOUS
 70
0
 71
3
 72
13
 73
9
 74
0
 42
0.0000001
 43
0.0000001
 44
0.0000000001
 40
0.0
 40
0.0
 40
0.0
 40
0.0
 40
0.2570925344
 40
0.3848573526
 40
0.5115270221
 40
0.6367211296
 40
0.7600894268
 40
1.0
 40
1.0
 40
1.0
 40
1.0
 10
11.0473183383
 20
6.8687190447
 30
0.0
 10
11.0692862467
 20
6.8691470431
 30
0.0
 10
11.1021772497
 20
6.8716726202
 30
0.0
 10
11.1453259289
 20
6.878805183
 30
0.0
 10
11.1769877178
 20
6.8859804012
 30
0.0
 10
11.2077995517
 20
6.8949498243
 30
0.0
 10
11.247095921
 20
6.9090890837
 30
0.0
 10
11.2752858958
 20
6.9223877407
 30
0.0
 10
11.293160489
 20
6.9324325559
 30
0.0
  0
SPLINE
  5
2D1
100
AcDbEntity
  8
0
100
AcDbSpline
 62
7
  6
CONTINUOUS
 70
0
 71
3
 72
19
 73
15
 74
0
 42
0.0000001
 43
0.0000001
 44
0.0000000001
 40
0.0
 40
0.0
 40
0.0
 40
0.0
 40
0.1403584632
 40
0.2758417264
 40
0.4063347441
 40
0.531994931
 40
0.5931779317
 40
0.6533480568
 40
0.7126087483
 40
0.7710807558
 40
0.8289006136
 40
0.886218517
 40
0.9431954512
 40
1.0
 40
1.0
 40
1.0
 40
1.0
 10
11.293160489
 20
6.9324325559
 30
0.0
 10
11.3053613963
 20
6.9392889838
 30
0.0
 10
11.3287030351
 20
6.9539443779
 30
0.0
 10
11.3606027468
 20
6.979053258
 30
0.0
 10
11.3883925038
 20
7.006616602
 30
0.0
 10
11.4079906638
 20
7.0315823359
 30
0.0
 10
11.4211735738
 20
7.0524071907
 30
0.0
 10
11.4297376978
 20
7.0682674638
 30
0.0
 10
11.4370345635
 20
7.0844532791
 30
0.0
 10
11.4430395153
 20
7.1009131773
 30
0.0
 10
11.4477317854
 20
7.1175935616
 30
0.0
 10
11.4510952908
 20
7.1344405689
 30
0.0
 10
11.4531180681
 20
7.1513978307
 30
0.0
 10
11.4535682822
 20
7.1627483447
 30
0.0
 10
11.4535682822
 20
7.1684124525
 30
0.0
  0
SPLINE
  5
2D2
100
AcDbEntity
  8
0
100
AcDbSpline
 62
7
  6
CONTINUOUS
 70
0
 71
3
 72
22
 73
18
 74
0
 42
0.0000001
 43
0.0000001
 44
0.0000000001
 40
0.0
 40
0.0
 40
0.0
 40
0.0
 40
0.1412692979
 40
0.2113623948
 40
0.2807080969
 40
0.3490563522
 40
0.4161810357
 40
0.4818864643
 40
0.5460137215
 40
0.6084471516
 40
0.6691205757
 40
0.7280235185
 40
0.785206167
 40
0.8407833909
 40
0.8949357585
 40
0.9479075562
 40
1.0
 40
1.0
 40
1.0
 40
1.0
 10
11.0473183383
 20
6.9185277047
 30
0.0
 10
11.0717005598
 20
6.919004919
 30
0.0
 10
11.1081938437
 20
6.9220389468
 30
0.0
 10
11.1558918051
 20
6.9307192408
 30
0.0
 10
11.1907096598
 20
6.9394610741
 30
0.0
 10
11.2243660877
 20
6.9503845556
 30
0.0
 10
11.2565924828
 20
6.9634086067
 30
0.0
 10
11.287127473
 20
6.9784348686
 30
0.0
 10
11.3157243086
 20
6.9953494499
 30
0.0
 10
11.3421512832
 20
7.0140236302
 30
0.0
 10
11.3661936936
 20
7.0343150397
 30
0.0
 10
11.3876551182
 20
7.0560685776
 30
0.0
 10
11.4063587129
 20
7.0791175838
 30
0.0
 10
11.4221481657
 20
7.1032839166
 30
0.0
 10
11.4348893783
 20
7.128380981
 30
0.0
 10
11.4444704751
 20
7.1542055012
 30
0.0
 10
11.448722475
 20
7.1718910014
 30
0.0
 10
11.4502821258
 20
7.1807472783
 30
0.0
  0
SPLINE
  5
2D3
100
AcDbEntity
  8
0
100
AcDbSpline
 62
7
  6
CONTINUOUS
 70
0
 71
3
 72
24
 73
20
 74
0
 42
0.0000001
 43
0.0000001
 44
0.0000000001
 40
0.0
 40
0.0
 40
0.0
 40
0.0
 40
0.1415144563
 40
0.2117158953
 40
0.2811517943
 40
0.349567125
 40
0.4167318641
 40
0.4824478188
 40
0.5465553684
 40
0.608940065
 40
0.669539355
 40
0.7283488041
 40
0.7854273268
 40
0.8409010679
 40
0.8949640332
 40
0.9215566414
 40
0.9478988898
 40
0.9740319868
 40
1.0
 40
1.0
 40
1.0
 40
1.0
 10
11.0473183383
 20
6.9681751956
 30
0.0
 10
11.0719671211
 20
6.9686562742
 30
0.0
 10
11.1088580653
 20
6.9717474825
 30
0.0
 10
11.1570549373
 20
6.9806068133
 30
0.0
 10
11.1922152964
 20
6.989530424
 30
0.0
 10
11.2261762525
 20
7.0006809918
 30
0.0
 10
11.2586608303
 20
7.0139738787
 30
0.0
 10
11.2893997775
 20
7.0293064593
 30
0.0
 10
11.3181392198
 20
7.046559954
 30
0.0
 10
11.3446411329
 20
7.0656001809
 30
0.0
 10
11.3686853763
 20
7.0862788663
 30
0.0
 10
11.3900709501
 20
7.1084343196
 30
0.0
 10
11.4086176652
 20
7.1318936972
 30
0.0
 10
11.4241658915
 20
7.1564692835
 30
0.0
 10
11.4345712112
 20
7.1778428026
 30
0.0
 10
11.4412313457
 20
7.1952623938
 30
0.0
 10
11.4453806852
 20
7.2084062576
 30
0.0
 10
11.448700672
 20
7.2216708008
 30
0.0
 10
11.4503614081
 20
7.23060117
 30
0.0
 10
11.4510496763
 20
7.2350724394
 30
0.0
  0
SPLINE
  5
2D4
100
AcDbEntity
  8
0
100
AcDbSpline
 62
7
  6
CONTINUOUS
 70
0
 71
3
 72
21
 73
17
 74
0
 42
0.0000001
 43
0.0000001
 44
0.0000000001
 40
0.0
 40
0.0
 40
0.0
 40
0.0
 40
0.1179009925
 40
0.1788181062
 40
0.2408264098
 40
0.3037541159
 40
0.3674147982
 40
0.4316114486
 40
0.4961396026
 40
0.5607909315
 40
0.6253567723
 40
0.6896312334
 40
0.7534148327
 40
0.8165178618
 40
0.8787636964
 40
1.0
 40
1.0
 40
1.0
 40
1.0
 10
10.8149769503
 20
6.9652705448
 30
0.0
 10
10.831395844
 20
6.9566809721
 30
0.0
 10
10.8572696506
 20
6.9454274454
 30
0.0
 10
10.8932696949
 20
6.9336944564
 30
0.0
 10
10.92156873
 20
6.9263755076
 30
0.0
 10
10.9506763064
 20
6.920689446
 30
0.0
 10
10.9804085365
 20
6.9166754745
 30
0.0
 10
11.0105730296
 20
6.9143637984
 30
0.0
 10
11.04097581
 20
6.9137732636
 30
0.0
 10
11.0714210512
 20
6.9149118201
 30
0.0
 10
11.1017126632
 20
6.9177762764
 30
0.0
 10
11.1316558599
 20
6.9223524964
 30
0.0
 10
11.1610569995
 20
6.928614955
 30
0.0
 10
11.1897301276
 20
6.936529017
 30
0.0
 10
11.2264033353
 20
6.9491033758
 30
0.0
 10
11.252787457
 20
6.9610088054
 30
0.0
 10
11.2695695286
 20
6.9700323529
 30
0.0
  0
SPLINE
  5
2D5
100
AcDbEntity
  8
0
100
AcDbSpline
 62
9
  6
CONTINUOUS
 70
0
 71
3
 72
9
 73
5
 74
0
 42
0.0000001
 43
0.0000001
 44
0.0000000001
 40
0.0
 40
0.0
 40
0.0
 40
0.0
 40
0.2468293795
 40
1.0
 40
1.0
 40
1.0
 40
1.0
 10
10.2451611418
 20
6.4814021058
 30
0.0
 10
10.263410446
 20
6.488852353
 30
0.0
 10
10.3378224467
 20
6.5178577375
 30
0.0
 10
10.4140428596
 20
6.5421929649
 30
0.0
 10
10.472087468
 20
6.5579575641
 30
0.0
  0
SPLINE
  5
2D6
100
AcDbEntity
  8
0
100
AcDbSpline
 62
9
  6
CONTINUOUS
 70
0
 71
3
 72
36
 73
32
 74
0
 42
0.0000001
 43
0.0000001
 44
0.0000000001
 40
0.0
 40
0.0
 40
0.0
 40
0.0
 40
0.0751532236
 40
0.1121292368
 40
0.1486536671
 40
0.2202121357
 40
0.2552123913
 40
0.2896616637
 40
0.3235461673
 40
0.3568572506
 40
0.4217303896
 40
0.4533255958
 40
0.484370523
 40
0.5148866921
 40
0.5449022254
 40
0.5744518392
 40
0.6035767147
 40
0.6323242243
 40
0.6607474965
 40
0.6889048129
 40
0.7168588324
 40
0.7446756525
 40
0.7724237396
 40
0.8001727618
 40
0.8279923712
 40
0.8559509862
 40
0.8841146245
 40
0.9125458367
 40
0.9413027759
 40
0.9704384257
 40
1.0
 40
1.0
 40
1.0
 40
1.0
 10
11.6223358064
 20
6.5580155571
 30
0.0
 10
11.6719662017
 20
6.5445420042
 30
0.0
 10
11.7453055829
 20
6.5216469087
 30
0.0
 10
11.8404522564
 20
6.4856060817
 30
0.0
 10
11.9318013383
 20
6.4467141741
 30
0.0
 10
12.019476594
 20
6.4028126001
 30
0.0
 10
12.1027272376
 20
6.3539784477
 30
0.0
 10
12.1620584722
 20
6.3154633613
 30
0.0
 10
12.2185870051
 20
6.2748881634
 30
0.0
 10
12.2893912001
 20
6.2186869146
 30
0.0
 10
12.354791961
 20
6.1583254975
 30
0.0
 10
12.4139183878
 20
6.0941079327
 30
0.0
 10
12.4544421591
 20
6.0448540014
 30
0.0
 10
12.4914215794
 20
5.9942190104
 30
0.0
 10
12.5247641962
 20
5.9423280364
 30
0.0
 10
12.5543841197
 20
5.8893117062
 30
0.0
 10
12.5802052435
 20
5.8353031841
 30
0.0
 10
12.6021607221
 20
5.7804386344
 30
0.0
 10
12.6201934257
 20
5.7248567471
 30
0.0
 10
12.6342561712
 20
5.6686984785
 30
0.0
 10
12.6443120254
 20
5.6121066789
 30
0.0
 10
12.6503344578
 20
5.5552256633
 30
0.0
 10
12.652307528
 20
5.498200758
 30
0.0
 10
12.6502259974
 20
5.4411778042
 30
0.0
 10
12.6440953693
 20
5.3843026334
 30
0.0
 10
12.6339318492
 20
5.3277205725
 30
0.0
 10
12.6197622554
 20
5.2715758586
 30
0.0
 10
12.6016239576
 20
5.2160114593
 30
0.0
 10
12.5795640116
 20
5.1611675993
 30
0.0
 10
12.5536412648
 20
5.1071854625
 30
0.0
 10
12.5339770398
 20
5.0721268209
 30
0.0
 10
12.5235469406
 20
5.0547943183
 30
0.0
  0
SPLINE
  5
2D7
100
AcDbEntity
  8
0
100
AcDbSpline
 62
9
  6
CONTINUOUS
 70
0
 71
3
 72
15
 73
11
 74
0
 42
0.0000001
 43
0.0000001
 44
0.0000000001
 40
0.0
 40
0.0
 40
0.0
 40
0.0
 40
0.1145833937
 40
0.2319486076
 40
0.3522786748
 40
0.4756852247
 40
0.6022113254
 40
0.7318355253
 40
0.8644772312
 40
1.0
 40
1.0
 40
1.0
 40
1.0
 10
12.5235469406
 20
5.0547943183
 30
0.0
 10
12.5084129227
 20
5.02964495
 30
0.0
 10
12.4755043807
 20
4.9800706954
 30
0.0
 10
12.4194274314
 20
4.9092488311
 30
0.0
 10
12.356355851
 20
4.8414567868
 30
0.0
 10
12.2866201027
 20
4.7770430054
 30
0.0
 10
12.2105772687
 20
4.7163286275
 30
0.0
 10
12.1286155348
 20
4.6596183048
 30
0.0
 10
12.0411573562
 20
4.6071989801
 30
0.0
 10
11.9801019339
 20
4.5756087512
 30
0.0
 10
11.9488091208
 20
4.5605775231
 30
0.0
  0
LINE
  5
2D8
100
AcDbEntity
  8
0
100
AcDbLine
 62
9
  6
CONTINUOUS
 10
11.9488091208
 20
4.5605775231
 11
11.9486326419
 21
4.5604927651
  0
SPLINE
  5
2D9
100
AcDbEntity
  8
0
100
AcDbSpline
 62
7
  6
CONTINUOUS
 70
0
 71
3
 72
28
 73
24
 74
0
 42
0.0000001
 43
0.0000001
 44
0.0000000001
 40
0.0
 40
0.0
 40
0.0
 40
0.0
 40
0.0260139144
 40
0.0521375123
 40
0.0784218621
 40
0.1049155659
 40
0.131664203
 40
0.1587097941
 40
0.1860902292
 40
0.2138391227
 40
0.2419852359
 40
0.2705527218
 40
0.2995607764
 40
0.3290238238
 40
0.3893311714
 40
0.4515159252
 40
0.5155316437
 40
0.5812703721
 40
0.6485706602
 40
0.717225213
 40
0.7869889933
 40
0.8575873155
 40
1.0
 40
1.0
 40
1.0
 40
1.0
 10
11.4530481544
 20
7.1684836462
 30
0.0
 10
11.4527222802
 20
7.1638049356
 30
0.0
 10
11.4517626937
 20
7.154446298
 30
0.0
 10
11.449411314
 20
7.1404950843
 30
0.0
 10
11.446151064
 20
7.1266385459
 30
0.0
 10
11.4419896056
 20
7.1129081238
 30
0.0
 10
11.4369367836
 20
7.0993338221
 30
0.0
 10
11.431003984
 20
7.0859456983
 30
0.0
 10
11.4242053327
 20
7.072772891
 30
0.0
 10
11.4165559906
 20
7.0598444949
 30
0.0
 10
11.4080739183
 20
7.0471884394
 30
0.0
 10
11.3987782001
 20
7.0348326063
 30
0.0
 10
11.3886899448
 20
7.0228034092
 30
0.0
 10
11.374101905
 20
7.0071156281
 30
0.0
 10
11.3539617351
 20
6.988475061
 30
0.0
 10
11.3272344281
 20
6.9679986425
 30
0.0
 10
11.2979974947
 20
6.9494085621
 30
0.0
 10
11.2665155053
 20
6.9328630975
 30
0.0
 10
11.2330700737
 20
6.9185005219
 30
0.0
 10
11.197961986
 20
6.9064410885
 30
0.0
 10
11.161501687
 20
6.8967839725
 30
0.0
 10
11.1114023776
 20
6.8871924798
 30
0.0
 10
11.0729887693
 20
6.8838524337
 30
0.0
 10
11.0473183383
 20
6.8833389507
 30
0.0
  0
SPLINE
  5
2DA
100
AcDbEntity
  8
0
100
AcDbSpline
 62
9
  6
CONTINUOUS
 70
0
 71
3
 72
28
 73
24
 74
0
 42
0.0000001
 43
0.0000001
 44
0.0000000001
 40
0.0
 40
0.0
 40
0.0
 40
0.0
 40
0.0724006469
 40
0.1435185051
 40
0.2132710093
 40
0.281593077
 40
0.3484415896
 40
0.4137963001
 40
0.4776620799
 40
0.5400705089
 40
0.6010812455
 40
0.6607828632
 40
0.7192929956
 40
0.7481522552
 40
0.7767706587
 40
0.8051705508
 40
0.8333757345
 40
0.8614113707
 40
0.8893037829
 40
0.9170803495
 40
0.9447692645
 40
0.9723993863
 40
1.0
 40
1.0
 40
1.0
 40
1.0
 10
11.8573183383
 20
4.4690782324
 30
0.0
 10
11.8876674832
 20
4.481468219
 30
0.0
 10
11.9471976361
 20
4.5076113008
 30
0.0
 10
12.0333987633
 20
4.551233868
 30
0.0
 10
12.1153941118
 20
4.5987524442
 30
0.0
 10
12.1928303101
 20
4.6499651216
 30
0.0
 10
12.2653769716
 20
4.7046556836
 30
0.0
 10
12.3327231353
 20
4.7625932711
 30
0.0
 10
12.3945796484
 20
4.8235334956
 30
0.0
 10
12.4506797008
 20
4.8872188953
 30
0.0
 10
12.5007805783
 20
4.9533814542
 30
0.0
 10
12.5446620893
 20
5.0217372543
 30
0.0
 10
12.5760345815
 20
5.0805670458
 30
0.0
 10
12.5977737138
 20
5.1283865555
 30
0.0
 10
12.6123450141
 20
5.1644492441
 30
0.0
 10
12.6252393363
 20
5.2008305867
 30
0.0
 10
12.6364429887
 20
5.237492228
 30
0.0
 10
12.6459439122
 20
5.2743945388
 30
0.0
 10
12.6537313856
 20
5.3114980154
 30
0.0
 10
12.6597973978
 20
5.3487625488
 30
0.0
 10
12.6641347628
 20
5.386148404
 30
0.0
 10
12.6667393073
 20
5.4236141875
 30
0.0
 10
12.6673182744
 20
5.4486248552
 30
0.0
 10
12.6673182971
 20
5.4611215783
 30
0.0
  0
SPLINE
  5
2DB
100
AcDbEntity
  8
0
100
AcDbSpline
 62
9
  6
CONTINUOUS
 70
0
 71
3
 72
34
 73
30
 74
0
 42
0.0000001
 43
0.0000001
 44
0.0000000001
 40
0.0
 40
0.0
 40
0.0
 40
0.0
 40
0.0739912879
 40
0.1103415863
 40
0.1462338462
 40
0.2165716285
 40
0.2849321763
 40
0.3512839576
 40
0.4156544361
 40
0.4471319955
 40
0.4781539549
 40
0.5087421373
 40
0.5389225594
 40
0.5687253641
 40
0.5981846999
 40
0.6273384946
 40
0.6562281562
 40
0.6848982045
 40
0.7133958303
 40
0.7417703648
 40
0.770072691
 40
0.7983546143
 40
0.826668203
 40
0.8550651185
 40
0.8835959609
 40
0.9123096466
 40
0.941252826
 40
0.9704693817
 40
1.0
 40
1.0
 40
1.0
 40
1.0
 10
12.0484360611
 20
3.774667227
 30
0.0
 10
12.097508141
 20
3.7947008198
 30
0.0
 10
12.1697017712
 20
3.8271018346
 30
0.0
 10
12.2627995117
 20
3.8751668764
 30
0.0
 10
12.3517681251
 20
3.9253755768
 30
0.0
 10
12.4571359024
 20
3.9930075818
 30
0.0
 10
12.5740925466
 20
4.0821507317
 30
0.0
 10
12.6798538457
 20
4.1780900778
 30
0.0
 10
12.7586010787
 20
4.2637827158
 30
0.0
 10
12.8150748857
 20
4.3350304869
 30
0.0
 10
12.8538649666
 20
4.3893071065
 30
0.0
 10
12.889326031
 20
4.4447148128
 30
0.0
 10
12.9213930094
 20
4.501153008
 30
0.0
 10
12.9500055031
 20
4.5585176278
 30
0.0
 10
12.9751099682
 20
4.6167030175
 30
0.0
 10
12.9966591582
 20
4.6756017541
 30
0.0
 10
13.0146123306
 20
4.7351049427
 30
0.0
 10
13.0289353104
 20
4.7951023652
 30
0.0
 10
13.0396009468
 20
4.8554826253
 30
0.0
 10
13.0465889593
 20
4.9161334659
 30
0.0
 10
13.0498859704
 20
4.9769420035
 30
0.0
 10
13.0494855375
 20
5.0377949621
 30
0.0
 10
13.0453885216
 20
5.098578952
 30
0.0
 10
13.0376028283
 20
5.1591807557
 30
0.0
 10
13.0261432861
 20
5.2194876442
 30
0.0
 10
13.0110316824
 20
5.2793873488
 30
0.0
 10
12.9922965583
 20
5.338769332
 30
0.0
 10
12.9699745203
 20
5.3975213951
 30
0.0
 10
12.9528262395
 20
5.4359809529
 30
0.0
 10
12.9436859861
 20
5.4550587556
 30
0.0
  0
SPLINE
  5
2DC
100
AcDbEntity
  8
0
100
AcDbSpline
 62
9
  6
CONTINUOUS
 70
0
 71
3
 72
26
 73
22
 74
0
 42
0.0000001
 43
0.0000001
 44
0.0000000001
 40
0.0
 40
0.0
 40
0.0
 40
0.0
 40
0.0623887436
 40
0.0940595631
 40
0.1260078509
 40
0.1906043051
 40
0.2559312583
 40
0.3217154502
 40
0.3876735053
 40
0.4535182431
 40
0.5189649558
 40
0.583737733
 40
0.6475758389
 40
0.7102402517
 40
0.7715203885
 40
0.8015909437
 40
0.8312531117
 40
0.8892814328
 40
0.9176399503
 40
0.9455488469
 40
1.0
 40
1.0
 40
1.0
 40
1.0
 10
11.8494755348
 20
4.5165262808
 30
0.0
 10
11.8057493541
 20
4.4986751423
 30
0.0
 10
11.7387690429
 20
4.4742635239
 30
0.0
 10
11.6475020407
 20
4.4464732478
 30
0.0
 10
11.5536863381
 20
4.4215074962
 30
0.0
 10
11.4336729908
 20
4.3962335005
 30
0.0
 10
11.2868528374
 20
4.3755937908
 30
0.0
 10
11.1379545369
 20
4.3647057547
 30
0.0
 10
10.9882721502
 20
4.3636641626
 30
0.0
 10
10.8391009482
 20
4.3724774058
 30
0.0
 10
10.6917331378
 20
4.3910701446
 30
0.0
 10
10.5474451683
 20
4.4192820207
 30
0.0
 10
10.4074848272
 20
4.4568716689
 30
0.0
 10
10.2730689807
 20
4.5035143581
 30
0.0
 10
10.165961196
 20
4.5498914987
 30
0.0
 10
10.0841723731
 20
4.5912072714
 30
0.0
 10
10.0062676209
 20
4.6345821029
 30
0.0
 10
9.932181764
 20
4.6820314125
 30
0.0
 10
9.8625572888
 20
4.7334458897
 30
0.0
 10
9.7974452339
 20
4.7862549241
 30
0.0
 10
9.7517817511
 20
4.8288944991
 30
0.0
 10
9.7231229067
 20
4.8585225268
 30
0.0
  0
SPLINE
  5
2DD
100
AcDbEntity
  8
0
100
AcDbSpline
 62
9
  6
CONTINUOUS
 70
0
 71
3
 72
38
 73
34
 74
0
 42
0.0000001
 43
0.0000001
 44
0.0000000001
 40
0.0
 40
0.0
 40
0.0
 40
0.0
 40
0.0322238204
 40
0.0481205685
 40
0.0638763182
 40
0.0949743993
 40
0.1255523102
 40
0.1556481847
 40
0.1853072366
 40
0.214581424
 40
0.2435289256
 40
0.2722134185
 40
0.3007031602
 40
0.3290698937
 40
0.3573876043
 40
0.38573118
 40
0.4141750316
 40
0.4427917342
 40
0.4716507506
 40
0.5008172848
 40
0.5303513059
 40
0.5603067624
 40
0.5907309987
 40
0.6216643646
 40
0.6531399989
 40
0.6851837685
 40
0.7178143364
 40
0.7848530008
 40
0.8192869081
 40
0.8543146665
 40
0.8899229133
 40
0.926092408
 40
1.0
 40
1.0
 40
1.0
 40
1.0
 10
9.7231229067
 20
4.8585225268
 30
0.0
 10
9.7077254805
 20
4.8744406624
 30
0.0
 10
9.6853749482
 20
4.8988481497
 30
0.0
 10
9.6571473309
 20
4.9324762494
 30
0.0
 10
9.6303904067
 20
4.9663058018
 30
0.0
 10
9.5992376461
 20
5.0094939653
 30
0.0
 10
9.5655265901
 20
5.0628487744
 30
0.0
 10
9.5357395872
 20
5.117368675
 30
0.0
 10
9.5099581125
 20
5.1729085607
 30
0.0
 10
9.4882522439
 20
5.2293214583
 30
0.0
 10
9.4706815532
 20
5.2864572689
 30
0.0
 10
9.4572944935
 20
5.3441635496
 30
0.0
 10
9.448128203
 20
5.4022858285
 30
0.0
 10
9.4432081881
 20
5.4606681122
 30
0.0
 10
9.4425481685
 20
5.5191534312
 30
0.0
 10
9.4461499803
 20
5.5775844252
 30
0.0
 10
9.4540035585
 20
5.6358039431
 30
0.0
 10
9.4660870191
 20
5.6936556343
 30
0.0
 10
9.4823668244
 20
5.7509845047
 30
0.0
 10
9.5027980193
 20
5.8076374184
 30
0.0
 10
9.5273244909
 20
5.8634635383
 30
0.0
 10
9.5558792522
 20
5.9183147394
 30
0.0
 10
9.5883847307
 20
5.9720458822
 30
0.0
 10
9.6247532709
 20
6.0245153076
 30
0.0
 10
9.664886605
 20
6.0755843927
 30
0.0
 10
9.7086792681
 20
6.1251206103
 30
0.0
 10
9.7723508434
 20
6.1895172201
 30
0.0
 10
9.8424165955
 20
6.24969981
 30
0.0
 10
9.9179484284
 20
6.3053822973
 30
0.0
 10
9.978099975
 20
6.3453890127
 30
0.0
 10
10.0410772351
 20
6.3831517875
 30
0.0
 10
10.1292118713
 20
6.430714434
 30
0.0
 10
10.1981345106
 20
6.462203564
 30
0.0
 10
10.2451611418
 20
6.4814021058
 30
0.0
  0
SPLINE
  5
2DE
100
AcDbEntity
  8
0
100
AcDbSpline
 62
9
  6
CONTINUOUS
 70
0
 71
3
 72
45
 73
41
 74
0
 42
0.0000001
 43
0.0000001
 44
0.0000000001
 40
0.0
 40
0.0
 40
0.0
 40
0.0
 40
0.0665639064
 40
0.1005122133
 40
0.134817266
 40
0.1694137916
 40
0.2042332019
 40
0.2392045452
 40
0.2742552468
 40
0.3093118978
 40
0.3443010264
 40
0.3791498711
 40
0.4137871584
 40
0.448143886
 40
0.4821541168
 40
0.5157557855
 40
0.5488915217
 40
0.5815094903
 40
0.6135642506
 40
0.6450176317
 40
0.6758396195
 40
0.7060092446
 40
0.7355154557
 40
0.7643579507
 40
0.778535511
 40
0.7925523549
 40
0.8201131344
 40
0.8470805766
 40
0.8603591272
 40
0.8735086042
 40
0.8865370346
 40
0.8994531582
 40
0.9122664448
 40
0.9249870136
 40
0.9376256094
 40
0.9501935314
 40
0.9627025664
 40
0.9751649235
 40
0.9875931379
 40
1.0
 40
1.0
 40
1.0
 40
1.0
 10
11.8573183383
 20
4.4931116836
 30
0.0
 10
11.7958327049
 20
4.4680102789
 30
0.0
 10
11.7008966698
 20
4.4350031841
 30
0.0
 10
11.5709132831
 20
4.4002776563
 30
0.0
 10
11.4705694258
 20
4.3785997609
 30
0.0
 10
11.3684603028
 20
4.361558622
 30
0.0
 10
11.2650062119
 20
4.349223233
 30
0.0
 10
11.1606417918
 20
4.341645559
 30
0.0
 10
11.0558031552
 20
4.338857056
 30
0.0
 10
10.9509290478
 20
4.3408693931
 30
0.0
 10
10.8464581945
 20
4.3476741713
 30
0.0
 10
10.7428276697
 20
4.3592430224
 30
0.0
 10
10.6404709997
 20
4.3755277165
 30
0.0
 10
10.5398163546
 20
4.3964603764
 30
0.0
 10
10.4412847497
 20
4.4219537929
 30
0.0
 10
10.3452882887
 20
4.4519018162
 30
0.0
 10
10.252228452
 20
4.4861798316
 30
0.0
 10
10.162494436
 20
4.5246453241
 30
0.0
 10
10.0764615832
 20
4.567138495
 30
0.0
 10
9.994489802
 20
4.6134830416
 30
0.0
 10
9.9169223961
 20
4.6634866631
 30
0.0
 10
9.8440838289
 20
4.7169428324
 30
0.0
 10
9.7762817951
 20
4.7736282015
 30
0.0
 10
9.7239122612
 20
4.8236512195
 30
0.0
 10
9.6848631718
 20
4.8650606849
 30
0.0
 10
9.6481496303
 20
4.9068662709
 30
0.0
 10
9.6058244913
 20
4.9606674596
 30
0.0
 10
9.5681029808
 20
5.016915151
 30
0.0
 10
9.5411135546
 20
5.0628602408
 30
0.0
 10
9.5225543446
 20
5.0975900852
 30
0.0
 10
9.505595689
 20
5.1327276488
 30
0.0
 10
9.4902556639
 20
5.1682367999
 30
0.0
 10
9.4765502453
 20
5.2040799069
 30
0.0
 10
9.4644943333
 20
5.2402194717
 30
0.0
 10
9.4541005611
 20
5.276617369
 30
0.0
 10
9.4453801014
 20
5.3132353287
 30
0.0
 10
9.4383423491
 20
5.3500346957
 30
0.0
 10
9.4329946024
 20
5.3869769027
 30
0.0
 10
9.429342979
 20
5.4240219922
 30
0.0
 10
9.4280408764
 20
5.4487764314
 30
0.0
 10
9.4276740954
 20
5.4611495584
 30
0.0
  0
LINE
  5
2DF
100
AcDbEntity
  8
0
100
AcDbLine
 62
9
  6
CONTINUOUS
 10
9.4276740954
 20
5.4611495584
 11
9.4276345489
 21
5.4625229475
  0
SPLINE
  5
2E0
100
AcDbEntity
  8
0
100
AcDbSpline
 62
9
  6
CONTINUOUS
 70
0
 71
3
 72
13
 73
9
 74
0
 42
0.0000001
 43
0.0000001
 44
0.0000000001
 40
0.0
 40
0.0
 40
0.0
 40
0.0
 40
0.2434769294
 40
0.367204394
 40
0.492070986
 40
0.6179365318
 40
0.7446554535
 40
1.0
 40
1.0
 40
1.0
 40
1.0
 10
11.9998183383
 20
4.1612031361
 30
0.0
 10
11.9436026917
 20
4.1382531945
 30
0.0
 10
11.8573447618
 20
4.1071223601
 30
0.0
 10
11.7396732038
 20
4.0722337424
 30
0.0
 10
11.6491678639
 20
4.0491230831
 30
0.0
 10
11.5571299886
 20
4.0292728644
 30
0.0
 10
11.4323832637
 20
4.0071662361
 30
0.0
 10
11.3376820267
 20
3.9957069026
 30
0.0
 10
11.2742304575
 20
3.9903243329
 30
0.0
  0
SPLINE
  5
2E1
100
AcDbEntity
  8
0
100
AcDbSpline
 62
9
  6
CONTINUOUS
 70
0
 71
3
 72
37
 73
33
 74
0
 42
0.0000001
 43
0.0000001
 44
0.0000000001
 40
0.0
 40
0.0
 40
0.0
 40
0.0
 40
0.0717637607
 40
0.1076965053
 40
0.1435922177
 40
0.215061119
 40
0.2505495646
 40
0.2858067399
 40
0.3207873831
 40
0.3554482723
 40
0.3897485962
 40
0.4236503296
 40
0.4571186167
 40
0.4901221605
 40
0.522633619
 40
0.5546300057
 40
0.5860930931
 40
0.6170098125
 40
0.6473726478
 40
0.677180012
 40
0.7064365964
 40
0.7351536779
 40
0.7633493648
 40
0.7910487608
 40
0.8182840204
 40
0.8450942705
 40
0.8715253706
 40
0.8976294898
 40
0.9234644859
 40
0.9490930798
 40
0.9745818397
 40
1.0
 40
1.0
 40
1.0
 40
1.0
 10
11.2742304575
 20
3.9903243329
 30
0.0
 10
11.2074959927
 20
3.9846632765
 30
0.0
 10
11.1069749625
 20
3.979936458
 30
0.0
 10
10.9729489719
 20
3.9811348185
 30
0.0
 10
10.8393333468
 20
3.9873245655
 30
0.0
 10
10.7065624594
 20
4.0009662626
 30
0.0
 10
10.5755008477
 20
4.0220570676
 30
0.0
 10
10.4787342128
 20
4.0414775005
 30
0.0
 10
10.3835519104
 20
4.0644808374
 30
0.0
 10
10.2902164437
 20
4.091003641
 30
0.0
 10
10.1989881663
 20
4.1209722357
 30
0.0
 10
10.1101207702
 20
4.1543035512
 30
0.0
 10
10.0238615909
 20
4.1909051985
 30
0.0
 10
9.9404506655
 20
4.2306757818
 30
0.0
 10
9.8601201504
 20
4.273505182
 30
0.0
 10
9.7830936755
 20
4.3192748696
 30
0.0
 10
9.7095857541
 20
4.3678582445
 30
0.0
 10
9.6398012215
 20
4.4191209924
 30
0.0
 10
9.5739347051
 20
4.4729214514
 30
0.0
 10
9.51217013
 20
4.5291109892
 30
0.0
 10
9.4546802562
 20
4.5875343839
 30
0.0
 10
9.4016262464
 20
4.6480302055
 30
0.0
 10
9.3531572591
 20
4.7104311911
 30
0.0
 10
9.3094100587
 20
4.7745646168
 30
0.0
 10
9.2705086337
 20
4.8402526592
 30
0.0
 10
9.2365638134
 20
4.9073127742
 30
0.0
 10
9.2076728729
 20
4.9755580306
 30
0.0
 10
9.1839191279
 20
5.0447976917
 30
0.0
 10
9.165371509
 20
5.1148370548
 30
0.0
 10
9.1520841692
 20
5.1854802769
 30
0.0
 10
9.1440960537
 20
5.2565225543
 30
0.0
 10
9.1423184187
 20
5.3040509094
 30
0.0
 10
9.14231838
 20
5.3277726261
 30
0.0
  0
SPLINE
  5
2E2
100
AcDbEntity
  8
0
100
AcDbSpline
 62
9
  6
CONTINUOUS
 70
0
 71
3
 72
37
 73
33
 74
0
 42
0.0000001
 43
0.0000001
 44
0.0000000001
 40
0.0
 40
0.0
 40
0.0
 40
0.0
 40
0.0740863114
 40
0.1103992915
 40
0.1461912012
 40
0.2161275804
 40
0.2502677545
 40
0.2838434524
 40
0.3168560772
 40
0.3493124445
 40
0.3812249998
 40
0.4126119881
 40
0.4434975628
 40
0.4739118156
 40
0.5038907112
 40
0.5334759127
 40
0.5627144724
 40
0.5916583883
 40
0.6203640188
 40
0.6488913596
 40
0.6773031957
 40
0.7056641508
 40
0.7340396671
 40
0.7624949519
 40
0.7910939345
 40
0.8198982722
 40
0.8489664425
 40
0.8783529475
 40
0.908107651
 40
0.9382752533
 40
0.9688949129
 40
1.0
 40
1.0
 40
1.0
 40
1.0
 10
12.0978596418
 20
3.6610013494
 30
0.0
 10
12.155451764
 20
3.6845132349
 30
0.0
 10
12.2399852727
 20
3.7228640495
 30
0.0
 10
12.3484545674
 20
3.7803861161
 30
0.0
 10
12.4514023971
 20
3.8406547488
 30
0.0
 10
12.5488770861
 20
3.9064950757
 30
0.0
 10
12.6399429259
 20
3.9777243178
 30
0.0
 10
12.7040283436
 20
4.0329706545
 30
0.0
 10
12.7642877676
 20
4.0903344601
 30
0.0
 10
12.8205834992
 20
4.149685671
 30
0.0
 10
12.872784234
 20
4.2108877263
 30
0.0
 10
12.9207685566
 20
4.2738002418
 30
0.0
 10
12.9644243683
 20
4.3382786447
 30
0.0
 10
13.0036493677
 20
4.4041746046
 30
0.0
 10
13.0383512526
 20
4.471336259
 30
0.0
 10
13.0684480491
 20
4.5396084772
 30
0.0
 10
13.0938683235
 20
4.6088331816
 30
0.0
 10
13.1145514449
 20
4.6788496636
 30
0.0
 10
13.1304478424
 20
4.7494949376
 30
0.0
 10
13.1415192477
 20
4.8206041397
 30
0.0
 10
13.1477389048
 20
4.8920109731
 30
0.0
 10
13.1490917303
 20
4.963548196
 30
0.0
 10
13.1455744721
 20
5.0350481452
 30
0.0
 10
13.1371956687
 20
5.1063432836
 30
0.0
 10
13.1239755946
 20
5.1772667281
 30
0.0
 10
13.1059461299
 20
5.247652764
 30
0.0
 10
13.0831505904
 20
5.3173372957
 30
0.0
 10
13.0556434483
 20
5.3861583437
 30
0.0
 10
13.0234902866
 20
5.4539561465
 30
0.0
 10
12.9867668171
 20
5.5205745644
 30
0.0
 10
12.9455614968
 20
5.5858574111
 30
0.0
 10
12.9154092691
 20
5.6280506928
 30
0.0
 10
12.8996439473
 20
5.6488731127
 30
0.0
  0
SPLINE
  5
2E3
100
AcDbEntity
  8
0
100
AcDbSpline
 62
9
  6
CONTINUOUS
 70
0
 71
3
 72
52
 73
48
 74
0
 42
0.0000001
 43
0.0000001
 44
0.0000000001
 40
0.0
 40
0.0
 40
0.0
 40
0.0
 40
0.0141200817
 40
0.0280531752
 40
0.0418094815
 40
0.0554007709
 40
0.068840352
 40
0.0821429955
 40
0.0953248347
 40
0.108403249
 40
0.1213967205
 40
0.1343246526
 40
0.1472071736
 40
0.1600649242
 40
0.1729188271
 40
0.1857898486
 40
0.1986987603
 40
0.2116659039
 40
0.2247109725
 40
0.2378528081
 40
0.251109213
 40
0.264496792
 40
0.2780308284
 40
0.2917251775
 40
0.3055921781
 40
0.3196426104
 40
0.3338856704
 40
0.3483289509
 40
0.3778316485
 40
0.40818763
 40
0.439402505
 40
0.4714599501
 40
0.5043237265
 40
0.5379399151
 40
0.5722391218
 40
0.6071386956
 40
0.6425448952
 40
0.6783549779
 40
0.7144592702
 40
0.7507431539
 40
0.78708905
 40
0.8233783628
 40
0.8594934213
 40
0.8953194366
 40
0.9307464603
 40
0.9656712352
 40
1.0
 40
1.0
 40
1.0
 40
1.0
 10
9.1958849107
 20
5.6500502772
 30
0.0
 10
9.1825934374
 20
5.6325331387
 30
0.0
 10
9.1569896992
 20
5.5971119979
 30
0.0
 10
9.1214103023
 20
5.5425547088
 30
0.0
 10
9.0889755678
 20
5.4870200106
 30
0.0
 10
9.0597403902
 20
5.4305998569
 30
0.0
 10
9.0337528899
 20
5.3733860106
 30
0.0
 10
9.0110562941
 20
5.3154721278
 30
0.0
 10
8.9916885333
 20
5.2569529663
 30
0.0
 10
8.9756821159
 20
5.1979244838
 30
0.0
 10
8.9630637326
 20
5.1384836835
 30
0.0
 10
8.9538545933
 20
5.0787283303
 30
0.0
 10
8.9480703829
 20
5.0187568178
 30
0.0
 10
8.9457208007
 20
4.9586680252
 30
0.0
 10
8.9468096997
 20
4.8985610553
 30
0.0
 10
8.951335306
 20
4.8385350393
 30
0.0
 10
8.9592901202
 20
4.778688972
 30
0.0
 10
8.9706605578
 20
4.7191214412
 30
0.0
 10
8.9854274529
 20
4.6599304609
 30
0.0
 10
9.0035661487
 20
4.6012133419
 30
0.0
 10
9.0250462548
 20
4.5430664448
 30
0.0
 10
9.0498317637
 20
4.485584985
 30
0.0
 10
9.0778814448
 20
4.4288629795
 30
0.0
 10
9.1091488415
 20
4.3729931592
 30
0.0
 10
9.1435821105
 20
4.3180665192
 30
0.0
 10
9.181124074
 20
4.264172769
 30
0.0
 10
9.2217139202
 20
4.2113986824
 30
0.0
 10
9.2802137524
 20
4.1421602818
 30
0.0
 10
9.3607844829
 20
4.0588892307
 30
0.0
 10
9.4677491806
 20
3.9655243366
 30
0.0
 10
9.5849879371
 20
3.8785920209
 30
0.0
 10
9.7117298544
 20
3.7986546538
 30
0.0
 10
9.8471507291
 20
3.7262216688
 30
0.0
 10
9.990369687
 20
3.6617582534
 30
0.0
 10
10.1404561838
 20
3.6056782771
 30
0.0
 10
10.296435242
 20
3.5583426556
 30
0.0
 10
10.4572936818
 20
3.5200566396
 30
0.0
 10
10.6219864055
 20
3.4910670086
 30
0.0
 10
10.7894433572
 20
3.4715613914
 30
0.0
 10
10.9585762675
 20
3.4616654588
 30
0.0
 10
11.1282859588
 20
3.4614435827
 30
0.0
 10
11.2974693764
 20
3.4708968796
 30
0.0
 10
11.465027154
 20
3.4899644733
 30
0.0
 10
11.629869765
 20
3.5185228115
 30
0.0
 10
11.7909282608
 20
3.5563882615
 30
0.0
 10
11.9471480805
 20
3.603313084
 30
0.0
 10
12.0483657241
 20
3.6407955422
 30
0.0
 10
12.0978596418
 20
3.6610013494
 30
0.0
  0
SPLINE
  5
2E4
100
AcDbEntity
  8
0
100
AcDbSpline
 62
7
  6
CONTINUOUS
 70
0
 71
3
 72
42
 73
38
 74
0
 42
0.0000001
 43
0.0000001
 44
0.0000000001
 40
0.0
 40
0.0
 40
0.0
 40
0.0
 40
0.0327681315
 40
0.0659901394
 40
0.0996150132
 40
0.1335867869
 40
0.1678462299
 40
0.2023310839
 40
0.2369768766
 40
0.271717548
 40
0.3064861155
 40
0.341215326
 40
0.3758383077
 40
0.4102892245
 40
0.4445039339
 40
0.4784206514
 40
0.5119806257
 40
0.5451288246
 40
0.5778146355
 40
0.6099925801
 40
0.6416230442
 40
0.6726730207
 40
0.7031168589
 40
0.7329370117
 40
0.7621247672
 40
0.7906809422
 40
0.8186165069
 40
0.8459530988
 40
0.8727233743
 40
0.898971134
 40
0.9247511555
 40
0.9374884374
 40
0.9501340736
 40
0.9626976912
 40
0.9751894223
 40
0.9876198643
 40
1.0
 40
1.0
 40
1.0
 40
1.0
 10
12.122286909
 20
3.5812019778
 30
0.0
 10
12.0833840414
 20
3.5653199486
 30
0.0
 10
12.0042166348
 20
3.5353144503
 30
0.0
 10
11.8826572362
 20
3.4959082593
 30
0.0
 10
11.7578714077
 20
3.4619184373
 30
0.0
 10
11.630344227
 20
3.4334773448
 30
0.0
 10
11.5005669389
 20
3.410693773
 30
0.0
 10
11.3690405159
 20
3.3936555027
 30
0.0
 10
11.2362724679
 20
3.3824280189
 30
0.0
 10
11.1027751854
 20
3.3770545403
 30
0.0
 10
10.9690638729
 20
3.3775557442
 30
0.0
 10
10.8356545727
 20
3.3839297132
 30
0.0
 10
10.7030621528
 20
3.3961519142
 30
0.0
 10
10.5717983099
 20
3.4141753172
 30
0.0
 10
10.4423695853
 20
3.4379305924
 30
0.0
 10
10.3152754053
 20
3.4673263958
 30
0.0
 10
10.1910061541
 20
3.5022497457
 30
0.0
 10
10.0700412882
 20
3.5425664886
 30
0.0
 10
9.952847503
 20
3.5881218527
 30
0.0
 10
9.8398769608
 20
3.6387410822
 30
0.0
 10
9.7315655917
 20
3.6942301571
 30
0.0
 10
9.6283314678
 20
3.7543765607
 30
0.0
 10
9.5305732802
 20
3.8189501387
 30
0.0
 10
9.4386689258
 20
3.8877040021
 30
0.0
 10
9.3529741893
 20
3.9603754656
 30
0.0
 10
9.2738215527
 20
4.0366869489
 30
0.0
 10
9.2015190354
 20
4.1163470626
 30
0.0
 10
9.1363493586
 20
4.1990509562
 30
0.0
 10
9.0785682712
 20
4.2844831828
 30
0.0
 10
9.0284060744
 20
4.372311261
 30
0.0
 10
8.992972987
 20
4.4475319514
 30
0.0
 10
8.9686965408
 20
4.50850023
 30
0.0
 10
8.952572287
 20
4.5544269544
 30
0.0
 10
8.9384769197
 20
4.6006867863
 30
0.0
 10
8.9264239577
 20
4.6472360095
 30
0.0
 10
8.9164252047
 20
4.6940279277
 30
0.0
 10
8.9111261476
 20
4.7254111345
 30
0.0
 10
8.9088249361
 20
4.7411190135
 30
0.0
  0
SPLINE
  5
2E5
100
AcDbEntity
  8
0
100
AcDbSpline
 62
7
  6
CONTINUOUS
 70
0
 71
3
 72
12
 73
8
 74
0
 42
0.0000001
 43
0.0000001
 44
0.0000000001
 40
0.0
 40
0.0
 40
0.0
 40
0.0
 40
0.1124633761
 40
0.2297195567
 40
0.4763739964
 40
0.7350700842
 40
1.0
 40
1.0
 40
1.0
 40
1.0
 10
10.4404182907
 20
10.5856601277
 30
0.0
 10
10.4397198752
 20
10.5871442455
 30
0.0
 10
10.4384017606
 20
10.5902278123
 30
0.0
 10
10.4360854256
 20
10.5967819267
 30
0.0
 10
10.4338368674
 20
10.6056016233
 30
0.0
 10
10.4322095296
 20
10.6167346569
 30
0.0
 10
10.4318453314
 20
10.6243770671
 30
0.0
 10
10.4318453314
 20
10.6282409815
 30
0.0
  0
SPLINE
  5
2E6
100
AcDbEntity
  8
0
100
AcDbSpline
 62
7
  6
CONTINUOUS
 70
0
 71
3
 72
15
 73
11
 74
0
 42
0.0000001
 43
0.0000001
 44
0.0000000001
 40
0.0
 40
0.0
 40
0.0
 40
0.0
 40
0.0964766251
 40
0.2033980816
 40
0.3199896367
 40
0.4451116701
 40
0.577353462
 40
0.7151027281
 40
0.8566007812
 40
1.0
 40
1.0
 40
1.0
 40
1.0
 10
10.5871023788
 20
10.5739727638
 30
0.0
 10
10.5861203664
 20
10.5754926211
 30
0.0
 10
10.5842625814
 20
10.5788359833
 30
0.0
 10
10.5818863566
 20
10.5843552466
 30
0.0
 10
10.5798080636
 20
10.5905622106
 30
0.0
 10
10.5780607063
 20
10.5973602531
 30
0.0
 10
10.5766717059
 20
10.6046441623
 30
0.0
 10
10.5756633354
 20
10.6122998769
 30
0.0
 10
10.5750517258
 20
10.6202068571
 30
0.0
 10
10.5749153863
 20
10.6255513989
 30
0.0
 10
10.5749153863
 20
10.6282409815
 30
0.0
  0
SPLINE
  5
2E7
100
AcDbEntity
  8
0
100
AcDbSpline
 62
7
  6
CONTINUOUS
 70
0
 71
3
 72
15
 73
11
 74
0
 42
0.0000001
 43
0.0000001
 44
0.0000000001
 40
0.0
 40
0.0
 40
0.0
 40
0.0
 40
0.0964767235
 40
0.2033982473
 40
0.3199898368
 40
0.445111873
 40
0.5773536403
 40
0.7151028597
 40
0.856600851
 40
1.0
 40
1.0
 40
1.0
 40
1.0
 10
11.5075343383
 20
10.5739728266
 30
0.0
 10
11.5085163476
 20
10.5754926852
 30
0.0
 10
11.5103741266
 20
10.5788360485
 30
0.0
 10
11.5127503438
 20
10.5843553103
 30
0.0
 10
11.5148286299
 20
10.5905622695
 30
0.0
 10
11.5165759813
 20
10.5973603041
 30
0.0
 10
11.5179649769
 20
10.6046442029
 30
0.0
 10
11.5189733439
 20
10.6122999051
 30
0.0
 10
11.5195849513
 20
10.6202068715
 30
0.0
 10
11.5197212902
 20
10.6255514038
 30
0.0
 10
11.5197212902
 20
10.6282409815
 30
0.0
  0
SPLINE
  5
2E8
100
AcDbEntity
  8
0
100
AcDbSpline
 62
7
  6
CONTINUOUS
 70
0
 71
3
 72
12
 73
8
 74
0
 42
0.0000001
 43
0.0000001
 44
0.0000000001
 40
0.0
 40
0.0
 40
0.0
 40
0.0
 40
0.1124626216
 40
0.2297183187
 40
0.4763725237
 40
0.7350691439
 40
1.0
 40
1.0
 40
1.0
 40
1.0
 10
11.6542178712
 20
10.585659034
 30
0.0
 10
11.6549163276
 20
10.5871431704
 30
0.0
 10
11.6562345198
 20
10.5902267853
 30
0.0
 10
11.6585509937
 20
10.5967810316
 30
0.0
 10
11.6607996879
 20
10.6056009516
 30
0.0
 10
11.6624271247
 20
10.6167343039
 30
0.0
 10
11.6627913451
 20
10.6243769468
 30
0.0
 10
11.6627913451
 20
10.6282409815
 30
0.0
  0
SPLINE
  5
2E9
100
AcDbEntity
  8
0
100
AcDbSpline
 62
9
  6
CONTINUOUS
 70
0
 71
3
 72
15
 73
11
 74
0
 42
0.0000001
 43
0.0000001
 44
0.0000000001
 40
0.0
 40
0.0
 40
0.0
 40
0.0
 40
0.1338111475
 40
0.2653122834
 40
0.3943566184
 40
0.5208275417
 40
0.6446458511
 40
0.7657713532
 40
0.8842066806
 40
1.0
 40
1.0
 40
1.0
 40
1.0
 10
11.8632509719
 20
4.4488927861
 30
0.0
 10
11.8931026403
 20
4.4610796787
 30
0.0
 10
11.951684672
 20
4.4867633504
 30
0.0
 10
12.0365951389
 20
4.5295241549
 30
0.0
 10
12.1174834682
 20
4.5760339839
 30
0.0
 10
12.1940174609
 20
4.6261044184
 30
0.0
 10
12.2658856335
 20
4.6795335055
 30
0.0
 10
12.3327954996
 20
4.7361074136
 30
0.0
 10
12.3944696186
 20
4.7955938937
 30
0.0
 10
12.4323523787
 20
4.8375059353
 30
0.0
 10
12.4503000973
 20
4.858869301
 30
0.0
  0
SPLINE
  5
2EA
100
AcDbEntity
  8
0
100
AcDbSpline
 62
9
  6
CONTINUOUS
 70
0
 71
3
 72
23
 73
19
 74
0
 42
0.0000001
 43
0.0000001
 44
0.0000000001
 40
0.0
 40
0.0
 40
0.0
 40
0.0
 40
0.0673753418
 40
0.1336567302
 40
0.1989041689
 40
0.2631903956
 40
0.3266006062
 40
0.3892318896
 40
0.4511923648
 40
0.5126000233
 40
0.573581267
 40
0.6342691667
 40
0.6948014755
 40
0.7553184577
 40
0.8159606257
 40
0.8768664679
 40
0.9381702552
 40
1.0
 40
1.0
 40
1.0
 40
1.0
 10
12.4503000973
 20
4.858869301
 30
0.0
 10
12.4635925507
 20
4.8746914538
 30
0.0
 10
12.4891252507
 20
4.9067940605
 30
0.0
 10
12.5243883497
 20
4.9566144624
 30
0.0
 10
12.556215486
 20
5.0075874017
 30
0.0
 10
12.5845298566
 20
5.0595928969
 30
0.0
 10
12.6092645873
 20
5.1125105547
 30
0.0
 10
12.6303605812
 20
5.1662169719
 30
0.0
 10
12.647767277
 20
5.2205867499
 30
0.0
 10
12.6614427088
 20
5.2754925531
 30
0.0
 10
12.6713537299
 20
5.3308054637
 30
0.0
 10
12.6774762242
 20
5.3863953006
 30
0.0
 10
12.6797953362
 20
5.4421309803
 30
0.0
 10
12.6783054065
 20
5.4978810318
 30
0.0
 10
12.6730101417
 20
5.553513678
 30
0.0
 10
12.663922157
 20
5.6088984952
 30
0.0
 10
12.651064508
 20
5.6639021588
 30
0.0
 10
12.6400520783
 20
5.7000603952
 30
0.0
 10
12.6339458709
 20
5.7180142332
 30
0.0
  0
SPLINE
  5
2EB
100
AcDbEntity
  8
0
100
AcDbSpline
 62
9
  6
CONTINUOUS
 70
0
 71
3
 72
10
 73
6
 74
0
 42
0.0000001
 43
0.0000001
 44
0.0000000001
 40
0.0
 40
0.0
 40
0.0
 40
0.0
 40
0.2459077447
 40
0.6201311797
 40
1.0
 40
1.0
 40
1.0
 40
1.0
 10
10.1170657142
 20
6.5155428207
 30
0.0
 10
10.1453574203
 20
6.5270928613
 30
0.0
 10
10.2173301348
 20
6.5547040528
 30
0.0
 10
10.3355704933
 20
6.5931849951
 30
0.0
 10
10.4263160533
 20
6.6168205041
 30
0.0
 10
10.4723227392
 20
6.6273920773
 30
0.0
  0
SPLINE
  5
2EC
100
AcDbEntity
  8
0
100
AcDbSpline
 62
9
  6
CONTINUOUS
 70
0
 71
3
 72
51
 73
47
 74
0
 42
0.0000001
 43
0.0000001
 44
0.0000000001
 40
0.0
 40
0.0
 40
0.0
 40
0.0
 40
0.0371959283
 40
0.0738924586
 40
0.1100128458
 40
0.145488847
 40
0.1802621609
 40
0.2142858843
 40
0.2475259915
 40
0.2799628103
 40
0.311592442
 40
0.3424280356
 40
0.3725008476
 40
0.3872695087
 40
0.4018678664
 40
0.4163051465
 40
0.4305917324
 40
0.4447391473
 40
0.45875997
 40
0.4726677992
 40
0.4864771587
 40
0.5002033906
 40
0.5138625633
 40
0.5274713248
 40
0.5410467715
 40
0.554606302
 40
0.5681674562
 40
0.5817477585
 40
0.5953645631
 40
0.609034897
 40
0.6227753074
 40
0.6366017397
 40
0.6505293946
 40
0.6645726261
 40
0.6787448573
 40
0.6930584717
 40
0.7075247834
 40
0.7369481678
 40
0.7670896881
 40
0.7979976594
 40
0.8297016306
 40
0.8622131276
 40
0.8955267273
 40
0.9296214375
 40
0.9644616541
 40
1.0
 40
1.0
 40
1.0
 40
1.0
 10
11.6224617062
 20
6.6273581115
 30
0.0
 10
11.6646641693
 20
6.6176579258
 30
0.0
 10
11.7480092595
 20
6.5961567731
 30
0.0
 10
11.8701480173
 20
6.557407963
 30
0.0
 10
11.9880452015
 20
6.5125501869
 30
0.0
 10
12.1010880182
 20
6.4618141435
 30
0.0
 10
12.2086945055
 20
6.4054590468
 30
0.0
 10
12.3103088892
 20
6.3437727684
 30
0.0
 10
12.405406242
 20
6.2770697086
 30
0.0
 10
12.493494037
 20
6.2056899453
 30
0.0
 10
12.5741159475
 20
6.1299955011
 30
0.0
 10
12.6468485904
 20
6.050376331
 30
0.0
 10
12.7008996551
 20
5.9806625838
 30
0.0
 10
12.7397274172
 20
5.9233616857
 30
0.0
 10
12.7664843911
 20
5.8799287723
 30
0.0
 10
12.7910136812
 20
5.835841351
 30
0.0
 10
12.8132836469
 20
5.7911556376
 30
0.0
 10
12.8332652137
 20
5.7459298718
 30
0.0
 10
12.8509318088
 20
5.7002224793
 30
0.0
 10
12.8662603201
 20
5.6540928948
 30
0.0
 10
12.8792306061
 20
5.6076010758
 30
0.0
 10
12.8898251672
 20
5.560807425
 30
0.0
 10
12.8980303626
 20
5.5137729836
 30
0.0
 10
12.9038350535
 20
5.4665590045
 30
0.0
 10
12.9072314932
 20
5.4192270978
 30
0.0
 10
12.9082154625
 20
5.3718390502
 30
0.0
 10
12.9067852325
 20
5.3244567214
 30
0.0
 10
12.9029430248
 20
5.2771419742
 30
0.0
 10
12.8966939081
 20
5.2299565427
 30
0.0
 10
12.8880459341
 20
5.1829620266
 30
0.0
 10
12.8770109779
 20
5.1362196006
 30
0.0
 10
12.8636033223
 20
5.0897901972
 30
0.0
 10
12.8478408201
 20
5.0437342137
 30
0.0
 10
12.8297444019
 20
4.9981113508
 30
0.0
 10
12.8093377185
 20
4.9529812
 30
0.0
 10
12.7866472993
 20
4.9084012464
 30
0.0
 10
12.7532047086
 20
4.8494476713
 30
0.0
 10
12.7057112482
 20
4.7773865328
 30
0.0
 10
12.6404675758
 20
4.6945530091
 30
0.0
 10
12.5669868571
 20
4.6152764757
 30
0.0
 10
12.4856571489
 20
4.5399660373
 30
0.0
 10
12.3969013746
 20
4.4690034656
 30
0.0
 10
12.3011805802
 20
4.4027504401
 30
0.0
 10
12.1989890355
 20
4.3415440229
 30
0.0
 10
12.0908594345
 20
4.2856978873
 30
0.0
 10
12.0158750777
 20
4.2525361493
 30
0.0
 10
11.9775709624
 20
4.2368985597
 30
0.0
  0
SPLINE
  5
2ED
100
AcDbEntity
  8
0
100
AcDbSpline
 62
9
  6
CONTINUOUS
 70
0
 71
3
 72
24
 73
20
 74
0
 42
0.0000001
 43
0.0000001
 44
0.0000000001
 40
0.0
 40
0.0
 40
0.0
 40
0.0
 40
0.0618219467
 40
0.1231200095
 40
0.1840220441
 40
0.2446621163
 40
0.3051784783
 40
0.3657113815
 40
0.4264008083
 40
0.487384219
 40
0.5487943974
 40
0.6107574706
 40
0.6733911597
 40
0.7368033308
 40
0.8010908488
 40
0.8663387309
 40
0.899349391
 40
0.9326262725
 40
1.0
 40
1.0
 40
1.0
 40
1.0
 10
9.4604416414
 20
5.7172805927
 30
0.0
 10
9.4543577196
 20
5.6993408977
 30
0.0
 10
9.4433881142
 20
5.6632118673
 30
0.0
 10
9.4305882836
 20
5.6082558121
 30
0.0
 10
9.4215511579
 20
5.5529208426
 30
0.0
 10
9.416299647
 20
5.4973399148
 30
0.0
 10
9.4148463096
 20
5.4416430789
 30
0.0
 10
9.4171946923
 20
5.3859617425
 30
0.0
 10
9.4233390381
 20
5.330426991
 30
0.0
 10
9.4332644129
 20
5.2751695073
 30
0.0
 10
9.4469467686
 20
5.2203190892
 30
0.0
 10
9.4643531133
 20
5.166004285
 30
0.0
 10
9.4854414896
 20
5.1123521079
 30
0.0
 10
9.5101615463
 20
5.0594873672
 30
0.0
 10
9.5384537848
 20
5.0075338922
 30
0.0
 10
9.5648505302
 20
4.9652610981
 30
0.0
 10
9.5876550124
 20
4.9320225594
 30
0.0
 10
9.6117771812
 20
4.8989189545
 30
0.0
 10
9.6309858545
 20
4.8747640489
 30
0.0
 10
9.6442636589
 20
4.8589560934
 30
0.0
  0
SPLINE
  5
2EE
100
AcDbEntity
  8
0
100
AcDbSpline
 62
9
  6
CONTINUOUS
 70
0
 71
3
 72
15
 73
11
 74
0
 42
0.0000001
 43
0.0000001
 44
0.0000000001
 40
0.0
 40
0.0
 40
0.0
 40
0.0
 40
0.1160103708
 40
0.2345941242
 40
0.3557988107
 40
0.4796298189
 40
0.6060529399
 40
0.7349972261
 40
0.8663580109
 40
1.0
 40
1.0
 40
1.0
 40
1.0
 10
9.6442636589
 20
4.8589560934
 30
0.0
 10
9.6617117883
 20
4.8381831369
 30
0.0
 10
9.6984863496
 20
4.7974073806
 30
0.0
 10
9.7582443275
 20
4.739434994
 30
0.0
 10
9.8229697688
 20
4.6842047728
 30
0.0
 10
9.8924087109
 20
4.6319312572
 30
0.0
 10
9.9662937734
 20
4.5828125973
 30
0.0
 10
10.0443405121
 20
4.5370361115
 30
0.0
 10
10.1262455306
 20
4.4947776372
 30
0.0
 10
10.1827546789
 20
4.4692643736
 30
0.0
 10
10.2115510937
 20
4.4571225461
 30
0.0
  0
SPLINE
  5
2EF
100
AcDbEntity
  8
0
100
AcDbSpline
 62
9
  6
CONTINUOUS
 70
0
 71
3
 72
13
 73
9
 74
0
 42
0.0000001
 43
0.0000001
 44
0.0000000001
 40
0.0
 40
0.0
 40
0.0
 40
0.0
 40
0.2432158378
 40
0.3668779491
 40
0.4917222083
 40
0.6176097718
 40
0.7443945968
 40
1.0
 40
1.0
 40
1.0
 40
1.0
 10
10.2115510937
 20
4.4571225461
 30
0.0
 10
10.2595634909
 20
4.4368784203
 30
0.0
 10
10.3333042155
 20
4.409351509
 30
0.0
 10
10.4340051058
 20
4.3783613886
 30
0.0
 10
10.5115400498
 20
4.3577403462
 30
0.0
 10
10.5904526582
 20
4.3399275009
 30
0.0
 10
10.6975101458
 20
4.3199299942
 30
0.0
 10
10.7788445291
 20
4.3093582539
 30
0.0
 10
10.8333667523
 20
4.3042595779
 30
0.0
  0
SPLINE
  5
2F0
100
AcDbEntity
  8
0
100
AcDbSpline
 62
9
  6
CONTINUOUS
 70
0
 71
3
 72
13
 73
9
 74
0
 42
0.0000001
 43
0.0000001
 44
0.0000000001
 40
0.0
 40
0.0
 40
0.0
 40
0.0
 40
0.2553101934
 40
0.3819962847
 40
0.5078323122
 40
0.6326821416
 40
0.7564138655
 40
1.0
 40
1.0
 40
1.0
 40
1.0
 10
11.2613461582
 20
4.3042667406
 30
0.0
 10
11.3139800336
 20
4.3091906184
 30
0.0
 10
11.3925134168
 20
4.3193015948
 30
0.0
 10
11.4959519425
 20
4.3382825053
 30
0.0
 10
11.5722664553
 20
4.355145562
 30
0.0
 10
11.6473230436
 20
4.3746311573
 30
0.0
 10
11.7449552277
 20
4.4038876309
 30
0.0
 10
11.8165561777
 20
4.4298297163
 30
0.0
 10
11.8632509719
 20
4.4488927861
 30
0.0
  0
SPLINE
  5
2F1
100
AcDbEntity
  8
0
100
AcDbSpline
 62
9
  6
CONTINUOUS
 70
0
 71
3
 72
11
 73
7
 74
0
 42
0.0000001
 43
0.0000001
 44
0.0000000001
 40
0.0
 40
0.0
 40
0.0
 40
0.0
 40
0.2451722518
 40
0.4938432057
 40
0.7456026559
 40
1.0
 40
1.0
 40
1.0
 40
1.0
 10
11.9775709624
 20
4.2368985597
 30
0.0
 10
11.9427380962
 20
4.2226781016
 30
0.0
 10
11.8718126106
 20
4.1958674524
 30
0.0
 10
11.7628385162
 20
4.1608426813
 30
0.0
 10
11.6509104066
 20
4.1308423925
 30
0.0
 10
11.5749723717
 20
4.1143491524
 30
0.0
 10
11.5366385663
 20
4.1069600229
 30
0.0
  0
SPLINE
  5
2F2
100
AcDbEntity
  8
0
100
AcDbSpline
 62
9
  6
CONTINUOUS
 70
0
 71
3
 72
10
 73
6
 74
0
 42
0.0000001
 43
0.0000001
 44
0.0000000001
 40
0.0
 40
0.0
 40
0.0
 40
0.0
 40
0.2486995808
 40
0.6237230016
 40
1.0
 40
1.0
 40
1.0
 40
1.0
 10
11.4522224594
 20
4.0921777914
 30
0.0
 10
11.4183331289
 20
4.0868345785
 30
0.0
 10
11.3330616466
 20
4.0751558068
 30
0.0
 10
11.195542704
 20
4.0632861542
 30
0.0
 10
11.0918675066
 20
4.0605099148
 30
0.0
 10
11.0399605087
 20
4.0606551031
 30
0.0
  0
SPLINE
  5
2F3
100
AcDbEntity
  8
0
100
AcDbSpline
 62
9
  6
CONTINUOUS
 70
0
 71
3
 72
56
 73
52
 74
0
 42
0.0000001
 43
0.0000001
 44
0.0000000001
 40
0.0
 40
0.0
 40
0.0
 40
0.0
 40
0.0373578786
 40
0.0745855035
 40
0.1115608367
 40
0.1481661327
 40
0.1842900627
 40
0.2198298878
 40
0.2546937096
 40
0.2888027286
 40
0.3220936329
 40
0.338420243
 40
0.3545269266
 40
0.3704111817
 40
0.3860719243
 40
0.4015095522
 40
0.4167259893
 40
0.4317247523
 40
0.4465110096
 40
0.4610915947
 40
0.4754750273
 40
0.4896715366
 40
0.5036930293
 40
0.5175530425
 40
0.5312666923
 40
0.5448505788
 40
0.5583226517
 40
0.5717020643
 40
0.5850089993
 40
0.5982644544
 40
0.6114900153
 40
0.6247076156
 40
0.6379392817
 40
0.6512068774
 40
0.6645318495
 40
0.6779349884
 40
0.6914362114
 40
0.7050543598
 40
0.7188070183
 40
0.7327103832
 40
0.7467791481
 40
0.761026402
 40
0.775463582
 40
0.7901004485
 40
0.8049450582
 40
0.8352739955
 40
0.8664894984
 40
0.8985975018
 40
0.9315806691
 40
0.9654003791
 40
1.0
 40
1.0
 40
1.0
 40
1.0
 10
11.0399605087
 20
4.0606551031
 30
0.0
 10
10.9893394278
 20
4.0607966947
 30
0.0
 10
10.8882574391
 20
4.063995265
 30
0.0
 10
10.7376131594
 20
4.0775188007
 30
0.0
 10
10.5890187586
 20
4.099675982
 30
0.0
 10
10.443466743
 20
4.1303204799
 30
0.0
 10
10.3019207722
 20
4.1692503397
 30
0.0
 10
10.1653205727
 20
4.2162092696
 30
0.0
 10
10.0345705466
 20
4.2708890774
 30
0.0
 10
9.9105429626
 20
4.3329281934
 30
0.0
 10
9.8128332095
 20
4.3908018672
 30
0.0
 10
9.7388696522
 20
4.4404412218
 30
0.0
 10
9.6859312143
 20
4.4789944277
 30
0.0
 10
9.6352615862
 20
4.5190449379
 30
0.0
 10
9.5869444886
 20
4.5605268305
 30
0.0
 10
9.5410607312
 20
4.6033710754
 30
0.0
 10
9.4976870125
 20
4.6475067288
 30
0.0
 10
9.4568959912
 20
4.6928606312
 30
0.0
 10
9.4187558661
 20
4.7393574163
 30
0.0
 10
9.3833306405
 20
4.7869199234
 30
0.0
 10
9.350680022
 20
4.8354692594
 30
0.0
 10
9.3208588902
 20
4.8849246258
 30
0.0
 10
9.2939175383
 20
4.9352037011
 30
0.0
 10
9.2699017403
 20
4.986222791
 30
0.0
 10
9.24885226
 20
5.03789674
 30
0.0
 10
9.2308047989
 20
5.0901391326
 30
0.0
 10
9.215790276
 20
5.1428625514
 30
0.0
 10
9.2038345433
 20
5.1959786083
 30
0.0
 10
9.1949579352
 20
5.2493980479
 30
0.0
 10
9.189175733
 20
5.3030310549
 30
0.0
 10
9.1864981152
 20
5.35678736
 30
0.0
 10
9.1869295512
 20
5.4105763957
 30
0.0
 10
9.1904692087
 20
5.4643075604
 30
0.0
 10
9.1971111547
 20
5.5178903543
 30
0.0
 10
9.2068439413
 20
5.5712345839
 30
0.0
 10
9.2196506532
 20
5.6242506057
 30
0.0
 10
9.2355093965
 20
5.6768494125
 30
0.0
 10
9.2543931652
 20
5.7289427884
 30
0.0
 10
9.2762695315
 20
5.7804436247
 30
0.0
 10
9.3011012737
 20
5.8312659075
 30
0.0
 10
9.3288464199
 20
5.8813247632
 30
0.0
 10
9.3594579734
 20
5.9305369254
 30
0.0
 10
9.3928839666
 20
5.9788203441
 30
0.0
 10
9.4290691351
 20
6.0260956072
 30
0.0
 10
9.481279066
 20
6.0881148972
 30
0.0
 10
9.553281893
 20
6.1626821802
 30
0.0
 10
9.6489847318
 20
6.2462333368
 30
0.0
 10
9.7539737825
 20
6.3239652854
 30
0.0
 10
9.8675456853
 20
6.3953654948
 30
0.0
 10
9.9889396419
 20
6.4599667152
 30
0.0
 10
10.0736598054
 20
6.4978224326
 30
0.0
 10
10.1170657142
 20
6.5155428207
 30
0.0
  0
SPLINE
  5
2F4
100
AcDbEntity
  8
0
100
AcDbSpline
 62
7
  6
CONTINUOUS
 70
0
 71
3
 72
39
 73
35
 74
0
 42
0.0000001
 43
0.0000001
 44
0.0000000001
 40
0.0
 40
0.0
 40
0.0
 40
0.0
 40
0.0454666201
 40
0.0908903075
 40
0.1360573329
 40
0.1584843987
 40
0.1807501449
 40
0.202856756
 40
0.2248748957
 40
0.2359189119
 40
0.2470388051
 40
0.2582933691
 40
0.2697593888
 40
0.2815225128
 40
0.2936721777
 40
0.3194142463
 40
0.3331368622
 40
0.3474415831
 40
0.3623190099
 40
0.3777455098
 40
0.4100915968
 40
0.444172625
 40
0.4796838855
 40
0.5163634971
 40
0.5540117048
 40
0.5924644068
 40
0.6315919525
 40
0.6712842354
 40
0.7114489207
 40
0.7520040035
 40
0.7928825523
 40
0.8340211238
 40
0.9168498686
 40
1.0
 40
1.0
 40
1.0
 40
1.0
 10
11.8809006748
 20
10.4222256277
 30
0.0
 10
11.8811210016
 20
10.4254509389
 30
0.0
 10
11.8811046972
 20
10.4319394288
 30
0.0
 10
11.8796876007
 20
10.4415420875
 30
0.0
 10
11.877259888
 20
10.4492494334
 30
0.0
 10
11.874500815
 20
10.455022701
 30
0.0
 10
11.8720033549
 20
10.4590752197
 30
0.0
 10
11.8690444785
 20
10.4627704086
 30
0.0
 10
11.8661580686
 20
10.4654543871
 30
0.0
 10
11.863595469
 20
10.4672782001
 30
0.0
 10
11.8615354065
 20
10.4684700182
 30
0.0
 10
11.8593390971
 20
10.4694630998
 30
0.0
 10
11.8570070432
 20
10.4702349884
 30
0.0
 10
11.8545437353
 20
10.4707685834
 30
0.0
 10
11.8510278201
 20
10.4711477492
 30
0.0
 10
11.8473364875
 20
10.4709729341
 30
0.0
 10
11.8435672004
 20
10.4703217632
 30
0.0
 10
11.8406038754
 20
10.4695855578
 30
0.0
 10
11.8375784342
 20
10.4686275242
 30
0.0
 10
11.833407617
 20
10.4670579893
 30
0.0
 10
11.8281072197
 20
10.4646385363
 30
0.0
 10
11.8217104125
 20
10.4612244269
 30
0.0
 10
11.8152022744
 20
10.4573816988
 30
0.0
 10
11.8085944083
 20
10.4532173951
 30
0.0
 10
11.8018937932
 20
10.4488114609
 30
0.0
 10
11.7951019183
 20
10.4442289562
 30
0.0
 10
11.7882197766
 20
10.4395208261
 30
0.0
 10
11.7812466331
 20
10.4347302008
 30
0.0
 10
11.7741821402
 20
10.4298932747
 30
0.0
 10
11.7670253904
 20
10.4250419094
 30
0.0
 10
11.759779917
 20
10.4201982566
 30
0.0
 10
11.7499806687
 20
10.4137669606
 30
0.0
 10
11.737549814
 20
10.4058685563
 30
0.0
 10
11.7274351798
 20
10.3997847546
 30
0.0
 10
11.7223257629
 20
10.3968101001
 30
0.0
  0
SPLINE
  5
2F5
100
AcDbEntity
  8
0
100
AcDbSpline
 62
7
  6
CONTINUOUS
 70
0
 71
3
 72
37
 73
33
 74
0
 42
0.0000001
 43
0.0000001
 44
0.0000000001
 40
0.0
 40
0.0
 40
0.0
 40
0.0
 40
0.0230614012
 40
0.0451700533
 40
0.0662096675
 40
0.0860606392
 40
0.1046246997
 40
0.1218949173
 40
0.1380707425
 40
0.1459216806
 40
0.1537424694
 40
0.1616655618
 40
0.1698360461
 40
0.1783991688
 40
0.187478112
 40
0.2075210538
 40
0.2303836499
 40
0.2560507662
 40
0.2842862143
 40
0.3147793733
 40
0.3472157274
 40
0.3813185619
 40
0.4168568919
 40
0.4536442724
 40
0.4915240419
 40
0.530375793
 40
0.5700880504
 40
0.6517543144
 40
0.7359413986
 40
0.8222456179
 40
0.910357258
 40
1.0
 40
1.0
 40
1.0
 40
1.0
 10
11.9936136164
 20
10.4490226169
 30
0.0
 10
11.9936850802
 20
10.4502016612
 30
0.0
 10
11.9937507718
 20
10.452516503
 30
0.0
 10
11.9935975273
 20
10.455907662
 30
0.0
 10
11.9931794225
 20
10.4591118534
 30
0.0
 10
11.9924829494
 20
10.4620827738
 30
0.0
 10
11.9914879299
 20
10.464765838
 30
0.0
 10
11.9901708277
 20
10.4670972793
 30
0.0
 10
11.9887553049
 20
10.4686987338
 30
0.0
 10
11.9874511442
 20
10.469686493
 30
0.0
 10
11.986390414
 20
10.4702745666
 30
0.0
 10
11.9852397127
 20
10.4707070783
 30
0.0
 10
11.9840011099
 20
10.4709752
 30
0.0
 10
11.9826787302
 20
10.4710729626
 30
0.0
 10
11.9807466576
 20
10.4709753949
 30
0.0
 10
11.9781305928
 20
10.4703907715
 30
0.0
 10
11.9748524098
 20
10.4691080199
 30
0.0
 10
11.9713569971
 20
10.4672960924
 30
0.0
 10
11.9676702983
 20
10.4650345199
 30
0.0
 10
11.9638131847
 20
10.462400428
 30
0.0
 10
11.9598032581
 20
10.459463238
 30
0.0
 10
11.9556527489
 20
10.4562832563
 30
0.0
 10
11.9513705853
 20
10.4529097486
 30
0.0
 10
11.9469629033
 20
10.4493833258
 30
0.0
 10
11.9424329382
 20
10.4457381565
 30
0.0
 10
11.9377846958
 20
10.4420009902
 30
0.0
 10
11.9313702758
 20
10.436881378
 30
0.0
 10
11.9230840628
 20
10.4303844922
 30
0.0
 10
11.9127707495
 20
10.422608135
 30
0.0
 10
11.9020127799
 20
10.4148782814
 30
0.0
 10
11.8908236204
 20
10.4072772607
 30
0.0
 10
11.8831463578
 20
10.4023799915
 30
0.0
 10
11.87923773
 20
10.3999707123
 30
0.0
  0
SPLINE
  5
2F6
100
AcDbEntity
  8
0
100
AcDbSpline
 62
7
  6
CONTINUOUS
 70
0
 71
3
 72
34
 73
30
 74
0
 42
0.0000001
 43
0.0000001
 44
0.0000000001
 40
0.0
 40
0.0
 40
0.0
 40
0.0
 40
0.0128830985
 40
0.0182562601
 40
0.0229386966
 40
0.0269972675
 40
0.0305586073
 40
0.0338337631
 40
0.0371160999
 40
0.0407072302
 40
0.0448408587
 40
0.0496710873
 40
0.0552833393
 40
0.0617132018
 40
0.0689711903
 40
0.0859385835
 40
0.1060249641
 40
0.1289781879
 40
0.1545297585
 40
0.1824046422
 40
0.2441524459
 40
0.3125428012
 40
0.3863421109
 40
0.4646284729
 40
0.5467357965
 40
0.6321421333
 40
0.7204342903
 40
0.8113111633
 40
1.0
 40
1.0
 40
1.0
 40
1.0
 10
12.0521725898
 20
10.4682010694
 30
0.0
 10
12.0521924413
 20
10.4685768721
 30
0.0
 10
12.052196371
 20
10.4691126913
 30
0.0
 10
12.0521088679
 20
10.4697780829
 30
0.0
 10
12.0520065374
 20
10.4701788124
 30
0.0
 10
12.0518621662
 20
10.4705101449
 30
0.0
 10
12.0516723094
 20
10.4707698631
 30
0.0
 10
12.0514325585
 20
10.4709511868
 30
0.0
 10
12.0511459756
 20
10.4710448919
 30
0.0
 10
12.0508209439
 20
10.4710519855
 30
0.0
 10
12.0504595441
 20
10.4709777697
 30
0.0
 10
12.0500607947
 20
10.4708246809
 30
0.0
 10
12.0496239382
 20
10.4705947913
 30
0.0
 10
12.0491487649
 20
10.4702904664
 30
0.0
 10
12.0484269095
 20
10.4697597986
 30
0.0
 10
12.0474438794
 20
10.4689153908
 30
0.0
 10
12.0461808429
 20
10.4676994096
 30
0.0
 10
12.0447893121
 20
10.4662573775
 30
0.0
 10
12.043278099
 20
10.4646158624
 30
0.0
 10
12.0410356661
 20
10.4621077167
 30
0.0
 10
12.0380020472
 20
10.458628861
 30
0.0
 10
12.0340858971
 20
10.4541397889
 30
0.0
 10
12.029810008
 20
10.4493235389
 30
0.0
 10
12.025193049
 20
10.4442750613
 30
0.0
 10
12.0202495329
 20
10.4390672222
 30
0.0
 10
12.0149893602
 20
10.4337591774
 30
0.0
 10
12.0094196518
 20
10.4283999615
 30
0.0
 10
12.0014893182
 20
10.4211480043
 30
0.0
 10
11.9952414413
 20
10.4158808858
 30
0.0
 10
11.9909305033
 20
10.4124464455
 30
0.0
  0
SPLINE
  5
2F7
100
AcDbEntity
  8
0
100
AcDbSpline
 62
7
  6
CONTINUOUS
 70
0
 71
3
 72
28
 73
24
 74
0
 42
0.0000001
 43
0.0000001
 44
0.0000000001
 40
0.0
 40
0.0
 40
0.0
 40
0.0
 40
0.0707273023
 40
0.1419117703
 40
0.2131081181
 40
0.2838685121
 40
0.353759558
 40
0.4223762691
 40
0.4893568476
 40
0.5543980475
 40
0.6172710887
 40
0.6778378617
 40
0.7360670529
 40
0.7643420713
 40
0.7920772464
 40
0.819304385
 40
0.8460636535
 40
0.8724034402
 40
0.8983799017
 40
0.9240562374
 40
0.9495017211
 40
0.9747904754
 40
1.0
 40
1.0
 40
1.0
 40
1.0
 10
11.1770814628
 20
6.2247651893
 30
0.0
 10
11.1559872781
 20
6.2213099201
 30
0.0
 10
11.1133597179
 20
6.2161076277
 30
0.0
 10
11.0489455058
 20
6.2134246369
 30
0.0
 10
10.9845066825
 20
6.2158508989
 30
0.0
 10
10.9208540826
 20
6.2233571628
 30
0.0
 10
10.8587819347
 20
6.2358505481
 30
0.0
 10
10.7990661564
 20
6.2531767754
 30
0.0
 10
10.7424523277
 20
6.2751227398
 30
0.0
 10
10.68964795
 20
6.3014192142
 30
0.0
 10
10.6413120338
 20
6.3317467675
 30
0.0
 10
10.5980556302
 20
6.3657326686
 30
0.0
 10
10.56637909
 20
6.3970787266
 30
0.0
 10
10.5442048934
 20
6.4235683351
 30
0.0
 10
10.5293205394
 20
6.443871594
 30
0.0
 10
10.5160713337
 20
6.4647375002
 30
0.0
 10
10.5044994369
 20
6.4861012239
 30
0.0
 10
10.4946426513
 20
6.507895295
 30
0.0
 10
10.4865330308
 20
6.5300508064
 30
0.0
 10
10.4801973074
 20
6.552497253
 30
0.0
 10
10.4756566428
 20
6.5751635888
 30
0.0
 10
10.4729262082
 20
6.5979753042
 30
0.0
 10
10.4723183355
 20
6.6132438783
 30
0.0
 10
10.4723183724
 20
6.6208627351
 30
0.0
  0
SPLINE
  5
2F8
100
AcDbEntity
  8
0
100
AcDbSpline
 62
7
  6
CONTINUOUS
 70
0
 71
3
 72
31
 73
27
 74
0
 42
0.0000001
 43
0.0000001
 44
0.0000000001
 40
0.0
 40
0.0
 40
0.0
 40
0.0
 40
0.0616707
 40
0.0918266603
 40
0.1215716773
 40
0.1509505537
 40
0.1800131534
 40
0.2088140376
 40
0.2374116284
 40
0.2658675381
 40
0.2942456053
 40
0.3226108847
 40
0.3510286674
 40
0.379563417
 40
0.4082776803
 40
0.4372312548
 40
0.4664803019
 40
0.4960765618
 40
0.5260669317
 40
0.5873641486
 40
0.6506629034
 40
0.7161317835
 40
0.7838472515
 40
0.8538001592
 40
0.9259020245
 40
1.0
 40
1.0
 40
1.0
 40
1.0
 10
11.4731229977
 20
6.7813255623
 30
0.0
 10
11.4802705009
 20
6.771842304
 30
0.0
 10
11.4901533505
 20
6.7571177588
 30
0.0
 10
11.5014141384
 20
6.7365829094
 30
0.0
 10
11.5087521831
 20
6.7210232887
 30
0.0
 10
11.5150248685
 20
6.7052313491
 30
0.0
 10
11.5202177447
 20
6.6892425579
 30
0.0
 10
11.5243186414
 20
6.6730943899
 30
0.0
 10
11.5273173652
 20
6.656824214
 30
0.0
 10
11.5292069621
 20
6.6404700442
 30
0.0
 10
11.5299828533
 20
6.6240700361
 30
0.0
 10
11.5296429245
 20
6.6076625349
 30
0.0
 10
11.5281884114
 20
6.5912858779
 30
0.0
 10
11.5256223745
 20
6.5749783586
 30
0.0
 10
11.5219513335
 20
6.5587779921
 30
0.0
 10
11.5171839776
 20
6.5427224529
 30
0.0
 10
11.5113316457
 20
6.526849225
 30
0.0
 10
11.5044082069
 20
6.5111944177
 30
0.0
 10
11.49369532
 20
6.4905152279
 30
0.0
 10
11.4776295624
 20
6.465368236
 30
0.0
 10
11.454537391
 20
6.4368843727
 30
0.0
 10
11.4277062706
 20
6.4101164777
 30
0.0
 10
11.3973892194
 20
6.3853072649
 30
0.0
 10
11.3638657485
 20
6.3626772023
 30
0.0
 10
11.3274472036
 20
6.3424298599
 30
0.0
 10
11.3017780357
 20
6.3307858712
 30
0.0
 10
11.2885683383
 20
6.3253930349
 30
0.0
  0
SPLINE
  5
2F9
100
AcDbEntity
  8
0
100
AcDbSpline
 62
7
  6
CONTINUOUS
 70
0
 71
3
 72
39
 73
35
 74
0
 42
0.0000001
 43
0.0000001
 44
0.0000000001
 40
0.0
 40
0.0
 40
0.0
 40
0.0
 40
0.0695864677
 40
0.1051520766
 40
0.1410870122
 40
0.1772822469
 40
0.2136242035
 40
0.2499970348
 40
0.2862843519
 40
0.3223711661
 40
0.3581457357
 40
0.3935014697
 40
0.4283388933
 40
0.4625675809
 40
0.4961082543
 40
0.5288948051
 40
0.5608764866
 40
0.5920200184
 40
0.6072754602
 40
0.6223180177
 40
0.6517657389
 40
0.6804005703
 40
0.7082780147
 40
0.7354783212
 40
0.7621058166
 40
0.788286729
 40
0.8141654955
 40
0.8398994651
 40
0.8656523399
 40
0.8915870061
 40
0.9178583681
 40
0.9446071052
 40
0.9719546739
 40
1.0
 40
1.0
 40
1.0
 40
1.0
 10
11.2793103302
 20
6.3217090138
 30
0.0
 10
11.2563501819
 20
6.3128064656
 30
0.0
 10
11.220737447
 20
6.3015923678
 30
0.0
 10
11.1719524247
 20
6.2908859938
 30
0.0
 10
11.1342890723
 20
6.2849019595
 30
0.0
 10
11.0960743006
 20
6.2810643199
 30
0.0
 10
11.0575478666
 20
6.2793964375
 30
0.0
 10
11.0189564376
 20
6.2799091466
 30
0.0
 10
10.9805457682
 20
6.2825991297
 30
0.0
 10
10.9425608107
 20
6.2874493405
 30
0.0
 10
10.9052436825
 20
6.29442902
 30
0.0
 10
10.8688322333
 20
6.3034939503
 30
0.0
 10
10.8335585124
 20
6.3145867406
 30
0.0
 10
10.7996472605
 20
6.3276372865
 30
0.0
 10
10.7673146643
 20
6.3425631286
 30
0.0
 10
10.7367664979
 20
6.3592704751
 30
0.0
 10
10.7081988131
 20
6.3776532998
 30
0.0
 10
10.6860407191
 20
6.3943890329
 30
0.0
 10
10.6695018932
 20
6.408512463
 30
0.0
 10
10.6539933255
 20
6.4228903791
 30
0.0
 10
10.6361283289
 20
6.4416600621
 30
0.0
 10
10.6171671701
 20
6.4655008271
 30
0.0
 10
10.6009565232
 20
6.4903518056
 30
0.0
 10
10.5876053316
 20
6.5160548491
 30
0.0
 10
10.577204089
 20
6.5424459518
 30
0.0
 10
10.5698250129
 20
6.569354473
 30
0.0
 10
10.5655203244
 20
6.5966043532
 30
0.0
 10
10.5643209896
 20
6.6240154596
 30
0.0
 10
10.5662356993
 20
6.6514055872
 30
0.0
 10
10.5712506131
 20
6.6785928568
 30
0.0
 10
10.5793296484
 20
6.7053977391
 30
0.0
 10
10.590416351
 20
6.7316459917
 30
0.0
 10
10.6044322946
 20
6.7571658243
 30
0.0
 10
10.6155211149
 20
6.7733730078
 30
0.0
 10
10.6214939621
 20
6.7812993992
 30
0.0
  0
SPLINE
  5
2FA
100
AcDbEntity
  8
0
100
AcDbSpline
 62
7
  6
CONTINUOUS
 70
0
 71
3
 72
15
 73
11
 74
0
 42
0.0000001
 43
0.0000001
 44
0.0000000001
 40
0.0
 40
0.0
 40
0.0
 40
0.0
 40
0.1291688634
 40
0.2567456478
 40
0.3829109186
 40
0.5078625967
 40
0.631814817
 40
0.7549950926
 40
0.8776415574
 40
1.0
 40
1.0
 40
1.0
 40
1.0
 10
11.4762809961
 20
6.6887449739
 30
0.0
 10
11.4787703046
 20
6.6841963769
 30
0.0
 10
11.483464976
 20
6.6750136817
 30
0.0
 10
11.4896575257
 20
6.6609358509
 30
0.0
 10
11.4949426812
 20
6.6466724004
 30
0.0
 10
11.4993085594
 20
6.6322530588
 30
0.0
 10
11.5027463195
 20
6.6177075975
 30
0.0
 10
11.505248476
 20
6.603065857
 30
0.0
 10
11.506809685
 20
6.5883589602
 30
0.0
 10
11.5072212844
 20
6.5785244204
 30
0.0
 10
11.5072693055
 20
6.573612836
 30
0.0
  0
SPLINE
  5
2FB
100
AcDbEntity
  8
0
100
AcDbSpline
 62
9
  6
CONTINUOUS
 70
0
 71
3
 72
28
 73
24
 74
0
 42
0.0000001
 43
0.0000001
 44
0.0000000001
 40
0.0
 40
0.0
 40
0.0
 40
0.0
 40
0.0251805018
 40
0.0504416358
 40
0.0758622355
 40
0.1015176242
 40
0.1274781311
 40
0.1538078116
 40
0.1805633849
 40
0.2077935874
 40
0.2355387597
 40
0.2638305645
 40
0.3221116912
 40
0.3827509861
 40
0.4457093991
 40
0.510839378
 40
0.5779014414
 40
0.6465809625
 40
0.7165047541
 40
0.7872567936
 40
0.8583936443
 40
0.9294585962
 40
1.0
 40
1.0
 40
1.0
 40
1.0
 10
10.5948183883
 20
6.909271898
 30
0.0
 10
10.5948183856
 20
6.9032196718
 30
0.0
 10
10.5953057497
 20
6.8910902403
 30
0.0
 10
10.5974952838
 20
6.8729698873
 30
0.0
 10
10.6011363055
 20
6.8549672649
 30
0.0
 10
10.6062162218
 20
6.8371426303
 30
0.0
 10
10.6127178712
 20
6.8195534855
 30
0.0
 10
10.6206195654
 20
6.8022569412
 30
0.0
 10
10.6298948592
 20
6.7853086105
 30
0.0
 10
10.6405128893
 20
6.7687629898
 30
0.0
 10
10.652439424
 20
6.7526725726
 30
0.0
 10
10.670205563
 20
6.7316911233
 30
0.0
 10
10.6955762783
 20
6.706893637
 30
0.0
 10
10.7301997898
 20
6.6800662633
 30
0.0
 10
10.7688647128
 20
6.6561930193
 30
0.0
 10
10.8110735295
 20
6.6355730923
 30
0.0
 10
10.8562895914
 20
6.6184615268
 30
0.0
 10
10.9039372691
 20
6.6050720477
 30
0.0
 10
10.9534105777
 20
6.5955727408
 30
0.0
 10
11.0040794291
 20
6.5900827283
 30
0.0
 10
11.0552997531
 20
6.5886715872
 30
0.0
 10
11.1064149661
 20
6.5913561332
 30
0.0
 10
11.1401935356
 20
6.5958818867
 30
0.0
 10
11.1568904109
 20
6.5988284967
 30
0.0
  0
SPLINE
  5
2FC
100
AcDbEntity
  8
0
100
AcDbSpline
 62
7
  6
CONTINUOUS
 70
0
 71
3
 72
10
 73
6
 74
0
 42
0.0000001
 43
0.0000001
 44
0.0000000001
 40
0.0
 40
0.0
 40
0.0
 40
0.0
 40
0.2446842429
 40
0.6188665633
 40
1.0
 40
1.0
 40
1.0
 40
1.0
 10
11.3348183383
 20
6.0212612112
 30
0.0
 10
11.322430141
 20
6.0162037508
 30
0.0
 10
11.290706017
 20
6.0043545766
 30
0.0
 10
11.2381652936
 20
5.988955144
 30
0.0
 10
11.1976499832
 20
5.9806469803
 30
0.0
 10
11.1770814628
 20
5.9772778159
 30
0.0
  0
SPLINE
  5
2FD
100
AcDbEntity
  8
0
100
AcDbSpline
 62
7
  6
CONTINUOUS
 70
0
 71
3
 72
10
 73
6
 74
0
 42
0.0000001
 43
0.0000001
 44
0.0000000001
 40
0.0
 40
0.0
 40
0.0
 40
0.0
 40
0.4887327762
 40
0.7417546144
 40
1.0
 40
1.0
 40
1.0
 40
1.0
 10
11.4675552138
 20
6.0958632282
 30
0.0
 10
11.4477321833
 20
6.0808542117
 30
0.0
 10
11.4159396623
 20
6.0602418959
 30
0.0
 10
11.3707811858
 20
6.0367750715
 30
0.0
 10
11.3469818878
 20
6.0262269595
 30
0.0
 10
11.3348183383
 20
6.0212612112
 30
0.0
  0
SPLINE
  5
2FE
100
AcDbEntity
  8
0
100
AcDbSpline
 62
7
  6
CONTINUOUS
 70
0
 71
3
 72
11
 73
7
 74
0
 42
0.0000001
 43
0.0000001
 44
0.0000000001
 40
0.0
 40
0.0
 40
0.0
 40
0.0
 40
0.2451154195
 40
0.4928994654
 40
0.7442583843
 40
1.0
 40
1.0
 40
1.0
 40
1.0
 10
10.5874550763
 20
6.6062364094
 30
0.0
 10
10.5885431437
 20
6.6134106292
 30
0.0
 10
10.5914013904
 20
6.6277440396
 30
0.0
 10
10.59765838
 20
6.6488990612
 30
0.0
 10
10.6058736725
 20
6.669710896
 30
0.0
 10
10.6125691336
 20
6.683170132
 30
0.0
 10
10.6162149623
 20
6.6898052991
 30
0.0
  0
SPLINE
  5
2FF
100
AcDbEntity
  8
0
100
AcDbSpline
 62
7
  6
CONTINUOUS
 70
0
 71
3
 72
9
 73
5
 74
0
 42
0.0000001
 43
0.0000001
 44
0.0000000001
 40
0.0
 40
0.0
 40
0.0
 40
0.0
 40
0.493860226
 40
1.0
 40
1.0
 40
1.0
 40
1.0
 10
10.6162149623
 20
6.6898052991
 30
0.0
 10
10.6204495774
 20
6.6975120185
 30
0.0
 10
10.629768999
 20
6.7127173998
 30
0.0
 10
10.6404082104
 20
6.7270260799
 30
0.0
 10
10.6460840469
 20
6.7340263286
 30
0.0
  0
SPLINE
  5
300
100
AcDbEntity
  8
0
100
AcDbSpline
 62
7
  6
CONTINUOUS
 70
0
 71
3
 72
15
 73
11
 74
0
 42
0.0000001
 43
0.0000001
 44
0.0000000001
 40
0.0
 40
0.0
 40
0.0
 40
0.0
 40
0.1209688406
 40
0.2423487198
 40
0.3645410111
 40
0.4879282594
 40
0.6128659047
 40
0.7396756319
 40
0.8686402306
 40
1.0
 40
1.0
 40
1.0
 40
1.0
 10
10.5848183383
 20
6.6067205995
 30
0.0
 10
10.5848183383
 20
6.6130943114
 30
0.0
 10
10.5853473437
 20
6.6258696493
 30
0.0
 10
10.587723476
 20
6.644950067
 30
0.0
 10
10.5916739724
 20
6.6638987674
 30
0.0
 10
10.5971846214
 20
6.6826483522
 30
0.0
 10
10.6042355669
 20
6.7011344894
 30
0.0
 10
10.6128016901
 20
6.7192938706
 30
0.0
 10
10.6228519173
 20
6.7370634812
 30
0.0
 10
10.630446263
 20
6.7485012365
 30
0.0
 10
10.6344684991
 20
6.7541336961
 30
0.0
  0
SPLINE
  5
301
100
AcDbEntity
  8
0
100
AcDbSpline
 62
7
  6
CONTINUOUS
 70
0
 71
3
 72
19
 73
15
 74
0
 42
0.0000001
 43
0.0000001
 44
0.0000000001
 40
0.0
 40
0.0
 40
0.0
 40
0.0
 40
0.0579658395
 40
0.1160590309
 40
0.1744049347
 40
0.233125152
 40
0.2923356587
 40
0.3521453471
 40
0.4126546984
 40
0.4739546286
 40
0.5991876227
 40
0.7284133781
 40
0.8619634608
 40
1.0
 40
1.0
 40
1.0
 40
1.0
 10
11.6223183042
 20
6.6208627351
 30
0.0
 10
11.6223182733
 20
6.6144981967
 30
0.0
 10
11.6218946833
 20
6.6017510943
 30
0.0
 10
11.6199900814
 20
6.5826833747
 30
0.0
 10
11.6168209644
 20
6.5636999673
 30
0.0
 10
11.6123941707
 20
6.5448443464
 30
0.0
 10
11.606720061
 20
6.5261580568
 30
0.0
 10
11.5998117042
 20
6.5076827444
 30
0.0
 10
11.5916840927
 20
6.4894588168
 30
0.0
 10
11.5791608285
 20
6.4653826112
 30
0.0
 10
11.5604631851
 20
6.4360891097
 30
0.0
 10
11.5336783913
 20
6.4028581194
 30
0.0
 10
11.5026274372
 20
6.3715718966
 30
0.0
 10
11.4796385337
 20
6.3524994927
 30
0.0
 10
11.4675552138
 20
6.3433506016
 30
0.0
  0
SPLINE
  5
302
100
AcDbEntity
  8
0
100
AcDbSpline
 62
7
  6
CONTINUOUS
 70
0
 71
3
 72
9
 73
5
 74
0
 42
0.0000001
 43
0.0000001
 44
0.0000000001
 40
0.0
 40
0.0
 40
0.0
 40
0.0
 40
0.5061383631
 40
1.0
 40
1.0
 40
1.0
 40
1.0
 10
11.4485600098
 20
6.7340172265
 30
0.0
 10
11.454234332
 20
6.7270183251
 30
0.0
 10
11.464870798
 20
6.7127124855
 30
0.0
 10
11.4741880152
 20
6.6975103515
 30
0.0
 10
11.4784217143
 20
6.6898052991
 30
0.0
  0
SPLINE
  5
303
100
AcDbEntity
  8
0
100
AcDbSpline
 62
7
  6
CONTINUOUS
 70
0
 71
3
 72
11
 73
7
 74
0
 42
0.0000001
 43
0.0000001
 44
0.0000000001
 40
0.0
 40
0.0
 40
0.0
 40
0.0
 40
0.2557416153
 40
0.5071005344
 40
0.7548845804
 40
1.0
 40
1.0
 40
1.0
 40
1.0
 10
11.4784217143
 20
6.6898052991
 30
0.0
 10
11.482067543
 20
6.683170132
 30
0.0
 10
11.4887630041
 20
6.669710896
 30
0.0
 10
11.4969782966
 20
6.6488990613
 30
0.0
 10
11.5032352862
 20
6.6277440396
 30
0.0
 10
11.5060935328
 20
6.6134106292
 30
0.0
 10
11.5071816003
 20
6.6062364094
 30
0.0
  0
SPLINE
  5
304
100
AcDbEntity
  8
0
100
AcDbSpline
 62
7
  6
CONTINUOUS
 70
0
 71
3
 72
15
 73
11
 74
0
 42
0.0000001
 43
0.0000001
 44
0.0000000001
 40
0.0
 40
0.0
 40
0.0
 40
0.0
 40
0.1313626038
 40
0.260329044
 40
0.3871396671
 40
0.5120773473
 40
0.6354638903
 40
0.7576548891
 40
0.8790330682
 40
1.0
 40
1.0
 40
1.0
 40
1.0
 10
11.4601425139
 20
6.754169628
 30
0.0
 10
11.4641667747
 20
6.7485360565
 30
0.0
 10
11.4717649656
 20
6.7370959519
 30
0.0
 10
11.4818203636
 20
6.7193223729
 30
0.0
 10
11.4903909279
 20
6.7011587184
 30
0.0
 10
11.4974455521
 20
6.6826680506
 30
0.0
 10
11.5029590905
 20
6.6639137263
 30
0.0
 10
11.5069116668
 20
6.6449601282
 30
0.0
 10
11.5092890532
 20
6.6258747073
 30
0.0
 10
11.5098183383
 20
6.6130959901
 30
0.0
 10
11.5098183383
 20
6.6067205995
 30
0.0
  0
SPLINE
  5
305
100
AcDbEntity
  8
0
100
AcDbSpline
 62
7
  6
CONTINUOUS
 70
0
 71
3
 72
15
 73
11
 74
0
 42
0.0000001
 43
0.0000001
 44
0.0000000001
 40
0.0
 40
0.0
 40
0.0
 40
0.0
 40
0.1223584425
 40
0.2450049073
 40
0.3681851829
 40
0.4921374031
 40
0.6170890812
 40
0.743254352
 40
0.8708311363
 40
1.0
 40
1.0
 40
1.0
 40
1.0
 10
10.5873673711
 20
6.573612836
 30
0.0
 10
10.5874153922
 20
6.5785244204
 30
0.0
 10
10.5878269916
 20
6.5883589602
 30
0.0
 10
10.5893882005
 20
6.603065857
 30
0.0
 10
10.5918903571
 20
6.6177075975
 30
0.0
 10
10.5953281172
 20
6.6322530588
 30
0.0
 10
10.5996939954
 20
6.6466724004
 30
0.0
 10
10.6049791509
 20
6.6609358509
 30
0.0
 10
10.6111717006
 20
6.6750136817
 30
0.0
 10
10.615866372
 20
6.6841963769
 30
0.0
 10
10.6183556805
 20
6.6887449739
 30
0.0
  0
SPLINE
  5
306
100
AcDbEntity
  8
0
100
AcDbSpline
 62
9
  6
CONTINUOUS
 70
0
 71
3
 72
26
 73
22
 74
0
 42
0.0000001
 43
0.0000001
 44
0.0000000001
 40
0.0
 40
0.0
 40
0.0
 40
0.0
 40
0.0656222494
 40
0.1328136084
 40
0.2011437627
 40
0.2701352024
 40
0.3392864867
 40
0.4080902487
 40
0.4760520171
 40
0.5427091989
 40
0.6076506009
 40
0.6705367241
 40
0.7311205619
 40
0.7892692968
 40
0.8449848952
 40
0.8719889368
 40
0.898456243
 40
0.924431613
 40
0.9499697996
 40
0.9751350163
 40
1.0
 40
1.0
 40
1.0
 40
1.0
 10
11.2201279562
 20
6.4869480864
 30
0.0
 10
11.2078537751
 20
6.4819371729
 30
0.0
 10
11.1824940772
 20
6.4730235836
 30
0.0
 10
11.1430231122
 20
6.4631407489
 30
0.0
 10
11.102156615
 20
6.456696557
 30
0.0
 10
11.0604933566
 20
6.4537856922
 30
0.0
 10
11.0186381727
 20
6.4544492042
 30
0.0
 10
10.977200273
 20
6.4586780004
 30
0.0
 10
10.936782197
 20
6.466411048
 30
0.0
 10
10.8979715374
 20
6.4775375424
 30
0.0
 10
10.8613322059
 20
6.4918988039
 30
0.0
 10
10.8273967548
 20
6.5092901734
 30
0.0
 10
10.7966584345
 20
6.5294676266
 30
0.0
 10
10.7695701423
 20
6.5521435792
 30
0.0
 10
10.750164328
 20
6.5730866338
 30
0.0
 10
10.7369310598
 20
6.5907553283
 30
0.0
 10
10.7282483992
 20
6.6042723161
 30
0.0
 10
10.7207403354
 20
6.6181397446
 30
0.0
 10
10.7144349567
 20
6.6323076715
 30
0.0
 10
10.7093569567
 20
6.6467223121
 30
0.0
 10
10.7067893356
 20
6.6565125978
 30
0.0
 10
10.7057210181
 20
6.6614211468
 30
0.0
  0
SPLINE
  5
307
100
AcDbEntity
  8
0
100
AcDbSpline
 62
7
  6
CONTINUOUS
 70
0
 71
3
 72
31
 73
27
 74
0
 42
0.0000001
 43
0.0000001
 44
0.0000000001
 40
0.0
 40
0.0
 40
0.0
 40
0.0
 40
0.0667240908
 40
0.1007584781
 40
0.1351529009
 40
0.2047287171
 40
0.2749010117
 40
0.3450733166
 40
0.4146491549
 40
0.4830580088
 40
0.5166708366
 40
0.5498036022
 40
0.6144034283
 40
0.6458117609
 40
0.676576064
 40
0.7360739637
 40
0.764831663
 40
0.7929331386
 40
0.8204052414
 40
0.8472878712
 40
0.873634
 40
0.8995093399
 40
0.9249914967
 40
0.9501685545
 40
0.9751371699
 40
1.0
 40
1.0
 40
1.0
 40
1.0
 10
11.2735683383
 20
6.8599521582
 30
0.0
 10
11.2562181393
 20
6.8528689691
 30
0.0
 10
11.2294216588
 20
6.8435685825
 30
0.0
 10
11.1927265936
 20
6.833814231
 30
0.0
 10
11.15481253
 20
6.8256906405
 30
0.0
 10
11.1062968925
 20
6.8188966335
 30
0.0
 10
11.0473189259
 20
6.8161750952
 30
0.0
 10
10.988337443
 20
6.8188969081
 30
0.0
 10
10.9303558454
 20
6.8270164859
 30
0.0
 10
10.883398851
 20
6.8382367432
 30
0.0
 10
10.8472306343
 20
6.8498109409
 30
0.0
 10
10.8127066932
 20
6.8628437617
 30
0.0
 10
10.7798038347
 20
6.8783108922
 30
0.0
 10
10.7489819174
 20
6.8961733108
 30
0.0
 10
10.7204664976
 20
6.9150313946
 30
0.0
 10
10.694296026
 20
6.9360077245
 30
0.0
 10
10.671000512
 20
6.9589585004
 30
0.0
 10
10.6553298984
 20
6.9767477632
 30
0.0
 10
10.6413359418
 20
6.9952280493
 30
0.0
 10
10.6290786421
 20
7.0143219574
 30
0.0
 10
10.6186121956
 20
7.033948089
 30
0.0
 10
10.6099831006
 20
7.0540227381
 30
0.0
 10
10.6032302618
 20
7.0744594578
 30
0.0
 10
10.5983844722
 20
7.0951704778
 30
0.0
 10
10.5954680052
 20
7.1160632109
 30
0.0
 10
10.5948183471
 20
7.1300676257
 30
0.0
 10
10.5948183815
 20
7.1370506854
 30
0.0
  0
SPLINE
  5
308
100
AcDbEntity
  8
0
100
AcDbSpline
 62
9
  6
CONTINUOUS
 70
0
 71
3
 72
18
 73
14
 74
0
 42
0.0000001
 43
0.0000001
 44
0.0000000001
 40
0.0
 40
0.0
 40
0.0
 40
0.0
 40
0.1411547043
 40
0.2778118237
 40
0.4096172783
 40
0.5364229905
 40
0.6583302794
 40
0.717584576
 40
0.7757775514
 40
0.8329999832
 40
0.8893596634
 40
0.944980257
 40
1.0
 40
1.0
 40
1.0
 40
1.0
 10
11.2201279562
 20
6.4869480864
 30
0.0
 10
11.2311124456
 20
6.4914324854
 30
0.0
 10
11.252354226
 20
6.5012256356
 30
0.0
 10
11.2821474902
 20
6.5185888318
 30
0.0
 10
11.309041963
 20
6.5382041088
 30
0.0
 10
11.3326966405
 20
6.5598324067
 30
0.0
 10
11.3496257808
 20
6.5795132754
 30
0.0
 10
11.3611971296
 20
6.5959867785
 30
0.0
 10
11.3688161841
 20
6.6085505887
 30
0.0
 10
11.3754312791
 20
6.6213978109
 30
0.0
 10
11.3810216614
 20
6.6344891271
 30
0.0
 10
11.3855685866
 20
6.6477824682
 30
0.0
 10
11.3879058152
 20
6.6567948712
 30
0.0
 10
11.3888921074
 20
6.6613130986
 30
0.0
  0
SPLINE
  5
309
100
AcDbEntity
  8
0
100
AcDbSpline
 62
7
  6
CONTINUOUS
 70
0
 71
3
 72
21
 73
17
 74
0
 42
0.0000001
 43
0.0000001
 44
0.0000000001
 40
0.0
 40
0.0
 40
0.0
 40
0.0
 40
0.1434934773
 40
0.2132580234
 40
0.2815937145
 40
0.4137535613
 40
0.4776316462
 40
0.5400521012
 40
0.6010746384
 40
0.6607877724
 40
0.719309177
 40
0.7767848291
 40
0.8333871173
 40
0.8893117533
 40
0.944773377
 40
1.0
 40
1.0
 40
1.0
 40
1.0
 10
11.2735683383
 20
6.8599521582
 30
0.0
 10
11.2903662758
 20
6.8668098875
 30
0.0
 10
11.3148341658
 20
6.8783113186
 30
0.0
 10
11.3456545604
 20
6.896173362
 30
0.0
 10
11.3741703051
 20
6.9150313689
 30
0.0
 10
11.4003406638
 20
6.9360076962
 30
0.0
 10
11.4236361443
 20
6.9589585184
 30
0.0
 10
11.4393067305
 20
6.9767477956
 30
0.0
 10
11.4533007499
 20
6.9952280401
 30
0.0
 10
11.4655580892
 20
7.014321934
 30
0.0
 10
11.4760244939
 20
7.0339480882
 30
0.0
 10
11.4846535326
 20
7.0540227531
 30
0.0
 10
11.4914063679
 20
7.0744594696
 30
0.0
 10
11.4962522289
 20
7.0951704711
 30
0.0
 10
11.4991687694
 20
7.1160632084
 30
0.0
 10
11.4998182607
 20
7.1300676268
 30
0.0
 10
11.4998182951
 20
7.1370506854
 30
0.0
  0
SPLINE
  5
30A
100
AcDbEntity
  8
0
100
AcDbSpline
 62
9
  6
CONTINUOUS
 70
0
 71
3
 72
19
 73
15
 74
0
 42
0.0000001
 43
0.0000001
 44
0.0000000001
 40
0.0
 40
0.0
 40
0.0
 40
0.0
 40
0.1384143884
 40
0.2722444132
 40
0.4016331869
 40
0.526903131
 40
0.5881757565
 40
0.6486285068
 40
0.7083546206
 40
0.767457788
 40
0.8260506391
 40
0.8842536068
 40
0.9421931935
 40
1.0
 40
1.0
 40
1.0
 40
1.0
 10
11.3727462656
 20
6.6869512803
 30
0.0
 10
11.3826423218
 20
6.6941940927
 30
0.0
 10
11.4014795054
 20
6.7093265474
 30
0.0
 10
11.4269553678
 20
6.7342546448
 30
0.0
 10
11.4489508736
 20
6.7608147143
 30
0.0
 10
11.4643209684
 20
6.7842906908
 30
0.0
 10
11.4746190647
 20
6.8036126866
 30
0.0
 10
11.481302567
 20
6.8182457156
 30
0.0
 10
11.486984617
 20
6.8330902259
 30
0.0
 10
11.4916524827
 20
6.8481122041
 30
0.0
 10
11.4952945864
 20
6.8632767433
 30
0.0
 10
11.4979023856
 20
6.8785488039
 30
0.0
 10
11.4994696859
 20
6.893891864
 30
0.0
 10
11.4998182859
 20
6.9041502752
 30
0.0
 10
11.4998182882
 20
6.909271898
 30
0.0
  0
SPLINE
  5
30B
100
AcDbEntity
  8
0
100
AcDbSpline
 62
7
  6
CONTINUOUS
 70
0
 71
3
 72
27
 73
23
 74
0
 42
0.0000001
 43
0.0000001
 44
0.0000000001
 40
0.0
 40
0.0
 40
0.0
 40
0.0
 40
0.150041355
 40
0.2231609427
 40
0.2948306809
 40
0.3648951089
 40
0.4331728859
 40
0.4994495168
 40
0.5634880304
 40
0.6250361381
 40
0.6838510502
 40
0.7397723637
 40
0.7666767765
 40
0.7929186656
 40
0.8185820906
 40
0.8438037457
 40
0.8687788572
 40
0.8937615096
 40
0.9190569298
 40
0.9449915793
 40
0.9718880065
 40
1.0
 40
1.0
 40
1.0
 40
1.0
 10
11.2648183383
 20
6.5868820766
 30
0.0
 10
11.2590515228
 20
6.584527784
 30
0.0
 10
11.25034905
 20
6.5813183981
 30
0.0
 10
11.2386371624
 20
6.5777545293
 30
0.0
 10
11.230001049
 20
6.5755123144
 30
0.0
 10
11.2214685441
 20
6.5737051888
 30
0.0
 10
11.2130758398
 20
6.5723669686
 30
0.0
 10
11.2048675278
 20
6.571540894
 30
0.0
 10
11.1968997423
 20
6.5712787701
 30
0.0
 10
11.189242853
 20
6.5716437605
 30
0.0
 10
11.1819892314
 20
6.5727117188
 30
0.0
 10
11.1763005547
 20
6.5742848063
 30
0.0
 10
11.1721081625
 20
6.5760084367
 30
0.0
 10
11.1692017749
 20
6.5775217971
 30
0.0
 10
11.1665214071
 20
6.5792844823
 30
0.0
 10
11.1640976399
 20
6.5813070608
 30
0.0
 10
11.1619646589
 20
6.5835976554
 30
0.0
 10
11.1601578994
 20
6.5861586514
 30
0.0
 10
11.1587127941
 20
6.5889854135
 30
0.0
 10
11.157660408
 20
6.5920649502
 30
0.0
 10
11.1570246479
 20
6.5953746949
 30
0.0
 10
11.1568904109
 20
6.5976614449
 30
0.0
 10
11.1568904109
 20
6.5988284967
 30
0.0
  0
SPLINE
  5
30C
100
AcDbEntity
  8
0
100
AcDbSpline
 62
7
  6
CONTINUOUS
 70
0
 71
3
 72
24
 73
20
 74
0
 42
0.0000001
 43
0.0000001
 44
0.0000000001
 40
0.0
 40
0.0
 40
0.0
 40
0.0
 40
0.0491206211
 40
0.0755393887
 40
0.1031169436
 40
0.131750395
 40
0.1613165448
 40
0.1916821062
 40
0.2227177512
 40
0.2863141939
 40
0.3513096321
 40
0.4170923311
 40
0.4832211905
 40
0.5493817345
 40
0.6153509612
 40
0.6809648272
 40
0.7460974195
 40
0.8745221176
 40
1.0
 40
1.0
 40
1.0
 40
1.0
 10
11.3727462656
 20
6.6869512803
 30
0.0
 10
11.3727462656
 20
6.6844415926
 30
0.0
 10
11.372259303
 20
6.6805736075
 30
0.0
 10
11.3708806125
 20
6.6754862419
 30
0.0
 10
11.3694373478
 20
6.6715131612
 30
0.0
 10
11.3676397325
 20
6.6675127154
 30
0.0
 10
11.3655196266
 20
6.6635118621
 30
0.0
 10
11.3631095361
 20
6.6595351462
 30
0.0
 10
11.3595229627
 20
6.6542481891
 30
0.0
 10
11.3544831058
 20
6.6478226299
 30
0.0
 10
11.3477839783
 20
6.6404816239
 30
0.0
 10
11.3405441034
 20
6.6334877887
 30
0.0
 10
11.3328905164
 20
6.6268602539
 30
0.0
 10
11.3249200083
 20
6.6206033325
 30
0.0
 10
11.3167068749
 20
6.6147145957
 30
0.0
 10
11.3083086079
 20
6.609188576
 30
0.0
 10
11.2969792715
 20
6.6023288591
 30
0.0
 10
11.2825936637
 20
6.5946348548
 30
0.0
 10
11.2707537332
 20
6.5893051914
 30
0.0
 10
11.2648183383
 20
6.5868820766
 30
0.0
  0
SPLINE
  5
30D
100
AcDbEntity
  8
0
100
AcDbSpline
 62
7
  6
CONTINUOUS
 70
0
 71
3
 72
23
 73
19
 74
0
 42
0.0000001
 43
0.0000001
 44
0.0000000001
 40
0.0
 40
0.0
 40
0.0
 40
0.0
 40
0.0748889906
 40
0.1481096665
 40
0.2197793024
 40
0.2899530852
 40
0.3586455824
 40
0.4258244001
 40
0.4914459284
 40
0.5554462596
 40
0.6177633222
 40
0.6783151138
 40
0.7370228796
 40
0.793801686
 40
0.8485682932
 40
0.9012455386
 40
0.9517511611
 40
1.0
 40
1.0
 40
1.0
 40
1.0
 10
10.6410080686
 20
10.4681509289
 30
0.0
 10
10.6385406483
 20
10.4673871383
 30
0.0
 10
10.6337432592
 20
10.4655981187
 30
0.0
 10
10.6269299518
 20
10.4622533627
 30
0.0
 10
10.620564936
 20
10.4584296873
 30
0.0
 10
10.6146201658
 20
10.45425054
 30
0.0
 10
10.6090706364
 20
10.449804974
 30
0.0
 10
10.6038911338
 20
10.4451668461
 30
0.0
 10
10.5990652332
 20
10.4403900138
 30
0.0
 10
10.5945754546
 20
10.4355223266
 30
0.0
 10
10.590409505
 20
10.4306021861
 30
0.0
 10
10.5865544186
 20
10.4256646858
 30
0.0
 10
10.5830099109
 20
10.4207331713
 30
0.0
 10
10.5797725916
 20
10.4158322301
 30
0.0
 10
10.5768465388
 20
10.4109805596
 30
0.0
 10
10.5742371469
 20
10.4061963397
 30
0.0
 10
10.5719516437
 20
10.4014979045
 30
0.0
 10
10.5706206061
 20
10.3983604952
 30
0.0
 10
10.570016011
 20
10.3968101001
 30
0.0
  0
SPLINE
  5
30E
100
AcDbEntity
  8
0
100
AcDbSpline
 62
7
  6
CONTINUOUS
 70
0
 71
3
 72
37
 73
33
 74
0
 42
0.0000001
 43
0.0000001
 44
0.0000000001
 40
0.0
 40
0.0
 40
0.0
 40
0.0
 40
0.077145787
 40
0.155457112
 40
0.2342402841
 40
0.2736039658
 40
0.3128317771
 40
0.3518245912
 40
0.3904648825
 40
0.4286099773
 40
0.4660828681
 40
0.5026519393
 40
0.5205124514
 40
0.5380358974
 40
0.5551827701
 40
0.5719187641
 40
0.6040491984
 40
0.6194716861
 40
0.6344946609
 40
0.64916318
 40
0.663527168
 40
0.6915020464
 40
0.7187295346
 40
0.7453610939
 40
0.7714548699
 40
0.79701978
 40
0.8220389792
 40
0.8702994213
 40
0.916059661
 40
0.9379812907
 40
0.9592644698
 40
1.0
 40
1.0
 40
1.0
 40
1.0
 10
10.570016011
 20
10.3968101001
 30
0.0
 10
10.5642335211
 20
10.4003263745
 30
0.0
 10
10.5526558985
 20
10.4075352373
 30
0.0
 10
10.535377664
 20
10.4186588686
 30
0.0
 10
10.52096066
 20
10.4281022071
 30
0.0
 10
10.5093951971
 20
10.4356415037
 30
0.0
 10
10.5007200556
 20
10.4412224495
 30
0.0
 10
10.4920368595
 20
10.4466728338
 30
0.0
 10
10.4833379818
 20
10.4519172877
 30
0.0
 10
10.474616981
 20
10.4568617984
 30
0.0
 10
10.465872677
 20
10.4613844746
 30
0.0
 10
10.4585118004
 20
10.4646902509
 30
0.0
 10
10.4526080269
 20
10.4669290591
 30
0.0
 10
10.4482257022
 20
10.4683604882
 30
0.0
 10
10.4438653838
 20
10.4695233747
 30
0.0
 10
10.4381844933
 20
10.4706592777
 30
0.0
 10
10.4325382555
 20
10.4711684153
 30
0.0
 10
10.4270474758
 20
10.4709305906
 30
0.0
 10
10.4231193078
 20
10.4704048436
 30
0.0
 10
10.4193456024
 20
10.4695465996
 30
0.0
 10
10.4145795171
 20
10.4680141949
 30
0.0
 10
10.4090214149
 20
10.465428136
 30
0.0
 10
10.4029988548
 20
10.4614844189
 30
0.0
 10
10.3976264996
 20
10.4569526836
 30
0.0
 10
10.3928504441
 20
10.4520028176
 30
0.0
 10
10.3886288434
 20
10.4467551161
 30
0.0
 10
10.3837554897
 20
10.4395737576
 30
0.0
 10
10.3788657796
 20
10.4303039995
 30
0.0
 10
10.3753827538
 20
10.4207111754
 30
0.0
 10
10.3735331598
 20
10.4131213677
 30
0.0
 10
10.3723400266
 20
10.4058510888
 30
0.0
 10
10.3721092414
 20
10.4003779594
 30
0.0
 10
10.3723109136
 20
10.3968101001
 30
0.0
  0
SPLINE
  5
30F
100
AcDbEntity
  8
0
100
AcDbSpline
 62
7
  6
CONTINUOUS
 70
0
 71
3
 72
39
 73
35
 74
0
 42
0.0000001
 43
0.0000001
 44
0.0000000001
 40
0.0
 40
0.0
 40
0.0
 40
0.0
 40
0.0831499582
 40
0.1659784134
 40
0.2071167602
 40
0.2479948189
 40
0.2885494158
 40
0.3287137066
 40
0.3684055215
 40
0.4075332937
 40
0.4459859895
 40
0.4836344953
 40
0.5203138759
 40
0.5558252913
 40
0.5899068393
 40
0.6222531124
 40
0.6376798259
 40
0.652557276
 40
0.6668620636
 40
0.6805845407
 40
0.7063268667
 40
0.7184765049
 40
0.7302398574
 40
0.7417058733
 40
0.7529605102
 40
0.7640802677
 40
0.7751242367
 40
0.7971421265
 40
0.819249004
 40
0.8415145136
 40
0.8639417666
 40
0.9091085116
 40
0.9545329831
 40
1.0
 40
1.0
 40
1.0
 40
1.0
 10
10.3723109136
 20
10.3968101001
 30
0.0
 10
10.3672015092
 20
10.3997847473
 30
0.0
 10
10.3570869046
 20
10.4058685264
 30
0.0
 10
10.3446560955
 20
10.4137669023
 30
0.0
 10
10.3348569181
 20
10.4201981684
 30
0.0
 10
10.3276114838
 20
10.4250417206
 30
0.0
 10
10.3204548171
 20
10.42989303
 30
0.0
 10
10.3133904893
 20
10.4347300221
 30
0.0
 10
10.3064172519
 20
10.4395204252
 30
0.0
 10
10.299535221
 20
10.4442286816
 30
0.0
 10
10.2927432536
 20
10.4488111089
 30
0.0
 10
10.2860427458
 20
10.4532172103
 30
0.0
 10
10.2794347774
 20
10.4573813772
 30
0.0
 10
10.2729266695
 20
10.4612242081
 30
0.0
 10
10.2665298333
 20
10.4646383959
 30
0.0
 10
10.2612293566
 20
10.4670578224
 30
0.0
 10
10.2570585368
 20
10.4686274302
 30
0.0
 10
10.2540330803
 20
10.4695854839
 30
0.0
 10
10.2510697626
 20
10.4703217052
 30
0.0
 10
10.2473004752
 20
10.4709729035
 30
0.0
 10
10.2436091282
 20
10.4711479139
 30
0.0
 10
10.2400932041
 20
10.4707685551
 30
0.0
 10
10.2376298592
 20
10.470235083
 30
0.0
 10
10.2352977929
 20
10.4694631557
 30
0.0
 10
10.2331014708
 20
10.4684701254
 30
0.0
 10
10.2310413863
 20
10.4672783553
 30
0.0
 10
10.2284788487
 20
10.4654545142
 30
0.0
 10
10.225592324
 20
10.4627706651
 30
0.0
 10
10.2226335453
 20
10.4590754138
 30
0.0
 10
10.220135961
 20
10.4550229605
 30
0.0
 10
10.2173769577
 20
10.4492496864
 30
0.0
 10
10.2149489772
 20
10.4415423759
 30
0.0
 10
10.2135321012
 20
10.4319396149
 30
0.0
 10
10.2135156453
 20
10.4254510513
 30
0.0
 10
10.2137359886
 20
10.4222257141
 30
0.0
  0
SPLINE
  5
310
100
AcDbEntity
  8
0
100
AcDbSpline
 62
7
  6
CONTINUOUS
 70
0
 71
3
 72
38
 73
34
 74
0
 42
0.0000001
 43
0.0000001
 44
0.0000000001
 40
0.0
 40
0.0
 40
0.0
 40
0.0
 40
0.0896394561
 40
0.1777469264
 40
0.2640487784
 40
0.3482335321
 40
0.4298946643
 40
0.5084580253
 40
0.5463383978
 40
0.5831252969
 40
0.6186606305
 40
0.6527649653
 40
0.6851991047
 40
0.715692219
 40
0.7439277042
 40
0.7695932754
 40
0.7813880407
 40
0.7924677544
 40
0.8028379509
 40
0.812532033
 40
0.821612045
 40
0.8301729624
 40
0.8383435725
 40
0.846266024
 40
0.8540863805
 40
0.8619370363
 40
0.8781113506
 40
0.8953803157
 40
0.9139444734
 40
0.9337921883
 40
0.9548338843
 40
0.97693852
 40
1.0
 40
1.0
 40
1.0
 40
1.0
 10
10.2154042044
 20
10.3999674638
 30
0.0
 10
10.211495392
 20
10.4023767731
 30
0.0
 10
10.2038178335
 20
10.407274128
 30
0.0
 10
10.192628155
 20
10.4148752729
 30
0.0
 10
10.1818696143
 20
10.4226052525
 30
0.0
 10
10.1715562293
 20
10.4303822572
 30
0.0
 10
10.1617024951
 20
10.4381060609
 30
0.0
 10
10.153790648
 20
10.4444605885
 30
0.0
 10
10.1476758699
 20
10.449381702
 30
0.0
 10
10.1432681162
 20
10.4529084787
 30
0.0
 10
10.1389852741
 20
10.4562816042
 30
0.0
 10
10.1348351168
 20
10.4594623911
 30
0.0
 10
10.1308245868
 20
10.462399266
 30
0.0
 10
10.1269675486
 20
10.4650340451
 30
0.0
 10
10.1232806199
 20
10.4672951493
 30
0.0
 10
10.1202888406
 20
10.4688472028
 30
0.0
 10
10.1179939151
 20
10.4698076613
 30
0.0
 10
10.1163824565
 20
10.4703626715
 30
0.0
 10
10.1148362102
 20
10.4707631203
 30
0.0
 10
10.1133600232
 20
10.4710019222
 30
0.0
 10
10.1119584259
 20
10.4710743272
 30
0.0
 10
10.1106361165
 20
10.4709747614
 30
0.0
 10
10.1093975486
 20
10.4707071515
 30
0.0
 10
10.1082465798
 20
10.4702750305
 30
0.0
 10
10.1071861699
 20
10.4696863866
 30
0.0
 10
10.1058814022
 20
10.4686994426
 30
0.0
 10
10.1044663853
 20
10.4670974223
 30
0.0
 10
10.1031486776
 20
10.464766336
 30
0.0
 10
10.1021541401
 20
10.4620830659
 30
0.0
 10
10.101457004
 20
10.4591121462
 30
0.0
 10
10.1010395596
 20
10.4559078753
 30
0.0
 10
10.1008856766
 20
10.452516616
 30
0.0
 10
10.1009514293
 20
10.4502017844
 30
0.0
 10
10.101022985
 20
10.4490226536
 30
0.0
  0
SPLINE
  5
311
100
AcDbEntity
  8
0
100
AcDbSpline
 62
7
  6
CONTINUOUS
 70
0
 71
3
 72
33
 73
29
 74
0
 42
0.0000001
 43
0.0000001
 44
0.0000000001
 40
0.0
 40
0.0
 40
0.0
 40
0.0
 40
0.1886901753
 40
0.3678459207
 40
0.4532517306
 40
0.5353608565
 40
0.6136486091
 40
0.687449682
 40
0.755841652
 40
0.8175900658
 40
0.8454666145
 40
0.8710185742
 40
0.8939725215
 40
0.9140597575
 40
0.9310274536
 40
0.9382857735
 40
0.9447159339
 40
0.9503281089
 40
0.9551580062
 40
0.9592920338
 40
0.9628835355
 40
0.9661659278
 40
0.9694413787
 40
0.9730027817
 40
0.977061173
 40
0.9817435901
 40
0.9871169856
 40
1.0
 40
1.0
 40
1.0
 40
1.0
 10
10.1037072565
 20
10.4124455877
 30
0.0
 10
10.0993962664
 20
10.4158800379
 30
0.0
 10
10.0911756948
 20
10.4228094946
 30
0.0
 10
10.0815164539
 20
10.431872961
 30
0.0
 10
10.0743878801
 20
10.4390663902
 30
0.0
 10
10.0694443285
 20
10.4442743483
 30
0.0
 10
10.0648272145
 20
10.4493228853
 30
0.0
 10
10.0605512429
 20
10.4541392629
 30
0.0
 10
10.0566350377
 20
10.4586284523
 30
0.0
 10
10.0536012797
 20
10.4621073456
 30
0.0
 10
10.0513588445
 20
10.4646155997
 30
0.0
 10
10.0498475663
 20
10.4662571703
 30
0.0
 10
10.0484559811
 20
10.4676992322
 30
0.0
 10
10.0471929378
 20
10.4689152907
 30
0.0
 10
10.0462098549
 20
10.4697597059
 30
0.0
 10
10.0454879916
 20
10.4702904105
 30
0.0
 10
10.0450128208
 20
10.4705947684
 30
0.0
 10
10.0445759687
 20
10.4708246706
 30
0.0
 10
10.0441771862
 20
10.4709776708
 30
0.0
 10
10.043815793
 20
10.4710519375
 30
0.0
 10
10.0434907342
 20
10.4710449622
 30
0.0
 10
10.0432041055
 20
10.4709512731
 30
0.0
 10
10.0429644132
 20
10.4707698508
 30
0.0
 10
10.0427745344
 20
10.4705101557
 30
0.0
 10
10.0426301389
 20
10.4701788324
 30
0.0
 10
10.0425278062
 20
10.4697781017
 30
0.0
 10
10.0424403209
 20
10.4691127029
 30
0.0
 10
10.0424442342
 20
10.46857688
 30
0.0
 10
10.0424640823
 20
10.4682010791
 30
0.0
  0
SPLINE
  5
312
100
AcDbEntity
  8
0
100
AcDbSpline
 62
7
  6
CONTINUOUS
 70
0
 71
3
 72
37
 73
33
 74
0
 42
0.0000001
 43
0.0000001
 44
0.0000000001
 40
0.0
 40
0.0
 40
0.0
 40
0.0
 40
0.040735453
 40
0.0620185263
 40
0.0839399775
 40
0.1296995747
 40
0.1779594941
 40
0.2029784485
 40
0.2285434969
 40
0.254637392
 40
0.2812687636
 40
0.3084960891
 40
0.3364709232
 40
0.3508350906
 40
0.3655035606
 40
0.3805270511
 40
0.3959499935
 40
0.4280817331
 40
0.4448178958
 40
0.4619648906
 40
0.4794882005
 40
0.4973486723
 40
0.5339174161
 40
0.5713903487
 40
0.6095355809
 40
0.6481759269
 40
0.6871686607
 40
0.726396437
 40
0.7657600238
 40
0.8445430018
 40
0.9228541377
 40
1.0
 40
1.0
 40
1.0
 40
1.0
 10
11.7223257629
 20
10.3968101001
 30
0.0
 10
11.7225274347
 20
10.4003779526
 30
0.0
 10
11.7222966572
 20
10.4058510664
 30
0.0
 10
11.7211035204
 20
10.4131213132
 30
0.0
 10
11.7192539534
 20
10.4207110408
 30
0.0
 10
11.7157710843
 20
10.4303038043
 30
0.0
 10
11.7108812828
 20
10.4395733719
 30
0.0
 10
11.7060080856
 20
10.4467547624
 30
0.0
 10
11.7017865801
 20
10.4520025464
 30
0.0
 10
11.6970105035
 20
10.4569524047
 30
0.0
 10
11.6916381518
 20
10.4614841104
 30
0.0
 10
11.6856156713
 20
10.4654278692
 30
0.0
 10
11.6800576268
 20
10.4680140692
 30
0.0
 10
11.6752915206
 20
10.4695464223
 30
0.0
 10
11.6715177949
 20
10.4704048394
 30
0.0
 10
11.6675895308
 20
10.4709304944
 30
0.0
 10
11.6620985632
 20
10.4711684806
 30
0.0
 10
11.6564521454
 20
10.4706592982
 30
0.0
 10
11.6507711271
 20
10.4695233328
 30
0.0
 10
11.6464107968
 20
10.468360438
 30
0.0
 10
11.6420284779
 20
10.4669290055
 30
0.0
 10
11.6361247585
 20
10.4646901795
 30
0.0
 10
11.6287639028
 20
10.461384429
 30
0.0
 10
11.6200196121
 20
10.4568617545
 30
0.0
 10
11.6112985853
 20
10.4519172479
 30
0.0
 10
11.6025997171
 20
10.4466727589
 30
0.0
 10
11.5939165203
 20
10.4412223861
 30
0.0
 10
11.5852414058
 20
10.4356414322
 30
0.0
 10
11.5736759439
 20
10.4281021864
 30
0.0
 10
11.5592589907
 20
10.4186588465
 30
0.0
 10
11.5419807746
 20
10.4075352364
 30
0.0
 10
11.5304031611
 20
10.4003263779
 30
0.0
 10
11.5246206656
 20
10.3968101001
 30
0.0
  0
SPLINE
  5
313
100
AcDbEntity
  8
0
100
AcDbSpline
 62
7
  6
CONTINUOUS
 70
0
 71
3
 72
23
 73
19
 74
0
 42
0.0000001
 43
0.0000001
 44
0.0000000001
 40
0.0
 40
0.0
 40
0.0
 40
0.0
 40
0.0482492263
 40
0.0987550606
 40
0.1514324443
 40
0.2061992075
 40
0.2629778932
 40
0.3216850927
 40
0.3822363305
 40
0.4445526891
 40
0.5085526381
 40
0.5741746873
 40
0.6413533348
 40
0.7100458298
 40
0.7802198583
 40
0.851889063
 40
0.9251104583
 40
1.0
 40
1.0
 40
1.0
 40
1.0
 10
11.5246206656
 20
10.3968101001
 30
0.0
 10
11.5240160911
 20
10.3983604422
 30
0.0
 10
11.5226851015
 20
10.4014977379
 30
0.0
 10
11.5203996954
 20
10.4061960027
 30
0.0
 10
11.5177904383
 20
10.410980054
 30
0.0
 10
11.5148645144
 20
10.4158315293
 30
0.0
 10
11.5116273973
 20
10.4207322855
 30
0.0
 10
11.5080830202
 20
10.4256635254
 30
0.0
 10
11.5042282374
 20
10.4306008427
 30
0.0
 10
11.5000626563
 20
10.43552087
 30
0.0
 10
11.495572947
 20
10.4403882128
 30
0.0
 10
11.490747441
 20
10.4451650296
 30
0.0
 10
11.4855682239
 20
10.4498030562
 30
0.0
 10
11.4800190962
 20
10.4542486439
 30
0.0
 10
11.474074691
 20
10.4584277713
 30
0.0
 10
11.4677100426
 20
10.4622514715
 30
0.0
 10
11.4608972129
 20
10.4655965416
 30
0.0
 10
11.4561000556
 20
10.4673856844
 30
0.0
 10
11.4536327763
 20
10.4681496254
 30
0.0
  0
SPLINE
  5
314
100
AcDbEntity
  8
0
100
AcDbSpline
 62
7
  6
CONTINUOUS
 70
0
 71
3
 72
11
 73
7
 74
0
 42
0.0000001
 43
0.0000001
 44
0.0000000001
 40
0.0
 40
0.0
 40
0.0
 40
0.0
 40
0.2579492784
 40
0.5103889288
 40
0.7576291241
 40
1.0
 40
1.0
 40
1.0
 40
1.0
 10
11.5246206656
 20
10.3968101001
 30
0.0
 10
11.5220680938
 20
10.3449421385
 30
0.0
 10
11.5153508865
 20
10.2423870596
 30
0.0
 10
11.5001644279
 20
10.0905873984
 30
0.0
 10
11.4799789861
 20
9.9425346016
 30
0.0
 10
11.4630267285
 20
9.8454054655
 30
0.0
 10
11.4536986157
 20
9.7975109332
 30
0.0
  0
SPLINE
  5
315
100
AcDbEntity
  8
0
100
AcDbSpline
 62
7
  6
CONTINUOUS
 70
0
 71
3
 72
11
 73
7
 74
0
 42
0.0000001
 43
0.0000001
 44
0.0000000001
 40
0.0
 40
0.0
 40
0.0
 40
0.0
 40
0.2579492784
 40
0.5103889288
 40
0.7576291241
 40
1.0
 40
1.0
 40
1.0
 40
1.0
 10
10.570016011
 20
10.3968101001
 30
0.0
 10
10.5725685828
 20
10.3449421385
 30
0.0
 10
10.5792857901
 20
10.2423870596
 30
0.0
 10
10.5944722487
 20
10.0905873984
 30
0.0
 10
10.6146576905
 20
9.9425346016
 30
0.0
 10
10.6316099481
 20
9.8454054655
 30
0.0
 10
10.6409380608
 20
9.7975109332
 30
0.0
  0
SPLINE
  5
316
100
AcDbEntity
  8
0
100
AcDbSpline
 62
7
  6
CONTINUOUS
 70
0
 71
3
 72
28
 73
24
 74
0
 42
0.0000001
 43
0.0000001
 44
0.0000000001
 40
0.0
 40
0.0
 40
0.0
 40
0.0
 40
0.0260006886
 40
0.0521212923
 40
0.0784116658
 40
0.1049191717
 40
0.1316880326
 40
0.1587589594
 40
0.1861684958
 40
0.2139489649
 40
0.2421279256
 40
0.2707283728
 40
0.2997685185
 40
0.3292618067
 40
0.3896214726
 40
0.4518431197
 40
0.5158771501
 40
0.5816142059
 40
0.6488929371
 40
0.71750747
 40
0.7872152548
 40
0.8577449371
 40
1.0
 40
1.0
 40
1.0
 40
1.0
 10
11.4528107502
 20
7.268000742
 30
0.0
 10
11.4524201635
 20
7.2633563877
 30
0.0
 10
11.451335312
 20
7.2540688739
 30
0.0
 10
11.4488099923
 20
7.2402326814
 30
0.0
 10
11.4453898747
 20
7.2264960207
 30
0.0
 10
11.4410825067
 20
7.2128897105
 30
0.0
 10
11.4358982175
 20
7.1994429639
 30
0.0
 10
11.4298483332
 20
7.1861852025
 30
0.0
 10
11.4229471105
 20
7.1731448406
 30
0.0
 10
11.4152097681
 20
7.1603502468
 30
0.0
 10
11.4066540717
 20
7.1478287549
 30
0.0
 10
11.3972991808
 20
7.135607433
 30
0.0
 10
11.387165838
 20
7.1237122001
 30
0.0
 10
11.3725368246
 20
7.1082033725
 30
0.0
 10
11.3523813155
 20
7.0897820443
 30
0.0
 10
11.3256860253
 20
7.0695522111
 30
0.0
 10
11.2965290746
 20
7.0511912885
 30
0.0
 10
11.2651706675
 20
7.0348534518
 30
0.0
 10
11.2318874672
 20
7.0206733695
 30
0.0
 10
11.1969747174
 20
7.0087681153
 30
0.0
 10
11.1607369363
 20
6.9992342095
 30
0.0
 10
11.1109646607
 20
6.9897635329
 30
0.0
 10
11.0728131009
 20
6.9864607862
 30
0.0
 10
11.0473183383
 20
6.9859484935
 30
0.0
  0
SPLINE
  5
317
100
AcDbEntity
  8
0
100
AcDbSpline
 62
7
  6
CONTINUOUS
 70
0
 71
3
 72
9
 73
5
 74
0
 42
0.0000001
 43
0.0000001
 44
0.0000000001
 40
0.0
 40
0.0
 40
0.0
 40
0.0
 40
0.5072259542
 40
1.0
 40
1.0
 40
1.0
 40
1.0
 10
11.6627913451
 20
10.6282409815
 30
0.0
 10
11.6627913451
 20
10.6324986187
 30
0.0
 10
11.6623509197
 20
10.640898444
 30
0.0
 10
11.6610080217
 20
10.649204972
 30
0.0
 10
11.6601025714
 20
10.6532409815
 30
0.0
  0
SPLINE
  5
318
100
AcDbEntity
  8
0
100
AcDbSpline
 62
7
  6
CONTINUOUS
 70
0
 71
3
 72
9
 73
5
 74
0
 42
0.0000001
 43
0.0000001
 44
0.0000000001
 40
0.0
 40
0.0
 40
0.0
 40
0.0
 40
0.5084350195
 40
1.0
 40
1.0
 40
1.0
 40
1.0
 10
11.5197212902
 20
10.6282409815
 30
0.0
 10
11.5197212902
 20
10.6324961464
 30
0.0
 10
11.5193849514
 20
10.6408686973
 30
0.0
 10
11.5183556613
 20
10.6491866714
 30
0.0
 10
11.5176575366
 20
10.6532409815
 30
0.0
  0
SPLINE
  5
319
100
AcDbEntity
  8
0
100
AcDbSpline
 62
7
  6
CONTINUOUS
 70
0
 71
3
 72
9
 73
5
 74
0
 42
0.0000001
 43
0.0000001
 44
0.0000000001
 40
0.0
 40
0.0
 40
0.0
 40
0.0
 40
0.5084350195
 40
1.0
 40
1.0
 40
1.0
 40
1.0
 10
10.5749153863
 20
10.6282409815
 30
0.0
 10
10.5749153863
 20
10.6324961464
 30
0.0
 10
10.5752517251
 20
10.6408686973
 30
0.0
 10
10.5762810153
 20
10.6491866714
 30
0.0
 10
10.57697914
 20
10.6532409815
 30
0.0
  0
SPLINE
  5
31A
100
AcDbEntity
  8
0
100
AcDbSpline
 62
7
  6
CONTINUOUS
 70
0
 71
3
 72
9
 73
5
 74
0
 42
0.0000001
 43
0.0000001
 44
0.0000000001
 40
0.0
 40
0.0
 40
0.0
 40
0.0
 40
0.5072259542
 40
1.0
 40
1.0
 40
1.0
 40
1.0
 10
10.4318453314
 20
10.6282409815
 30
0.0
 10
10.4318453314
 20
10.6324986187
 30
0.0
 10
10.4322857569
 20
10.640898444
 30
0.0
 10
10.4336286549
 20
10.649204972
 30
0.0
 10
10.4345341052
 20
10.6532409815
 30
0.0
  0
SPLINE
  5
31B
100
AcDbEntity
  8
0
100
AcDbSpline
 62
7
  6
CONTINUOUS
 70
0
 71
3
 72
28
 73
24
 74
0
 42
0.0000001
 43
0.0000001
 44
0.0000000001
 40
0.0
 40
0.0
 40
0.0
 40
0.0
 40
0.027440355
 40
0.0549852195
 40
0.0826565543
 40
0.1104755736
 40
0.1384626523
 40
0.1666372215
 40
0.2236109357
 40
0.2815411574
 40
0.3109061577
 40
0.340551385
 40
0.4007165201
 40
0.4621184694
 40
0.4933041286
 40
0.5248166161
 40
0.5888264917
 40
0.6541673222
 40
0.7208319198
 40
0.7887955835
 40
0.8580176132
 40
0.9284419765
 40
1.0
 40
1.0
 40
1.0
 40
1.0
 10
13.1858116048
 20
4.7411178318
 30
0.0
 10
13.1836298391
 20
4.7262256008
 30
0.0
 10
13.1786403584
 20
4.6964712335
 30
0.0
 10
13.1693128673
 20
4.6520912449
 30
0.0
 10
13.1581375726
 20
4.6079251904
 30
0.0
 10
13.1451246058
 20
4.5640128004
 30
0.0
 10
13.1302850891
 20
4.5203914402
 30
0.0
 10
13.1080015476
 20
4.4624605681
 30
0.0
 10
13.0755675784
 20
4.3909065666
 30
0.0
 10
13.037540257
 20
4.3214240716
 30
0.0
 10
13.0037392118
 20
4.2668965239
 30
0.0
 10
12.9673363697
 20
4.2125875429
 30
0.0
 10
12.9175545118
 20
4.1461607305
 30
0.0
 10
12.8628842036
 20
4.0825854413
 30
0.0
 10
12.8160692271
 20
4.0331571188
 30
0.0
 10
12.7667033644
 20
3.984221631
 30
0.0
 10
12.7011738524
 20
3.925047269
 30
0.0
 10
12.6172075566
 20
3.8578024902
 30
0.0
 10
12.5277904373
 20
3.7941803149
 30
0.0
 10
12.4332356912
 20
3.7344016119
 30
0.0
 10
12.3338705574
 20
3.6786714373
 30
0.0
 10
12.2300432927
 20
3.6271830041
 30
0.0
 10
12.1586253564
 20
3.5960370868
 30
0.0
 10
12.122286909
 20
3.5812019778
 30
0.0
  0
SPLINE
  5
31C
100
AcDbEntity
  8
0
100
AcDbSpline
 62
9
  6
CONTINUOUS
 70
0
 71
3
 72
51
 73
47
 74
0
 42
0.0000001
 43
0.0000001
 44
0.0000000001
 40
0.0
 40
0.0
 40
0.0
 40
0.0
 40
0.0133189901
 40
0.0265119503
 40
0.0395929287
 40
0.0525769945
 40
0.0654801106
 40
0.0783190052
 40
0.0911110338
 40
0.1038740093
 40
0.1166260313
 40
0.1293853101
 40
0.1421699844
 40
0.1549979402
 40
0.1678866344
 40
0.1808529394
 40
0.1939129871
 40
0.2070820291
 40
0.2203743359
 40
0.2338030894
 40
0.2473802981
 40
0.2611167595
 40
0.2890973611
 40
0.3178130108
 40
0.3324627857
 40
0.3473096317
 40
0.3623554282
 40
0.3776008585
 40
0.4086826975
 40
0.4405440053
 40
0.4731522351
 40
0.5064605284
 40
0.5404094069
 40
0.5749284722
 40
0.6099380383
 40
0.6453507333
 40
0.6810730812
 40
0.7170070264
 40
0.7530514358
 40
0.7891035918
 40
0.825060665
 40
0.8608211913
 40
0.8962865577
 40
0.9313625253
 40
0.9659604699
 40
1.0
 40
1.0
 40
1.0
 40
1.0
 10
9.1500203599
 20
5.4531121923
 30
0.0
 10
9.1420003156
 20
5.4362922554
 30
0.0
 10
9.1268416884
 20
5.4024199917
 30
0.0
 10
9.1067362389
 20
5.3507808051
 30
0.0
 10
9.0894056357
 20
5.2986369208
 30
0.0
 10
9.0748755976
 20
5.2460647593
 30
0.0
 10
9.063167253
 20
5.1931393624
 30
0.0
 10
9.0542980274
 20
5.1399368927
 30
0.0
 10
9.0482806385
 20
5.0865339404
 30
0.0
 10
9.0451240271
 20
5.0330073996
 30
0.0
 10
9.0448330345
 20
4.979434407
 30
0.0
 10
9.0474077896
 20
4.9258921853
 30
0.0
 10
9.0528446234
 20
4.8724578842
 30
0.0
 10
9.0611357093
 20
4.819208509
 30
0.0
 10
9.0722685782
 20
4.7662206619
 30
0.0
 10
9.0862270476
 20
4.7135705513
 30
0.0
 10
9.1029908276
 20
4.6613338442
 30
0.0
 10
9.1225351556
 20
4.6095853981
 30
0.0
 10
9.1448317671
 20
4.5583993216
 30
0.0
 10
9.1698481644
 20
4.5078491475
 30
0.0
 10
9.1975485598
 20
4.458006053
 30
0.0
 10
9.2382513306
 20
4.3921914341
 30
0.0
 10
9.2957948929
 20
4.3120255934
 30
0.0
 10
9.3608761231
 20
4.2361788767
 30
0.0
 10
9.4176010047
 20
4.1777140996
 30
0.0
 10
9.4627603116
 20
4.1347460715
 30
0.0
 10
9.5101819807
 20
4.0930177373
 30
0.0
 10
9.5767595185
 20
4.0387667712
 30
0.0
 10
9.6653613953
 20
3.9744326351
 30
0.0
 10
9.7788579278
 20
3.9036045952
 30
0.0
 10
9.8995740057
 20
3.8390438986
 30
0.0
 10
10.0268182386
 20
3.7811168919
 30
0.0
 10
10.159867851
 20
3.730148743
 30
0.0
 10
10.2979658646
 20
3.6864272885
 30
0.0
 10
10.440326976
 20
3.6501994234
 30
0.0
 10
10.586141406
 20
3.6216697983
 30
0.0
 10
10.734579735
 20
3.600999925
 30
0.0
 10
10.8847974865
 20
3.5883069221
 30
0.0
 10
11.0359399596
 20
3.5836624973
 30
0.0
 10
11.1871471866
 20
3.5870930351
 30
0.0
 10
11.3375587605
 20
3.5985792106
 30
0.0
 10
11.4863190343
 20
3.618055838
 30
0.0
 10
11.6325812348
 20
3.6454124652
 30
0.0
 10
11.775514828
 20
3.6804952166
 30
0.0
 10
11.9143006953
 20
3.7231026539
 30
0.0
 10
12.0043452229
 20
3.7566672177
 30
0.0
 10
12.0484360611
 20
3.774667227
 30
0.0
  0
SPLINE
  5
31D
100
AcDbEntity
  8
0
100
AcDbSpline
 62
9
  6
CONTINUOUS
 70
0
 71
3
 72
25
 73
21
 74
0
 42
0.0000001
 43
0.0000001
 44
0.0000000001
 40
0.0
 40
0.0
 40
0.0
 40
0.0
 40
0.0282675409
 40
0.0565574792
 40
0.084892091
 40
0.1132934036
 40
0.1417830797
 40
0.1703823026
 40
0.2279804847
 40
0.28625487
 40
0.3453477287
 40
0.4053853696
 40
0.466476563
 40
0.528711557
 40
0.5921616264
 40
0.6568790728
 40
0.7228975883
 40
0.7902328982
 40
0.8588836075
 40
1.0
 40
1.0
 40
1.0
 40
1.0
 10
9.14231838
 20
5.1983375589
 30
0.0
 10
9.1423184006
 20
5.1856894575
 30
0.0
 10
9.1428226136
 20
5.1603803361
 30
0.0
 10
9.1450910831
 20
5.1224542632
 30
0.0
 10
9.1488696553
 20
5.0845880014
 30
0.0
 10
9.1541554741
 20
5.0468127132
 30
0.0
 10
9.1609443279
 20
5.0091575938
 30
0.0
 10
9.1720171654
 20
4.9590395564
 30
0.0
 10
9.1896346525
 20
4.8967714092
 30
0.0
 10
9.2166277757
 20
4.8232090539
 30
0.0
 10
9.2494361807
 20
4.7508501139
 30
0.0
 10
9.2879515493
 20
4.6799276837
 30
0.0
 10
9.3320483812
 20
4.6106653851
 30
0.0
 10
9.38158378
 20
4.5432819826
 30
0.0
 10
9.4363981126
 20
4.4779895581
 30
0.0
 10
9.4963159161
 20
4.4149931266
 30
0.0
 10
9.5611447612
 20
4.3544911686
 30
0.0
 10
9.6306822662
 20
4.2966708264
 30
0.0
 10
9.7302683576
 20
4.2227352726
 30
0.0
 10
9.8100485347
 20
4.1728800305
 30
0.0
 10
9.8651496442
 20
4.1420463712
 30
0.0
  0
SPLINE
  5
31E
100
AcDbEntity
  8
0
100
AcDbSpline
 62
9
  6
CONTINUOUS
 70
0
 71
3
 72
23
 73
19
 74
0
 42
0.0000001
 43
0.0000001
 44
0.0000000001
 40
0.0
 40
0.0
 40
0.0
 40
0.0
 40
0.0584999507
 40
0.1182126263
 40
0.1790307128
 40
0.240828731
 40
0.3034657828
 40
0.3667882808
 40
0.4306325811
 40
0.4948275477
 40
0.5591971024
 40
0.6235627306
 40
0.6877459718
 40
0.7515709128
 40
0.8148666956
 40
0.8774701169
 40
0.9392276395
 40
1.0
 40
1.0
 40
1.0
 40
1.0
 10
9.8651496442
 20
4.1420463712
 30
0.0
 10
9.9026812213
 20
4.1210443284
 30
0.0
 10
9.9799427126
 20
4.0810958881
 30
0.0
 10
10.1004767416
 20
4.0280305693
 30
0.0
 10
10.2262548207
 20
3.9814560709
 30
0.0
 10
10.356574638
 20
3.9416318654
 30
0.0
 10
10.4907170391
 20
3.9087756157
 30
0.0
 10
10.6279394167
 20
3.8830683204
 30
0.0
 10
10.7674826823
 20
3.8646515622
 30
0.0
 10
10.908574602
 20
3.8536266963
 30
0.0
 10
11.050434371
 20
3.8500543974
 30
0.0
 10
11.1922769031
 20
3.8539544884
 30
0.0
 10
11.3333171575
 20
3.8653054457
 30
0.0
 10
11.4727747433
 20
3.8840446639
 30
0.0
 10
11.609877551
 20
3.9100688168
 30
0.0
 10
11.743868338
 20
3.9432354431
 30
0.0
 10
11.874000252
 20
3.9833593137
 30
0.0
 10
11.9584537739
 20
4.0148810562
 30
0.0
 10
11.9998183383
 20
4.0317680689
 30
0.0
  0
SPLINE
  5
31F
100
AcDbEntity
  8
0
100
AcDbSpline
 62
9
  6
CONTINUOUS
 70
0
 71
3
 72
42
 73
38
 74
0
 42
0.0000001
 43
0.0000001
 44
0.0000000001
 40
0.0
 40
0.0
 40
0.0
 40
0.0
 40
0.0124258905
 40
0.0248650666
 40
0.0373307121
 40
0.0498358162
 40
0.0623930789
 40
0.0750148151
 40
0.100492447
 40
0.1263631987
 40
0.1394735266
 40
0.1527102454
 40
0.1795881195
 40
0.2070553619
 40
0.2351518492
 40
0.2639044403
 40
0.293327355
 40
0.3234227801
 40
0.3541816285
 40
0.3855843914
 40
0.4176020424
 40
0.4501969636
 40
0.4833238724
 40
0.5169307372
 40
0.5509596763
 40
0.5853478378
 40
0.6200282603
 40
0.6549307168
 40
0.6899825435
 40
0.7251094586
 40
0.7602363733
 40
0.7952881996
 40
0.8301906545
 40
0.864871082
 40
0.8992592272
 40
0.933288225
 40
1.0
 40
1.0
 40
1.0
 40
1.0
 10
9.4273183795
 20
5.4611215783
 30
0.0
 10
9.4273183567
 20
5.4486248559
 30
0.0
 10
9.4278974397
 20
5.4236141896
 30
0.0
 10
9.4305018295
 20
5.386148404
 30
0.0
 10
9.4348393988
 20
5.3487625393
 30
0.0
 10
9.4409051292
 20
5.3114980927
 30
0.0
 10
9.4486930497
 20
5.2743941949
 30
0.0
 10
9.461398181
 20
5.2250435092
 30
0.0
 10
9.4816094686
 20
5.1638715893
 30
0.0
 10
9.5072436873
 20
5.1042388785
 30
0.0
 10
9.5309697634
 20
5.0573742335
 30
0.0
 10
9.5570987218
 20
5.010641165
 30
0.0
 10
9.5938571637
 20
4.9533794018
 30
0.0
 10
9.6439567234
 20
4.8872194836
 30
0.0
 10
9.7000571204
 20
4.8235333431
 30
0.0
 10
9.7619135093
 20
4.7625933089
 30
0.0
 10
9.8292596939
 20
4.7046556563
 30
0.0
 10
9.9018063074
 20
4.6499650964
 30
0.0
 10
9.9792426318
 20
4.5987524133
 30
0.0
 10
10.0612375257
 20
4.5512339654
 30
0.0
 10
10.1474407367
 20
4.5076106624
 30
0.0
 10
10.2374842671
 20
4.4680671424
 30
0.0
 10
10.3309838532
 20
4.4327709416
 30
0.0
 10
10.4275405375
 20
4.4018717415
 30
0.0
 10
10.526742326
 20
4.3755006854
 30
0.0
 10
10.6281659189
 20
4.3537697785
 30
0.0
 10
10.7313785033
 20
4.336771374
 30
0.0
 10
10.8359395945
 20
4.3245777471
 30
0.0
 10
10.9414029234
 20
4.3172407674
 30
0.0
 10
11.0473183321
 20
4.3147916424
 30
0.0
 10
11.1532337688
 20
4.3172407949
 30
0.0
 10
11.258697007
 20
4.3245777617
 30
0.0
 10
11.3632584193
 20
4.3367714756
 30
0.0
 10
11.4664698209
 20
4.3537695192
 30
0.0
 10
11.5678977792
 20
4.3755017061
 30
0.0
 10
11.6992678056
 20
4.4104233334
 30
0.0
 10
11.7952031652
 20
4.4437198192
 30
0.0
 10
11.8573183383
 20
4.4690782324
 30
0.0
  0
SPLINE
  5
320
100
AcDbEntity
  8
0
100
AcDbSpline
 62
9
  6
CONTINUOUS
 70
0
 71
3
 72
22
 73
18
 74
0
 42
0.0000001
 43
0.0000001
 44
0.0000000001
 40
0.0
 40
0.0
 40
0.0
 40
0.0
 40
0.056548967
 40
0.1132764586
 40
0.1703570786
 40
0.2279577973
 40
0.2862346276
 40
0.3453298252
 40
0.4053696895
 40
0.4664629862
 40
0.5286999639
 40
0.5921519026
 40
0.6568711134
 40
0.7228913034
 40
0.7902282107
 40
0.8588804769
 40
1.0
 40
1.0
 40
1.0
 40
1.0
 10
12.9523182965
 20
5.1983375589
 30
0.0
 10
12.9523183377
 20
5.1730388072
 30
0.0
 10
12.9502955121
 20
5.1223383616
 30
0.0
 10
12.9412081356
 20
5.0465917701
 30
0.0
 10
12.9260965265
 20
4.9713301508
 30
0.0
 10
12.9050114487
 20
4.8968019481
 30
0.0
 10
12.8780232158
 20
4.823244254
 30
0.0
 10
12.845221184
 20
4.75089222
 30
0.0
 10
12.8067131225
 20
4.6799755702
 30
0.0
 10
12.762624622
 20
4.6107187699
 30
0.0
 10
12.7130984861
 20
4.543340276
 30
0.0
 10
12.6582942977
 20
4.4780521828
 30
0.0
 10
12.598387451
 20
4.4150594327
 30
0.0
 10
12.5335703034
 20
4.3545604646
 30
0.0
 10
12.4640451591
 20
4.2967423672
 30
0.0
 10
12.3644764792
 20
4.2228087779
 30
0.0
 10
12.284709782
 20
4.1729537454
 30
0.0
 10
12.2296178077
 20
4.1421196169
 30
0.0
  0
SPLINE
  5
321
100
AcDbEntity
  8
0
100
AcDbSpline
 62
9
  6
CONTINUOUS
 70
0
 71
3
 72
9
 73
5
 74
0
 42
0.0000001
 43
0.0000001
 44
0.0000000001
 40
0.0
 40
0.0
 40
0.0
 40
0.0
 40
0.2462366076
 40
1.0
 40
1.0
 40
1.0
 40
1.0
 10
12.2296178077
 20
4.1421196169
 30
0.0
 10
12.2113527896
 20
4.1318969679
 30
0.0
 10
12.1365127653
 20
4.0915741796
 30
0.0
 10
12.0591384986
 20
4.0559854229
 30
0.0
 10
11.9998183383
 20
4.0317680689
 30
0.0
  0
SPLINE
  5
322
100
AcDbEntity
  8
0
100
AcDbSpline
 62
9
  6
CONTINUOUS
 70
0
 71
3
 72
29
 73
25
 74
0
 42
0.0000001
 43
0.0000001
 44
0.0000000001
 40
0.0
 40
0.0
 40
0.0
 40
0.0
 40
0.0276002701
 40
0.0552300495
 40
0.0829186234
 40
0.1106948407
 40
0.1385869141
 40
0.1666221949
 40
0.1948270359
 40
0.2232265719
 40
0.2518446202
 40
0.2807035276
 40
0.3098240543
 40
0.3392253361
 40
0.3989262105
 40
0.459936184
 40
0.5223438336
 40
0.5862088208
 40
0.6515627258
 40
0.7184104107
 40
0.7867316391
 40
0.8564832799
 40
0.927600217
 40
1.0
 40
1.0
 40
1.0
 40
1.0
 10
12.9523182965
 20
5.3277726261
 30
0.0
 10
12.9523183205
 20
5.3130774062
 30
0.0
 10
12.9516373525
 20
5.2836667184
 30
0.0
 10
12.9485748051
 20
5.2396097164
 30
0.0
 10
12.9434741325
 20
5.1956467522
 30
0.0
 10
12.9363412414
 20
5.1518263706
 30
0.0
 10
12.9271834676
 20
5.1081954941
 30
0.0
 10
12.9160113177
 20
5.0648010397
 30
0.0
 10
12.9028365152
 20
5.021689744
 30
0.0
 10
12.8876737283
 20
4.978907842
 30
0.0
 10
12.8705392888
 20
4.9365012247
 30
0.0
 10
12.8514518357
 20
4.8945155971
 30
0.0
 10
12.8304318167
 20
4.8529951156
 30
0.0
 10
12.7997062792
 20
4.7980413588
 30
0.0
 10
12.7564810088
 20
4.7307053179
 30
0.0
 10
12.6975676902
 20
4.6529062861
 30
0.0
 10
12.6315977812
 20
4.578016053
 30
0.0
 10
12.5588592261
 20
4.506355111
 30
0.0
 10
12.4796650788
 20
4.4382247421
 30
0.0
 10
12.3943555732
 20
4.3739127189
 30
0.0
 10
12.3032963249
 20
4.3136904076
 30
0.0
 10
12.2068758818
 20
4.2578120946
 30
0.0
 10
12.1055097496
 20
4.2065151748
 30
0.0
 10
12.0355067014
 20
4.1757728493
 30
0.0
 10
11.9998183383
 20
4.1612031361
 30
0.0
  0
SPLINE
  5
323
100
AcDbEntity
  8
0
100
AcDbSpline
 62
9
  6
CONTINUOUS
 70
0
 71
3
 72
28
 73
24
 74
0
 42
0.0000001
 43
0.0000001
 44
0.0000000001
 40
0.0
 40
0.0
 40
0.0
 40
0.0
 40
0.0276006137
 40
0.0552307355
 40
0.0829196505
 40
0.1106962171
 40
0.1385886293
 40
0.1666242655
 40
0.1948294492
 40
0.2232293413
 40
0.2518477448
 40
0.2807070044
 40
0.3392171368
 40
0.3989187545
 40
0.4599294911
 40
0.5223379201
 40
0.5862036999
 40
0.6515584104
 40
0.718406923
 40
0.7867289907
 40
0.8564814949
 40
0.9275993531
 40
1.0
 40
1.0
 40
1.0
 40
1.0
 10
12.6673182971
 20
5.4851550294
 30
0.0
 10
12.6673182744
 20
5.4726583063
 30
0.0
 10
12.6667393073
 20
5.4476476386
 30
0.0
 10
12.6641347628
 20
5.4101818551
 30
0.0
 10
12.6597973978
 20
5.372796
 30
0.0
 10
12.6537313856
 20
5.3355314665
 30
0.0
 10
12.6459439122
 20
5.29842799
 30
0.0
 10
12.6364429887
 20
5.2615256791
 30
0.0
 10
12.6252393363
 20
5.2248640379
 30
0.0
 10
12.6123450141
 20
5.1884826952
 30
0.0
 10
12.5977737138
 20
5.1524200067
 30
0.0
 10
12.5760345815
 20
5.104600497
 30
0.0
 10
12.5446620893
 20
5.0457707055
 30
0.0
 10
12.5007805783
 20
4.9774149054
 30
0.0
 10
12.4506797008
 20
4.9112523464
 30
0.0
 10
12.3945796484
 20
4.8475669468
 30
0.0
 10
12.3327231353
 20
4.7866267222
 30
0.0
 10
12.2653769716
 20
4.7286891347
 30
0.0
 10
12.1928303101
 20
4.6739985727
 30
0.0
 10
12.1153941118
 20
4.6227858954
 30
0.0
 10
12.0333987633
 20
4.5752673192
 30
0.0
 10
11.9471976361
 20
4.531644752
 30
0.0
 10
11.8876674832
 20
4.5055016701
 30
0.0
 10
11.8573183383
 20
4.4931116836
 30
0.0
  0
SPLINE
  5
324
100
AcDbEntity
  8
0
100
AcDbSpline
 62
7
  6
CONTINUOUS
 70
0
 71
3
 72
23
 73
19
 74
0
 42
0.0000001
 43
0.0000001
 44
0.0000000001
 40
0.0
 40
0.0
 40
0.0
 40
0.0
 40
0.1170472074
 40
0.1474112186
 40
0.1781600775
 40
0.240693523
 40
0.304421511
 40
0.3690733617
 40
0.4343548384
 40
0.4999557938
 40
0.5655583373
 40
0.6308445362
 40
0.6955041308
 40
0.7592426856
 40
0.8217892449
 40
0.852545501
 40
0.882917407
 40
1.0
 40
1.0
 40
1.0
 40
1.0
 10
10.7746075809
 20
7.1296541875
 30
0.0
 10
10.7929313128
 20
7.1165807688
 30
0.0
 10
10.8176498996
 20
7.1022928048
 30
0.0
 10
10.8488829662
 20
7.0882142097
 30
0.0
 10
10.8709431774
 20
7.0793194416
 30
0.0
 10
10.8995963293
 20
7.0696949041
 30
0.0
 10
10.9352116087
 20
7.0606438928
 30
0.0
 10
10.9719101778
 20
7.0541122763
 30
0.0
 10
11.0093367082
 20
7.0501628654
 30
0.0
 10
11.0471301018
 20
7.0488334116
 30
0.0
 10
11.0849253129
 20
7.0501367057
 30
0.0
 10
11.1223572793
 20
7.0540602057
 30
0.0
 10
11.1590648493
 20
7.0605664087
 30
0.0
 10
11.1946926065
 20
7.0695927494
 30
0.0
 10
11.223358738
 20
7.0791973248
 30
0.0
 10
11.245431031
 20
7.0880766989
 30
0.0
 10
11.2766843951
 20
7.1021339672
 30
0.0
 10
11.3014223476
 20
7.1164046765
 30
0.0
 10
11.3197637355
 20
7.1294650486
 30
0.0
  0
SPLINE
  5
325
100
AcDbEntity
  8
0
100
AcDbSpline
 62
7
  6
CONTINUOUS
 70
0
 71
3
 72
21
 73
17
 74
0
 42
0.0000001
 43
0.0000001
 44
0.0000000001
 40
0.0
 40
0.0
 40
0.0
 40
0.0
 40
0.1159861517
 40
0.1765035126
 40
0.2384397562
 40
0.3015781446
 40
0.3656755916
 40
0.4304694969
 40
0.495684226
 40
0.5610371954
 40
0.6262454598
 40
0.6910314236
 40
0.755129477
 40
0.8182919262
 40
0.8802955729
 40
1.0
 40
1.0
 40
1.0
 40
1.0
 10
10.7836490259
 20
7.0810464072
 30
0.0
 10
10.8013785387
 20
7.0696011948
 30
0.0
 10
10.8299707939
 20
7.0545701602
 30
0.0
 10
10.8704415305
 20
7.0388846962
 30
0.0
 10
10.9027725353
 20
7.0290264165
 30
0.0
 10
10.9363496158
 20
7.0213417013
 30
0.0
 10
10.970889035
 20
7.0158997584
 30
0.0
 10
11.0060909681
 20
7.0127543241
 30
0.0
 10
11.0416519591
 20
7.0119384877
 30
0.0
 10
11.0772649412
 20
7.0134656638
 30
0.0
 10
11.1126224277
 20
7.0173290218
 30
0.0
 10
11.1474197357
 20
7.0235020116
 30
0.0
 10
11.1813551413
 20
7.0319373408
 30
0.0
 10
11.2141416493
 20
7.0425720483
 30
0.0
 10
11.2554340004
 20
7.0593599305
 30
0.0
 10
11.2846376899
 20
7.0752452519
 30
0.0
 10
11.3028059472
 20
7.0872557982
 30
0.0
  0
SPLINE
  5
326
100
AcDbEntity
  8
0
100
AcDbSpline
 62
7
  6
CONTINUOUS
 70
0
 71
3
 72
21
 73
17
 74
0
 42
0.0000001
 43
0.0000001
 44
0.0000000001
 40
0.0
 40
0.0
 40
0.0
 40
0.0
 40
0.1169507564
 40
0.1776782237
 40
0.2396623632
 40
0.3027072239
 40
0.3665971377
 40
0.4311015395
 40
0.4959798962
 40
0.5609866075
 40
0.625875445
 40
0.6904045701
 40
0.7543409487
 40
0.8174652491
 40
0.8795767168
 40
1.0
 40
1.0
 40
1.0
 40
1.0
 10
10.7986415973
 20
7.0229908634
 30
0.0
 10
10.8158319482
 20
7.0129609622
 30
0.0
 10
10.8432229199
 20
6.999809615
 30
0.0
 10
10.8816533758
 20
6.9860985186
 30
0.0
 10
10.9121058043
 20
6.9775176034
 30
0.0
 10
10.9435777389
 20
6.9708452397
 30
0.0
 10
10.9758362748
 20
6.966134612
 30
0.0
 10
11.0086365787
 20
6.9634267676
 30
0.0
 10
11.0417313568
 20
6.962747076
 30
0.0
 10
11.0748706725
 20
6.964105866
 30
0.0
 10
11.1078043151
 20
6.9674980878
 30
0.0
 10
11.140284039
 20
6.9729036268
 30
0.0
 10
11.1720635959
 20
6.980286599
 30
0.0
 10
11.2029076683
 20
6.9895989048
 30
0.0
 10
11.2420480149
 20
7.0043391005
 30
0.0
 10
11.2699665088
 20
7.0182848448
 30
0.0
 10
11.2875320934
 20
7.0288408445
 30
0.0
  0
SPLINE
  5
327
100
AcDbEntity
  8
0
100
AcDbSpline
 62
7
  6
CONTINUOUS
 70
0
 71
3
 72
36
 73
32
 74
0
 42
0.0000001
 43
0.0000001
 44
0.0000000001
 40
0.0
 40
0.0
 40
0.0
 40
0.0
 40
0.0248353436
 40
0.0498082844
 40
0.0750490809
 40
0.1006805462
 40
0.1268100144
 40
0.1535287225
 40
0.1809092339
 40
0.2090048461
 40
0.2378496549
 40
0.2674591757
 40
0.2978313684
 40
0.3289480957
 40
0.3607764801
 40
0.3932705083
 40
0.4263726289
 40
0.4600151813
 40
0.4941220264
 40
0.5286099716
 40
0.5983447876
 40
0.6334276849
 40
0.6685167332
 40
0.738300421
 40
0.77283029
 40
0.8069900272
 40
0.8406956207
 40
0.8738699219
 40
0.9064443456
 40
0.9383593218
 40
1.0
 40
1.0
 40
1.0
 40
1.0
 10
10.6410683386
 20
7.3116695084
 30
0.0
 10
10.6410683515
 20
7.3045253632
 30
0.0
 10
10.641826766
 20
7.2901861159
 30
0.0
 10
10.6452291045
 20
7.2688294746
 30
0.0
 10
10.6508767649
 20
7.2477156373
 30
0.0
 10
10.6587348858
 20
7.2269674629
 30
0.0
 10
10.6687569369
 20
7.2067003784
 30
0.0
 10
10.6808838604
 20
7.1870272488
 30
0.0
 10
10.6950456674
 20
7.168056446
 30
0.0
 10
10.7111615779
 20
7.1498919572
 30
0.0
 10
10.7291406499
 20
7.1326330042
 30
0.0
 10
10.7488821492
 20
7.1163737143
 30
0.0
 10
10.7702760395
 20
7.1012027431
 30
0.0
 10
10.7932034774
 20
7.0872029048
 30
0.0
 10
10.8175373598
 20
7.0744506943
 30
0.0
 10
10.8431429258
 20
7.0630159294
 30
0.0
 10
10.8698785544
 20
7.0529612683
 30
0.0
 10
10.8975959598
 20
7.0443419903
 30
0.0
 10
10.926143153
 20
7.0372052025
 30
0.0
 10
10.965235095
 20
7.0296929133
 30
0.0
 10
11.0051620375
 20
7.0253388586
 30
0.0
 10
11.0454047423
 20
7.0241447496
 30
0.0
 10
11.0856685942
 20
7.0250711183
 30
0.0
 10
11.1256513619
 20
7.0291603201
 30
0.0
 10
11.164834663
 20
7.0364108646
 30
0.0
 10
11.193475385
 20
7.0433572876
 30
0.0
 10
11.2213062235
 20
7.0517917304
 30
0.0
 10
11.248173756
 20
7.0616675144
 30
0.0
 10
11.2739319799
 20
7.0729323756
 30
0.0
 10
11.3062164643
 20
7.0895193313
 30
0.0
 10
11.3289514974
 20
7.1041247519
 30
0.0
 10
11.3431286757
 20
7.1147744769
 30
0.0
  0
SPLINE
  5
328
100
AcDbEntity
  8
0
100
AcDbSpline
 62
9
  6
CONTINUOUS
 70
0
 71
3
 72
26
 73
22
 74
0
 42
0.0000001
 43
0.0000001
 44
0.0000000001
 40
0.0
 40
0.0
 40
0.0
 40
0.0
 40
0.0257136465
 40
0.0514890254
 40
0.0773868056
 40
0.1034656774
 40
0.1297813695
 40
0.1563858627
 40
0.1833268066
 40
0.2106467923
 40
0.2665437939
 40
0.3243344405
 40
0.3841589246
 40
0.4460694498
 40
0.5100368905
 40
0.5759594233
 40
0.6436719984
 40
0.7129560445
 40
0.783548896
 40
0.8551537028
 40
1.0
 40
1.0
 40
1.0
 40
1.0
 10
11.4535682832
 20
8.1198041144
 30
0.0
 10
11.4535682832
 20
8.1151028564
 30
0.0
 10
11.4532410945
 20
8.1056857897
 30
0.0
 10
11.4517700623
 20
8.0916029687
 30
0.0
 10
11.4493226923
 20
8.0775883042
 30
0.0
 10
11.4459049759
 20
8.0636768624
 30
0.0
 10
11.4415254017
 20
8.0499022313
 30
0.0
 10
11.4361952789
 20
8.036297874
 30
0.0
 10
11.4299270804
 20
8.0228964068
 30
0.0
 10
11.42026915
 20
8.0052103557
 30
0.0
 10
11.4058594593
 20
7.983753804
 30
0.0
 10
11.3852608467
 20
7.9595466406
 30
0.0
 10
11.3614227621
 20
7.9368995726
 30
0.0
 10
11.3345792528
 20
7.9160267136
 30
0.0
 10
11.3049889004
 20
7.8971216908
 30
0.0
 10
11.2729357669
 20
7.8803614101
 30
0.0
 10
11.2387261659
 20
7.8659028835
 30
0.0
 10
11.2026881376
 20
7.8538822734
 30
0.0
 10
11.1651616386
 20
7.8444123554
 30
0.0
 10
11.1134512875
 20
7.8352754635
 30
0.0
 10
11.073800767
 20
7.8325419845
 30
0.0
 10
11.0473183383
 20
7.8325419845
 30
0.0
  0
SPLINE
  5
329
100
AcDbEntity
  8
0
100
AcDbSpline
 62
7
  6
CONTINUOUS
 70
0
 71
3
 72
18
 73
14
 74
0
 42
0.0000001
 43
0.0000001
 44
0.0000000001
 40
0.0
 40
0.0
 40
0.0
 40
0.0
 40
0.1364726914
 40
0.2715272505
 40
0.4040512076
 40
0.5330297792
 40
0.5959361481
 40
0.6576502066
 40
0.7771699011
 40
0.8349338829
 40
0.8913184584
 40
0.9463324377
 40
1.0
 40
1.0
 40
1.0
 40
1.0
 10
11.0473183383
 20
6.8833389507
 30
0.0
 10
11.0296279868
 20
6.8829850924
 30
0.0
 10
10.9943766383
 20
6.8839047442
 30
0.0
 10
10.942288549
 20
6.890142124
 30
0.0
 10
10.8919762331
 20
6.9011102882
 30
0.0
 10
10.8518995887
 20
6.9141377313
 30
0.0
 10
10.8215289749
 20
6.9267744165
 30
0.0
 10
10.79300528
 20
6.9405233278
 30
0.0
 10
10.7662516979
 20
6.9563300235
 30
0.0
 10
10.7417183334
 20
6.974132859
 30
0.0
 10
10.7248291101
 20
6.9881517269
 30
0.0
 10
10.7093207196
 20
7.0029230609
 30
0.0
 10
10.6998293381
 20
7.0133580233
 30
0.0
 10
10.6953467171
 20
7.0186797703
 30
0.0
  0
SPLINE
  5
32A
100
AcDbEntity
  8
0
100
AcDbSpline
 62
7
  6
CONTINUOUS
 70
0
 71
3
 72
26
 73
22
 74
0
 42
0.0000001
 43
0.0000001
 44
0.0000000001
 40
0.0
 40
0.0
 40
0.0
 40
0.0
 40
0.1455818156
 40
0.2174583223
 40
0.2882859375
 40
0.3577821115
 40
0.425693757
 40
0.491805813
 40
0.5559498994
 40
0.6180127828
 40
0.6779455749
 40
0.7357719745
 40
0.7915958073
 40
0.8188242199
 40
0.845630076
 40
0.8720505132
 40
0.8981275888
 40
0.9239082144
 40
0.9494434772
 40
0.9747881598
 40
1.0
 40
1.0
 40
1.0
 40
1.0
 10
11.0473183383
 20
6.9347087464
 30
0.0
 10
11.0218172881
 20
6.9341972517
 30
0.0
 10
10.9836066639
 20
6.9359644038
 30
0.0
 10
10.9336261838
 20
6.9434338777
 30
0.0
 10
10.8972945156
 20
6.9514759272
 30
0.0
 10
10.8622994852
 20
6.961901677
 30
0.0
 10
10.8289479724
 20
6.9746131542
 30
0.0
 10
10.7975370993
 20
6.9894920246
 30
0.0
 10
10.7683456438
 20
7.0064016674
 30
0.0
 10
10.7416335929
 20
7.0251879685
 30
0.0
 10
10.7176392478
 20
7.0456820285
 30
0.0
 10
10.6965802953
 20
7.0676970284
 30
0.0
 10
10.6815089073
 20
7.0873154481
 30
0.0
 10
10.6711565335
 20
7.1035529496
 30
0.0
 10
10.6642973242
 20
7.115877504
 30
0.0
 10
10.6582958611
 20
7.1284184958
 30
0.0
 10
10.6531661041
 20
7.1411475991
 30
0.0
 10
10.6489195419
 20
7.154035009
 30
0.0
 10
10.6455663615
 20
7.1670512086
 30
0.0
 10
10.6431142336
 20
7.1801650204
 30
0.0
 10
10.6420820446
 20
7.1889705043
 30
0.0
 10
10.6417189254
 20
7.1933727105
 30
0.0
  0
SPLINE
  5
32B
100
AcDbEntity
  8
0
100
AcDbSpline
 62
7
  6
CONTINUOUS
 70
0
 71
3
 72
25
 73
21
 74
0
 42
0.0000001
 43
0.0000001
 44
0.0000000001
 40
0.0
 40
0.0
 40
0.0
 40
0.0
 40
0.1454895346
 40
0.2173261353
 40
0.2881212358
 40
0.3575941561
 40
0.4254932516
 40
0.4916043214
 40
0.5557591467
 40
0.6178438431
 40
0.6778078545
 40
0.7356722168
 40
0.7915369057
 40
0.8455859712
 40
0.8720231753
 40
0.8981142918
 40
0.9239054549
 40
0.9494469436
 40
0.9747927913
 40
1.0
 40
1.0
 40
1.0
 40
1.0
 10
11.0473183383
 20
6.9859484935
 30
0.0
 10
11.0219067268
 20
6.9854378717
 30
0.0
 10
10.983829711
 20
6.9871887169
 30
0.0
 10
10.9340168483
 20
6.994600732
 30
0.0
 10
10.8977990065
 20
7.0025834421
 30
0.0
 10
10.8629039751
 20
7.0129343902
 30
0.0
 10
10.8296356221
 20
7.0255569437
 30
0.0
 10
10.7982882409
 20
7.0403343949
 30
0.0
 10
10.7691381321
 20
7.0571318773
 30
0.0
 10
10.7424429282
 20
7.0757975882
 30
0.0
 10
10.7184395846
 20
7.0961638392
 30
0.0
 10
10.6973424069
 20
7.1180497386
 30
0.0
 10
10.6793438361
 20
7.1412572545
 30
0.0
 10
10.666971429
 20
7.161684663
 30
0.0
 10
10.6588322218
 20
7.1784416752
 30
0.0
 10
10.6536355083
 20
7.1911089776
 30
0.0
 10
10.6493148744
 20
7.2039360781
 30
0.0
 10
10.6458804061
 20
7.2168942511
 30
0.0
 10
10.6433398149
 20
7.2299525351
 30
0.0
 10
10.6422438349
 20
7.2387239432
 30
0.0
 10
10.6418477717
 20
7.2431097468
 30
0.0
  0
SPLINE
  5
32C
100
AcDbEntity
  8
0
100
AcDbSpline
 62
9
  6
CONTINUOUS
 70
0
 71
3
 72
26
 73
22
 74
0
 42
0.0000001
 43
0.0000001
 44
0.0000000001
 40
0.0
 40
0.0
 40
0.0
 40
0.0
 40
0.1448462972
 40
0.216451104
 40
0.2870439555
 40
0.3563280016
 40
0.4240405767
 40
0.4899631095
 40
0.5539305502
 40
0.6158410754
 40
0.6756655595
 40
0.7334562061
 40
0.7893532077
 40
0.8166731934
 40
0.8436141373
 40
0.8702186305
 40
0.8965343226
 40
0.9226131944
 40
0.9485109746
 40
0.9742863535
 40
1.0
 40
1.0
 40
1.0
 40
1.0
 10
11.0473183383
 20
7.8325419845
 30
0.0
 10
11.0208359096
 20
7.8325419845
 30
0.0
 10
10.9811853891
 20
7.8352754635
 30
0.0
 10
10.9294750379
 20
7.8444123554
 30
0.0
 10
10.891948539
 20
7.8538822734
 30
0.0
 10
10.8559105107
 20
7.8659028835
 30
0.0
 10
10.8217009097
 20
7.8803614101
 30
0.0
 10
10.7896477762
 20
7.8971216908
 30
0.0
 10
10.7600574238
 20
7.9160267136
 30
0.0
 10
10.7332139145
 20
7.9368995726
 30
0.0
 10
10.7093758298
 20
7.9595466406
 30
0.0
 10
10.6887772173
 20
7.983753804
 30
0.0
 10
10.6743675266
 20
8.0052103557
 30
0.0
 10
10.6647095961
 20
8.0228964068
 30
0.0
 10
10.6584413977
 20
8.036297874
 30
0.0
 10
10.6531112749
 20
8.0499022313
 30
0.0
 10
10.6487317007
 20
8.0636768624
 30
0.0
 10
10.6453139842
 20
8.0775883042
 30
0.0
 10
10.6428666142
 20
8.0916029687
 30
0.0
 10
10.6413955821
 20
8.1056857897
 30
0.0
 10
10.6410683934
 20
8.1151028564
 30
0.0
 10
10.6410683934
 20
8.1198041144
 30
0.0
  0
SPLINE
  5
32D
100
AcDbEntity
  8
0
100
AcDbSpline
 62
7
  6
CONTINUOUS
 70
0
 71
3
 72
28
 73
24
 74
0
 42
0.0000001
 43
0.0000001
 44
0.0000000001
 40
0.0
 40
0.0
 40
0.0
 40
0.0
 40
0.0260054058
 40
0.0521256149
 40
0.0784111205
 40
0.1049099465
 40
0.1316670103
 40
0.1587236833
 40
0.1861172036
 40
0.213880569
 40
0.2420419468
 40
0.270624919
 40
0.2996481866
 40
0.3291256947
 40
0.3894584388
 40
0.4516615567
 40
0.5156870467
 40
0.5814261774
 40
0.6487174898
 40
0.7173543243
 40
0.78709278
 40
0.8576597564
 40
1.0
 40
1.0
 40
1.0
 40
1.0
 10
11.4529368101
 20
7.2183034504
 30
0.0
 10
11.4525789495
 20
7.2136420793
 30
0.0
 10
11.4515574404
 20
7.2043193091
 30
0.0
 10
11.4491200423
 20
7.1904260352
 30
0.0
 10
11.4457807068
 20
7.1766298328
 30
0.0
 10
11.441547033
 20
7.1629618322
 30
0.0
 10
11.4364291254
 20
7.1494516398
 30
0.0
 10
11.4304383191
 20
7.1361290082
 30
0.0
 10
11.4235888302
 20
7.1230227049
 30
0.0
 10
11.4158958276
 20
7.110161472
 30
0.0
 10
11.4073771939
 20
7.0975729305
 30
0.0
 10
11.3980520408
 20
7.0852845687
 30
0.0
 10
11.3879413065
 20
7.0733225477
 30
0.0
 10
11.3733326978
 20
7.0577244329
 30
0.0
 10
11.3531845301
 20
7.0391936957
 30
0.0
 10
11.3264726
 20
7.0188408204
 30
0.0
 10
11.2972747449
 20
7.0003655118
 30
0.0
 10
11.2658533795
 20
6.9839239947
 30
0.0
 10
11.2324876776
 20
6.9696527419
 30
0.0
 10
11.1974756918
 20
6.9576704098
 30
0.0
 10
11.1611249391
 20
6.9480748423
 30
0.0
 10
11.1111866719
 20
6.9385435675
 30
0.0
 10
11.0729022226
 20
6.9352219027
 30
0.0
 10
11.0473183383
 20
6.9347087464
 30
0.0
  0
SPLINE
  5
32E
100
AcDbEntity
  8
0
100
AcDbSpline
 62
9
  6
CONTINUOUS
 70
0
 71
3
 72
9
 73
5
 74
0
 42
0.0000001
 43
0.0000001
 44
0.0000000001
 40
0.0
 40
0.0
 40
0.0
 40
0.0
 40
0.5012444992
 40
1.0
 40
1.0
 40
1.0
 40
1.0
 10
10.6120424402
 20
7.2228354275
 30
0.0
 10
10.6178549463
 20
7.26617687
 30
0.0
 10
10.6286525259
 20
7.3527541125
 30
0.0
 10
10.6375434919
 20
7.4395516788
 30
0.0
 10
10.6414062715
 20
7.4828921993
 30
0.0
  0
SPLINE
  5
32F
100
AcDbEntity
  8
0
100
AcDbSpline
 62
7
  6
CONTINUOUS
 70
0
 71
3
 72
15
 73
11
 74
0
 42
0.0000001
 43
0.0000001
 44
0.0000000001
 40
0.0
 40
0.0
 40
0.0
 40
0.0
 40
0.1194661634
 40
0.2397612141
 40
0.3613045139
 40
0.484487009
 40
0.6096612987
 40
0.7371347255
 40
0.8671840536
 40
1.0
 40
1.0
 40
1.0
 40
1.0
 10
10.64159795
 20
7.1436153285
 30
0.0
 10
10.642006418
 20
7.1381253473
 30
0.0
 10
10.6432999517
 20
7.1271368405
 30
0.0
 10
10.6466452939
 20
7.1108079187
 30
0.0
 10
10.6513876344
 20
7.0946494889
 30
0.0
 10
10.6575094068
 20
7.0787216676
 30
0.0
 10
10.6649882348
 20
7.0630816344
 30
0.0
 10
10.67379723
 20
7.0477848651
 30
0.0
 10
10.6839042206
 20
7.0328875586
 30
0.0
 10
10.6914026373
 20
7.0233598009
 30
0.0
 10
10.6953467171
 20
7.0186797703
 30
0.0
  0
ELLIPSE
  5
330
100
AcDbEntity
  8
0
100
AcDbEllipse
 62
7
  6
CONTINUOUS
 10
11.0473183383
 20
6.7410708879
 30
0.0
 11
0.4522967215
 21
0.1611958191
 31
0.0
 40
0.084133201
 41
4.9269927592
 42
5.4850315861
  0
ENDSEC
  0
SECTION
  2
OBJECTS
  0
DICTIONARY
  5
C
100
AcDbDictionary
280
0
281
1
  3
ACAD_GROUP
350
D
  3
ACAD_MLINESTYLE
350
17
  3
ACAD_LAYOUT
350
1A
  3
ACAD_PLOTSETTINGS
350
19
  3
ACAD_PLOTSTYLENAME
350
E
  0
DICTIONARY
  5
D
102
{ACAD_REACTORS
330
C
102
}
100
AcDbDictionary
280
0
281
1
  0
ACDBDICTIONARYWDFLT
  5
E
102
{ACAD_REACTORS
330
C
102
}
100
AcDbDictionary
281
1
  3
Normal
350
F
100
AcDbDictionaryWithDefault
340
F
  0
DICTIONARY
  5
17
102
{ACAD_REACTORS
330
C
102
}
100
AcDbDictionary
280
0
281
1
  3
Standard
350
18
  0
DICTIONARY
  5
19
102
{ACAD_REACTORS
330
C
102
}
100
AcDbDictionary
281
1
  0
DICTIONARY
  5
1A
102
{ACAD_REACTORS
330
C
102
}
100
AcDbDictionary
281
1
  3
Model
350
331
  3
Layout1
350
332
  0
ACDBPLACEHOLDER
  5
F
102
{ACAD_REACTORS
330
E
102
}
  0
MLINESTYLE
  5
18
102
{ACAD_REACTORS
330
17
102
}
100
AcDbMlineStyle
  2
STANDARD
 70
0
  3

 62
256
 51
90.0
 52
90.0
 71
2
 49
0.5
 62
256
  6
BYLAYER
 49
-0.5
 62
256
  6
BYLAYER
  0
LAYOUT
  5
331
102
{ACAD_REACTORS
330
1A
102
}
100
AcDbPlotSettings
  1

  2
none_device
  4
ANSI_C_(22.00_x_17.00_Inches)
  6

 40
0.0
 41
0.0
 42
0.0
 43
0.0
 44
558.8
 45
431.8
 46
0.0
 47
0.0
 48
0.0
 49
0.0
140
0.0
141
0.0
142
1.0
143
1.0
 70
1024
 72
0
 73
0
 74
0
  7

 75
0
147
1.0
148
0.0
149
0.0
100
AcDbLayout
  1
Model
 70
0
 71
0
 10
0.0
 20
0.0
 11
22.0
 21
17.0
 12
0.0
 22
0.0
 32
0.0
 14
0.0
 24
0.0
 34
0.0
 15
0.0
 25
0.0
 35
0.0
146
0.0
 13
0.0
 23
0.0
 33
0.0
 16
1.0
 26
0.0
 36
0.0
 17
0.0
 27
1.0
 37
0.0
 76
0
330
205
345
0
346
0
  0
LAYOUT
  5
332
102
{ACAD_REACTORS
330
1A
102
}
100
AcDbPlotSettings
  1

  2
none_device
  4
ANSI_C_(22.00_x_17.00_Inches)
  6

 40
0.0
 41
0.0
 42
0.0
 43
0.0
 44
558.8
 45
431.8
 46
0.0
 47
0.0
 48
0.0
 49
0.0
140
0.0
141
0.0
142
1.0
143
1.0
 70
0
 72
0
 73
0
 74
0
  7

 75
0
147
1.0
148
0.0
149
0.0
100
AcDbLayout
  1
Layout1
 70
0
 71
1
 10
0.0
 20
0.0
 11
22.0
 21
17.0
 12
0.0
 22
0.0
 32
0.0
 14
0.0
 24
0.0
 34
0.0
 15
0.0
 25
0.0
 35
0.0
146
0.0
 13
0.0
 23
0.0
 33
0.0
 16
1.0
 26
0.0
 36
0.0
 17
0.0
 27
1.0
 37
0.0
 76
0
330
206
345
0
346
0
  0
ENDSEC
  0
EOF
