999
DXF file: 3-1201_RIGHT.dxf
999
Pro/ENGINEER 2018400 by Parametric Technology Corporation
  0
SECTION
  2
HEADER
  9
$ACADVER
  1
AC1027
  9
$DWGCODEPAGE
  3
ANSI_1252
  9
$EXTMAX
 10
11.0
 20
8.5
 30
0.0
  9
$EXTMIN
 10
0.0
 20
0.0
 30
0.0
  9
$LIMMIN
 10
0.0
 20
0.0
  9
$LIMMAX
 10
11.0
 20
8.5
  9
$VIEWCTR
 10
5.5
 20
4.25
  9
$VIEWSIZE
 40
8.5
  9
$CLAYER
  8
0
  9
$LTSCALE
 40
0.605
  9
$CELTYPE
  6
BYLAYER
  9
$DIMSCALE
 40
1.0
  9
$DIMASZ
 40
0.1
  9
$DIMEXO
 40
0.0625
  9
$DIMDLI
 40
0.418
  9
$DIMEXE
 40
0.125
  9
$DIMCEN
 40
0.099
  9
$DIMLFAC
 40
1.0
  9
$DIMBLK
  1
_FILLED
  9
$DIMALT
 70
1
  9
$DIMALTD
 70
2
  9
$DIMALTTD
 70
2
  9
$DIMALTF
 40
25.4
  9
$DIMTXT
 40
0.08
  9
$DIMTOL
 70
1
  9
$DIMLIM
 70
0
  9
$DIMTFAC
 40
1.0
  9
$DIMTP
 40
0.001
  9
$DIMTM
 40
0.001
  9
$DIMGAP
 40
0.09
  9
$DIMDSEP
 70
46
  9
$AUNITS
 70
0
  9
$PDMODE
 70
3
  9
$PDSIZE
 40
0.3125
  9
$HANDSEED
  5
27E
  9
$TILEMODE
 70
1
  9
$MEASUREMENT
 70
0
  9
$INSUNITS
 70
1
  0
ENDSEC
  0
SECTION
  2
CLASSES
  0
CLASS
  1
ACDBDICTIONARYWDFLT
  2
AcDbDictionaryWithDefault
  3
AutoCAD 2000
 90
0
 91
1
280
0
281
0
  0
CLASS
  1
ACDBPLACEHOLDER
  2
AcDbPlaceHolder
  3
AutoCAD 2000
 90
0
 91
1
280
0
281
0
  0
CLASS
  1
LAYOUT
  2
AcDbLayout
  3
AutoCAD 2000
 90
0
 91
0
280
0
281
0
  0
ENDSEC
  0
SECTION
  2
TABLES
  0
TABLE
  2
VPORT
  5
8
100
AcDbSymbolTable
 70
2
  0
VPORT
  5
1F4
100
AcDbSymbolTableRecord
100
AcDbViewportTableRecord
  2
*ACTIVE
 70
0
 10
0.0
 20
0.0
 11
1.0
 21
1.0
 12
5.5
 22
4.25
 13
0.0
 23
0.0
 14
1.0
 24
1.0
 15
0.0
 25
0.0
 16
0.0
 26
0.0
 36
1.0
 17
0.0
 27
0.0
 37
0.0
 40
8.5
 41
1.2941176471
 42
50.0
 43
0.0
 44
0.0
 50
0.0
 51
0.0
 71
0
 72
100
 73
1
 74
1
 75
0
 76
0
 77
0
 78
0
  0
ENDTAB
  0
TABLE
  2
LTYPE
  5
5
100
AcDbSymbolTable
 70
6
  0
LTYPE
  5
14
100
AcDbSymbolTableRecord
100
AcDbLinetypeTableRecord
  2
BYBLOCK
 70
0
  3

 72
65
 73
0
 40
0.0
  0
LTYPE
  5
15
100
AcDbSymbolTableRecord
100
AcDbLinetypeTableRecord
  2
BYLAYER
 70
0
  3

 72
65
 73
0
 40
0.0
  0
LTYPE
  5
16
100
AcDbSymbolTableRecord
100
AcDbLinetypeTableRecord
  2
CONTINUOUS
 70
64
  3
Solid line
 72
65
 73
0
 40
0.0
  0
LTYPE
  5
1F5
100
AcDbSymbolTableRecord
100
AcDbLinetypeTableRecord
  2
CENTER
 70
64
  3
____ _ ____ _ ____ _ ____ _ ____ _ ____ _ ____
 72
65
 73
4
 40
0.6
 49
0.375
 74
0
 49
-0.075
 74
0
 49
0.075
 74
0
 49
-0.075
 74
0
  0
LTYPE
  5
1F6
100
AcDbSymbolTableRecord
100
AcDbLinetypeTableRecord
  2
HIDDEN
 70
64
  3
- - - - - - - - - - - - - - - - - - - -
 72
65
 73
2
 40
0.2
 49
0.1
 74
0
 49
-0.1
 74
0
  0
LTYPE
  5
1F7
100
AcDbSymbolTableRecord
100
AcDbLinetypeTableRecord
  2
PHANTOM
 70
64
  3
_____ _ _ _____ _ _ _____ _ _ _____
 72
65
 73
6
 40
0.8
 49
0.45
 74
0
 49
-0.05
 74
0
 49
0.1
 74
0
 49
-0.05
 74
0
 49
0.1
 74
0
 49
-0.05
 74
0
  0
LTYPE
  5
1F8
100
AcDbSymbolTableRecord
100
AcDbLinetypeTableRecord
  2
DOT
 70
64
  3
. . . . . . . . . . . . . . . . . . . .
 72
65
 73
2
 40
0.2
 49
0.1
 74
0
 49
-0.1
 74
0
  0
LTYPE
  5
1F9
100
AcDbSymbolTableRecord
100
AcDbLinetypeTableRecord
  2
DASHED
 70
64
  3
- - - - - - - - - - - - - - - - - - - -
 72
65
 73
2
 40
0.2
 49
0.1
 74
0
 49
-0.1
 74
0
  0
ENDTAB
  0
TABLE
  2
LAYER
  5
2
100
AcDbSymbolTable
 70
36
  0
LAYER
  5
10
100
AcDbSymbolTableRecord
100
AcDbLayerTableRecord
  2
0
 70
0
 62
7
  6
CONTINUOUS
370
-3
390
F
  0
LAYER
  5
1FA
100
AcDbSymbolTableRecord
100
AcDbLayerTableRecord
  2
DEFAULT_1
 70
0
 62
7
  6
CENTER
370
-3
390
F
  0
LAYER
  5
1FB
100
AcDbSymbolTableRecord
100
AcDbLayerTableRecord
  2
DEFAULT_2
 70
0
 62
8
  6
HIDDEN
370
-3
390
F
  0
LAYER
  5
1FC
100
AcDbSymbolTableRecord
100
AcDbLayerTableRecord
  2
DEFAULT_3
 70
0
 62
7
  6
PHANTOM
370
-3
390
F
  0
LAYER
  5
1FD
100
AcDbSymbolTableRecord
100
AcDbLayerTableRecord
  2
ALL_ASSEMBLY_MEMBERS
 70
0
 62
7
  6
CONTINUOUS
370
-3
390
F
  0
LAYER
  5
1FE
100
AcDbSymbolTableRecord
100
AcDbLayerTableRecord
  2
ALL_FEATURES
 70
0
 62
7
  6
CONTINUOUS
370
-3
390
F
  0
LAYER
  5
1FF
100
AcDbSymbolTableRecord
100
AcDbLayerTableRecord
  2
AXES_FEATURES
 70
0
 62
7
  6
CONTINUOUS
370
-3
390
F
  0
LAYER
  5
200
100
AcDbSymbolTableRecord
100
AcDbLayerTableRecord
  2
CHAMFER_FEATURES
 70
0
 62
7
  6
CONTINUOUS
370
-3
390
F
  0
LAYER
  5
201
100
AcDbSymbolTableRecord
100
AcDbLayerTableRecord
  2
COSMETIC
 70
0
 62
7
  6
CONTINUOUS
370
-3
390
F
  0
LAYER
  5
202
100
AcDbSymbolTableRecord
100
AcDbLayerTableRecord
  2
CURVE
 70
0
 62
7
  6
CONTINUOUS
370
-3
390
F
  0
LAYER
  5
203
100
AcDbSymbolTableRecord
100
AcDbLayerTableRecord
  2
CUT_FEATURES
 70
0
 62
7
  6
CONTINUOUS
370
-3
390
F
  0
LAYER
  5
204
100
AcDbSymbolTableRecord
100
AcDbLayerTableRecord
  2
DATUM_CURVES
 70
0
 62
7
  6
CONTINUOUS
370
-3
390
F
  0
LAYER
  5
205
100
AcDbSymbolTableRecord
100
AcDbLayerTableRecord
  2
DATUM_PLANES
 70
0
 62
7
  6
CONTINUOUS
370
-3
390
F
  0
LAYER
  5
206
100
AcDbSymbolTableRecord
100
AcDbLayerTableRecord
  2
DATUM_POINTS
 70
0
 62
7
  6
CONTINUOUS
370
-3
390
F
  0
LAYER
  5
207
100
AcDbSymbolTableRecord
100
AcDbLayerTableRecord
  2
DEFAULT_COORDINATE_SYSTEM
 70
0
 62
7
  6
CONTINUOUS
370
-3
390
F
  0
LAYER
  5
208
100
AcDbSymbolTableRecord
100
AcDbLayerTableRecord
  2
DEFAULT_DATUM_AXES
 70
0
 62
7
  6
CONTINUOUS
370
-3
390
F
  0
LAYER
  5
209
100
AcDbSymbolTableRecord
100
AcDbLayerTableRecord
  2
DEFAULT_DATUM_CURVES
 70
0
 62
7
  6
CONTINUOUS
370
-3
390
F
  0
LAYER
  5
20A
100
AcDbSymbolTableRecord
100
AcDbLayerTableRecord
  2
DEFAULT_DATUM_PLANES
 70
0
 62
7
  6
CONTINUOUS
370
-3
390
F
  0
LAYER
  5
20B
100
AcDbSymbolTableRecord
100
AcDbLayerTableRecord
  2
DEFAULT_SURFACES
 70
0
 62
7
  6
CONTINUOUS
370
-3
390
F
  0
LAYER
  5
20C
100
AcDbSymbolTableRecord
100
AcDbLayerTableRecord
  2
DIMENSIONS
 70
0
 62
7
  6
CONTINUOUS
370
-3
390
F
  0
LAYER
  5
20D
100
AcDbSymbolTableRecord
100
AcDbLayerTableRecord
  2
HOLE_FEATURES
 70
0
 62
7
  6
CONTINUOUS
370
-3
390
F
  0
LAYER
  5
20E
100
AcDbSymbolTableRecord
100
AcDbLayerTableRecord
  2
MAGENTA
 70
0
 62
7
  6
CONTINUOUS
370
-3
390
F
  0
LAYER
  5
20F
100
AcDbSymbolTableRecord
100
AcDbLayerTableRecord
  2
NOTES
 70
0
 62
7
  6
CONTINUOUS
370
-3
390
F
  0
LAYER
  5
210
100
AcDbSymbolTableRecord
100
AcDbLayerTableRecord
  2
POINTS
 70
0
 62
7
  6
CONTINUOUS
370
-3
390
F
  0
LAYER
  5
211
100
AcDbSymbolTableRecord
100
AcDbLayerTableRecord
  2
PROTRUSION_FEATURES
 70
0
 62
7
  6
CONTINUOUS
370
-3
390
F
  0
LAYER
  5
212
100
AcDbSymbolTableRecord
100
AcDbLayerTableRecord
  2
QUILT
 70
0
 62
7
  6
CONTINUOUS
370
-3
390
F
  0
LAYER
  5
213
100
AcDbSymbolTableRecord
100
AcDbLayerTableRecord
  2
WHITE
 70
0
 62
7
  6
CONTINUOUS
370
-3
390
F
  0
LAYER
  5
214
100
AcDbSymbolTableRecord
100
AcDbLayerTableRecord
  2
XSEC_DATUMS
 70
0
 62
7
  6
CONTINUOUS
370
-3
390
F
  0
ENDTAB
  0
TABLE
  2
STYLE
  5
3
100
AcDbSymbolTable
 70
1
  0
STYLE
  5
11
100
AcDbSymbolTableRecord
100
AcDbTextStyleTableRecord
  2
STANDARD
 70
0
 40
0.0
 41
0.8
 50
0.0
 71
0
 42
0.2
  3
txt
  4

  0
STYLE
  5
215
100
AcDbSymbolTableRecord
100
AcDbTextStyleTableRecord
  2
TEXTSTYLE_1
 70
0
 40
0.0
 41
0.8
 50
0.0
 71
0
 42
0.2
  3
gdt
  4

  0
ENDTAB
  0
TABLE
  2
VIEW
  5
6
100
AcDbSymbolTable
 70
0
  0
ENDTAB
  0
TABLE
  2
UCS
  5
7
100
AcDbSymbolTable
 70
0
  0
ENDTAB
  0
TABLE
  2
APPID
  5
9
100
AcDbSymbolTable
 70
1
  0
APPID
  5
216
100
AcDbSymbolTableRecord
100
AcDbRegAppTableRecord
  2
ACAD
 70
0
  0
ENDTAB
  0
TABLE
  2
BLOCK_RECORD
  5
1
100
AcDbSymbolTable
 70
0
  0
BLOCK_RECORD
  5
217
100
AcDbSymbolTableRecord
100
AcDbBlockTableRecord
  2
*Model_Space
  0
BLOCK_RECORD
  5
218
100
AcDbSymbolTableRecord
100
AcDbBlockTableRecord
  2
*Paper_Space
  0
BLOCK_RECORD
  5
219
100
AcDbSymbolTableRecord
100
AcDbBlockTableRecord
  2
_FILLED
  0
ENDTAB
  0
TABLE
  2
DIMSTYLE
  5
A
100
AcDbSymbolTable
 70
1
100
AcDbDimStyleTable
 71
0
  0
DIMSTYLE
105
21A
100
AcDbSymbolTableRecord
100
AcDbDimStyleTableRecord
  2
STANDARD
 70
0
  3

  4

 40
1.0
 41
0.1
 42
0.0625
 43
0.38
 44
0.125
 45
0.0
 46
0.0
 47
0.001
 48
0.001
140
0.08
141
0.09
142
0.0
143
25.4
144
1.0
145
0.0
146
1.0
147
0.09
 71
1.0
 72
0.0
 73
1
 74
1
 75
0
 76
0
 77
0
 78
4
 79
1
170
1
171
2
172
0
173
0
174
0
175
0
176
0
177
0
178
0
270
2
179
3
271
3
272
3
273
2
274
2
275
0
280
0
281
0
282
0
283
1
284
4
285
0
286
0
287
3
288
0
340
11
278
46
341
219
342
219
343
219
344
219
  0
ENDTAB
  0
ENDSEC
  0
SECTION
  2
BLOCKS
  0
BLOCK
  5
20
100
AcDbEntity
  8
0
100
AcDbBlockBegin
  2
*Model_Space
 70
0
 10
0.0
 20
0.0
 30
0.0
  3
*Model_Space
  1

  0
ENDBLK
  5
21
100
AcDbEntity
  8
0
100
AcDbBlockEnd
  0
BLOCK
  5
1C
100
AcDbEntity
  8
0
100
AcDbBlockBegin
  2
*Paper_Space
 70
0
 10
0.0
 20
0.0
 30
0.0
  3
*Paper_Space
  1

  0
ENDBLK
  5
1D
100
AcDbEntity
  8
0
100
AcDbBlockEnd
  0
BLOCK
  5
21B
100
AcDbEntity
  8
0
100
AcDbBlockBegin
  2
_FILLED
 70
64
 10
0.0
 20
0.0
  3
_FILLED
  1

  0
SOLID
  5
21C
100
AcDbEntity
  8
0
  6
BYBLOCK
 62
0
100
AcDbTrace
 10
0.0
 20
0.0
 11
-1.0
 21
0.2
 12
-1.0
 22
-0.2
 13
-1.0
 23
-0.2
  0
ENDBLK
  5
21D
100
AcDbEntity
  8
0
  6
BYBLOCK
 62
0
100
AcDbBlockEnd
  0
ENDSEC
  0
SECTION
  2
ENTITIES
  0
MTEXT
  5
21E
100
AcDbEntity
  8
0
100
AcDbMText
 62
2
  6
CONTINUOUS
  7
STANDARD
 71
3
 72
1
 10
4.497807857
 20
2.5136560656
 30
0.0
 11
1.0
 21
0.0
 31
0.0
 73
2
 44
0.9
  1
SCALE  .500
 40
0.08
 41
0.704
  0
LINE
  5
21F
100
AcDbEntity
  8
0
100
AcDbLine
 62
7
  6
CONTINUOUS
 10
0.0
 20
0.0
 11
0.0
 21
8.5
  0
LINE
  5
220
100
AcDbEntity
  8
0
100
AcDbLine
 62
7
  6
CONTINUOUS
 10
0.0
 20
0.0
 11
11.0
 21
0.0
  0
LINE
  5
221
100
AcDbEntity
  8
0
100
AcDbLine
 62
7
  6
CONTINUOUS
 10
0.0
 20
8.5
 11
11.0
 21
8.5
  0
LINE
  5
222
100
AcDbEntity
  8
0
100
AcDbLine
 62
7
  6
CONTINUOUS
 10
11.0
 20
0.0
 11
11.0
 21
8.5
  0
LINE
  5
223
100
AcDbEntity
  8
0
100
AcDbLine
 62
7
  6
CONTINUOUS
 10
3.4403378921
 20
4.0549697972
 11
3.4403378921
 21
3.8424698417
  0
LINE
  5
224
100
AcDbEntity
  8
0
100
AcDbLine
 62
7
  6
CONTINUOUS
 10
3.4728264133
 20
4.0548913253
 11
3.4728264133
 21
3.8423913698
  0
LINE
  5
225
100
AcDbEntity
  8
0
100
AcDbLine
 62
7
  6
CONTINUOUS
 10
3.6828375737
 20
4.0548128533
 11
3.6828375737
 21
3.8423128979
  0
LINE
  5
226
100
AcDbEntity
  8
0
100
AcDbLine
 62
7
  6
CONTINUOUS
 10
3.8928487341
 20
4.0548913253
 11
3.8928487341
 21
3.8423913698
  0
LINE
  5
227
100
AcDbEntity
  8
0
100
AcDbLine
 62
7
  6
CONTINUOUS
 10
3.9253372553
 20
3.8424698417
 11
3.9253372553
 21
4.0549697972
  0
LWPOLYLINE
  5
228
100
AcDbEntity
  8
0
100
AcDbPolyline
 62
7
  6
CONTINUOUS
 90
22
 70
0
 10
3.9253372553
 20
4.0549697975
 10
3.9254193673
 20
4.0600429874
 10
3.9263098839
 20
4.0724232219
 10
3.9281807342
 20
4.0847527379
 10
3.9310266414
 20
4.0969469952
 10
3.934836091
 20
4.1089272213
 10
3.9395933301
 20
4.1206204632
 10
3.9452748723
 20
4.1319494433
 10
3.9518495944
 20
4.1428372661
 10
3.9592827952
 20
4.1532143299
 10
3.9675331918
 20
4.1630122748
 10
3.9765520919
 20
4.1721645139
 10
3.9862860247
 20
4.1806098894
 10
3.9966792692
 20
4.1882940485
 10
4.0076686376
 20
4.1951651455
 10
4.0191826195
 20
4.2011753075
 10
4.0311511378
 20
4.2062864253
 10
4.0435059252
 20
4.2104679508
 10
4.0561744056
 20
4.2136937883
 10
4.0690840238
 20
4.2159443866
 10
4.0821630962
 20
4.2172059785
 10
4.0917510268
 20
4.2173979503
  0
LINE
  5
229
100
AcDbEntity
  8
0
100
AcDbLine
 62
7
  6
CONTINUOUS
 10
4.0953375737
 20
4.2173763492
 11
4.0953375737
 21
4.7173762445
  0
LINE
  5
22A
100
AcDbEntity
  8
0
100
AcDbLine
 62
7
  6
CONTINUOUS
 10
3.9253372553
 20
3.8424698417
 11
3.8928487341
 21
3.8423913698
  0
LINE
  5
22B
100
AcDbEntity
  8
0
100
AcDbLine
 62
7
  6
CONTINUOUS
 10
3.8928487341
 20
3.8423913698
 11
3.7790387003
 21
3.8423259343
  0
LINE
  5
22C
100
AcDbEntity
  8
0
100
AcDbLine
 62
7
  6
CONTINUOUS
 10
3.7203375795
 20
3.8423149047
 11
3.6828375737
 21
3.8423128979
  0
LINE
  5
22D
100
AcDbEntity
  8
0
100
AcDbLine
 62
7
  6
CONTINUOUS
 10
3.7790387003
 20
3.8423259343
 11
3.7203375795
 21
3.8423149047
  0
LINE
  5
22E
100
AcDbEntity
  8
0
100
AcDbLine
 62
7
  6
CONTINUOUS
 10
7.2794639524
 20
3.8737197108
 11
7.1966353038
 21
3.8737197108
  0
LINE
  5
22F
100
AcDbEntity
  8
ALL_FEATURES
100
AcDbLine
 62
7
  6
CONTINUOUS
 10
7.2794639524
 20
3.8737197108
 11
7.4328375737
 21
3.8737197108
  0
LINE
  5
230
100
AcDbEntity
  8
0
100
AcDbLine
 62
7
  6
CONTINUOUS
 10
3.6370604586
 20
3.842315811
 11
3.5866364472
 21
3.8423259343
  0
LINE
  5
231
100
AcDbEntity
  8
0
100
AcDbLine
 62
7
  6
CONTINUOUS
 10
3.6405199365
 20
3.8423153152
 11
3.6370604586
 21
3.842315811
  0
LINE
  5
232
100
AcDbEntity
  8
0
100
AcDbLine
 62
7
  6
CONTINUOUS
 10
3.645337568
 20
3.8423149047
 11
3.6405199365
 21
3.8423153152
  0
LINE
  5
233
100
AcDbEntity
  8
0
100
AcDbLine
 62
7
  6
CONTINUOUS
 10
3.6828375737
 20
3.8423128979
 11
3.645337568
 21
3.8423149047
  0
LINE
  5
234
100
AcDbEntity
  8
0
100
AcDbLine
 62
7
  6
CONTINUOUS
 10
3.5866364472
 20
3.8423259343
 11
3.4728264133
 21
3.8423913698
  0
LINE
  5
235
100
AcDbEntity
  8
0
100
AcDbLine
 62
7
  6
CONTINUOUS
 10
3.4728264133
 20
3.8423913698
 11
3.4403378921
 21
3.8424698417
  0
LINE
  5
236
100
AcDbEntity
  8
0
100
AcDbLine
 62
7
  6
CONTINUOUS
 10
3.4728264133
 20
4.0548913253
 11
3.4403378921
 21
4.0549697972
  0
LINE
  5
237
100
AcDbEntity
  8
0
100
AcDbLine
 62
7
  6
CONTINUOUS
 10
3.9253372553
 20
4.0549697972
 11
3.8928487341
 21
4.0548913253
  0
LINE
  5
238
100
AcDbEntity
  8
0
100
AcDbLine
 62
7
  6
CONTINUOUS
 10
3.8928487341
 20
4.0548913253
 11
3.6828375737
 21
4.0548128533
  0
LINE
  5
239
100
AcDbEntity
  8
0
100
AcDbLine
 62
7
  6
CONTINUOUS
 10
3.6828375737
 20
4.0548128533
 11
3.4728264133
 21
4.0548913253
  0
LINE
  5
23A
100
AcDbEntity
  8
0
100
AcDbLine
 62
7
  6
CONTINUOUS
 10
4.0953375737
 20
4.2173763492
 11
4.0927636679
 21
4.2174878934
  0
LINE
  5
23B
100
AcDbEntity
  8
ALL_ASSEMBLY_MEMBERS
100
AcDbLine
 62
7
  6
CONTINUOUS
 10
6.4465250737
 20
4.2224697108
 11
6.1340250737
 21
4.2224697108
  0
LINE
  5
23C
100
AcDbEntity
  8
ALL_FEATURES
100
AcDbLine
 62
7
  6
CONTINUOUS
 10
6.6693375737
 20
4.2524697108
 11
6.6093375737
 21
4.2524697108
  0
LINE
  5
23D
100
AcDbEntity
  8
ALL_ASSEMBLY_MEMBERS
100
AcDbLine
 62
7
  6
CONTINUOUS
 10
6.6015250737
 20
4.3112197108
 11
6.4465250737
 21
4.3112197108
  0
LWPOLYLINE
  5
23E
100
AcDbEntity
  8
0
100
AcDbPolyline
 62
7
  6
CONTINUOUS
 90
63
 70
0
 10
6.7293501178
 20
4.1124972532
 10
6.7311165042
 20
4.1122556826
 10
6.7324538163
 20
4.1120694284
 10
6.7339007403
 20
4.1118647041
 10
6.7354794943
 20
4.1116375818
 10
6.7372571693
 20
4.1113772219
 10
6.7392124473
 20
4.1110852592
 10
6.7413653156
 20
4.1107570812
 10
6.743843764
 20
4.1103706328
 10
6.7466275852
 20
4.1099256181
 10
6.7497348531
 20
4.1094152892
 10
6.7533492635
 20
4.1088036842
 10
6.7574957748
 20
4.108078294
 10
6.762145444
 20
4.1072347578
 10
6.7673992365
 20
4.1062433261
 10
6.773344405
 20
4.1050723955
 10
6.7798875365
 20
4.1037234187
 10
6.7868584545
 20
4.1022165726
 10
6.7942570457
 20
4.1005383763
 10
6.8020782878
 20
4.0986755949
 10
6.8101465011
 20
4.0966579948
 10
6.8184470629
 20
4.0944800226
 10
6.8269913217
 20
4.0921291738
 10
6.8356446064
 20
4.0896350403
 10
6.8443749433
 20
4.0870024699
 10
6.8532127488
 20
4.0842178512
 10
6.8621181583
 20
4.081289406
 10
6.8710732847
 20
4.0782197913
 10
6.8800949201
 20
4.0749999883
 10
6.8891954438
 20
4.07162163
 10
6.8983834288
 20
4.0680770499
 10
6.9076489005
 20
4.0643655509
 10
6.9169764483
 20
4.0604892384
 10
6.9263652546
 20
4.0564446746
 10
6.9358149539
 20
4.0522281962
 10
6.9453110202
 20
4.0478427426
 10
6.954853415
 20
4.0432850703
 10
6.9644411682
 20
4.0385523494
 10
6.9740585683
 20
4.0336493916
 10
6.9837056606
 20
4.0285735646
 10
6.9933816009
 20
4.0233226822
 10
7.0030695798
 20
4.0179036376
 10
7.0127687949
 20
4.0123150614
 10
7.022479495
 20
4.0065549806
 10
7.0321866849
 20
4.0006308138
 10
7.0418883806
 20
3.9945427147
 10
7.0515862431
 20
3.9882885787
 10
7.0612709303
 20
3.9818735569
 10
7.0709425327
 20
3.9752969488
 10
7.0806007688
 20
3.9685583028
 10
7.0902358874
 20
3.9616640406
 10
7.0998477656
 20
3.9546141289
 10
7.1094364896
 20
3.9474083827
 10
7.1189927723
 20
3.9400539085
 10
7.1285165577
 20
3.9325511331
 10
7.1380080133
 20
3.9249003084
 10
7.1474583337
 20
3.9171091585
 10
7.1568675319
 20
3.9091785476
 10
7.1662358481
 20
3.9011091487
 10
7.1755549566
 20
3.892909242
 10
7.1848222415
 20
3.8845825528
 10
7.1940407204
 20
3.8761277931
 10
7.1965657641
 20
3.8737818415
  0
LINE
  5
23F
100
AcDbEntity
  8
0
100
AcDbLine
 62
7
  6
CONTINUOUS
 10
6.0920250648
 20
4.4672345179
 11
4.0953375737
 21
4.4672828828
  0
LINE
  5
240
100
AcDbEntity
  8
0
100
AcDbLine
 62
7
  6
CONTINUOUS
 10
6.6093375737
 20
4.4672119246
 11
6.6015250605
 21
4.4672123257
  0
LINE
  5
241
100
AcDbEntity
  8
ALL_FEATURES
100
AcDbLine
 62
7
  6
CONTINUOUS
 10
6.6693375737
 20
4.3231321435
 11
6.8657416488
 21
4.3013342898
  0
LINE
  5
242
100
AcDbEntity
  8
ALL_FEATURES
100
AcDbLine
 62
7
  6
CONTINUOUS
 10
6.6693375737
 20
4.1787945762
 11
6.8657416488
 21
4.1351988688
  0
LINE
  5
243
100
AcDbEntity
  8
ALL_FEATURES
100
AcDbLine
 62
7
  6
CONTINUOUS
 10
6.6693375737
 20
4.7561448454
 11
6.8657416488
 21
4.7997405528
  0
LINE
  5
244
100
AcDbEntity
  8
ALL_FEATURES
100
AcDbLine
 62
7
  6
CONTINUOUS
 10
6.6693375737
 20
4.6118072781
 11
6.8657416488
 21
4.6336051318
  0
LWPOLYLINE
  5
245
100
AcDbEntity
  8
0
100
AcDbPolyline
 62
7
  6
CONTINUOUS
 90
3
 70
0
 10
6.7325541687
 20
4.8228840852
 10
6.7299308592
 20
4.8225210256
 10
6.7293469456
 20
4.8224417392
  0
LINE
  5
246
100
AcDbEntity
  8
0
100
AcDbLine
 62
7
  6
CONTINUOUS
 10
6.6828375737
 20
4.8173388579
 11
6.5441913893
 21
4.8076380928
  0
LINE
  5
247
100
AcDbEntity
  8
ALL_ASSEMBLY_MEMBERS
100
AcDbLine
 62
7
  6
CONTINUOUS
 10
6.6015250737
 20
4.6237197108
 11
6.4465250737
 21
4.6237197108
  0
LINE
  5
248
100
AcDbEntity
  8
ALL_FEATURES
100
AcDbLine
 62
7
  6
CONTINUOUS
 10
6.6693375737
 20
4.6824697108
 11
6.6093375737
 21
4.6824697108
  0
LINE
  5
249
100
AcDbEntity
  8
ALL_ASSEMBLY_MEMBERS
100
AcDbLine
 62
7
  6
CONTINUOUS
 10
6.4465250737
 20
4.7124697108
 11
6.1340250737
 21
4.7124697108
  0
LINE
  5
24A
100
AcDbEntity
  8
0
100
AcDbLine
 62
7
  6
CONTINUOUS
 10
4.0985276361
 20
4.7175275938
 11
4.0953375737
 21
4.7173762445
  0
LWPOLYLINE
  5
24B
100
AcDbEntity
  8
0
100
AcDbPolyline
 62
7
  6
CONTINUOUS
 90
31
 70
0
 10
4.0921032591
 20
4.7173275252
 10
4.060388555
 20
4.7159339734
 10
4.0255955235
 20
4.7125898211
 10
3.9910521375
 20
4.7074484509
 10
3.9568487591
 20
4.7005255748
 10
3.923076429
 20
4.6918416622
 10
3.8898265989
 20
4.6814222229
 10
3.8571867813
 20
4.6692967288
 10
3.8252435586
 20
4.6554992632
 10
3.7940843709
 20
4.6400696849
 10
3.7637916865
 20
4.62305111
 10
3.7344452903
 20
4.6044905307
 10
3.7061248095
 20
4.5844405873
 10
3.6789050216
 20
4.5629566649
 10
3.6528576078
 20
4.5400977088
 10
3.6280528071
 20
4.5159278681
 10
3.6045561276
 20
4.4905137074
 10
3.5824290902
 20
4.4639244734
 10
3.5617304645
 20
4.4362335475
 10
3.54251463
 20
4.4075165833
 10
3.5248319365
 20
4.3778517617
 10
3.5087290427
 20
4.3473204366
 10
3.4942481097
 20
4.3160058618
 10
3.4814268435
 20
4.2839930446
 10
3.470298672
 20
4.2513691286
 10
3.4608925015
 20
4.2182229157
 10
3.4532325581
 20
4.1846443012
 10
3.4473384168
 20
4.1507241559
 10
3.443225026
 20
4.1165544929
 10
3.440902601
 20
4.0822282389
 10
3.4403378921
 20
4.0549697972
  0
LINE
  5
24C
100
AcDbEntity
  8
ALL_ASSEMBLY_MEMBERS
100
AcDbLine
 62
7
  6
CONTINUOUS
 10
6.1340250737
 20
4.7124697108
 11
6.1340250737
 21
4.5893252845
  0
LINE
  5
24D
100
AcDbEntity
  8
ALL_ASSEMBLY_MEMBERS
100
AcDbLine
 62
7
  6
CONTINUOUS
 10
6.1340250737
 20
4.2224697108
 11
6.1340250737
 21
4.3456141371
  0
LINE
  5
24E
100
AcDbEntity
  8
ALL_FEATURES
100
AcDbLine
 62
7
  6
CONTINUOUS
 10
7.2719535104
 20
4.7598976222
 11
7.2794639524
 21
4.7643447108
  0
LINE
  5
24F
100
AcDbEntity
  8
0
100
AcDbLine
 62
7
  6
CONTINUOUS
 10
7.2794639524
 20
5.0612197108
 11
7.1966353038
 21
5.0612197108
  0
LINE
  5
250
100
AcDbEntity
  8
ALL_FEATURES
100
AcDbLine
 62
7
  6
CONTINUOUS
 10
7.2794639524
 20
5.0612197108
 11
7.4328375737
 21
5.0612197108
  0
LINE
  5
251
100
AcDbEntity
  8
ALL_FEATURES
100
AcDbLine
 62
7
  6
CONTINUOUS
 10
7.2719535104
 20
4.1750417995
 11
7.2794639524
 21
4.1705947108
  0
LWPOLYLINE
  5
252
100
AcDbEntity
  8
0
100
AcDbPolyline
 62
7
  6
CONTINUOUS
 90
61
 70
0
 10
7.1965657657
 20
5.0611575817
 10
7.1941850893
 20
5.0589454081
 10
7.185103991
 20
5.0506127292
 10
7.1759670402
 20
5.042396776
 10
7.1667708228
 20
5.0342963199
 10
7.1575182313
 20
5.0263157514
 10
7.1482185484
 20
5.0184645734
 10
7.1388714362
 20
5.0107437406
 10
7.1294768735
 20
5.0031544754
 10
7.1200447733
 20
4.9957057472
 10
7.1105748793
 20
4.9883980448
 10
7.1010672466
 20
4.9812321011
 10
7.0915324185
 20
4.9742162625
 10
7.0819702255
 20
4.9673505232
 10
7.0723808031
 20
4.9606350987
 10
7.0627753233
 20
4.9540776315
 10
7.0531540172
 20
4.9476778004
 10
7.0435167961
 20
4.9414350688
 10
7.0338745232
 20
4.9353557229
 10
7.0242256226
 20
4.9294377874
 10
7.014571969
 20
4.9236814349
 10
7.0049298073
 20
4.9180949279
 10
6.9952987145
 20
4.9126762173
 10
6.9856796597
 20
4.9074240555
 10
6.9760912353
 20
4.9023463441
 10
6.9665342605
 20
4.8974408247
 10
6.9570087331
 20
4.8927048263
 10
6.9475322755
 20
4.888144062
 10
6.9381058712
 20
4.8837555668
 10
6.9287295883
 20
4.8795359686
 10
6.9194199135
 20
4.8754889622
 10
6.9101773993
 20
4.8716107429
 10
6.9010027426
 20
4.8678976065
 10
6.8919128723
 20
4.8643520961
 10
6.88291682
 20
4.8609729487
 10
6.8740070288
 20
4.857752608
 10
6.8651756097
 20
4.8546839281
 10
6.8564197388
 20
4.8517619421
 10
6.8477435215
 20
4.8489840873
 10
6.8391494628
 20
4.8463471798
 10
6.8306026773
 20
4.8438372478
 10
6.8221392323
 20
4.8414616588
 10
6.8138688678
 20
4.8392452727
 10
6.8057727047
 20
4.8371755522
 10
6.7978722284
 20
4.8352507145
 10
6.7903396156
 20
4.8335023282
 10
6.7831762933
 20
4.8319179364
 10
6.7763854026
 20
4.8304861147
 10
6.7701437424
 20
4.8292301671
 10
6.7645166849
 20
4.8281471044
 10
6.759444839
 20
4.8272108493
 10
6.7549183148
 20
4.826407246
 10
6.7509983825
 20
4.8257357426
 10
6.747628475
 20
4.8251766227
 10
6.7446203688
 20
4.8246917725
 10
6.7419595675
 20
4.8242741579
 10
6.7396630927
 20
4.8239222777
 10
6.7375880465
 20
4.8236111964
 10
6.7357126969
 20
4.8233357172
 10
6.7340603031
 20
4.8230974958
 10
6.7325541687
 20
4.8228840852
  0
LINE
  5
253
100
AcDbEntity
  8
0
100
AcDbLine
 62
7
  6
CONTINUOUS
 10
7.1966352935
 20
5.0612197108
 11
7.1965666317
 21
5.0611575815
  0
LINE
  5
254
100
AcDbEntity
  8
0
100
AcDbLine
 62
7
  6
CONTINUOUS
 10
7.1966352935
 20
3.8737197108
 11
7.1965666301
 21
3.8737818417
  0
LINE
  5
255
100
AcDbEntity
  8
ALL_ASSEMBLY_MEMBERS
100
AcDbLine
 62
7
  6
CONTINUOUS
 10
6.4465250737
 20
4.7124697108
 11
6.4465250737
 21
4.5887160328
  0
LINE
  5
256
100
AcDbEntity
  8
ALL_ASSEMBLY_MEMBERS
100
AcDbLine
 62
7
  6
CONTINUOUS
 10
6.4465250737
 20
4.2224697108
 11
6.4465250737
 21
4.3462233889
  0
LINE
  5
257
100
AcDbEntity
  8
ALL_FEATURES
100
AcDbLine
 62
7
  6
CONTINUOUS
 10
7.2719535104
 20
5.0523255335
 11
7.2794639524
 21
5.0612197108
  0
LINE
  5
258
100
AcDbEntity
  8
ALL_FEATURES
100
AcDbLine
 62
7
  6
CONTINUOUS
 10
7.2719535104
 20
3.8826138882
 11
7.2794639524
 21
3.8737197108
  0
LINE
  5
259
100
AcDbEntity
  8
ALL_ASSEMBLY_MEMBERS
100
AcDbLine
 62
7
  6
CONTINUOUS
 10
6.6015250737
 20
4.3112197108
 11
6.6015250737
 21
4.6237197108
  0
LINE
  5
25A
100
AcDbEntity
  8
ALL_FEATURES
100
AcDbLine
 62
7
  6
CONTINUOUS
 10
6.6093375737
 20
4.6824697108
 11
6.6093375737
 21
4.2524697108
  0
LINE
  5
25B
100
AcDbEntity
  8
0
100
AcDbLine
 62
7
  6
CONTINUOUS
 10
6.6693375737
 20
4.6118072781
 11
6.6693375737
 21
4.3231321435
  0
LINE
  5
25C
100
AcDbEntity
  8
ALL_FEATURES
100
AcDbLine
 62
7
  6
CONTINUOUS
 10
6.6693375737
 20
4.1787945762
 11
6.6693375737
 21
4.3231321435
  0
LINE
  5
25D
100
AcDbEntity
  8
ALL_FEATURES
100
AcDbLine
 62
7
  6
CONTINUOUS
 10
6.6693375737
 20
4.6118072781
 11
6.6693375737
 21
4.7561448454
  0
LINE
  5
25E
100
AcDbEntity
  8
0
100
AcDbLine
 62
7
  6
CONTINUOUS
 10
6.6828375737
 20
4.1173390045
 11
6.6828375737
 21
4.1757979885
  0
LINE
  5
25F
100
AcDbEntity
  8
0
100
AcDbLine
 62
7
  6
CONTINUOUS
 10
6.6828375737
 20
4.7591414332
 11
6.6828375737
 21
4.8173388579
  0
LINE
  5
260
100
AcDbEntity
  8
ALL_FEATURES
100
AcDbLine
 62
7
  6
CONTINUOUS
 10
6.8657416488
 20
4.1351988688
 11
6.8657416488
 21
4.7997405528
  0
LINE
  5
261
100
AcDbEntity
  8
ALL_FEATURES
100
AcDbLine
 62
7
  6
CONTINUOUS
 10
7.2719535104
 20
3.8826138882
 11
7.2719535104
 21
5.0523255335
  0
LINE
  5
262
100
AcDbEntity
  8
ALL_FEATURES
100
AcDbLine
 62
7
  6
CONTINUOUS
 10
7.4328375737
 20
5.0612192298
 11
7.4328375737
 21
3.8737209514
  0
ARC
  5
263
100
AcDbEntity
  8
0
100
AcDbCircle
 62
7
  6
CONTINUOUS
 10
6.6273350988
 20
3.3583179931
 40
0.761047581
100
AcDbArc
 50
82.2965694133
 51
85.8177604805
  0
ARC
  5
264
100
AcDbEntity
  8
ALL_ASSEMBLY_MEMBERS
100
AcDbCircle
 62
7
  6
CONTINUOUS
 10
6.8428797838
 20
4.4674697108
 40
0.75
100
AcDbArc
 50
160.9334198993
 51
178.4595602049
  0
ARC
  5
265
100
AcDbEntity
  8
ALL_ASSEMBLY_MEMBERS
100
AcDbCircle
 62
7
  6
CONTINUOUS
 10
6.8428797838
 20
4.4674697108
 40
0.75
100
AcDbArc
 50
181.5404397951
 51
199.0665801007
  0
CIRCLE
  5
266
100
AcDbEntity
  8
0
100
AcDbCircle
 62
7
  6
CONTINUOUS
 10
6.2900250737
 20
4.4674697108
 40
0.198
  0
CIRCLE
  5
267
100
AcDbEntity
  8
0
100
AcDbCircle
 62
7
  6
CONTINUOUS
 10
6.2900250737
 20
4.4674697108
 40
0.1665
  0
CIRCLE
  5
268
100
AcDbEntity
  8
0
100
AcDbCircle
 62
7
  6
CONTINUOUS
 10
6.2900250737
 20
4.4674697108
 40
0.1228820573
  0
CIRCLE
  5
269
100
AcDbEntity
  8
0
100
AcDbCircle
 62
7
  6
CONTINUOUS
 10
6.2900250737
 20
4.4674697108
 40
0.0920391505
  0
SPLINE
  5
26A
100
AcDbEntity
  8
ALL_FEATURES
100
AcDbSpline
 62
7
  6
CONTINUOUS
 70
0
 71
3
 72
18
 73
14
 74
0
 42
0.0000001
 43
0.0000001
 44
0.0000000001
 40
0.0
 40
0.0
 40
0.0
 40
0.0
 40
0.1249864211
 40
0.1874992904
 40
0.250006938
 40
0.3749947586
 40
0.4999848898
 40
0.5624932629
 40
0.625001107
 40
0.6875087646
 40
0.750014252
 40
0.8750101518
 40
1.0
 40
1.0
 40
1.0
 40
1.0
 10
6.8657416488
 20
4.7997405528
 30
0.0
 10
6.8855420352
 20
4.804135634
 30
0.0
 10
6.9149713393
 20
4.8120673714
 30
0.0
 10
6.9533692323
 20
4.8251924645
 30
0.0
 10
6.9911617437
 20
4.8399790441
 30
0.0
 10
7.037151153
 20
4.8614964231
 30
0.0
 10
7.0811681492
 20
4.8867976894
 30
0.0
 10
7.1150459918
 20
4.9091351564
 30
0.0
 10
7.1397637208
 20
4.9268994326
 30
0.0
 10
7.1637584865
 20
4.9456273107
 30
0.0
 10
7.1947502455
 20
4.9718224756
 30
0.0
 10
7.231569221
 20
5.0067651615
 30
0.0
 10
7.2588675951
 20
5.0368286493
 30
0.0
 10
7.2719535104
 20
5.0523255335
 30
0.0
  0
SPLINE
  5
26B
100
AcDbEntity
  8
ALL_FEATURES
100
AcDbSpline
 62
7
  6
CONTINUOUS
 70
0
 71
3
 72
18
 73
14
 74
0
 42
0.0000001
 43
0.0000001
 44
0.0000000001
 40
0.0
 40
0.0
 40
0.0
 40
0.0
 40
0.1249864211
 40
0.1874992904
 40
0.250006938
 40
0.3749947586
 40
0.4999848898
 40
0.5624932629
 40
0.625001107
 40
0.6875087646
 40
0.750014252
 40
0.8750101518
 40
1.0
 40
1.0
 40
1.0
 40
1.0
 10
6.8657416488
 20
4.1351988688
 30
0.0
 10
6.8855420352
 20
4.1308037877
 30
0.0
 10
6.9149713393
 20
4.1228720503
 30
0.0
 10
6.9533692323
 20
4.1097469572
 30
0.0
 10
6.9911617437
 20
4.0949603776
 30
0.0
 10
7.037151153
 20
4.0734429986
 30
0.0
 10
7.0811681492
 20
4.0481417323
 30
0.0
 10
7.1150459918
 20
4.0258042653
 30
0.0
 10
7.1397637208
 20
4.0080399891
 30
0.0
 10
7.1637584865
 20
3.989312111
 30
0.0
 10
7.1947502455
 20
3.9631169461
 30
0.0
 10
7.231569221
 20
3.9281742601
 30
0.0
 10
7.2588675951
 20
3.8981107724
 30
0.0
 10
7.2719535104
 20
3.8826138882
 30
0.0
  0
SPLINE
  5
26C
100
AcDbEntity
  8
ALL_FEATURES
100
AcDbSpline
 62
7
  6
CONTINUOUS
 70
0
 71
3
 72
15
 73
11
 74
0
 42
0.0000001
 43
0.0000001
 44
0.0000000001
 40
0.0
 40
0.0
 40
0.0
 40
0.0
 40
0.1383734478
 40
0.2739530449
 40
0.4060795075
 40
0.5342169768
 40
0.6579363348
 40
0.7769230932
 40
0.890981171
 40
1.0
 40
1.0
 40
1.0
 40
1.0
 10
6.8657416488
 20
4.6336051318
 30
0.0
 10
6.8853825909
 20
4.6357849765
 30
0.0
 10
6.9241750579
 20
4.6409961894
 30
0.0
 10
6.9812445972
 20
4.6514245097
 30
0.0
 10
7.0363212592
 20
4.6642691205
 30
0.0
 10
7.0890610851
 20
4.6793781742
 30
0.0
 10
7.1391740316
 20
4.6965885558
 30
0.0
 10
7.186421317
 20
4.7157291701
 30
0.0
 10
7.2306059741
 20
4.7366266375
 30
0.0
 10
7.2585565904
 20
4.7519650277
 30
0.0
 10
7.2719535104
 20
4.7598976222
 30
0.0
  0
SPLINE
  5
26D
100
AcDbEntity
  8
ALL_FEATURES
100
AcDbSpline
 62
7
  6
CONTINUOUS
 70
0
 71
3
 72
15
 73
11
 74
0
 42
0.0000001
 43
0.0000001
 44
0.0000000001
 40
0.0
 40
0.0
 40
0.0
 40
0.0
 40
0.1383734478
 40
0.2739530449
 40
0.4060795075
 40
0.5342169768
 40
0.6579363348
 40
0.7769230932
 40
0.890981171
 40
1.0
 40
1.0
 40
1.0
 40
1.0
 10
6.8657416488
 20
4.3013342898
 30
0.0
 10
6.8853825909
 20
4.2991544452
 30
0.0
 10
6.9241750579
 20
4.2939432323
 30
0.0
 10
6.9812445972
 20
4.283514912
 30
0.0
 10
7.0363212592
 20
4.2706703012
 30
0.0
 10
7.0890610851
 20
4.2555612475
 30
0.0
 10
7.1391740316
 20
4.2383508659
 30
0.0
 10
7.186421317
 20
4.2192102516
 30
0.0
 10
7.2306059741
 20
4.1983127842
 30
0.0
 10
7.2585565904
 20
4.182974394
 30
0.0
 10
7.2719535104
 20
4.1750417995
 30
0.0
  0
SPLINE
  5
26E
100
AcDbEntity
  8
0
100
AcDbSpline
 62
7
  6
CONTINUOUS
 70
0
 71
3
 72
21
 73
17
 74
0
 42
0.0000001
 43
0.0000001
 44
0.0000000001
 40
0.0
 40
0.0
 40
0.0
 40
0.0
 40
0.0697733453
 40
0.1376588387
 40
0.2038563974
 40
0.2685647171
 40
0.3319812992
 40
0.3943025196
 40
0.4557237397
 40
0.5164394619
 40
0.6365293097
 40
0.7561189988
 40
0.8162098399
 40
0.8767567602
 40
0.937954797
 40
1.0
 40
1.0
 40
1.0
 40
1.0
 10
6.6828375737
 20
4.1173390045
 30
0.0
 10
6.6227687613
 20
4.1217407177
 30
0.0
 10
6.5042189956
 20
4.1299225656
 30
0.0
 10
6.3285685413
 20
4.1406052847
 30
0.0
 10
6.1572081444
 20
4.1497190818
 30
0.0
 10
5.9896425281
 20
4.1574654378
 30
0.0
 10
5.8253761479
 20
4.164045942
 30
0.0
 10
5.6639134431
 20
4.1696623572
 30
0.0
 10
5.5047587837
 20
4.1745163301
 30
0.0
 10
5.2957408916
 20
4.1802207193
 30
0.0
 10
5.0365088824
 20
4.1864898249
 30
0.0
 10
4.7778200813
 20
4.1929237327
 30
0.0
 10
4.5705375085
 20
4.1989442009
 30
0.0
 10
4.4136576688
 20
4.2041185817
 30
0.0
 10
4.2551198233
 20
4.2101469931
 30
0.0
 10
4.1488359026
 20
4.2148326041
 30
0.0
 10
4.0953375737
 20
4.2173763492
 30
0.0
  0
SPLINE
  5
26F
100
AcDbEntity
  8
0
100
AcDbSpline
 62
7
  6
CONTINUOUS
 70
0
 71
3
 72
14
 73
10
 74
0
 42
0.0000001
 43
0.0000001
 44
0.0000000001
 40
0.0
 40
0.0
 40
0.0
 40
0.0
 40
0.1358675719
 40
0.2657842854
 40
0.3911864354
 40
0.5134957775
 40
0.7544763201
 40
0.8759627343
 40
1.0
 40
1.0
 40
1.0
 40
1.0
 10
6.5441913893
 20
4.8076380928
 30
0.0
 10
6.4335931236
 20
4.8002575911
 30
0.0
 10
6.2171263835
 20
4.7874853877
 30
0.0
 10
5.898305154
 20
4.773060237
 30
0.0
 10
5.5904039057
 20
4.7624736749
 30
0.0
 10
5.1918616961
 20
4.7516649771
 30
0.0
 10
4.7964658674
 20
4.7427888948
 30
0.0
 10
4.3997503349
 20
4.7304861196
 30
0.0
 10
4.1996070511
 20
4.7223162784
 30
0.0
 10
4.0985276361
 20
4.7175275938
 30
0.0
  0
SPLINE
  5
270
100
AcDbEntity
  8
0
100
AcDbSpline
 62
7
  6
CONTINUOUS
 70
0
 71
3
 72
36
 73
32
 74
0
 42
0.0000001
 43
0.0000001
 44
0.0000000001
 40
0.0
 40
0.0
 40
0.0
 40
0.0
 40
0.2213871922
 40
0.3235039753
 40
0.4194607928
 40
0.5089297319
 40
0.5916457611
 40
0.6673682648
 40
0.7358536524
 40
0.7968618808
 40
0.850194655
 40
0.8739262583
 40
0.895671065
 40
0.9154063015
 40
0.9331091348
 40
0.9487578567
 40
0.9623401233
 40
0.9738480778
 40
0.9788217405
 40
0.9832738867
 40
0.9872035366
 40
0.9906097104
 40
0.9934914287
 40
0.9958477135
 40
0.9976775905
 40
0.9983948246
 40
0.9989800972
 40
0.9994332941
 40
0.9997543123
 40
0.9999430904
 40
1.0
 40
1.0
 40
1.0
 40
1.0
 10
7.1064041108
 20
4.9814800517
 30
0.0
 10
7.113383418
 20
4.9869871481
 30
0.0
 10
7.1234739951
 20
4.9951726064
 30
0.0
 10
7.136355686
 20
5.0060265325
 30
0.0
 10
7.1451037271
 20
5.0135638314
 30
0.0
 10
7.1531924374
 20
5.0206718776
 30
0.0
 10
7.1606113405
 20
5.0273105344
 30
0.0
 10
7.1673519591
 20
5.0334430251
 30
0.0
 10
7.173406795
 20
5.03903354
 30
0.0
 10
7.1787705171
 20
5.0440469331
 30
0.0
 10
7.1828002173
 20
5.047855495
 30
0.0
 10
7.1856731501
 20
5.0505924334
 30
0.0
 10
7.1875649238
 20
5.0524032403
 30
0.0
 10
7.1892782427
 20
5.0540503516
 30
0.0
 10
7.1908122477
 20
5.0555307461
 30
0.0
 10
7.1921664963
 20
5.0568415834
 30
0.0
 10
7.1933403353
 20
5.0579811138
 30
0.0
 10
7.1942052354
 20
5.0588234356
 30
0.0
 10
7.1948066329
 20
5.059410815
 30
0.0
 10
7.1951899365
 20
5.0597859404
 30
0.0
 10
7.1955278878
 20
5.0601174219
 30
0.0
 10
7.1958204243
 20
5.0604051089
 30
0.0
 10
7.196067594
 20
5.0606489165
 30
0.0
 10
7.1962691346
 20
5.0608485639
 30
0.0
 10
7.1964089488
 20
5.0609876837
 30
0.0
 10
7.196497339
 20
5.0610764812
 30
0.0
 10
7.1965478492
 20
5.0611271495
 30
0.0
 10
7.1965838091
 20
5.0611646234
 30
0.0
 10
7.1966157708
 20
5.0611957691
 30
0.0
 10
7.1966226438
 20
5.0612067022
 30
0.0
 10
7.1966375888
 20
5.0612197289
 30
0.0
 10
7.1966353035
 20
5.0612197096
 30
0.0
  0
SPLINE
  5
271
100
AcDbEntity
  8
0
100
AcDbSpline
 62
7
  6
CONTINUOUS
 70
0
 71
3
 72
15
 73
11
 74
0
 42
0.0000001
 43
0.0000001
 44
0.0000000001
 40
0.0
 40
0.0
 40
0.0
 40
0.0
 40
0.1322010312
 40
0.2611230439
 40
0.3873372276
 40
0.5114521622
 40
0.6341076794
 40
0.7559666015
 40
0.8777047628
 40
1.0
 40
1.0
 40
1.0
 40
1.0
 10
7.1064041108
 20
4.9814800517
 30
0.0
 10
7.0901371334
 20
4.9693474315
 30
0.0
 10
7.0572679047
 20
4.9463519228
 30
0.0
 10
7.006400761
 20
4.9154856319
 30
0.0
 10
6.9546471638
 20
4.8887236785
 30
0.0
 10
6.9020106729
 20
4.8660721006
 30
0.0
 10
6.848493581
 20
4.8475345435
 30
0.0
 10
6.7940988411
 20
4.8331143343
 30
0.0
 10
6.7388350942
 20
4.8228138318
 30
0.0
 10
6.7015601085
 20
4.81870978
 30
0.0
 10
6.6828375737
 20
4.8173388579
 30
0.0
  0
SPLINE
  5
272
100
AcDbEntity
  8
0
100
AcDbSpline
 62
7
  6
CONTINUOUS
 70
0
 71
3
 72
26
 73
22
 74
0
 42
0.0000001
 43
0.0000001
 44
0.0000000001
 40
0.0
 40
0.0
 40
0.0
 40
0.0
 40
0.062538972
 40
0.1250768337
 40
0.1875482695
 40
0.2499778925
 40
0.2811939847
 40
0.312405441
 40
0.3436125716
 40
0.3748165748
 40
0.4372034512
 40
0.4995984024
 40
0.5620127723
 40
0.6244570412
 40
0.6869407147
 40
0.7182090189
 40
0.7494878781
 40
0.8120556632
 40
0.8746718098
 40
0.9373474701
 40
1.0
 40
1.0
 40
1.0
 40
1.0
 10
4.0953375737
 20
4.4672828828
 30
0.0
 10
4.0818351754
 20
4.4672833624
 30
0.0
 10
4.0548121867
 20
4.4659520859
 30
0.0
 10
4.0146959545
 20
4.4600047789
 30
0.0
 10
3.975378287
 20
4.4501526375
 30
0.0
 10
3.9435871428
 20
4.4387772676
 30
0.0
 10
3.9189339779
 20
4.427850818
 30
0.0
 10
3.9008668371
 20
4.4187620373
 30
0.0
 10
3.8832691826
 20
4.4087997323
 30
0.0
 10
3.8604936292
 20
4.3943862519
 30
0.0
 10
3.8333851963
 20
4.3743037771
 30
0.0
 10
3.8033772303
 20
4.3471355968
 30
0.0
 10
3.7761581888
 20
4.3171536526
 30
0.0
 10
3.7519995146
 20
4.2846341073
 30
0.0
 10
3.7346050151
 20
4.2556742199
 30
0.0
 10
3.7224445279
 20
4.2315632683
 30
0.0
 10
3.7114713889
 20
4.2068693916
 30
0.0
 10
3.7000453106
 20
4.1750169474
 30
0.0
 10
3.690148418
 20
4.1356163189
 30
0.0
 10
3.6841751751
 20
4.0954170768
 30
0.0
 10
3.6828375737
 20
4.0683397693
 30
0.0
 10
3.6828375737
 20
4.0548128533
 30
0.0
  0
SPLINE
  5
273
100
AcDbEntity
  8
0
100
AcDbSpline
 62
7
  6
CONTINUOUS
 70
0
 71
3
 72
27
 73
23
 74
0
 42
0.0000001
 43
0.0000001
 44
0.0000000001
 40
0.0
 40
0.0
 40
0.0
 40
0.0
 40
0.0624708127
 40
0.1249798834
 40
0.1874647819
 40
0.2499438167
 40
0.2811948225
 40
0.3124467677
 40
0.3436989487
 40
0.3749514727
 40
0.4374398649
 40
0.4999300042
 40
0.562422108
 40
0.6249167568
 40
0.6561748721
 40
0.6874344398
 40
0.7186953584
 40
0.749956679
 40
0.8124590332
 40
0.8749707328
 40
0.9375047909
 40
1.0
 40
1.0
 40
1.0
 40
1.0
 10
4.0953375737
 20
4.7173762445
 30
0.0
 10
4.0744675396
 20
4.7163846548
 30
0.0
 10
4.0327837325
 20
4.7123621514
 30
0.0
 10
3.971157477
 20
4.7003173507
 30
0.0
 10
3.9109823335
 20
4.6823572995
 30
0.0
 10
3.8625130153
 20
4.662617202
 30
0.0
 10
3.8250298019
 20
4.644085714
 30
0.0
 10
3.7976105819
 20
4.6288470187
 30
0.0
 10
3.7709577073
 20
4.6123034078
 30
0.0
 10
3.7365311363
 20
4.5885648074
 30
0.0
 10
3.6956901217
 20
4.5558318551
 30
0.0
 10
3.6506844616
 20
4.5120411397
 30
0.0
 10
3.6100569771
 20
4.4641585571
 30
0.0
 10
3.5801517637
 20
4.4212002291
 30
0.0
 10
3.5587550501
 20
4.3852642124
 30
0.0
 10
3.5440008818
 20
4.3575727572
 30
0.0
 10
3.5305715497
 20
4.3292141682
 30
0.0
 10
3.5144672458
 20
4.2906109805
 30
0.0
 10
3.4977708626
 20
4.2409945855
 30
0.0
 10
3.4833847653
 20
4.179847868
 30
0.0
 10
3.4747481627
 20
4.1176347215
 30
0.0
 10
3.4728264133
 20
4.0757930621
 30
0.0
 10
3.4728264133
 20
4.0548913253
 30
0.0
  0
SPLINE
  5
274
100
AcDbEntity
  8
0
100
AcDbSpline
 62
7
  6
CONTINUOUS
 70
0
 71
3
 72
23
 73
19
 74
0
 42
0.0000001
 43
0.0000001
 44
0.0000000001
 40
0.0
 40
0.0
 40
0.0
 40
0.0
 40
0.0626344507
 40
0.1252188948
 40
0.1877264804
 40
0.2501452127
 40
0.3124992425
 40
0.3748308425
 40
0.4371539773
 40
0.4994983314
 40
0.5618728825
 40
0.6242970862
 40
0.6867727592
 40
0.7493063559
 40
0.811892666
 40
0.874548783
 40
0.9373002805
 40
1.0
 40
1.0
 40
1.0
 40
1.0
 10
4.0927636651
 20
4.2174878075
 30
0.0
 10
4.0867398806
 20
4.2177229446
 30
0.0
 10
4.0746789586
 20
4.217830786
 30
0.0
 10
4.0566269695
 20
4.2167666807
 30
0.0
 10
4.0387258182
 20
4.2143268274
 30
0.0
 10
4.0211060798
 20
4.2104226689
 30
0.0
 10
4.0039137198
 20
4.2049801241
 30
0.0
 10
3.9873115216
 20
4.1979575464
 30
0.0
 10
3.9714680584
 20
4.1893564459
 30
0.0
 10
3.9565672749
 20
4.1791986562
 30
0.0
 10
3.9427888248
 20
4.167546044
 30
0.0
 10
3.9303202294
 20
4.1544813781
 30
0.0
 10
3.9193391565
 20
4.1401223684
 30
0.0
 10
3.9100218755
 20
4.124611487
 30
0.0
 10
3.9025300705
 20
4.1081203091
 30
0.0
 10
3.8970156784
 20
4.0908413921
 30
0.0
 10
3.8936269788
 20
4.073013096
 30
0.0
 10
3.8928487341
 20
4.0609259792
 30
0.0
 10
3.8928487341
 20
4.0548913253
 30
0.0
  0
SPLINE
  5
275
100
AcDbEntity
  8
0
100
AcDbSpline
 62
7
  6
CONTINUOUS
 70
0
 71
3
 72
11
 73
7
 74
0
 42
0.0000001
 43
0.0000001
 44
0.0000000001
 40
0.0
 40
0.0
 40
0.0
 40
0.0
 40
0.2494891265
 40
0.4985151748
 40
0.7482749676
 40
1.0
 40
1.0
 40
1.0
 40
1.0
 10
7.1064041108
 20
3.9530751001
 30
0.0
 10
7.1106031485
 20
3.9563809755
 30
0.0
 10
7.118754764
 20
3.963296765
 30
0.0
 10
7.1301775679
 20
3.9745619282
 30
0.0
 10
7.1407484472
 20
3.9866939644
 30
0.0
 10
7.1471793684
 20
3.9953133662
 30
0.0
 10
7.1502408261
 20
3.9997521069
 30
0.0
  0
SPLINE
  5
276
100
AcDbEntity
  8
0
100
AcDbSpline
 62
7
  6
CONTINUOUS
 70
0
 71
3
 72
15
 73
11
 74
0
 42
0.0000001
 43
0.0000001
 44
0.0000000001
 40
0.0
 40
0.0
 40
0.0
 40
0.0
 40
0.1320745719
 40
0.2611608077
 40
0.3877118094
 40
0.5122083625
 40
0.635155357
 40
0.7570769349
 40
0.8785105169
 40
1.0
 40
1.0
 40
1.0
 40
1.0
 10
7.1064041108
 20
3.9530751001
 30
0.0
 10
7.0918043563
 20
3.9639723735
 30
0.0
 10
7.0623399632
 20
3.9847383123
 30
0.0
 10
7.0168873474
 20
4.012977269
 30
0.0
 10
6.9707255806
 20
4.0379186151
 30
0.0
 10
6.9238568519
 20
4.0595586073
 30
0.0
 10
6.8762821664
 20
4.0778950891
 30
0.0
 10
6.8280027692
 20
4.0929259255
 30
0.0
 10
6.779024012
 20
4.1046491005
 30
0.0
 10
6.7459569006
 20
4.1102501701
 30
0.0
 10
6.7293501178
 20
4.1124972532
 30
0.0
  0
SPLINE
  5
277
100
AcDbEntity
  8
0
100
AcDbSpline
 62
7
  6
CONTINUOUS
 70
0
 71
3
 72
19
 73
15
 74
0
 42
0.0000001
 43
0.0000001
 44
0.0000000001
 40
0.0
 40
0.0
 40
0.0
 40
0.0
 40
0.0075272265
 40
0.0230026849
 40
0.0463692478
 40
0.0775678629
 40
0.1164885275
 40
0.1629665616
 40
0.2168353414
 40
0.277928388
 40
0.4209857288
 40
0.5903847571
 40
0.7841818689
 40
1.0
 40
1.0
 40
1.0
 40
1.0
 10
7.19656566
 20
3.8737822556
 30
0.0
 10
7.1963455779
 20
3.8739881651
 30
0.0
 10
7.1956831205
 20
3.8746281017
 30
0.0
 10
7.1943435477
 20
3.8759135714
 30
0.0
 10
7.1923217631
 20
3.8778570714
 30
0.0
 10
7.1896187175
 20
3.8804464104
 30
0.0
 10
7.1862399348
 20
3.8836680654
 30
0.0
 10
7.1821890163
 20
3.887500119
 30
0.0
 10
7.1774726296
 20
3.8919204681
 30
0.0
 10
7.1698988556
 20
3.8989467551
 30
0.0
 10
7.1588371591
 20
3.9090145747
 30
0.0
 10
7.1436295424
 20
3.922418079
 30
0.0
 10
7.125948527
 20
3.9374158737
 30
0.0
 10
7.1131937131
 20
3.9477296899
 30
0.0
 10
7.1064041108
 20
3.9530751001
 30
0.0
  0
SPLINE
  5
278
100
AcDbEntity
  8
0
100
AcDbSpline
 62
7
  6
CONTINUOUS
 70
0
 71
3
 72
11
 73
7
 74
0
 42
0.0000001
 43
0.0000001
 44
0.0000000001
 40
0.0
 40
0.0
 40
0.0
 40
0.0
 40
0.2517134188
 40
0.5014817329
 40
0.7505176389
 40
1.0
 40
1.0
 40
1.0
 40
1.0
 10
7.1500264088
 20
4.9350243096
 30
0.0
 10
7.1469757453
 20
4.9394383592
 30
0.0
 10
7.1405701005
 20
4.9480111254
 30
0.0
 10
7.1300484945
 20
4.9600822903
 30
0.0
 10
7.1186850792
 20
4.9712967062
 30
0.0
 10
7.110579041
 20
4.9781857787
 30
0.0
 10
7.1064041108
 20
4.9814800517
 30
0.0
  0
ELLIPSE
  5
279
100
AcDbEntity
  8
ALL_FEATURES
100
AcDbEllipse
 62
7
  6
CONTINUOUS
 10
6.7780881885
 20
4.4674697108
 30
0.0
 11
0.0
 21
0.59375
 31
0.0
 40
0.9750549296
 41
-2.0943951024
 42
-1.0471975512
  0
ELLIPSE
  5
27A
100
AcDbEntity
  8
ALL_FEATURES
100
AcDbEllipse
 62
7
  6
CONTINUOUS
 10
6.7780881885
 20
4.4674697108
 30
0.0
 11
0.5581047699
 21
0.5746235355
 31
0.0
 40
0.2678505055
 41
-0.7926884546
 42
0.2545090966
  0
ELLIPSE
  5
27B
100
AcDbEntity
  8
ALL_FEATURES
100
AcDbEllipse
 62
7
  6
CONTINUOUS
 10
6.7780881885
 20
4.4674697108
 30
0.0
 11
0.5581047699
 21
-0.5746235355
 31
0.0
 40
0.2678505055
 41
-0.2545090966
 42
0.7926884546
  0
ENDSEC
  0
SECTION
  2
OBJECTS
  0
DICTIONARY
  5
C
100
AcDbDictionary
280
0
281
1
  3
ACAD_GROUP
350
D
  3
ACAD_MLINESTYLE
350
17
  3
ACAD_LAYOUT
350
1A
  3
ACAD_PLOTSETTINGS
350
19
  3
ACAD_PLOTSTYLENAME
350
E
  0
DICTIONARY
  5
D
102
{ACAD_REACTORS
330
C
102
}
100
AcDbDictionary
280
0
281
1
  0
ACDBDICTIONARYWDFLT
  5
E
102
{ACAD_REACTORS
330
C
102
}
100
AcDbDictionary
281
1
  3
Normal
350
F
100
AcDbDictionaryWithDefault
340
F
  0
DICTIONARY
  5
17
102
{ACAD_REACTORS
330
C
102
}
100
AcDbDictionary
280
0
281
1
  3
Standard
350
18
  0
DICTIONARY
  5
19
102
{ACAD_REACTORS
330
C
102
}
100
AcDbDictionary
281
1
  0
DICTIONARY
  5
1A
102
{ACAD_REACTORS
330
C
102
}
100
AcDbDictionary
281
1
  3
Model
350
27C
  3
Layout1
350
27D
  0
ACDBPLACEHOLDER
  5
F
102
{ACAD_REACTORS
330
E
102
}
  0
MLINESTYLE
  5
18
102
{ACAD_REACTORS
330
17
102
}
100
AcDbMlineStyle
  2
STANDARD
 70
0
  3

 62
256
 51
90.0
 52
90.0
 71
2
 49
0.5
 62
256
  6
BYLAYER
 49
-0.5
 62
256
  6
BYLAYER
  0
LAYOUT
  5
27C
102
{ACAD_REACTORS
330
1A
102
}
100
AcDbPlotSettings
  1

  2
none_device
  4
ANSI_A_(11.00_x_8.50_Inches)
  6

 40
0.0
 41
0.0
 42
0.0
 43
0.0
 44
279.4
 45
215.9
 46
0.0
 47
0.0
 48
0.0
 49
0.0
140
0.0
141
0.0
142
1.0
143
1.0
 70
1024
 72
0
 73
0
 74
0
  7

 75
0
147
1.0
148
0.0
149
0.0
100
AcDbLayout
  1
Model
 70
0
 71
0
 10
0.0
 20
0.0
 11
11.0
 21
8.5
 12
0.0
 22
0.0
 32
0.0
 14
0.0
 24
0.0
 34
0.0
 15
0.0
 25
0.0
 35
0.0
146
0.0
 13
0.0
 23
0.0
 33
0.0
 16
1.0
 26
0.0
 36
0.0
 17
0.0
 27
1.0
 37
0.0
 76
0
330
217
345
0
346
0
  0
LAYOUT
  5
27D
102
{ACAD_REACTORS
330
1A
102
}
100
AcDbPlotSettings
  1

  2
none_device
  4
ANSI_A_(11.00_x_8.50_Inches)
  6

 40
0.0
 41
0.0
 42
0.0
 43
0.0
 44
279.4
 45
215.9
 46
0.0
 47
0.0
 48
0.0
 49
0.0
140
0.0
141
0.0
142
1.0
143
1.0
 70
0
 72
0
 73
0
 74
0
  7

 75
0
147
1.0
148
0.0
149
0.0
100
AcDbLayout
  1
Layout1
 70
0
 71
1
 10
0.0
 20
0.0
 11
11.0
 21
8.5
 12
0.0
 22
0.0
 32
0.0
 14
0.0
 24
0.0
 34
0.0
 15
0.0
 25
0.0
 35
0.0
146
0.0
 13
0.0
 23
0.0
 33
0.0
 16
1.0
 26
0.0
 36
0.0
 17
0.0
 27
1.0
 37
0.0
 76
0
330
218
345
0
346
0
  0
ENDSEC
  0
EOF
