999
DXF file: 3-1201_TOP.dxf
999
Pro/ENGINEER 2018400 by Parametric Technology Corporation
  0
SECTION
  2
HEADER
  9
$ACADVER
  1
AC1027
  9
$DWGCODEPAGE
  3
ANSI_1252
  9
$EXTMAX
 10
11.0
 20
8.5
 30
0.0
  9
$EXTMIN
 10
0.0
 20
0.0
 30
0.0
  9
$LIMMIN
 10
0.0
 20
0.0
  9
$LIMMAX
 10
11.0
 20
8.5
  9
$VIEWCTR
 10
5.5
 20
4.25
  9
$VIEWSIZE
 40
8.5
  9
$CLAYER
  8
0
  9
$LTSCALE
 40
0.605
  9
$CELTYPE
  6
BYLAYER
  9
$DIMSCALE
 40
1.0
  9
$DIMASZ
 40
0.1
  9
$DIMEXO
 40
0.0625
  9
$DIMDLI
 40
0.418
  9
$DIMEXE
 40
0.125
  9
$DIMCEN
 40
0.099
  9
$DIMLFAC
 40
1.0
  9
$DIMBLK
  1
_FILLED
  9
$DIMALT
 70
1
  9
$DIMALTD
 70
2
  9
$DIMALTTD
 70
2
  9
$DIMALTF
 40
25.4
  9
$DIMTXT
 40
0.08
  9
$DIMTOL
 70
1
  9
$DIMLIM
 70
0
  9
$DIMTFAC
 40
1.0
  9
$DIMTP
 40
0.001
  9
$DIMTM
 40
0.001
  9
$DIMGAP
 40
0.09
  9
$DIMDSEP
 70
46
  9
$AUNITS
 70
0
  9
$PDMODE
 70
3
  9
$PDSIZE
 40
0.3125
  9
$HANDSEED
  5
31A
  9
$TILEMODE
 70
1
  9
$MEASUREMENT
 70
0
  9
$INSUNITS
 70
1
  0
ENDSEC
  0
SECTION
  2
CLASSES
  0
CLASS
  1
ACDBDICTIONARYWDFLT
  2
AcDbDictionaryWithDefault
  3
AutoCAD 2000
 90
0
 91
1
280
0
281
0
  0
CLASS
  1
ACDBPLACEHOLDER
  2
AcDbPlaceHolder
  3
AutoCAD 2000
 90
0
 91
1
280
0
281
0
  0
CLASS
  1
LAYOUT
  2
AcDbLayout
  3
AutoCAD 2000
 90
0
 91
0
280
0
281
0
  0
ENDSEC
  0
SECTION
  2
TABLES
  0
TABLE
  2
VPORT
  5
8
100
AcDbSymbolTable
 70
2
  0
VPORT
  5
1F4
100
AcDbSymbolTableRecord
100
AcDbViewportTableRecord
  2
*ACTIVE
 70
0
 10
0.0
 20
0.0
 11
1.0
 21
1.0
 12
5.5
 22
4.25
 13
0.0
 23
0.0
 14
1.0
 24
1.0
 15
0.0
 25
0.0
 16
0.0
 26
0.0
 36
1.0
 17
0.0
 27
0.0
 37
0.0
 40
8.5
 41
1.2941176471
 42
50.0
 43
0.0
 44
0.0
 50
0.0
 51
0.0
 71
0
 72
100
 73
1
 74
1
 75
0
 76
0
 77
0
 78
0
  0
ENDTAB
  0
TABLE
  2
LTYPE
  5
5
100
AcDbSymbolTable
 70
6
  0
LTYPE
  5
14
100
AcDbSymbolTableRecord
100
AcDbLinetypeTableRecord
  2
BYBLOCK
 70
0
  3

 72
65
 73
0
 40
0.0
  0
LTYPE
  5
15
100
AcDbSymbolTableRecord
100
AcDbLinetypeTableRecord
  2
BYLAYER
 70
0
  3

 72
65
 73
0
 40
0.0
  0
LTYPE
  5
16
100
AcDbSymbolTableRecord
100
AcDbLinetypeTableRecord
  2
CONTINUOUS
 70
64
  3
Solid line
 72
65
 73
0
 40
0.0
  0
LTYPE
  5
1F5
100
AcDbSymbolTableRecord
100
AcDbLinetypeTableRecord
  2
CENTER
 70
64
  3
____ _ ____ _ ____ _ ____ _ ____ _ ____ _ ____
 72
65
 73
4
 40
0.6
 49
0.375
 74
0
 49
-0.075
 74
0
 49
0.075
 74
0
 49
-0.075
 74
0
  0
LTYPE
  5
1F6
100
AcDbSymbolTableRecord
100
AcDbLinetypeTableRecord
  2
HIDDEN
 70
64
  3
- - - - - - - - - - - - - - - - - - - -
 72
65
 73
2
 40
0.2
 49
0.1
 74
0
 49
-0.1
 74
0
  0
LTYPE
  5
1F7
100
AcDbSymbolTableRecord
100
AcDbLinetypeTableRecord
  2
PHANTOM
 70
64
  3
_____ _ _ _____ _ _ _____ _ _ _____
 72
65
 73
6
 40
0.8
 49
0.45
 74
0
 49
-0.05
 74
0
 49
0.1
 74
0
 49
-0.05
 74
0
 49
0.1
 74
0
 49
-0.05
 74
0
  0
LTYPE
  5
1F8
100
AcDbSymbolTableRecord
100
AcDbLinetypeTableRecord
  2
DOT
 70
64
  3
. . . . . . . . . . . . . . . . . . . .
 72
65
 73
2
 40
0.2
 49
0.1
 74
0
 49
-0.1
 74
0
  0
LTYPE
  5
1F9
100
AcDbSymbolTableRecord
100
AcDbLinetypeTableRecord
  2
DASHED
 70
64
  3
- - - - - - - - - - - - - - - - - - - -
 72
65
 73
2
 40
0.2
 49
0.1
 74
0
 49
-0.1
 74
0
  0
ENDTAB
  0
TABLE
  2
LAYER
  5
2
100
AcDbSymbolTable
 70
36
  0
LAYER
  5
10
100
AcDbSymbolTableRecord
100
AcDbLayerTableRecord
  2
0
 70
0
 62
7
  6
CONTINUOUS
370
-3
390
F
  0
LAYER
  5
1FA
100
AcDbSymbolTableRecord
100
AcDbLayerTableRecord
  2
DEFAULT_1
 70
0
 62
7
  6
CENTER
370
-3
390
F
  0
LAYER
  5
1FB
100
AcDbSymbolTableRecord
100
AcDbLayerTableRecord
  2
DEFAULT_2
 70
0
 62
8
  6
HIDDEN
370
-3
390
F
  0
LAYER
  5
1FC
100
AcDbSymbolTableRecord
100
AcDbLayerTableRecord
  2
DEFAULT_3
 70
0
 62
7
  6
PHANTOM
370
-3
390
F
  0
LAYER
  5
1FD
100
AcDbSymbolTableRecord
100
AcDbLayerTableRecord
  2
ALL_ASSEMBLY_MEMBERS
 70
0
 62
7
  6
CONTINUOUS
370
-3
390
F
  0
LAYER
  5
1FE
100
AcDbSymbolTableRecord
100
AcDbLayerTableRecord
  2
ALL_FEATURES
 70
0
 62
7
  6
CONTINUOUS
370
-3
390
F
  0
LAYER
  5
1FF
100
AcDbSymbolTableRecord
100
AcDbLayerTableRecord
  2
AXES_FEATURES
 70
0
 62
7
  6
CONTINUOUS
370
-3
390
F
  0
LAYER
  5
200
100
AcDbSymbolTableRecord
100
AcDbLayerTableRecord
  2
CHAMFER_FEATURES
 70
0
 62
7
  6
CONTINUOUS
370
-3
390
F
  0
LAYER
  5
201
100
AcDbSymbolTableRecord
100
AcDbLayerTableRecord
  2
COSMETIC
 70
0
 62
7
  6
CONTINUOUS
370
-3
390
F
  0
LAYER
  5
202
100
AcDbSymbolTableRecord
100
AcDbLayerTableRecord
  2
CURVE
 70
0
 62
7
  6
CONTINUOUS
370
-3
390
F
  0
LAYER
  5
203
100
AcDbSymbolTableRecord
100
AcDbLayerTableRecord
  2
CUT_FEATURES
 70
0
 62
7
  6
CONTINUOUS
370
-3
390
F
  0
LAYER
  5
204
100
AcDbSymbolTableRecord
100
AcDbLayerTableRecord
  2
DATUM_CURVES
 70
0
 62
7
  6
CONTINUOUS
370
-3
390
F
  0
LAYER
  5
205
100
AcDbSymbolTableRecord
100
AcDbLayerTableRecord
  2
DATUM_PLANES
 70
0
 62
7
  6
CONTINUOUS
370
-3
390
F
  0
LAYER
  5
206
100
AcDbSymbolTableRecord
100
AcDbLayerTableRecord
  2
DATUM_POINTS
 70
0
 62
7
  6
CONTINUOUS
370
-3
390
F
  0
LAYER
  5
207
100
AcDbSymbolTableRecord
100
AcDbLayerTableRecord
  2
DEFAULT_COORDINATE_SYSTEM
 70
0
 62
7
  6
CONTINUOUS
370
-3
390
F
  0
LAYER
  5
208
100
AcDbSymbolTableRecord
100
AcDbLayerTableRecord
  2
DEFAULT_DATUM_AXES
 70
0
 62
7
  6
CONTINUOUS
370
-3
390
F
  0
LAYER
  5
209
100
AcDbSymbolTableRecord
100
AcDbLayerTableRecord
  2
DEFAULT_DATUM_CURVES
 70
0
 62
7
  6
CONTINUOUS
370
-3
390
F
  0
LAYER
  5
20A
100
AcDbSymbolTableRecord
100
AcDbLayerTableRecord
  2
DEFAULT_DATUM_PLANES
 70
0
 62
7
  6
CONTINUOUS
370
-3
390
F
  0
LAYER
  5
20B
100
AcDbSymbolTableRecord
100
AcDbLayerTableRecord
  2
DEFAULT_SURFACES
 70
0
 62
7
  6
CONTINUOUS
370
-3
390
F
  0
LAYER
  5
20C
100
AcDbSymbolTableRecord
100
AcDbLayerTableRecord
  2
DIMENSIONS
 70
0
 62
7
  6
CONTINUOUS
370
-3
390
F
  0
LAYER
  5
20D
100
AcDbSymbolTableRecord
100
AcDbLayerTableRecord
  2
HOLE_FEATURES
 70
0
 62
7
  6
CONTINUOUS
370
-3
390
F
  0
LAYER
  5
20E
100
AcDbSymbolTableRecord
100
AcDbLayerTableRecord
  2
MAGENTA
 70
0
 62
7
  6
CONTINUOUS
370
-3
390
F
  0
LAYER
  5
20F
100
AcDbSymbolTableRecord
100
AcDbLayerTableRecord
  2
NOTES
 70
0
 62
7
  6
CONTINUOUS
370
-3
390
F
  0
LAYER
  5
210
100
AcDbSymbolTableRecord
100
AcDbLayerTableRecord
  2
POINTS
 70
0
 62
7
  6
CONTINUOUS
370
-3
390
F
  0
LAYER
  5
211
100
AcDbSymbolTableRecord
100
AcDbLayerTableRecord
  2
PROTRUSION_FEATURES
 70
0
 62
7
  6
CONTINUOUS
370
-3
390
F
  0
LAYER
  5
212
100
AcDbSymbolTableRecord
100
AcDbLayerTableRecord
  2
QUILT
 70
0
 62
7
  6
CONTINUOUS
370
-3
390
F
  0
LAYER
  5
213
100
AcDbSymbolTableRecord
100
AcDbLayerTableRecord
  2
WHITE
 70
0
 62
7
  6
CONTINUOUS
370
-3
390
F
  0
LAYER
  5
214
100
AcDbSymbolTableRecord
100
AcDbLayerTableRecord
  2
XSEC_DATUMS
 70
0
 62
7
  6
CONTINUOUS
370
-3
390
F
  0
ENDTAB
  0
TABLE
  2
STYLE
  5
3
100
AcDbSymbolTable
 70
1
  0
STYLE
  5
11
100
AcDbSymbolTableRecord
100
AcDbTextStyleTableRecord
  2
STANDARD
 70
0
 40
0.0
 41
0.8
 50
0.0
 71
0
 42
0.2
  3
txt
  4

  0
STYLE
  5
215
100
AcDbSymbolTableRecord
100
AcDbTextStyleTableRecord
  2
TEXTSTYLE_1
 70
0
 40
0.0
 41
0.8
 50
0.0
 71
0
 42
0.2
  3
gdt
  4

  0
ENDTAB
  0
TABLE
  2
VIEW
  5
6
100
AcDbSymbolTable
 70
0
  0
ENDTAB
  0
TABLE
  2
UCS
  5
7
100
AcDbSymbolTable
 70
0
  0
ENDTAB
  0
TABLE
  2
APPID
  5
9
100
AcDbSymbolTable
 70
1
  0
APPID
  5
216
100
AcDbSymbolTableRecord
100
AcDbRegAppTableRecord
  2
ACAD
 70
0
  0
ENDTAB
  0
TABLE
  2
BLOCK_RECORD
  5
1
100
AcDbSymbolTable
 70
0
  0
BLOCK_RECORD
  5
217
100
AcDbSymbolTableRecord
100
AcDbBlockTableRecord
  2
*Model_Space
  0
BLOCK_RECORD
  5
218
100
AcDbSymbolTableRecord
100
AcDbBlockTableRecord
  2
*Paper_Space
  0
BLOCK_RECORD
  5
219
100
AcDbSymbolTableRecord
100
AcDbBlockTableRecord
  2
_FILLED
  0
ENDTAB
  0
TABLE
  2
DIMSTYLE
  5
A
100
AcDbSymbolTable
 70
1
100
AcDbDimStyleTable
 71
0
  0
DIMSTYLE
105
21A
100
AcDbSymbolTableRecord
100
AcDbDimStyleTableRecord
  2
STANDARD
 70
0
  3

  4

 40
1.0
 41
0.1
 42
0.0625
 43
0.38
 44
0.125
 45
0.0
 46
0.0
 47
0.001
 48
0.001
140
0.08
141
0.09
142
0.0
143
25.4
144
1.0
145
0.0
146
1.0
147
0.09
 71
1.0
 72
0.0
 73
1
 74
1
 75
0
 76
0
 77
0
 78
4
 79
1
170
1
171
2
172
0
173
0
174
0
175
0
176
0
177
0
178
0
270
2
179
3
271
3
272
3
273
2
274
2
275
0
280
0
281
0
282
0
283
1
284
4
285
0
286
0
287
3
288
0
340
11
278
46
341
219
342
219
343
219
344
219
  0
ENDTAB
  0
ENDSEC
  0
SECTION
  2
BLOCKS
  0
BLOCK
  5
20
100
AcDbEntity
  8
0
100
AcDbBlockBegin
  2
*Model_Space
 70
0
 10
0.0
 20
0.0
 30
0.0
  3
*Model_Space
  1

  0
ENDBLK
  5
21
100
AcDbEntity
  8
0
100
AcDbBlockEnd
  0
BLOCK
  5
1C
100
AcDbEntity
  8
0
100
AcDbBlockBegin
  2
*Paper_Space
 70
0
 10
0.0
 20
0.0
 30
0.0
  3
*Paper_Space
  1

  0
ENDBLK
  5
1D
100
AcDbEntity
  8
0
100
AcDbBlockEnd
  0
BLOCK
  5
21B
100
AcDbEntity
  8
0
100
AcDbBlockBegin
  2
_FILLED
 70
64
 10
0.0
 20
0.0
  3
_FILLED
  1

  0
SOLID
  5
21C
100
AcDbEntity
  8
0
  6
BYBLOCK
 62
0
100
AcDbTrace
 10
0.0
 20
0.0
 11
-1.0
 21
0.2
 12
-1.0
 22
-0.2
 13
-1.0
 23
-0.2
  0
ENDBLK
  5
21D
100
AcDbEntity
  8
0
  6
BYBLOCK
 62
0
100
AcDbBlockEnd
  0
ENDSEC
  0
SECTION
  2
ENTITIES
  0
MTEXT
  5
21E
100
AcDbEntity
  8
0
100
AcDbMText
 62
2
  6
CONTINUOUS
  7
STANDARD
 71
3
 72
1
 10
3.8224572981
 20
1.0576826126
 30
0.0
 11
1.0
 21
0.0
 31
0.0
 73
2
 44
0.9
  1
SCALE  .500
 40
0.08
 41
0.704
  0
LINE
  5
21F
100
AcDbEntity
  8
0
100
AcDbLine
 62
7
  6
CONTINUOUS
 10
0.0
 20
0.0
 11
0.0
 21
8.5
  0
LINE
  5
220
100
AcDbEntity
  8
0
100
AcDbLine
 62
7
  6
CONTINUOUS
 10
0.0
 20
0.0
 11
11.0
 21
0.0
  0
LINE
  5
221
100
AcDbEntity
  8
0
100
AcDbLine
 62
7
  6
CONTINUOUS
 10
0.0
 20
8.5
 11
11.0
 21
8.5
  0
LINE
  5
222
100
AcDbEntity
  8
0
100
AcDbLine
 62
7
  6
CONTINUOUS
 10
11.0
 20
0.0
 11
11.0
 21
8.5
  0
LINE
  5
223
100
AcDbEntity
  8
0
100
AcDbLine
 62
7
  6
CONTINUOUS
 10
1.9617806624
 20
5.1439874761
 11
1.9617806624
 21
5.328065777
  0
LINE
  5
224
100
AcDbEntity
  8
0
100
AcDbLine
 62
7
  6
CONTINUOUS
 10
1.986880264
 20
5.0695266265
 11
1.986880264
 21
5.4025266265
  0
LINE
  5
225
100
AcDbEntity
  8
0
100
AcDbLine
 62
7
  6
CONTINUOUS
 10
2.018380264
 20
5.0380266265
 11
2.018380264
 21
5.4340266265
  0
LINE
  5
226
100
AcDbEntity
  8
0
100
AcDbLine
 62
7
  6
CONTINUOUS
 10
2.0338463983
 20
5.0380266265
 11
2.0338463983
 21
5.4340266265
  0
LINE
  5
227
100
AcDbEntity
  8
0
100
AcDbLine
 62
7
  6
CONTINUOUS
 10
2.040630264
 20
5.0497766265
 11
2.040630264
 21
5.4222766265
  0
LINE
  5
228
100
AcDbEntity
  8
0
100
AcDbLine
 62
7
  6
CONTINUOUS
 10
2.0470109717
 20
5.0387249165
 11
2.0470109717
 21
5.4333283365
  0
LINE
  5
229
100
AcDbEntity
  8
0
100
AcDbLine
 62
7
  6
CONTINUOUS
 10
2.040630264
 20
5.4222766265
 11
2.0470109717
 21
5.4333283365
  0
LINE
  5
22A
100
AcDbEntity
  8
0
100
AcDbLine
 62
7
  6
CONTINUOUS
 10
2.0338463983
 20
5.0380266265
 11
2.040630264
 21
5.0497766265
  0
LINE
  5
22B
100
AcDbEntity
  8
ALL_FEATURES
100
AcDbLine
 62
7
  6
CONTINUOUS
 10
2.989630264
 20
6.3788391265
 11
2.989630264
 21
6.3030286057
  0
LINE
  5
22C
100
AcDbEntity
  8
0
100
AcDbLine
 62
7
  6
CONTINUOUS
 10
2.040630264
 20
5.0497766265
 11
2.0470109717
 21
5.0387249165
  0
LINE
  5
22D
100
AcDbEntity
  8
0
100
AcDbLine
 62
7
  6
CONTINUOUS
 10
2.0338463983
 20
5.4340266265
 11
2.040630264
 21
5.4222766265
  0
LINE
  5
22E
100
AcDbEntity
  8
0
100
AcDbLine
 62
7
  6
CONTINUOUS
 10
3.251380264
 20
5.1032766265
 11
3.251380264
 21
5.3687766265
  0
LINE
  5
22F
100
AcDbEntity
  8
0
100
AcDbLine
 62
7
  6
CONTINUOUS
 10
3.298380264
 20
5.1032766265
 11
3.298380264
 21
5.3687766265
  0
LINE
  5
230
100
AcDbEntity
  8
0
100
AcDbLine
 62
7
  6
CONTINUOUS
 10
3.329880264
 20
5.1447766265
 11
3.329880264
 21
5.3272766265
  0
LINE
  5
231
100
AcDbEntity
  8
ALL_ASSEMBLY_MEMBERS
100
AcDbLine
 62
7
  6
CONTINUOUS
 10
3.338380264
 20
5.0800266265
 11
3.338380264
 21
5.1397766265
  0
LINE
  5
232
100
AcDbEntity
  8
ALL_ASSEMBLY_MEMBERS
100
AcDbLine
 62
7
  6
CONTINUOUS
 10
3.338380264
 20
5.3322766265
 11
3.338380264
 21
5.3925266265
  0
LINE
  5
233
100
AcDbEntity
  8
ALL_ASSEMBLY_MEMBERS
100
AcDbLine
 62
7
  6
CONTINUOUS
 10
3.3383865126
 20
5.1397925287
 11
3.338380264
 21
5.1397766265
  0
LINE
  5
234
100
AcDbEntity
  8
ALL_FEATURES
100
AcDbLine
 62
7
  6
CONTINUOUS
 10
4.089880264
 20
6.2179550631
 11
4.1771379114
 21
6.3030360624
  0
LINE
  5
235
100
AcDbEntity
  8
ALL_FEATURES
100
AcDbLine
 62
7
  6
CONTINUOUS
 10
3.368380264
 20
5.5553391265
 11
3.368380264
 21
5.6153391265
  0
LINE
  5
236
100
AcDbEntity
  8
ALL_ASSEMBLY_MEMBERS
100
AcDbLine
 62
7
  6
CONTINUOUS
 10
3.427130264
 20
5.3925266265
 11
3.427130264
 21
5.5475266265
  0
LINE
  5
237
100
AcDbEntity
  8
ALL_FEATURES
100
AcDbLine
 62
7
  6
CONTINUOUS
 10
3.583380264
 20
5.6153391265
 11
3.583380264
 21
6.2254655052
  0
LWPOLYLINE
  5
238
100
AcDbEntity
  8
ALL_FEATURES
100
AcDbPolyline
 62
7
  6
CONTINUOUS
 90
3
 70
0
 10
3.5833814237
 20
5.8332421484
 10
3.583381282
 20
5.8546437476
 10
3.583380264
 20
5.8759297821
  0
LINE
  5
239
100
AcDbEntity
  8
ALL_FEATURES
100
AcDbLine
 62
7
  6
CONTINUOUS
 10
3.5833807133
 20
5.9798714479
 11
3.583380264
 21
6.0000206816
  0
LWPOLYLINE
  5
23A
100
AcDbEntity
  8
ALL_FEATURES
100
AcDbPolyline
 62
7
  6
CONTINUOUS
 90
3
 70
0
 10
3.5833813848
 20
6.0967991381
 10
3.583380264
 20
6.1152135918
 10
3.5833793414
 20
6.1332934147
  0
LWPOLYLINE
  5
23B
100
AcDbEntity
  8
ALL_FEATURES
100
AcDbPolyline
 62
7
  6
CONTINUOUS
 90
3
 70
0
 10
3.5833818925
 20
5.91809538
 10
3.583380264
 20
5.938911479
 10
3.5833791371
 20
5.9595042191
  0
LWPOLYLINE
  5
23C
100
AcDbEntity
  8
ALL_FEATURES
100
AcDbPolyline
 62
7
  6
CONTINUOUS
 90
3
 70
0
 10
3.5833822662
 20
6.0396190654
 10
3.583380264
 20
6.0590004009
 10
3.5833788531
 20
6.0780620249
  0
LWPOLYLINE
  5
23D
100
AcDbEntity
  8
ALL_FEATURES
100
AcDbPolyline
 62
7
  6
CONTINUOUS
 90
5
 70
0
 10
3.5833821633
 20
6.1510142578
 10
3.583380264
 20
6.1683584534
 10
3.5833739335
 20
6.1853083478
 10
3.5833722272
 20
6.2018463354
 10
3.583380264
 20
6.2179550631
  0
LINE
  5
23E
100
AcDbEntity
  8
ALL_FEATURES
100
AcDbLine
 62
7
  6
CONTINUOUS
 10
3.833380264
 20
5.6153391265
 11
3.8711352541
 21
5.8117432016
  0
LINE
  5
23F
100
AcDbEntity
  8
ALL_ASSEMBLY_MEMBERS
100
AcDbLine
 62
7
  6
CONTINUOUS
 10
3.7075105719
 20
5.4900266265
 11
3.7017370692
 21
5.4700266265
  0
LINE
  5
240
100
AcDbEntity
  8
ALL_ASSEMBLY_MEMBERS
100
AcDbLine
 62
7
  6
CONTINUOUS
 10
3.7190575772
 20
5.4500266265
 11
3.7248310799
 21
5.4700266265
  0
LINE
  5
241
100
AcDbEntity
  8
ALL_ASSEMBLY_MEMBERS
100
AcDbLine
 62
7
  6
CONTINUOUS
 10
3.7222330037
 20
5.4447152325
 11
3.7211225086
 21
5.4431447553
  0
LINE
  5
242
100
AcDbEntity
  8
ALL_ASSEMBLY_MEMBERS
100
AcDbLine
 62
7
  6
CONTINUOUS
 10
3.7210520108
 20
5.4432022762
 11
3.7210333437
 21
5.4431793978
  0
LINE
  5
243
100
AcDbEntity
  8
ALL_ASSEMBLY_MEMBERS
100
AcDbLine
 62
7
  6
CONTINUOUS
 10
3.7210523681
 20
5.4432010424
 11
3.7210334211
 21
5.4431791298
  0
LINE
  5
244
100
AcDbEntity
  8
0
100
AcDbLine
 62
7
  6
CONTINUOUS
 10
5.430368323
 20
2.4188279661
 11
5.4302307948
 21
2.4188279661
  0
LINE
  5
245
100
AcDbEntity
  8
ALL_FEATURES
100
AcDbLine
 62
7
  6
CONTINUOUS
 10
3.333380264
 20
5.6153391265
 11
3.2956252739
 21
5.8117432016
  0
LINE
  5
246
100
AcDbEntity
  8
ALL_ASSEMBLY_MEMBERS
100
AcDbLine
 62
7
  6
CONTINUOUS
 10
3.739630264
 20
5.3925266265
 11
3.739630264
 21
5.5475266265
  0
LINE
  5
247
100
AcDbEntity
  8
ALL_FEATURES
100
AcDbLine
 62
7
  6
CONTINUOUS
 10
3.798380264
 20
5.5553391265
 11
3.798380264
 21
5.6153391265
  0
LINE
  5
248
100
AcDbEntity
  8
ALL_ASSEMBLY_MEMBERS
100
AcDbLine
 62
7
  6
CONTINUOUS
 10
3.828380264
 20
5.0800266265
 11
3.828380264
 21
5.3925266265
  0
LINE
  5
249
100
AcDbEntity
  8
ALL_ASSEMBLY_MEMBERS
100
AcDbLine
 62
7
  6
CONTINUOUS
 10
3.338380264
 20
5.3322766265
 11
3.3383865088
 21
5.3322607953
  0
LINE
  5
24A
100
AcDbEntity
  8
ALL_FEATURES
100
AcDbLine
 62
7
  6
CONTINUOUS
 10
4.177130264
 20
6.3788391265
 11
4.177130264
 21
6.3030286057
  0
LINE
  5
24B
100
AcDbEntity
  8
ALL_ASSEMBLY_MEMBERS
100
AcDbLine
 62
7
  6
CONTINUOUS
 10
3.7017370692
 20
5.4700266265
 11
3.7075105719
 21
5.4500266265
  0
LINE
  5
24C
100
AcDbEntity
  8
ALL_ASSEMBLY_MEMBERS
100
AcDbLine
 62
7
  6
CONTINUOUS
 10
3.7248310799
 20
5.4700266265
 11
3.7190575772
 21
5.4900266265
  0
LINE
  5
24D
100
AcDbEntity
  8
0
100
AcDbLine
 62
7
  6
CONTINUOUS
 10
5.8405603381
 20
3.0413391265
 11
5.2632101898
 21
3.0413391265
  0
LINE
  5
24E
100
AcDbEntity
  8
ALL_ASSEMBLY_MEMBERS
100
AcDbLine
 62
7
  6
CONTINUOUS
 10
3.7222330037
 20
5.4953380205
 11
3.7171424763
 21
5.5025371134
  0
LINE
  5
24F
100
AcDbEntity
  8
0
100
AcDbLine
 62
7
  6
CONTINUOUS
 10
4.9581353883
 20
6.3788391265
 11
4.9581353883
 21
6.0524056636
  0
LINE
  5
250
100
AcDbEntity
  8
0
100
AcDbLine
 62
7
  6
CONTINUOUS
 10
5.310624071
 20
2.6019474293
 11
5.3107607235
 21
2.6006649943
  0
LINE
  5
251
100
AcDbEntity
  8
ALL_FEATURES
100
AcDbLine
 62
7
  6
CONTINUOUS
 10
3.076880264
 20
6.2179550631
 11
2.9896226165
 21
6.3030360624
  0
LWPOLYLINE
  5
252
100
AcDbEntity
  8
0
100
AcDbPolyline
 62
7
  6
CONTINUOUS
 90
7
 70
0
 10
5.3003212902
 20
2.6815020438
 10
5.3008929529
 20
2.6777390106
 10
5.3023523285
 20
2.6678214918
 10
5.3036770427
 20
2.6584136032
 10
5.3048737963
 20
2.6495646039
 10
5.3059504248
 20
2.6413071168
 10
5.306912001
 20
2.6336858657
  0
LINE
  5
253
100
AcDbEntity
  8
0
100
AcDbLine
 62
7
  6
CONTINUOUS
 10
5.306912001
 20
2.6336858657
 11
5.3077606046
 21
2.6267619441
  0
LINE
  5
254
100
AcDbEntity
  8
0
100
AcDbLine
 62
7
  6
CONTINUOUS
 10
5.3077606046
 20
2.6267619441
 11
5.3084982563
 21
2.6205898338
  0
LWPOLYLINE
  5
255
100
AcDbEntity
  8
0
100
AcDbPolyline
 62
7
  6
CONTINUOUS
 90
6
 70
0
 10
5.3084982563
 20
2.6205898338
 10
5.3091203266
 20
2.6152727927
 10
5.3096334613
 20
2.6108086095
 10
5.310054518
 20
2.6070884468
 10
5.3103874843
 20
2.604103361
 10
5.310624071
 20
2.6019474293
  0
LINE
  5
256
100
AcDbEntity
  8
0
100
AcDbLine
 62
7
  6
CONTINUOUS
 10
5.3107607235
 20
2.6006649943
 11
5.3107513142
 21
2.6007455689
  0
LINE
  5
257
100
AcDbEntity
  8
0
100
AcDbLine
 62
7
  6
CONTINUOUS
 10
6.1456351396
 20
6.3788391265
 11
6.1456351396
 21
6.0524056636
  0
LWPOLYLINE
  5
258
100
AcDbEntity
  8
0
100
AcDbPolyline
 62
7
  6
CONTINUOUS
 90
3
 70
0
 10
5.7941555487
 20
2.6146311624
 10
5.794853348
 20
2.6204156955
 10
5.7956491936
 20
2.6269020463
  0
LINE
  5
259
100
AcDbEntity
  8
0
100
AcDbLine
 62
7
  6
CONTINUOUS
 10
5.7956491936
 20
2.6269020463
 11
5.7965521501
 21
2.6341013216
  0
LWPOLYLINE
  5
25A
100
AcDbEntity
  8
0
100
AcDbPolyline
 62
7
  6
CONTINUOUS
 90
7
 70
0
 10
5.7965521501
 20
2.6341013216
 10
5.7975693725
 20
2.6419977279
 10
5.7987047483
 20
2.6505400903
 10
5.7999619233
 20
2.6596683903
 10
5.8013490525
 20
2.6693481695
 10
5.8028728773
 20
2.6795267168
 10
5.8033128078
 20
2.6823799196
  0
LWPOLYLINE
  5
25B
100
AcDbEntity
  8
0
100
AcDbPolyline
 62
7
  6
CONTINUOUS
 90
4
 70
0
 10
5.7924759479
 20
2.6006652299
 10
5.7925496048
 20
2.6011957535
 10
5.7927573226
 20
2.602893843
 10
5.7941555487
 20
2.6146311624
  0
LWPOLYLINE
  5
25C
100
AcDbEntity
  8
0
100
AcDbPolyline
 62
7
  6
CONTINUOUS
 90
3
 70
0
 10
5.7878941979
 20
2.5742497961
 10
5.7905988632
 20
2.5876729257
 10
5.7924759726
 20
2.6006654408
  0
LINE
  5
25D
100
AcDbEntity
  8
ALL_FEATURES
100
AcDbLine
 62
7
  6
CONTINUOUS
 10
8.026885264
 20
6.2179550631
 11
8.1141429114
 21
6.3030360624
  0
LINE
  5
25E
100
AcDbEntity
  8
ALL_ASSEMBLY_MEMBERS
100
AcDbLine
 62
7
  6
CONTINUOUS
 10
7.3815325242
 20
5.4953380205
 11
7.3855025942
 21
5.5009525473
  0
LINE
  5
25F
100
AcDbEntity
  8
0
100
AcDbLine
 62
7
  6
CONTINUOUS
 10
2.0470109717
 20
5.0387249165
 11
3.251380264
 21
5.1032766265
  0
LINE
  5
260
100
AcDbEntity
  8
0
100
AcDbLine
 62
7
  6
CONTINUOUS
 10
9.0567545562
 20
5.4333283365
 11
7.852385264
 21
5.3687766265
  0
LINE
  5
261
100
AcDbEntity
  8
0
100
AcDbLine
 62
7
  6
CONTINUOUS
 10
9.085385264
 20
5.0380266265
 11
9.0699191296
 21
5.0380266265
  0
LINE
  5
262
100
AcDbEntity
  8
0
100
AcDbLine
 62
7
  6
CONTINUOUS
 10
2.018380264
 20
5.0380266265
 11
2.0338463983
 21
5.0380266265
  0
LINE
  5
263
100
AcDbEntity
  8
ALL_ASSEMBLY_MEMBERS
100
AcDbLine
 62
7
  6
CONTINUOUS
 10
3.828380264
 20
5.0800266265
 11
3.338380264
 21
5.0800266265
  0
LINE
  5
264
100
AcDbEntity
  8
ALL_ASSEMBLY_MEMBERS
100
AcDbLine
 62
7
  6
CONTINUOUS
 10
7.275385264
 20
5.0800266265
 11
7.765385264
 21
5.0800266265
  0
LINE
  5
265
100
AcDbEntity
  8
0
100
AcDbLine
 62
7
  6
CONTINUOUS
 10
7.773885264
 20
5.1447766265
 11
7.7634645851
 21
5.1447766265
  0
LINE
  5
266
100
AcDbEntity
  8
0
100
AcDbLine
 62
7
  6
CONTINUOUS
 10
3.329880264
 20
5.1447766265
 11
3.340300943
 21
5.1447766265
  0
LINE
  5
267
100
AcDbEntity
  8
0
100
AcDbLine
 62
7
  6
CONTINUOUS
 10
9.0567545562
 20
5.0387249165
 11
7.852385264
 21
5.1032766265
  0
LINE
  5
268
100
AcDbEntity
  8
0
100
AcDbLine
 62
7
  6
CONTINUOUS
 10
2.0470109717
 20
5.4333283365
 11
3.251380264
 21
5.3687766265
  0
LINE
  5
269
100
AcDbEntity
  8
0
100
AcDbLine
 62
7
  6
CONTINUOUS
 10
7.773885264
 20
5.3272766265
 11
7.763464585
 21
5.3272766265
  0
LINE
  5
26A
100
AcDbEntity
  8
0
100
AcDbLine
 62
7
  6
CONTINUOUS
 10
3.329880264
 20
5.3272766265
 11
3.3403009429
 21
5.3272766265
  0
LINE
  5
26B
100
AcDbEntity
  8
ALL_ASSEMBLY_MEMBERS
100
AcDbLine
 62
7
  6
CONTINUOUS
 10
3.828380264
 20
5.3925266265
 11
3.338380264
 21
5.3925266265
  0
LINE
  5
26C
100
AcDbEntity
  8
ALL_ASSEMBLY_MEMBERS
100
AcDbLine
 62
7
  6
CONTINUOUS
 10
7.275385264
 20
5.3925266265
 11
7.765385264
 21
5.3925266265
  0
LINE
  5
26D
100
AcDbEntity
  8
0
100
AcDbLine
 62
7
  6
CONTINUOUS
 10
9.085385264
 20
5.4340266265
 11
9.0699191296
 21
5.4340266265
  0
LINE
  5
26E
100
AcDbEntity
  8
0
100
AcDbLine
 62
7
  6
CONTINUOUS
 10
2.018380264
 20
5.4340266265
 11
2.0338463983
 21
5.4340266265
  0
LINE
  5
26F
100
AcDbEntity
  8
ALL_ASSEMBLY_MEMBERS
100
AcDbLine
 62
7
  6
CONTINUOUS
 10
7.3966489328
 20
5.4374816266
 11
7.3970437574
 21
5.4374816266
  0
LINE
  5
270
100
AcDbEntity
  8
ALL_ASSEMBLY_MEMBERS
100
AcDbLine
 62
7
  6
CONTINUOUS
 10
3.7075105719
 20
5.4500266265
 11
3.7190575772
 21
5.4500266265
  0
LINE
  5
271
100
AcDbEntity
  8
ALL_ASSEMBLY_MEMBERS
100
AcDbLine
 62
7
  6
CONTINUOUS
 10
7.3847079507
 20
5.4500266265
 11
7.3962549561
 21
5.4500266265
  0
LINE
  5
272
100
AcDbEntity
  8
ALL_ASSEMBLY_MEMBERS
100
AcDbLine
 62
7
  6
CONTINUOUS
 10
3.7248310799
 20
5.4700266265
 11
3.7017370692
 21
5.4700266265
  0
LINE
  5
273
100
AcDbEntity
  8
ALL_ASSEMBLY_MEMBERS
100
AcDbLine
 62
7
  6
CONTINUOUS
 10
7.378934448
 20
5.4700266265
 11
7.4020284588
 21
5.4700266265
  0
LINE
  5
274
100
AcDbEntity
  8
ALL_ASSEMBLY_MEMBERS
100
AcDbLine
 62
7
  6
CONTINUOUS
 10
7.3962549561
 20
5.4900266265
 11
7.3847079507
 21
5.4900266265
  0
LINE
  5
275
100
AcDbEntity
  8
ALL_ASSEMBLY_MEMBERS
100
AcDbLine
 62
7
  6
CONTINUOUS
 10
3.7190575772
 20
5.4900266265
 11
3.7075105719
 21
5.4900266265
  0
LINE
  5
276
100
AcDbEntity
  8
ALL_FEATURES
100
AcDbLine
 62
7
  6
CONTINUOUS
 10
6.926635264
 20
6.3788391265
 11
6.926635264
 21
6.3030286057
  0
LINE
  5
277
100
AcDbEntity
  8
ALL_ASSEMBLY_MEMBERS
100
AcDbLine
 62
7
  6
CONTINUOUS
 10
3.739630264
 20
5.5475266265
 11
3.427130264
 21
5.5475266265
  0
LINE
  5
278
100
AcDbEntity
  8
ALL_ASSEMBLY_MEMBERS
100
AcDbLine
 62
7
  6
CONTINUOUS
 10
7.364135264
 20
5.5475266265
 11
7.676635264
 21
5.5475266265
  0
LINE
  5
279
100
AcDbEntity
  8
ALL_FEATURES
100
AcDbLine
 62
7
  6
CONTINUOUS
 10
3.3683861242
 20
5.5553391265
 11
3.7983744037
 21
5.5553391265
  0
LINE
  5
27A
100
AcDbEntity
  8
ALL_FEATURES
100
AcDbLine
 62
7
  6
CONTINUOUS
 10
7.3053911242
 20
5.5553391265
 11
7.7353794037
 21
5.5553391265
  0
LINE
  5
27B
100
AcDbEntity
  8
ALL_FEATURES
100
AcDbLine
 62
7
  6
CONTINUOUS
 10
7.770385264
 20
5.6153391265
 11
7.270385264
 21
5.6153391265
  0
LINE
  5
27C
100
AcDbEntity
  8
ALL_FEATURES
100
AcDbLine
 62
7
  6
CONTINUOUS
 10
3.833380264
 20
5.6153391265
 11
3.333380264
 21
5.6153391265
  0
LINE
  5
27D
100
AcDbEntity
  8
0
100
AcDbLine
 62
7
  6
CONTINUOUS
 10
5.9560303678
 20
5.6288391265
 11
5.1477401602
 21
5.6288391265
  0
LINE
  5
27E
100
AcDbEntity
  8
ALL_FEATURES
100
AcDbLine
 62
7
  6
CONTINUOUS
 10
7.8081402541
 20
5.8117432016
 11
7.2326302739
 21
5.8117432016
  0
LINE
  5
27F
100
AcDbEntity
  8
ALL_FEATURES
100
AcDbLine
 62
7
  6
CONTINUOUS
 10
3.8711352541
 20
5.8117432016
 11
3.2956252739
 21
5.8117432016
  0
LINE
  5
280
100
AcDbEntity
  8
ALL_ASSEMBLY_MEMBERS
100
AcDbLine
 62
7
  6
CONTINUOUS
 10
7.3847079507
 20
5.4900266265
 11
7.378934448
 21
5.4700266265
  0
LINE
  5
281
100
AcDbEntity
  8
ALL_ASSEMBLY_MEMBERS
100
AcDbLine
 62
7
  6
CONTINUOUS
 10
7.3962549561
 20
5.4500266265
 11
7.4020284588
 21
5.4700266265
  0
LINE
  5
282
100
AcDbEntity
  8
ALL_ASSEMBLY_MEMBERS
100
AcDbLine
 62
7
  6
CONTINUOUS
 10
7.7653790191
 20
5.3322607956
 11
7.765385264
 21
5.3322766265
  0
LWPOLYLINE
  5
283
100
AcDbEntity
  8
0
100
AcDbPolyline
 62
7
  6
CONTINUOUS
 90
13
 70
0
 10
5.6802880888
 20
2.4232904216
 10
5.6933291302
 20
2.4320544964
 10
5.7059532842
 20
2.4417911064
 10
5.7181423023
 20
2.4525555915
 10
5.7297394028
 20
2.4642816701
 10
5.7404900552
 20
2.4767417944
 10
5.7503513598
 20
2.4898734564
 10
5.7592825969
 20
2.5036124726
 10
5.7671274393
 20
2.51765424
 10
5.7739027897
 20
2.5319068938
 10
5.7796340576
 20
2.5462857609
 10
5.7842775378
 20
2.5604572881
 10
5.7878941979
 20
2.5742497961
  0
LINE
  5
284
100
AcDbEntity
  8
ALL_ASSEMBLY_MEMBERS
100
AcDbLine
 62
7
  6
CONTINUOUS
 10
7.275385264
 20
5.0800266265
 11
7.275385264
 21
5.3925266265
  0
LINE
  5
285
100
AcDbEntity
  8
ALL_FEATURES
100
AcDbLine
 62
7
  6
CONTINUOUS
 10
7.305385264
 20
5.5553391265
 11
7.305385264
 21
5.6153391265
  0
LINE
  5
286
100
AcDbEntity
  8
ALL_ASSEMBLY_MEMBERS
100
AcDbLine
 62
7
  6
CONTINUOUS
 10
7.364135264
 20
5.3925266265
 11
7.364135264
 21
5.5475266265
  0
LINE
  5
287
100
AcDbEntity
  8
ALL_FEATURES
100
AcDbLine
 62
7
  6
CONTINUOUS
 10
7.520385264
 20
5.6153391265
 11
7.520385264
 21
6.2254655052
  0
LWPOLYLINE
  5
288
100
AcDbEntity
  8
ALL_FEATURES
100
AcDbPolyline
 62
7
  6
CONTINUOUS
 90
3
 70
0
 10
7.5203864237
 20
5.8332421484
 10
7.520386282
 20
5.8546437476
 10
7.520385264
 20
5.8759297821
  0
LINE
  5
289
100
AcDbEntity
  8
ALL_FEATURES
100
AcDbLine
 62
7
  6
CONTINUOUS
 10
7.5203857133
 20
5.9798714479
 11
7.520385264
 21
6.0000206816
  0
LWPOLYLINE
  5
28A
100
AcDbEntity
  8
ALL_FEATURES
100
AcDbPolyline
 62
7
  6
CONTINUOUS
 90
3
 70
0
 10
7.5203863848
 20
6.0967991381
 10
7.520385264
 20
6.1152135918
 10
7.5203843414
 20
6.1332934147
  0
LWPOLYLINE
  5
28B
100
AcDbEntity
  8
ALL_FEATURES
100
AcDbPolyline
 62
7
  6
CONTINUOUS
 90
3
 70
0
 10
7.5203868925
 20
5.91809538
 10
7.520385264
 20
5.938911479
 10
7.5203841371
 20
5.9595042191
  0
LWPOLYLINE
  5
28C
100
AcDbEntity
  8
ALL_FEATURES
100
AcDbPolyline
 62
7
  6
CONTINUOUS
 90
3
 70
0
 10
7.5203872662
 20
6.0396190654
 10
7.520385264
 20
6.0590004009
 10
7.5203838531
 20
6.0780620249
  0
LWPOLYLINE
  5
28D
100
AcDbEntity
  8
ALL_FEATURES
100
AcDbPolyline
 62
7
  6
CONTINUOUS
 90
5
 70
0
 10
7.5203871633
 20
6.1510142578
 10
7.520385264
 20
6.1683584534
 10
7.5203789335
 20
6.1853083478
 10
7.5203772272
 20
6.2018463354
 10
7.520385264
 20
6.2179550631
  0
LINE
  5
28E
100
AcDbEntity
  8
ALL_FEATURES
100
AcDbLine
 62
7
  6
CONTINUOUS
 10
7.770385264
 20
5.6153391265
 11
7.8081402541
 21
5.8117432016
  0
LINE
  5
28F
100
AcDbEntity
  8
ALL_ASSEMBLY_MEMBERS
100
AcDbLine
 62
7
  6
CONTINUOUS
 10
7.7653790154
 20
5.3322607243
 11
7.765385264
 21
5.3322766265
  0
LINE
  5
290
100
AcDbEntity
  8
0
100
AcDbLine
 62
7
  6
CONTINUOUS
 10
5.6728684455
 20
2.4188280167
 11
5.6802880888
 21
2.4232904216
  0
LINE
  5
291
100
AcDbEntity
  8
ALL_FEATURES
100
AcDbLine
 62
7
  6
CONTINUOUS
 10
8.026885264
 20
6.2179550631
 11
7.013885264
 21
6.2179550631
  0
LINE
  5
292
100
AcDbEntity
  8
ALL_FEATURES
100
AcDbLine
 62
7
  6
CONTINUOUS
 10
4.089880264
 20
6.2179550631
 11
3.076880264
 21
6.2179550631
  0
LINE
  5
293
100
AcDbEntity
  8
ALL_FEATURES
100
AcDbLine
 62
7
  6
CONTINUOUS
 10
7.270385264
 20
5.6153391265
 11
7.2326302739
 21
5.8117432016
  0
LINE
  5
294
100
AcDbEntity
  8
ALL_ASSEMBLY_MEMBERS
100
AcDbLine
 62
7
  6
CONTINUOUS
 10
7.676635264
 20
5.3925266265
 11
7.676635264
 21
5.5475266265
  0
LINE
  5
295
100
AcDbEntity
  8
ALL_FEATURES
100
AcDbLine
 62
7
  6
CONTINUOUS
 10
7.735385264
 20
5.5553391265
 11
7.735385264
 21
5.6153391265
  0
LINE
  5
296
100
AcDbEntity
  8
ALL_ASSEMBLY_MEMBERS
100
AcDbLine
 62
7
  6
CONTINUOUS
 10
7.765385264
 20
5.0800266265
 11
7.765385264
 21
5.1397766265
  0
LINE
  5
297
100
AcDbEntity
  8
ALL_ASSEMBLY_MEMBERS
100
AcDbLine
 62
7
  6
CONTINUOUS
 10
7.765385264
 20
5.3322766265
 11
7.765385264
 21
5.3925266265
  0
LINE
  5
298
100
AcDbEntity
  8
0
100
AcDbLine
 62
7
  6
CONTINUOUS
 10
7.773885264
 20
5.1447766265
 11
7.773885264
 21
5.3272766265
  0
LINE
  5
299
100
AcDbEntity
  8
0
100
AcDbLine
 62
7
  6
CONTINUOUS
 10
7.805385264
 20
5.1032766265
 11
7.805385264
 21
5.3687766265
  0
LINE
  5
29A
100
AcDbEntity
  8
0
100
AcDbLine
 62
7
  6
CONTINUOUS
 10
6.1456351396
 20
6.3788391265
 11
4.9581353883
 21
6.3788391265
  0
LINE
  5
29B
100
AcDbEntity
  8
ALL_FEATURES
100
AcDbLine
 62
7
  6
CONTINUOUS
 10
2.9896354652
 20
6.3788391265
 11
4.177130264
 21
6.3788391265
  0
LINE
  5
29C
100
AcDbEntity
  8
ALL_FEATURES
100
AcDbLine
 62
7
  6
CONTINUOUS
 10
6.926635264
 20
6.3788391265
 11
8.1141300627
 21
6.3788391265
  0
LINE
  5
29D
100
AcDbEntity
  8
ALL_ASSEMBLY_MEMBERS
100
AcDbLine
 62
7
  6
CONTINUOUS
 10
7.3815325242
 20
5.4447152325
 11
7.3837634766
 21
5.4415601894
  0
LINE
  5
29E
100
AcDbEntity
  8
ALL_ASSEMBLY_MEMBERS
100
AcDbLine
 62
7
  6
CONTINUOUS
 10
7.378934448
 20
5.4700266265
 11
7.3847079507
 21
5.4500266265
  0
LINE
  5
29F
100
AcDbEntity
  8
ALL_ASSEMBLY_MEMBERS
100
AcDbLine
 62
7
  6
CONTINUOUS
 10
7.4020284588
 20
5.4700266265
 11
7.3962549561
 21
5.4900266265
  0
LINE
  5
2A0
100
AcDbEntity
  8
0
100
AcDbLine
 62
7
  6
CONTINUOUS
 10
7.852385264
 20
5.1032766265
 11
7.852385264
 21
5.3687766265
  0
LINE
  5
2A1
100
AcDbEntity
  8
0
100
AcDbLine
 62
7
  6
CONTINUOUS
 10
9.0699191296
 20
5.4340266265
 11
9.063135264
 21
5.4222766265
  0
LINE
  5
2A2
100
AcDbEntity
  8
ALL_FEATURES
100
AcDbLine
 62
7
  6
CONTINUOUS
 10
7.013885264
 20
6.2179550631
 11
6.9266276165
 21
6.3030360624
  0
LINE
  5
2A3
100
AcDbEntity
  8
ALL_ASSEMBLY_MEMBERS
100
AcDbLine
 62
7
  6
CONTINUOUS
 10
7.765385264
 20
5.1397766265
 11
7.7653790191
 21
5.1397924578
  0
LINE
  5
2A4
100
AcDbEntity
  8
ALL_FEATURES
100
AcDbLine
 62
7
  6
CONTINUOUS
 10
8.114135264
 20
6.3788391265
 11
8.114135264
 21
6.3030286057
  0
LINE
  5
2A5
100
AcDbEntity
  8
0
100
AcDbLine
 62
7
  6
CONTINUOUS
 10
9.063135264
 20
5.0497766265
 11
9.0567545562
 21
5.0387249165
  0
LINE
  5
2A6
100
AcDbEntity
  8
0
100
AcDbLine
 62
7
  6
CONTINUOUS
 10
9.0699191296
 20
5.0380266265
 11
9.063135264
 21
5.0497766265
  0
LINE
  5
2A7
100
AcDbEntity
  8
0
100
AcDbLine
 62
7
  6
CONTINUOUS
 10
9.0567545562
 20
5.0387249165
 11
9.0567545562
 21
5.4333283365
  0
LINE
  5
2A8
100
AcDbEntity
  8
0
100
AcDbLine
 62
7
  6
CONTINUOUS
 10
9.063135264
 20
5.0497766265
 11
9.063135264
 21
5.4222766265
  0
LINE
  5
2A9
100
AcDbEntity
  8
0
100
AcDbLine
 62
7
  6
CONTINUOUS
 10
9.0699191296
 20
5.0380266265
 11
9.0699191296
 21
5.4340266265
  0
LINE
  5
2AA
100
AcDbEntity
  8
0
100
AcDbLine
 62
7
  6
CONTINUOUS
 10
9.085385264
 20
5.0380266265
 11
9.085385264
 21
5.4340266265
  0
LINE
  5
2AB
100
AcDbEntity
  8
0
100
AcDbLine
 62
7
  6
CONTINUOUS
 10
9.116885264
 20
5.0695266265
 11
9.116885264
 21
5.4025266265
  0
LINE
  5
2AC
100
AcDbEntity
  8
0
100
AcDbLine
 62
7
  6
CONTINUOUS
 10
9.1419848656
 20
5.1439874761
 11
9.1419848656
 21
5.328065777
  0
LINE
  5
2AD
100
AcDbEntity
  8
0
100
AcDbLine
 62
7
  6
CONTINUOUS
 10
9.063135264
 20
5.4222766265
 11
9.0567545562
 21
5.4333283365
  0
ARC
  5
2AE
100
AcDbEntity
  8
0
100
AcDbCircle
 62
7
  6
CONTINUOUS
 10
5.5514807218
 20
2.6290478542
 40
0.2427084093
100
AcDbArc
 50
268.4156957555
 51
270.0160796606
  0
ARC
  5
2AF
100
AcDbEntity
  8
0
100
AcDbCircle
 62
7
  6
CONTINUOUS
 10
5.5515736483
 20
2.6289020858
 40
0.2425768364
100
AcDbArc
 50
300.0016925321
 51
304.2022962904
  0
ARC
  5
2B0
100
AcDbEntity
  8
0
100
AcDbCircle
 62
7
  6
CONTINUOUS
 10
5.5514809417
 20
2.6288391784
 40
0.242499976
100
AcDbArc
 50
188.1730983824
 51
239.9999760771
  0
ARC
  5
2B1
100
AcDbEntity
  8
0
100
AcDbCircle
 62
7
  6
CONTINUOUS
 10
5.5516183003
 20
2.6288389582
 40
0.2424997108
100
AcDbArc
 50
186.6717709931
 51
299.9997252558
  0
ARC
  5
2B2
100
AcDbEntity
  8
0
100
AcDbCircle
 62
7
  6
CONTINUOUS
 10
5.5516194828
 20
2.6288386615
 40
0.2424986165
100
AcDbArc
 50
304.2017632625
 51
350.1097840625
  0
ARC
  5
2B3
100
AcDbEntity
  8
0
100
AcDbCircle
 62
7
  6
CONTINUOUS
 10
5.5517935443
 20
2.6288124591
 40
0.2423226413
100
AcDbArc
 50
350.1088184344
 51
353.3297595566
  0
ARC
  5
2B4
100
AcDbEntity
  8
ALL_FEATURES
100
AcDbCircle
 62
7
  6
CONTINUOUS
 10
4.6277819535
 20
5.6662921022
 40
0.7705
100
AcDbArc
 50
134.2763891045
 51
169.1186996529
  0
ARC
  5
2B5
100
AcDbEntity
  8
ALL_FEATURES
100
AcDbCircle
 62
7
  6
CONTINUOUS
 10
2.5389785745
 20
5.6662921022
 40
0.7705
100
AcDbArc
 50
10.8813003471
 51
45.7236108955
  0
ARC
  5
2B6
100
AcDbEntity
  8
ALL_ASSEMBLY_MEMBERS
100
AcDbCircle
 62
7
  6
CONTINUOUS
 10
3.583380264
 20
5.7888813366
 40
0.75
100
AcDbArc
 50
250.9334198993
 51
289.0665801007
  0
ARC
  5
2B7
100
AcDbEntity
  8
0
100
AcDbCircle
 62
7
  6
CONTINUOUS
 10
1.980880264
 20
5.2360266265
 40
0.094
100
AcDbArc
 50
101.7234029883
 51
258.2765970117
  0
ARC
  5
2B8
100
AcDbEntity
  8
ALL_ASSEMBLY_MEMBERS
100
AcDbCircle
 62
7
  6
CONTINUOUS
 10
3.7433296276
 20
5.4609800539
 40
0.0484772442
100
AcDbArc
 50
209.9920381745
 51
215.190692813
  0
ARC
  5
2B9
100
AcDbEntity
  8
ALL_ASSEMBLY_MEMBERS
100
AcDbCircle
 62
7
  6
CONTINUOUS
 10
3.7415542935
 20
5.4802639771
 40
0.0463401548
100
AcDbArc
 50
144.747517653
 51
147.6873118913
  0
ARC
  5
2BA
100
AcDbEntity
  8
0
100
AcDbCircle
 62
7
  6
CONTINUOUS
 10
1.955380264
 20
5.1131445692
 40
0.0315
100
AcDbArc
 50
0.0
 51
78.2765970117
  0
ARC
  5
2BB
100
AcDbEntity
  8
0
100
AcDbCircle
 62
7
  6
CONTINUOUS
 10
1.955380264
 20
5.3589086838
 40
0.0315
100
AcDbArc
 50
281.7234029883
 51
360.0
  0
ARC
  5
2BC
100
AcDbEntity
  8
0
100
AcDbCircle
 62
7
  6
CONTINUOUS
 10
2.018380264
 20
5.0695266265
 40
0.0315
100
AcDbArc
 50
180.0
 51
270.0
  0
ARC
  5
2BD
100
AcDbEntity
  8
0
100
AcDbCircle
 62
7
  6
CONTINUOUS
 10
2.018380264
 20
5.4025266265
 40
0.0315
100
AcDbArc
 50
90.0
 51
180.0
  0
ARC
  5
2BE
100
AcDbEntity
  8
0
100
AcDbCircle
 62
7
  6
CONTINUOUS
 10
3.329880264
 20
5.1132766265
 40
0.0315
100
AcDbArc
 50
90.0
 51
180.0
  0
ARC
  5
2BF
100
AcDbEntity
  8
0
100
AcDbCircle
 62
7
  6
CONTINUOUS
 10
3.329880264
 20
5.3587766265
 40
0.0315
100
AcDbArc
 50
180.0
 51
270.0
  0
ARC
  5
2C0
100
AcDbEntity
  8
0
100
AcDbCircle
 62
7
  6
CONTINUOUS
 10
3.274880264
 20
5.1032766265
 40
0.0235
100
AcDbArc
 50
180.0
 51
360.0
  0
ARC
  5
2C1
100
AcDbEntity
  8
0
100
AcDbCircle
 62
7
  6
CONTINUOUS
 10
3.274880264
 20
5.3687766265
 40
0.0235
100
AcDbArc
 50
0.0
 51
180.0
  0
ARC
  5
2C2
100
AcDbEntity
  8
ALL_ASSEMBLY_MEMBERS
100
AcDbCircle
 62
7
  6
CONTINUOUS
 10
3.7037588648
 20
5.4822776536
 40
0.0226244745
100
AcDbArc
 50
33.1317531745
 51
35.2585488323
  0
ARC
  5
2C3
100
AcDbEntity
  8
ALL_FEATURES
100
AcDbCircle
 62
7
  6
CONTINUOUS
 10
8.5647869535
 20
5.6662921022
 40
0.7705
100
AcDbArc
 50
134.2763891045
 51
169.1186996529
  0
ARC
  5
2C4
100
AcDbEntity
  8
ALL_FEATURES
100
AcDbCircle
 62
7
  6
CONTINUOUS
 10
6.4759835745
 20
5.6662921022
 40
0.7705
100
AcDbArc
 50
10.8813003471
 51
45.7236108955
  0
ARC
  5
2C5
100
AcDbEntity
  8
ALL_ASSEMBLY_MEMBERS
100
AcDbCircle
 62
7
  6
CONTINUOUS
 10
7.520385264
 20
5.7888813366
 40
0.75
100
AcDbArc
 50
250.9334198993
 51
289.0665801007
  0
ARC
  5
2C6
100
AcDbEntity
  8
0
100
AcDbCircle
 62
7
  6
CONTINUOUS
 10
9.122885264
 20
5.2360266265
 40
0.094
100
AcDbArc
 50
281.7234029883
 51
78.2765970117
  0
ARC
  5
2C7
100
AcDbEntity
  8
ALL_ASSEMBLY_MEMBERS
100
AcDbCircle
 62
7
  6
CONTINUOUS
 10
7.3604359003
 20
5.4609800539
 40
0.0484772442
100
AcDbArc
 50
324.809307187
 51
330.0079618261
  0
ARC
  5
2C8
100
AcDbEntity
  8
ALL_ASSEMBLY_MEMBERS
100
AcDbCircle
 62
7
  6
CONTINUOUS
 10
7.3615994951
 20
5.4798547225
 40
0.0470759288
100
AcDbArc
 50
32.3356668157
 51
35.2295036406
  0
ARC
  5
2C9
100
AcDbEntity
  8
0
100
AcDbCircle
 62
7
  6
CONTINUOUS
 10
9.148385264
 20
5.1131445692
 40
0.0315
100
AcDbArc
 50
101.7234029883
 51
180.0
  0
ARC
  5
2CA
100
AcDbEntity
  8
0
100
AcDbCircle
 62
7
  6
CONTINUOUS
 10
9.148385264
 20
5.3589086838
 40
0.0315
100
AcDbArc
 50
180.0
 51
258.2765970117
  0
ARC
  5
2CB
100
AcDbEntity
  8
0
100
AcDbCircle
 62
7
  6
CONTINUOUS
 10
9.085385264
 20
5.0695266265
 40
0.0315
100
AcDbArc
 50
270.0
 51
360.0
  0
ARC
  5
2CC
100
AcDbEntity
  8
0
100
AcDbCircle
 62
7
  6
CONTINUOUS
 10
9.085385264
 20
5.4025266265
 40
0.0315
100
AcDbArc
 50
0.0
 51
90.0
  0
ARC
  5
2CD
100
AcDbEntity
  8
0
100
AcDbCircle
 62
7
  6
CONTINUOUS
 10
7.773885264
 20
5.1132766265
 40
0.0315
100
AcDbArc
 50
0.0
 51
90.0
  0
ARC
  5
2CE
100
AcDbEntity
  8
0
100
AcDbCircle
 62
7
  6
CONTINUOUS
 10
7.773885264
 20
5.3587766265
 40
0.0315
100
AcDbArc
 50
270.0
 51
360.0
  0
ARC
  5
2CF
100
AcDbEntity
  8
0
100
AcDbCircle
 62
7
  6
CONTINUOUS
 10
7.828885264
 20
5.1032766265
 40
0.0235
100
AcDbArc
 50
180.0
 51
360.0
  0
ARC
  5
2D0
100
AcDbEntity
  8
0
100
AcDbCircle
 62
7
  6
CONTINUOUS
 10
7.828885264
 20
5.3687766265
 40
0.0235
100
AcDbArc
 50
0.0
 51
180.0
  0
ARC
  5
2D1
100
AcDbEntity
  8
ALL_ASSEMBLY_MEMBERS
100
AcDbCircle
 62
7
  6
CONTINUOUS
 10
7.3939465354
 20
5.452671619
 40
0.0146857788
100
AcDbArc
 50
226.6032721657
 51
227.5389471174
  0
ARC
  5
2D2
100
AcDbEntity
  8
ALL_ASSEMBLY_MEMBERS
100
AcDbCircle
 62
7
  6
CONTINUOUS
 10
7.3909395452
 20
5.4463136224
 40
0.0105218023
100
AcDbArc
 50
302.8678611467
 51
304.6359984163
  0
SPLINE
  5
2D3
100
AcDbEntity
  8
ALL_ASSEMBLY_MEMBERS
100
AcDbSpline
 62
7
  6
CONTINUOUS
 70
0
 71
3
 72
10
 73
6
 74
0
 42
0.0000001
 43
0.0000001
 44
0.0000000001
 40
0.0
 40
0.0
 40
0.0
 40
0.0
 40
0.2602978022
 40
0.5137677782
 40
1.0
 40
1.0
 40
1.0
 40
1.0
 10
3.7175426369
 20
5.4391724075
 30
0.0
 10
3.717284196
 20
5.4387755063
 30
0.0
 10
3.7167588999
 20
5.4380018097
 30
0.0
 10
3.7156755945
 20
5.4365395609
 30
0.0
 10
3.7148048125
 20
5.4355099548
 30
0.0
 10
3.7142002314
 20
5.4348640259
 30
0.0
  0
SPLINE
  5
2D4
100
AcDbEntity
  8
ALL_ASSEMBLY_MEMBERS
100
AcDbSpline
 62
7
  6
CONTINUOUS
 70
0
 71
3
 72
30
 73
26
 74
0
 42
0.0000001
 43
0.0000001
 44
0.0000000001
 40
0.0
 40
0.0
 40
0.0
 40
0.0
 40
0.0773016358
 40
0.1509552671
 40
0.2209675017
 40
0.2546463522
 40
0.2874649714
 40
0.3506315926
 40
0.4108418923
 40
0.440001513
 40
0.468619142
 40
0.4967784154
 40
0.5245700372
 40
0.5520915599
 40
0.5794460856
 40
0.6067398824
 40
0.6340811624
 40
0.6615780639
 40
0.6893358417
 40
0.7174560645
 40
0.7460355223
 40
0.8048882336
 40
0.8665412165
 40
0.9314673904
 40
1.0
 40
1.0
 40
1.0
 40
1.0
 10
3.6974603672
 20
5.4448972487
 30
0.0
 10
3.6978230356
 20
5.4443112874
 30
0.0
 10
3.6985687483
 20
5.4431895298
 30
0.0
 10
3.6997779093
 20
5.4416321768
 30
0.0
 10
3.7008476225
 20
5.4404650781
 30
0.0
 10
3.7017303964
 20
5.439626828
 30
0.0
 10
3.7026062845
 20
5.4388719728
 30
0.0
 10
3.7037288329
 20
5.4380434845
 30
0.0
 10
3.7049102817
 20
5.4373631409
 30
0.0
 10
3.7058678913
 20
5.4369265274
 30
0.0
 10
3.7065846995
 20
5.4366545574
 30
0.0
 10
3.7073065749
 20
5.4364351415
 30
0.0
 10
3.7080325027
 20
5.4362687724
 30
0.0
 10
3.7087614172
 20
5.4361559496
 30
0.0
 10
3.7094922014
 20
5.4360968668
 30
0.0
 10
3.7102237532
 20
5.4360916982
 30
0.0
 10
3.7109549568
 20
5.4361406416
 30
0.0
 10
3.711684678
 20
5.4362437306
 30
0.0
 10
3.7124117994
 20
5.436400769
 30
0.0
 10
3.7131352423
 20
5.436611611
 30
0.0
 10
3.7141026137
 20
5.4369676064
 30
0.0
 10
3.7153009001
 20
5.43755171
 30
0.0
 10
3.7166899447
 20
5.4384546203
 30
0.0
 10
3.7180367114
 20
5.4395602744
 30
0.0
 10
3.7188777379
 20
5.4404047052
 30
0.0
 10
3.7192896193
 20
5.4408559301
 30
0.0
  0
LINE
  5
2D5
100
AcDbEntity
  8
ALL_ASSEMBLY_MEMBERS
100
AcDbLine
 62
7
  6
CONTINUOUS
 10
3.7192896193
 20
5.4408559301
 11
3.7211225082
 21
5.4431447553
  0
SPLINE
  5
2D6
100
AcDbEntity
  8
ALL_ASSEMBLY_MEMBERS
100
AcDbSpline
 62
7
  6
CONTINUOUS
 70
0
 71
3
 72
21
 73
17
 74
0
 42
0.0000001
 43
0.0000001
 44
0.0000000001
 40
0.0
 40
0.0
 40
0.0
 40
0.0
 40
0.0697308383
 40
0.1393243434
 40
0.2771865865
 40
0.4120853488
 40
0.4780180745
 40
0.5427142836
 40
0.6060179606
 40
0.6677893778
 40
0.7278972869
 40
0.7862254717
 40
0.8426740382
 40
0.8971565679
 40
0.9496121506
 40
1.0
 40
1.0
 40
1.0
 40
1.0
 10
3.7287840745
 20
5.4700266265
 30
0.0
 10
3.7287840745
 20
5.469410233
 30
0.0
 10
3.7287656495
 20
5.4681785704
 30
0.0
 10
3.7286559318
 20
5.465730523
 30
0.0
 10
3.7283843988
 20
5.4627144584
 30
0.0
 10
3.727931278
 20
5.4597528081
 30
0.0
 10
3.7274618037
 20
5.4574526913
 30
0.0
 10
3.7270620232
 20
5.4557853038
 30
0.0
 10
3.7266131692
 20
5.4541685868
 30
0.0
 10
3.7261170321
 20
5.4526082242
 30
0.0
 10
3.7255752553
 20
5.4511097649
 30
0.0
 10
3.7249897355
 20
5.4496785208
 30
0.0
 10
3.724362693
 20
5.4483195036
 30
0.0
 10
3.7236961102
 20
5.4470375933
 30
0.0
 10
3.7229925132
 20
5.4458373151
 30
0.0
 10
3.7224901669
 20
5.4450789059
 30
0.0
 10
3.7222330024
 20
5.4447152362
 30
0.0
  0
SPLINE
  5
2D7
100
AcDbEntity
  8
ALL_ASSEMBLY_MEMBERS
100
AcDbSpline
 62
7
  6
CONTINUOUS
 70
0
 71
3
 72
21
 73
17
 74
0
 42
0.0000001
 43
0.0000001
 44
0.0000000001
 40
0.0
 40
0.0
 40
0.0
 40
0.0
 40
0.0512381848
 40
0.1044250032
 40
0.1595137161
 40
0.2164352173
 40
0.2751033436
 40
0.3354211718
 40
0.3972751437
 40
0.460542547
 40
0.5250911937
 40
0.5907747068
 40
0.7249257436
 40
0.8617983556
 40
0.9308381316
 40
1.0
 40
1.0
 40
1.0
 40
1.0
 10
3.7227049604
 20
5.4946434253
 30
0.0
 10
3.722944814
 20
5.4942762336
 30
0.0
 10
3.7234129988
 20
5.4935142295
 30
0.0
 10
3.724068739
 20
5.4923160236
 30
0.0
 10
3.7246890042
 20
5.4910447238
 30
0.0
 10
3.7252718411
 20
5.4897045754
 30
0.0
 10
3.7258154272
 20
5.4882999611
 30
0.0
 10
3.7263178137
 20
5.4868354144
 30
0.0
 10
3.7267775228
 20
5.4853157659
 30
0.0
 10
3.7271930018
 20
5.4837459664
 30
0.0
 10
3.7275627904
 20
5.482131141
 30
0.0
 10
3.7279965403
 20
5.4799096971
 30
0.0
 10
3.7284150163
 20
5.4770561515
 30
0.0
 10
3.7286658088
 20
5.4741543438
 30
0.0
 10
3.728767075
 20
5.4718016936
 30
0.0
 10
3.7287840745
 20
5.4706186375
 30
0.0
 10
3.7287840745
 20
5.4700266265
 30
0.0
  0
SPLINE
  5
2D8
100
AcDbEntity
  8
ALL_ASSEMBLY_MEMBERS
100
AcDbSpline
 62
7
  6
CONTINUOUS
 70
0
 71
3
 72
41
 73
37
 74
0
 42
0.0000001
 43
0.0000001
 44
0.0000000001
 40
0.0
 40
0.0
 40
0.0
 40
0.0
 40
0.0435772512
 40
0.087032409
 40
0.1301794658
 40
0.1728637099
 40
0.2149494797
 40
0.2563016289
 40
0.2967851582
 40
0.3362721018
 40
0.3746484794
 40
0.4118091565
 40
0.4476645394
 40
0.4821379769
 40
0.5151720746
 40
0.5467305404
 40
0.5767995781
 40
0.6053961315
 40
0.6325657955
 40
0.6456445495
 40
0.658401932
 40
0.6830127929
 40
0.7065750712
 40
0.7293011481
 40
0.7514436909
 40
0.773287342
 40
0.7951336257
 40
0.8172838908
 40
0.8400223739
 40
0.8636010599
 40
0.888231643
 40
0.9009998568
 40
0.9140899692
 40
0.9412836486
 40
0.9699053259
 40
1.0
 40
1.0
 40
1.0
 40
1.0
 10
3.6977840745
 20
5.4700266265
 30
0.0
 10
3.6977840745
 20
5.4707318856
 30
0.0
 10
3.6978081791
 20
5.4721405451
 30
0.0
 10
3.6979161072
 20
5.4742450122
 30
0.0
 10
3.6980955907
 20
5.4763301187
 30
0.0
 10
3.6983456992
 20
5.4783856183
 30
0.0
 10
3.6986652417
 20
5.4804020892
 30
0.0
 10
3.6990527781
 20
5.4823703382
 30
0.0
 10
3.6995063643
 20
5.4842812549
 30
0.0
 10
3.7000241483
 20
5.4861258512
 30
0.0
 10
3.700603441
 20
5.4878956159
 30
0.0
 10
3.7012418155
 20
5.4895823016
 30
0.0
 10
3.7019361219
 20
5.4911781652
 30
0.0
 10
3.7026832823
 20
5.4926757999
 30
0.0
 10
3.7034798886
 20
5.4940682752
 30
0.0
 10
3.704322198
 20
5.4953492437
 30
0.0
 10
3.7052066678
 20
5.4965126744
 30
0.0
 10
3.7061290161
 20
5.4975533188
 30
0.0
 10
3.706936225
 20
5.498323641
 30
0.0
 10
3.7075970824
 20
5.4988710914
 30
0.0
 10
3.7082505915
 20
5.4993609135
 30
0.0
 10
3.7090839226
 20
5.4998919088
 30
0.0
 10
3.7101169343
 20
5.5003973159
 30
0.0
 10
3.7111663203
 20
5.5007604748
 30
0.0
 10
3.7122269552
 20
5.5009787576
 30
0.0
 10
3.7132932843
 20
5.5010510177
 30
0.0
 10
3.7143595624
 20
5.5009762248
 30
0.0
 10
3.7154200505
 20
5.5007554322
 30
0.0
 10
3.7164691947
 20
5.50038979
 30
0.0
 10
3.7175018843
 20
5.4998819552
 30
0.0
 10
3.7183348652
 20
5.4993490086
 30
0.0
 10
3.7189880726
 20
5.4988576557
 30
0.0
 10
3.7196486076
 20
5.4983086493
 30
0.0
 10
3.7204553583
 20
5.4975364195
 30
0.0
 10
3.7213770551
 20
5.4964936589
 30
0.0
 10
3.7219517926
 20
5.4957356902
 30
0.0
 10
3.7222330024
 20
5.4953380168
 30
0.0
  0
LINE
  5
2D9
100
AcDbEntity
  8
ALL_ASSEMBLY_MEMBERS
100
AcDbLine
 62
7
  6
CONTINUOUS
 10
3.7222330024
 20
5.4447152362
 11
3.7210523681
 21
5.4432010424
  0
LINE
  5
2DA
100
AcDbEntity
  8
ALL_ASSEMBLY_MEMBERS
100
AcDbLine
 62
7
  6
CONTINUOUS
 10
3.7210334211
 20
5.4431791298
 11
3.7199087983
 21
5.4420007279
  0
SPLINE
  5
2DB
100
AcDbEntity
  8
ALL_ASSEMBLY_MEMBERS
100
AcDbSpline
 62
7
  6
CONTINUOUS
 70
0
 71
3
 72
38
 73
34
 74
0
 42
0.0000001
 43
0.0000001
 44
0.0000000001
 40
0.0
 40
0.0
 40
0.0
 40
0.0
 40
0.0263364599
 40
0.051492173
 40
0.0755855099
 40
0.0987719392
 40
0.1212385506
 40
0.1432037492
 40
0.1649090741
 40
0.1866086709
 40
0.2085570228
 40
0.2309964113
 40
0.2541465486
 40
0.2781958993
 40
0.2906118884
 40
0.30330837
 40
0.3295901324
 40
0.3571372303
 40
0.3860081732
 40
0.4162327227
 40
0.447819797
 40
0.4807537335
 40
0.5150029734
 40
0.5505193181
 40
0.5872389872
 40
0.6250889212
 40
0.6639829838
 40
0.7038278363
 40
0.7445206631
 40
0.8279878238
 40
0.9134867428
 40
0.9566944207
 40
1.0
 40
1.0
 40
1.0
 40
1.0
 10
3.7199087983
 20
5.4420007279
 30
0.0
 10
3.7196219016
 20
5.4417294845
 30
0.0
 10
3.7190396003
 20
5.4412210661
 30
0.0
 10
3.7181219006
 20
5.4405536811
 30
0.0
 10
3.7171839303
 20
5.4400027601
 30
0.0
 10
3.7162295261
 20
5.4395705817
 30
0.0
 10
3.7152623265
 20
5.4392594051
 30
0.0
 10
3.7142863769
 20
5.4390709468
 30
0.0
 10
3.7133059414
 20
5.4390060165
 30
0.0
 10
3.7123254049
 20
5.4390654151
 30
0.0
 10
3.7113491675
 20
5.4392483864
 30
0.0
 10
3.7103814801
 20
5.4395541203
 30
0.0
 10
3.7094264544
 20
5.439980944
 30
0.0
 10
3.7086523432
 20
5.4404308963
 30
0.0
 10
3.7080435999
 20
5.4408467471
 30
0.0
 10
3.7074282522
 20
5.4413108191
 30
0.0
 10
3.7066734939
 20
5.4419647585
 30
0.0
 10
3.7058048604
 20
5.4428510566
 30
0.0
 10
3.7049661899
 20
5.4438443273
 30
0.0
 10
3.7041605495
 20
5.44494051
 30
0.0
 10
3.7033912296
 20
5.446135473
 30
0.0
 10
3.7026609429
 20
5.4474243904
 30
0.0
 10
3.7019726572
 20
5.4488023063
 30
0.0
 10
3.7013290437
 20
5.4502638049
 30
0.0
 10
3.7007324735
 20
5.4518031102
 30
0.0
 10
3.7001855067
 20
5.4534142547
 30
0.0
 10
3.6996900709
 20
5.4550908513
 30
0.0
 10
3.6992482524
 20
5.4568263684
 30
0.0
 10
3.6987286186
 20
5.4592299512
 30
0.0
 10
3.698226802
 20
5.4623353341
 30
0.0
 10
3.6979261262
 20
5.4655041975
 30
0.0
 10
3.6978045077
 20
5.4680803585
 30
0.0
 10
3.6977840745
 20
5.4693774162
 30
0.0
 10
3.6977840745
 20
5.4700266265
 30
0.0
  0
SPLINE
  5
2DC
100
AcDbEntity
  8
ALL_ASSEMBLY_MEMBERS
100
AcDbSpline
 62
7
  6
CONTINUOUS
 70
0
 71
3
 72
11
 73
7
 74
0
 42
0.0000001
 43
0.0000001
 44
0.0000000001
 40
0.0
 40
0.0
 40
0.0
 40
0.0
 40
0.2390829693
 40
0.4844255123
 40
0.7376273762
 40
1.0
 40
1.0
 40
1.0
 40
1.0
 10
3.7041906248
 20
5.4377899341
 30
0.0
 10
3.7037948711
 20
5.4378867464
 30
0.0
 10
3.7030032374
 20
5.4381272818
 30
0.0
 10
3.7018431582
 20
5.4386165773
 30
0.0
 10
3.7007018797
 20
5.4392360951
 30
0.0
 10
3.699970043
 20
5.4397246212
 30
0.0
 10
3.6996087933
 20
5.4399880736
 30
0.0
  0
SPLINE
  5
2DD
100
AcDbEntity
  8
ALL_ASSEMBLY_MEMBERS
100
AcDbSpline
 62
7
  6
CONTINUOUS
 70
0
 71
3
 72
21
 73
17
 74
0
 42
0.0000001
 43
0.0000001
 44
0.0000000001
 40
0.0
 40
0.0
 40
0.0
 40
0.0
 40
0.0697308383
 40
0.1393243434
 40
0.2771865865
 40
0.4120853488
 40
0.4780180745
 40
0.5427142836
 40
0.6060179606
 40
0.6677893778
 40
0.7278972869
 40
0.7862254717
 40
0.8426740382
 40
0.8971565679
 40
0.9496121506
 40
1.0
 40
1.0
 40
1.0
 40
1.0
 10
7.3749814534
 20
5.4700266265
 30
0.0
 10
7.3749814534
 20
5.4706430201
 30
0.0
 10
7.3749998785
 20
5.4718746826
 30
0.0
 10
7.3751095961
 20
5.4743227301
 30
0.0
 10
7.3753811291
 20
5.4773387946
 30
0.0
 10
7.37583425
 20
5.480300445
 30
0.0
 10
7.3763037243
 20
5.4826005618
 30
0.0
 10
7.3767035048
 20
5.4842679493
 30
0.0
 10
7.3771523588
 20
5.4858846662
 30
0.0
 10
7.3776484958
 20
5.4874450288
 30
0.0
 10
7.3781902727
 20
5.4889434881
 30
0.0
 10
7.3787757925
 20
5.4903747322
 30
0.0
 10
7.3794028349
 20
5.4917337494
 30
0.0
 10
7.3800694177
 20
5.4930156597
 30
0.0
 10
7.3807730147
 20
5.4942159379
 30
0.0
 10
7.381275361
 20
5.4949743472
 30
0.0
 10
7.3815325255
 20
5.4953380168
 30
0.0
  0
SPLINE
  5
2DE
100
AcDbEntity
  8
ALL_ASSEMBLY_MEMBERS
100
AcDbSpline
 62
7
  6
CONTINUOUS
 70
0
 71
3
 72
21
 73
17
 74
0
 42
0.0000001
 43
0.0000001
 44
0.0000000001
 40
0.0
 40
0.0
 40
0.0
 40
0.0
 40
0.0503878494
 40
0.1028434321
 40
0.1573259618
 40
0.2137745283
 40
0.2721027131
 40
0.3322106222
 40
0.3939820394
 40
0.4572857164
 40
0.5219819255
 40
0.5879146512
 40
0.7228134135
 40
0.8606756566
 40
0.9302691617
 40
1.0
 40
1.0
 40
1.0
 40
1.0
 10
7.3815325255
 20
5.4447152362
 30
0.0
 10
7.381275361
 20
5.4450789059
 30
0.0
 10
7.3807730147
 20
5.4458373151
 30
0.0
 10
7.3800694177
 20
5.4470375933
 30
0.0
 10
7.3794028349
 20
5.4483195036
 30
0.0
 10
7.3787757925
 20
5.4496785208
 30
0.0
 10
7.3781902727
 20
5.4511097649
 30
0.0
 10
7.3776484958
 20
5.4526082242
 30
0.0
 10
7.3771523588
 20
5.4541685868
 30
0.0
 10
7.3767035048
 20
5.4557853038
 30
0.0
 10
7.3763037243
 20
5.4574526913
 30
0.0
 10
7.37583425
 20
5.4597528081
 30
0.0
 10
7.3753811291
 20
5.4627144584
 30
0.0
 10
7.3751095961
 20
5.465730523
 30
0.0
 10
7.3749998785
 20
5.4681785704
 30
0.0
 10
7.3749814534
 20
5.469410233
 30
0.0
 10
7.3749814534
 20
5.4700266265
 30
0.0
  0
LINE
  5
2DF
100
AcDbEntity
  8
ALL_ASSEMBLY_MEMBERS
100
AcDbLine
 62
7
  6
CONTINUOUS
 10
7.3837634824
 20
5.441560207
 11
7.3849992438
 21
5.4399855347
  0
SPLINE
  5
2E0
100
AcDbEntity
  8
ALL_ASSEMBLY_MEMBERS
100
AcDbSpline
 62
7
  6
CONTINUOUS
 70
0
 71
3
 72
23
 73
19
 74
0
 42
0.0000001
 43
0.0000001
 44
0.0000000001
 40
0.0
 40
0.0
 40
0.0
 40
0.0
 40
0.074727561
 40
0.1465271027
 40
0.2155311032
 40
0.2819211613
 40
0.345923314
 40
0.4078142146
 40
0.4679254708
 40
0.5266350981
 40
0.5843650919
 40
0.6415723157
 40
0.698732868
 40
0.7563291612
 40
0.8148299629
 40
0.8746788638
 40
0.9362835231
 40
1.0
 40
1.0
 40
1.0
 40
1.0
 10
7.3849992438
 20
5.4399855347
 30
0.0
 10
7.3852151405
 20
5.4397389695
 30
0.0
 10
7.3856523442
 20
5.4392673828
 30
0.0
 10
7.3863377191
 20
5.4386154841
 30
0.0
 10
7.3870378951
 20
5.4380351016
 30
0.0
 10
7.3877511308
 20
5.4375276541
 30
0.0
 10
7.3884758051
 20
5.4370945253
 30
0.0
 10
7.3892102698
 20
5.4367371045
 30
0.0
 10
7.3899526615
 20
5.4364563562
 30
0.0
 10
7.3907011511
 20
5.436253264
 30
0.0
 10
7.3914538152
 20
5.4361287811
 30
0.0
 10
7.3922085796
 20
5.4360832985
 30
0.0
 10
7.3929633827
 20
5.4361171825
 30
0.0
 10
7.3937160873
 20
5.4362306588
 30
0.0
 10
7.3944646196
 20
5.4364233442
 30
0.0
 10
7.3952069658
 20
5.4366948907
 30
0.0
 10
7.3959410291
 20
5.4370447474
 30
0.0
 10
7.3964150487
 20
5.4373244643
 30
0.0
 10
7.396649763
 20
5.4374761037
 30
0.0
  0
SPLINE
  5
2E1
100
AcDbEntity
  8
ALL_ASSEMBLY_MEMBERS
100
AcDbSpline
 62
7
  6
CONTINUOUS
 70
0
 71
3
 72
15
 73
11
 74
0
 42
0.0000001
 43
0.0000001
 44
0.0000000001
 40
0.0
 40
0.0
 40
0.0
 40
0.0
 40
0.1006428617
 40
0.2076929173
 40
0.3216744901
 40
0.442878316
 40
0.5714189859
 40
0.7072720442
 40
0.850274985
 40
1.0
 40
1.0
 40
1.0
 40
1.0
 10
7.3969197252
 20
5.4376564998
 30
0.0
 10
7.3972887472
 20
5.4379113279
 30
0.0
 10
7.3980179304
 20
5.4384851533
 30
0.0
 10
7.3990440814
 20
5.4394891849
 30
0.0
 10
7.4000285582
 20
5.440656574
 30
0.0
 10
7.400965657
 20
5.4419810382
 30
0.0
 10
7.4018496772
 20
5.4434560912
 30
0.0
 10
7.4026753299
 20
5.4450742308
 30
0.0
 10
7.4034369052
 20
5.4468266955
 30
0.0
 10
7.4038888227
 20
5.4480510819
 30
0.0
 10
7.4041037329
 20
5.4486826851
 30
0.0
  0
SPLINE
  5
2E2
100
AcDbEntity
  8
ALL_ASSEMBLY_MEMBERS
100
AcDbSpline
 62
7
  6
CONTINUOUS
 70
0
 71
3
 72
38
 73
34
 74
0
 42
0.0000001
 43
0.0000001
 44
0.0000000001
 40
0.0
 40
0.0
 40
0.0
 40
0.0
 40
0.0432674032
 40
0.0864385822
 40
0.1718770178
 40
0.2553094381
 40
0.2959981939
 40
0.3358496956
 40
0.3747619144
 40
0.4126424478
 40
0.4494056532
 40
0.4849786932
 40
0.519297932
 40
0.5523143106
 40
0.5839955934
 40
0.6143244353
 40
0.6433074194
 40
0.6709716922
 40
0.6973714329
 40
0.7101257797
 40
0.7225981343
 40
0.7467525685
 40
0.7699919655
 40
0.7924982398
 40
0.8144840944
 40
0.8361861417
 40
0.857854267
 40
0.879740329
 40
0.9020852877
 40
0.9251094947
 40
0.9490029735
 40
0.9739252797
 40
1.0
 40
1.0
 40
1.0
 40
1.0
 10
7.4059814534
 20
5.4700266265
 30
0.0
 10
7.4059814534
 20
5.4693814445
 30
0.0
 10
7.4059612723
 20
5.4680924127
 30
0.0
 10
7.4058411471
 20
5.4655319602
 30
0.0
 10
7.4055441242
 20
5.4623817912
 30
0.0
 10
7.4050484115
 20
5.45929394
 30
0.0
 10
7.4045350633
 20
5.4569029043
 30
0.0
 10
7.4040985059
 20
5.4551755852
 30
0.0
 10
7.4036088889
 20
5.4535061324
 30
0.0
 10
7.4030682726
 20
5.4519009671
 30
0.0
 10
7.4024785305
 20
5.4503663744
 30
0.0
 10
7.4018421497
 20
5.448908237
 30
0.0
 10
7.4011614821
 20
5.4475322322
 30
0.0
 10
7.4004390913
 20
5.4462437222
 30
0.0
 10
7.3996779173
 20
5.4450475866
 30
0.0
 10
7.3988806021
 20
5.4439485952
 30
0.0
 10
7.3980503434
 20
5.4429508616
 30
0.0
 10
7.3971901961
 20
5.4420583645
 30
0.0
 10
7.3964425694
 20
5.4413977775
 30
0.0
 10
7.3958328198
 20
5.4409274404
 30
0.0
 10
7.3952295237
 20
5.4405048832
 30
0.0
 10
7.3944622171
 20
5.4400455197
 30
0.0
 10
7.3935151084
 20
5.4396055121
 30
0.0
 10
7.3925550113
 20
5.4392847648
 30
0.0
 10
7.391585877
 20
5.4390851146
 30
0.0
 10
7.390611881
 20
5.4390073444
 30
0.0
 10
7.3896372946
 20
5.4390523255
 30
0.0
 10
7.3886664548
 20
5.4392194564
 30
0.0
 10
7.3877035324
 20
5.4395079107
 30
0.0
 10
7.3867525876
 20
5.4399162614
 30
0.0
 10
7.3858171919
 20
5.4404422449
 30
0.0
 10
7.3849011453
 20
5.4410837355
 30
0.0
 10
7.384319176
 20
5.4415749073
 30
0.0
 10
7.3840323294
 20
5.4418373854
 30
0.0
  0
LINE
  5
2E3
100
AcDbEntity
  8
ALL_ASSEMBLY_MEMBERS
100
AcDbLine
 62
7
  6
CONTINUOUS
 10
7.3838567296
 20
5.4420007279
 11
7.3815325255
 21
5.4447152362
  0
SPLINE
  5
2E4
100
AcDbEntity
  8
ALL_ASSEMBLY_MEMBERS
100
AcDbSpline
 62
7
  6
CONTINUOUS
 70
0
 71
3
 72
15
 73
11
 74
0
 42
0.0000001
 43
0.0000001
 44
0.0000000001
 40
0.0
 40
0.0
 40
0.0
 40
0.0
 40
0.1121665338
 40
0.2292643196
 40
0.3507151327
 40
0.4759214496
 40
0.6041974547
 40
0.7348077954
 40
0.8670170328
 40
1.0
 40
1.0
 40
1.0
 40
1.0
 10
7.4041037329
 20
5.4486826851
 30
0.0
 10
7.4044293065
 20
5.4494322064
 30
0.0
 10
7.4050432984
 20
5.4509869597
 30
0.0
 10
7.4058382078
 20
5.4534166465
 30
0.0
 10
7.4065218134
 20
5.4559783952
 30
0.0
 10
7.4070887286
 20
5.4586516294
 30
0.0
 10
7.4075343768
 20
5.4614152713
 30
0.0
 10
7.4078553162
 20
5.4642474637
 30
0.0
 10
7.4080488508
 20
5.46712548
 30
0.0
 10
7.4080919626
 20
5.4690577921
 30
0.0
 10
7.4080919626
 20
5.4700266265
 30
0.0
  0
SPLINE
  5
2E5
100
AcDbEntity
  8
ALL_ASSEMBLY_MEMBERS
100
AcDbSpline
 62
7
  6
CONTINUOUS
 70
0
 71
3
 72
12
 73
8
 74
0
 42
0.0000001
 43
0.0000001
 44
0.0000000001
 40
0.0
 40
0.0
 40
0.0
 40
0.0
 40
0.2651583944
 40
0.3941333112
 40
0.5205828766
 40
0.7656434023
 40
1.0
 40
1.0
 40
1.0
 40
1.0
 10
7.4090512393
 20
5.4862364563
 30
0.0
 10
7.4085875704
 20
5.4870566756
 30
0.0
 10
7.4078579096
 20
5.488253892
 30
0.0
 10
7.4068077322
 20
5.4897771501
 30
0.0
 10
7.4057413784
 20
5.4912009033
 30
0.0
 10
7.4043453433
 20
5.4928433556
 30
0.0
 10
7.4031239243
 20
5.4940356054
 30
0.0
 10
7.4024976095
 20
5.4945844307
 30
0.0
  0
SPLINE
  5
2E6
100
AcDbEntity
  8
ALL_ASSEMBLY_MEMBERS
100
AcDbSpline
 62
7
  6
CONTINUOUS
 70
0
 71
3
 72
18
 73
14
 74
0
 42
0.0000001
 43
0.0000001
 44
0.0000000001
 40
0.0
 40
0.0
 40
0.0
 40
0.0
 40
0.136454386
 40
0.2717543332
 40
0.4047383481
 40
0.5343241107
 40
0.6594861088
 40
0.7201250916
 40
0.7793211774
 40
0.8369835643
 40
0.8930359242
 40
0.9474020501
 40
1.0
 40
1.0
 40
1.0
 40
1.0
 10
7.4080919626
 20
5.4700266265
 30
0.0
 10
7.4080919626
 20
5.4711842351
 30
0.0
 10
7.4080305478
 20
5.4734901402
 30
0.0
 10
7.4077549263
 20
5.4769142577
 30
0.0
 10
7.4072989609
 20
5.4802604723
 30
0.0
 10
7.4066679873
 20
5.483490577
 30
0.0
 10
7.4059952403
 20
5.4860822645
 30
0.0
 10
7.40537284
 20
5.488065675
 30
0.0
 10
7.4048723284
 20
5.4894862027
 30
0.0
 10
7.4043346111
 20
5.4908513428
 30
0.0
 10
7.4037611775
 20
5.4921572853
 30
0.0
 10
7.4031537105
 20
5.4934000993
 30
0.0
 10
7.402720021
 20
5.4941975975
 30
0.0
 10
7.4024976095
 20
5.4945844307
 30
0.0
  0
SPLINE
  5
2E7
100
AcDbEntity
  8
ALL_ASSEMBLY_MEMBERS
100
AcDbSpline
 62
7
  6
CONTINUOUS
 70
0
 71
3
 72
41
 73
37
 74
0
 42
0.0000001
 43
0.0000001
 44
0.0000000001
 40
0.0
 40
0.0
 40
0.0
 40
0.0
 40
0.0300946741
 40
0.0587163514
 40
0.0859100308
 40
0.0990001432
 40
0.111768357
 40
0.1363989401
 40
0.1599776261
 40
0.1827161092
 40
0.2048663743
 40
0.226712658
 40
0.2485563091
 40
0.2706988519
 40
0.2934249288
 40
0.3169872071
 40
0.341598068
 40
0.3543554505
 40
0.3674342045
 40
0.3946038685
 40
0.4232004219
 40
0.4532694596
 40
0.4848279254
 40
0.5178620231
 40
0.5523354606
 40
0.5881908435
 40
0.6253515206
 40
0.6637278982
 40
0.7032148418
 40
0.7436983711
 40
0.7850505203
 40
0.8271362901
 40
0.8698205342
 40
0.912967591
 40
0.9564227488
 40
1.0
 40
1.0
 40
1.0
 40
1.0
 10
7.3815325255
 20
5.4953380168
 30
0.0
 10
7.3818137354
 20
5.4957356902
 30
0.0
 10
7.3823884728
 20
5.4964936589
 30
0.0
 10
7.3833101696
 20
5.4975364195
 30
0.0
 10
7.3841169203
 20
5.4983086493
 30
0.0
 10
7.3847774554
 20
5.4988576557
 30
0.0
 10
7.3854306627
 20
5.4993490086
 30
0.0
 10
7.3862636437
 20
5.4998819552
 30
0.0
 10
7.3872963333
 20
5.50038979
 30
0.0
 10
7.3883454774
 20
5.5007554322
 30
0.0
 10
7.3894059656
 20
5.5009762248
 30
0.0
 10
7.3904722437
 20
5.5010510177
 30
0.0
 10
7.3915385727
 20
5.5009787576
 30
0.0
 10
7.3925992076
 20
5.5007604748
 30
0.0
 10
7.3936485937
 20
5.5003973159
 30
0.0
 10
7.3946816054
 20
5.4998919088
 30
0.0
 10
7.3955149365
 20
5.4993609135
 30
0.0
 10
7.3961684456
 20
5.4988710914
 30
0.0
 10
7.396829303
 20
5.498323641
 30
0.0
 10
7.3976365118
 20
5.4975533188
 30
0.0
 10
7.3985588601
 20
5.4965126744
 30
0.0
 10
7.39944333
 20
5.4953492437
 30
0.0
 10
7.4002856393
 20
5.4940682752
 30
0.0
 10
7.4010822457
 20
5.4926757999
 30
0.0
 10
7.4018294061
 20
5.4911781652
 30
0.0
 10
7.4025237124
 20
5.4895823016
 30
0.0
 10
7.4031620869
 20
5.4878956159
 30
0.0
 10
7.4037413797
 20
5.4861258512
 30
0.0
 10
7.4042591637
 20
5.4842812549
 30
0.0
 10
7.4047127499
 20
5.4823703382
 30
0.0
 10
7.4051002862
 20
5.4804020892
 30
0.0
 10
7.4054198287
 20
5.4783856183
 30
0.0
 10
7.4056699372
 20
5.4763301187
 30
0.0
 10
7.4058494207
 20
5.4742450122
 30
0.0
 10
7.4059573488
 20
5.4721405451
 30
0.0
 10
7.4059814534
 20
5.4707318856
 30
0.0
 10
7.4059814534
 20
5.4700266265
 30
0.0
  0
SPLINE
  5
2E8
100
AcDbEntity
  8
ALL_ASSEMBLY_MEMBERS
100
AcDbSpline
 62
7
  6
CONTINUOUS
 70
0
 71
3
 72
44
 73
40
 74
0
 42
0.0000001
 43
0.0000001
 44
0.0000000001
 40
0.0
 40
0.0
 40
0.0
 40
0.0
 40
0.0312532697
 40
0.0637710178
 40
0.0974612966
 40
0.1322367854
 40
0.1679986199
 40
0.2046243525
 40
0.2419800386
 40
0.2799219822
 40
0.318299551
 40
0.3569543762
 40
0.3957241632
 40
0.434443459
 40
0.472945862
 40
0.5110654511
 40
0.5486382945
 40
0.5855047071
 40
0.6215101222
 40
0.6565080439
 40
0.6903606752
 40
0.7229425251
 40
0.7541412575
 40
0.7838620266
 40
0.8120292361
 40
0.8385919421
 40
0.8512654836
 40
0.8635326084
 40
0.8868538494
 40
0.8979277641
 40
0.9086231698
 40
0.9289316911
 40
0.947953048
 40
0.9570575937
 40
0.9659334632
 40
0.9746207306
 40
0.9831629226
 40
0.991606431
 40
1.0
 40
1.0
 40
1.0
 40
1.0
 10
7.4024976095
 20
5.4945844307
 30
0.0
 10
7.4028697682
 20
5.4940337351
 30
0.0
 10
7.4035911837
 20
5.4928840381
 30
0.0
 10
7.4045850919
 20
5.4910639542
 30
0.0
 10
7.4055076119
 20
5.4891234198
 30
0.0
 10
7.4063545315
 20
5.4870740142
 30
0.0
 10
7.4071219036
 20
5.4849271849
 30
0.0
 10
7.4078065676
 20
5.4826951802
 30
0.0
 10
7.4084052376
 20
5.4803907111
 30
0.0
 10
7.4089156868
 20
5.4780270271
 30
0.0
 10
7.4093357054
 20
5.4756175951
 30
0.0
 10
7.4096640539
 20
5.4731762292
 30
0.0
 10
7.4098995627
 20
5.4707168817
 30
0.0
 10
7.410042035
 20
5.4682536518
 30
0.0
 10
7.410091392
 20
5.465800631
 30
0.0
 10
7.410048486
 20
5.4633718685
 30
0.0
 10
7.4099143191
 20
5.4609812676
 30
0.0
 10
7.4096907814
 20
5.4586425027
 30
0.0
 10
7.409379929
 20
5.4563689597
 30
0.0
 10
7.4089846471
 20
5.4541736158
 30
0.0
 10
7.4085079887
 20
5.4520690229
 30
0.0
 10
7.4079537615
 20
5.4500671495
 30
0.0
 10
7.4073259296
 20
5.4481794169
 30
0.0
 10
7.406629107
 20
5.4464164749
 30
0.0
 10
7.4058680556
 20
5.4447884053
 30
0.0
 10
7.4051741937
 20
5.4435325238
 30
0.0
 10
7.4045898056
 20
5.4426058018
 30
0.0
 10
7.4040076162
 20
5.4417602984
 30
0.0
 10
7.4033931841
 20
5.4409789106
 30
0.0
 10
7.4027455108
 20
5.4402712375
 30
0.0
 10
7.4021073155
 20
5.4396434728
 30
0.0
 10
7.4012878644
 20
5.4389609431
 30
0.0
 10
7.4004155836
 20
5.4384064931
 30
0.0
 10
7.3997085226
 20
5.43805962
 30
0.0
 10
7.3991811996
 20
5.4378492685
 30
0.0
 10
7.3986501607
 20
5.4376852689
 30
0.0
 10
7.3981162789
 20
5.4375678639
 30
0.0
 10
7.3975805294
 20
5.4374973095
 30
0.0
 10
7.3972222617
 20
5.4374816426
 30
0.0
 10
7.3970437576
 20
5.4374816529
 30
0.0
  0
SPLINE
  5
2E9
100
AcDbEntity
  8
ALL_ASSEMBLY_MEMBERS
100
AcDbSpline
 62
7
  6
CONTINUOUS
 70
0
 71
3
 72
35
 73
31
 74
0
 42
0.0000001
 43
0.0000001
 44
0.0000000001
 40
0.0
 40
0.0
 40
0.0
 40
0.0
 40
0.0034406999
 40
0.0118400422
 40
0.0250483776
 40
0.042844492
 40
0.0910715288
 40
0.1540326093
 40
0.1902264867
 40
0.2291293202
 40
0.2704148678
 40
0.3137465995
 40
0.3587685843
 40
0.4050978784
 40
0.4523214755
 40
0.4999999916
 40
0.5476785079
 40
0.5949021053
 40
0.6412313998
 40
0.6862533851
 40
0.7295851175
 40
0.7708706658
 40
0.8097735003
 40
0.8459673786
 40
0.9089284615
 40
0.9571555012
 40
0.9749516172
 40
0.9881599543
 40
0.9965592984
 40
1.0
 40
1.0
 40
1.0
 40
1.0
 10
7.7653790154
 20
5.1397925287
 30
0.0
 10
7.7652961384
 20
5.1400034882
 30
0.0
 10
7.7650116902
 20
5.1407297292
 30
0.0
 10
7.7644148816
 20
5.1422680779
 30
0.0
 10
7.7634907327
 20
5.1446937343
 30
0.0
 10
7.7616757419
 20
5.1495874216
 30
0.0
 10
7.7588755522
 20
5.1576107892
 30
0.0
 10
7.7559980584
 20
5.1668865621
 30
0.0
 10
7.7535997986
 20
5.1756600454
 30
0.0
 10
7.7517777064
 20
5.1831081174
 30
0.0
 10
7.7500821433
 20
5.1910677204
 30
0.0
 10
7.748579758
 20
5.1994762033
 30
0.0
 10
7.7473333032
 20
5.2082624785
 30
0.0
 10
7.7463981098
 20
5.2173454018
 30
0.0
 10
7.7458180262
 20
5.2266334874
 30
0.0
 10
7.7456213905
 20
5.2360266248
 30
0.0
 10
7.745818026
 20
5.2454197623
 30
0.0
 10
7.7463981095
 20
5.254707848
 30
0.0
 10
7.7473333029
 20
5.2637907713
 30
0.0
 10
7.7485797575
 20
5.2725770467
 30
0.0
 10
7.7500821427
 20
5.2809855297
 30
0.0
 10
7.7517777057
 20
5.2889451329
 30
0.0
 10
7.7535997979
 20
5.2963932051
 30
0.0
 10
7.7559980577
 20
5.3051666887
 30
0.0
 10
7.7588755516
 20
5.314442462
 30
0.0
 10
7.7616757414
 20
5.3224658301
 30
0.0
 10
7.7634907323
 20
5.3273595177
 30
0.0
 10
7.7644148814
 20
5.3297851745
 30
0.0
 10
7.76501169
 20
5.3313235234
 30
0.0
 10
7.7652961384
 20
5.3320497647
 30
0.0
 10
7.7653790154
 20
5.3322607243
 30
0.0
  0
SPLINE
  5
2EA
100
AcDbEntity
  8
ALL_ASSEMBLY_MEMBERS
100
AcDbSpline
 62
7
  6
CONTINUOUS
 70
0
 71
3
 72
18
 73
14
 74
0
 42
0.0000001
 43
0.0000001
 44
0.0000000001
 40
0.0
 40
0.0
 40
0.0
 40
0.0
 40
0.1313540398
 40
0.2621352075
 40
0.3917643492
 40
0.5196365035
 40
0.6451121167
 40
0.7067476863
 40
0.7675210456
 40
0.8273359149
 40
0.8860915779
 40
0.9436828169
 40
1.0
 40
1.0
 40
1.0
 40
1.0
 10
7.4109036933
 20
5.4700266265
 30
0.0
 10
7.4109036933
 20
5.471635407
 30
0.0
 10
7.4107962523
 20
5.474846995
 30
0.0
 10
7.4103150741
 20
5.4796244337
 30
0.0
 10
7.4095217919
 20
5.4843170707
 30
0.0
 10
7.4084290532
 20
5.4888821673
 30
0.0
 10
7.4072760659
 20
5.4925671833
 30
0.0
 10
7.406217861
 20
5.4954133632
 30
0.0
 10
7.4053660119
 20
5.4974767562
 30
0.0
 10
7.4044544736
 20
5.4994757666
 30
0.0
 10
7.4034865859
 20
5.5014046432
 30
0.0
 10
7.4024659725
 20
5.5032573687
 30
0.0
 10
7.4017443612
 20
5.5044518991
 30
0.0
 10
7.4013753142
 20
5.5050346212
 30
0.0
  0
SPLINE
  5
2EB
100
AcDbEntity
  8
ALL_ASSEMBLY_MEMBERS
100
AcDbSpline
 62
7
  6
CONTINUOUS
 70
0
 71
3
 72
24
 73
20
 74
0
 42
0.0000001
 43
0.0000001
 44
0.0000000001
 40
0.0
 40
0.0
 40
0.0
 40
0.0
 40
0.0618541405
 40
0.1220142421
 40
0.1808077311
 40
0.2386143094
 40
0.295842883
 40
0.3529259211
 40
0.410303482
 40
0.4684079856
 40
0.5276499576
 40
0.5884059441
 40
0.6510096089
 40
0.7157464086
 40
0.7489962457
 40
0.782863314
 40
0.8525217994
 40
0.9248703188
 40
1.0
 40
1.0
 40
1.0
 40
1.0
 10
7.3826048736
 20
5.5102219763
 30
0.0
 10
7.3829896333
 20
5.5104376539
 30
0.0
 10
7.3837666117
 20
5.5108320817
 30
0.0
 10
7.3849652873
 20
5.5113117447
 30
0.0
 10
7.3861762642
 20
5.5116685736
 30
0.0
 10
7.3873959559
 20
5.5119010064
 30
0.0
 10
7.3886208254
 20
5.5120079073
 30
0.0
 10
7.389847164
 20
5.5119886016
 30
0.0
 10
7.3910712345
 20
5.511842902
 30
0.0
 10
7.3922893117
 20
5.5115711043
 30
0.0
 10
7.3934977363
 20
5.5111739692
 30
0.0
 10
7.3946929595
 20
5.5106526678
 30
0.0
 10
7.3958714971
 20
5.5100087906
 30
0.0
 10
7.3968284067
 20
5.5093772836
 30
0.0
 10
7.3975821076
 20
5.5088148239
 30
0.0
 10
7.3983415345
 20
5.5082024641
 30
0.0
 10
7.3992741907
 20
5.5073622729
 30
0.0
 10
7.4003533463
 20
5.506250474
 30
0.0
 10
7.4010380504
 20
5.5054512431
 30
0.0
 10
7.4013749647
 20
5.5050346835
 30
0.0
  0
SPLINE
  5
2EC
100
AcDbEntity
  8
ALL_ASSEMBLY_MEMBERS
100
AcDbSpline
 62
7
  6
CONTINUOUS
 70
0
 71
3
 72
30
 73
26
 74
0
 42
0.0000001
 43
0.0000001
 44
0.0000000001
 40
0.0
 40
0.0
 40
0.0
 40
0.0
 40
0.0789985184
 40
0.1537417973
 40
0.2243421265
 40
0.2910123618
 40
0.3540791085
 40
0.4139937643
 40
0.4429605372
 40
0.4713681142
 40
0.4993080785
 40
0.5268786894
 40
0.5541831535
 40
0.581328646
 40
0.6084243443
 40
0.6355798561
 40
0.6629033056
 40
0.6904996951
 40
0.7184692823
 40
0.7469064497
 40
0.7758984688
 40
0.8055251837
 40
0.8669368945
 40
0.9316451341
 40
1.0
 40
1.0
 40
1.0
 40
1.0
 10
7.3849995418
 20
5.4399875985
 30
0.0
 10
7.3852953736
 20
5.439511678
 30
0.0
 10
7.3859017305
 20
5.4386039462
 30
0.0
 10
7.3868828041
 20
5.4373489761
 30
0.0
 10
7.3879054126
 20
5.4362436149
 30
0.0
 10
7.3889645732
 20
5.4352927383
 30
0.0
 10
7.3900550877
 20
5.4345006084
 30
0.0
 10
7.3909965093
 20
5.4339698438
 30
0.0
 10
7.391757363
 20
5.4336320068
 30
0.0
 10
7.3923257709
 20
5.4334229487
 30
0.0
 10
7.3928975376
 20
5.4332556659
 30
0.0
 10
7.3934719434
 20
5.4331302763
 30
0.0
 10
7.3940482549
 20
5.4330469171
 30
0.0
 10
7.3946257274
 20
5.433005615
 30
0.0
 10
7.3952036194
 20
5.4330063838
 30
0.0
 10
7.3957811881
 20
5.4330491496
 30
0.0
 10
7.396357698
 20
5.4331337971
 30
0.0
 10
7.3969324203
 20
5.4332601571
 30
0.0
 10
7.3975046451
 20
5.4334279927
 30
0.0
 10
7.3980736607
 20
5.4336370457
 30
0.0
 10
7.3986388058
 20
5.4338869853
 30
0.0
 10
7.3993951787
 20
5.4342789091
 30
0.0
 10
7.4003290155
 20
5.434874081
 30
0.0
 10
7.4014087513
 20
5.4357361231
 30
0.0
 10
7.4020881365
 20
5.4363935352
 30
0.0
 10
7.4024223286
 20
5.4367448418
 30
0.0
  0
SPLINE
  5
2ED
100
AcDbEntity
  8
ALL_ASSEMBLY_MEMBERS
100
AcDbSpline
 62
7
  6
CONTINUOUS
 70
0
 71
3
 72
17
 73
13
 74
0
 42
0.0000001
 43
0.0000001
 44
0.0000000001
 40
0.0
 40
0.0
 40
0.0
 40
0.0
 40
0.0571577108
 40
0.1154101181
 40
0.1746646638
 40
0.2348324174
 40
0.3575532802
 40
0.482950553
 40
0.6104336221
 40
0.739450354
 40
0.8694742064
 40
1.0
 40
1.0
 40
1.0
 40
1.0
 10
7.4024217931
 20
5.4367472659
 30
0.0
 10
7.4027531544
 20
5.4373198496
 30
0.0
 10
7.4034003647
 20
5.4384887721
 30
0.0
 10
7.4043151286
 20
5.4402920145
 30
0.0
 10
7.4051806793
 20
5.442157904
 30
0.0
 10
7.4062724326
 20
5.4447396081
 30
0.0
 10
7.4074951113
 20
5.4480947712
 30
0.0
 10
7.4087157922
 20
5.452270188
 30
0.0
 10
7.409683293
 20
5.4565862101
 30
0.0
 10
7.4103842739
 20
5.4610076813
 30
0.0
 10
7.4108089311
 20
5.4654993913
 30
0.0
 10
7.4109036933
 20
5.468515899
 30
0.0
 10
7.4109036933
 20
5.4700266265
 30
0.0
  0
SPLINE
  5
2EE
100
AcDbEntity
  8
ALL_ASSEMBLY_MEMBERS
100
AcDbSpline
 62
7
  6
CONTINUOUS
 70
0
 71
3
 72
14
 73
10
 74
0
 42
0.0000001
 43
0.0000001
 44
0.0000000001
 40
0.0
 40
0.0
 40
0.0
 40
0.0
 40
0.255830067
 40
0.3829630392
 40
0.5092049003
 40
0.6342837037
 40
0.7579376897
 40
0.8799253329
 40
1.0
 40
1.0
 40
1.0
 40
1.0
 10
7.3689324053
 20
5.4703551191
 30
0.0
 10
7.3689350275
 20
5.4716814453
 30
0.0
 10
7.3689626107
 20
5.4736669494
 30
0.0
 10
7.3690478896
 20
5.4763055472
 30
0.0
 10
7.3691360428
 20
5.4782656844
 30
0.0
 10
7.3692488372
 20
5.4802064898
 30
0.0
 10
7.3693866879
 20
5.4821235731
 30
0.0
 10
7.3695500864
 20
5.4840126099
 30
0.0
 10
7.3696774977
 20
5.4852611403
 30
0.0
 10
7.3697458487
 20
5.4858798933
 30
0.0
  0
SPLINE
  5
2EF
100
AcDbEntity
  8
ALL_ASSEMBLY_MEMBERS
100
AcDbSpline
 62
7
  6
CONTINUOUS
 70
0
 71
3
 72
22
 73
18
 74
0
 42
0.0000001
 43
0.0000001
 44
0.0000000001
 40
0.0
 40
0.0
 40
0.0
 40
0.0
 40
0.1289121265
 40
0.1938615418
 40
0.2589512502
 40
0.3240377364
 40
0.3889778706
 40
0.4536279227
 40
0.5178448131
 40
0.5814872305
 40
0.6444167206
 40
0.7064990222
 40
0.7676055285
 40
0.8276149758
 40
0.8864153375
 40
0.9439059617
 40
1.0
 40
1.0
 40
1.0
 40
1.0
 10
7.3694245789
 20
5.4586290644
 30
0.0
 10
7.3695036243
 20
5.4601242114
 30
0.0
 10
7.3696842886
 20
5.4623700382
 30
0.0
 10
7.370049402
 20
5.4653556179
 30
0.0
 10
7.3703876791
 20
5.4675968263
 30
0.0
 10
7.3707899928
 20
5.4698272998
 30
0.0
 10
7.3712564752
 20
5.4720400476
 30
0.0
 10
7.3717870601
 20
5.4742279316
 30
0.0
 10
7.3723814838
 20
5.4763837339
 30
0.0
 10
7.3730392752
 20
5.4785001635
 30
0.0
 10
7.3737597519
 20
5.4805698828
 30
0.0
 10
7.3745420124
 20
5.4825855276
 30
0.0
 10
7.3753849313
 20
5.4845397356
 30
0.0
 10
7.3762871506
 20
5.4864251646
 30
0.0
 10
7.3772470948
 20
5.4882345461
 30
0.0
 10
7.3782629051
 20
5.4899606188
 30
0.0
 10
7.3789852579
 20
5.4910652442
 30
0.0
 10
7.3793557003
 20
5.4916011749
 30
0.0
  0
SPLINE
  5
2F0
100
AcDbEntity
  8
ALL_ASSEMBLY_MEMBERS
100
AcDbSpline
 62
7
  6
CONTINUOUS
 70
0
 71
3
 72
32
 73
28
 74
0
 42
0.0000001
 43
0.0000001
 44
0.0000000001
 40
0.0
 40
0.0
 40
0.0
 40
0.0
 40
0.0761316766
 40
0.1519546614
 40
0.2270409314
 40
0.3009737347
 40
0.3733582786
 40
0.443827082
 40
0.512047575
 40
0.5452261659
 40
0.5777382163
 40
0.6095557281
 40
0.640654744
 40
0.6710154476
 40
0.7006227473
 40
0.729466683
 40
0.7575426962
 40
0.7848523942
 40
0.8114038077
 40
0.8372119551
 40
0.8622994884
 40
0.8866969021
 40
0.9104431653
 40
0.9335859196
 40
0.9561815141
 40
0.9782950918
 40
1.0
 40
1.0
 40
1.0
 40
1.0
 10
7.3689324053
 20
5.4703551191
 30
0.0
 10
7.36900034
 20
5.4715993962
 30
0.0
 10
7.3691903665
 20
5.4740802861
 30
0.0
 10
7.3696380276
 20
5.4777706394
 30
0.0
 10
7.3702462989
 20
5.4814015911
 30
0.0
 10
7.3710119675
 20
5.4849451413
 30
0.0
 10
7.371930613
 20
5.4883741054
 30
0.0
 10
7.3729966219
 20
5.4916620738
 30
0.0
 10
7.374011463
 20
5.4942876416
 30
0.0
 10
7.3748935602
 20
5.4962945043
 30
0.0
 10
7.3755812644
 20
5.4977350758
 30
0.0
 10
7.3763000535
 20
5.4991221734
 30
0.0
 10
7.3770487279
 20
5.5004531414
 30
0.0
 10
7.3778260417
 20
5.501725409
 30
0.0
 10
7.3786306885
 20
5.5029365266
 30
0.0
 10
7.379461306
 20
5.5040841656
 30
0.0
 10
7.3803165045
 20
5.5051661056
 30
0.0
 10
7.3811948275
 20
5.5061802663
 30
0.0
 10
7.3820947914
 20
5.5071246859
 30
0.0
 10
7.3830148767
 20
5.5079975274
 30
0.0
 10
7.3839535115
 20
5.5087971027
 30
0.0
 10
7.3849091101
 20
5.509521834
 30
0.0
 10
7.3858800403
 20
5.5101702933
 30
0.0
 10
7.3868646297
 20
5.5107411887
 30
0.0
 10
7.3878612111
 20
5.5112333513
 30
0.0
 10
7.3888679616
 20
5.5116457605
 30
0.0
 10
7.3895504484
 20
5.5118687997
 30
0.0
 10
7.3898920921
 20
5.5119662413
 30
0.0
  0
LINE
  5
2F1
100
AcDbEntity
  8
ALL_ASSEMBLY_MEMBERS
100
AcDbLine
 62
7
  6
CONTINUOUS
 10
7.3897685005
 20
5.4347237595
 11
7.3883063896
 21
5.4372055481
  0
SPLINE
  5
2F2
100
AcDbEntity
  8
ALL_ASSEMBLY_MEMBERS
100
AcDbSpline
 62
7
  6
CONTINUOUS
 70
0
 71
3
 72
46
 73
42
 74
0
 42
0.0000001
 43
0.0000001
 44
0.0000000001
 40
0.0
 40
0.0
 40
0.0
 40
0.0
 40
0.0369386283
 40
0.0726425409
 40
0.1070228913
 40
0.1399991947
 40
0.17150562
 40
0.20149917
 40
0.2299697794
 40
0.2569520261
 40
0.282537475
 40
0.2948591102
 40
0.3068975619
 40
0.3186843761
 40
0.3302556269
 40
0.3416515303
 40
0.3529158338
 40
0.364095012
 40
0.3752372562
 40
0.3863913831
 40
0.3976056721
 40
0.4089267926
 40
0.4203988199
 40
0.4320624845
 40
0.4439545827
 40
0.4685398668
 40
0.494374698
 40
0.5216005366
 40
0.5503010661
 40
0.5805130346
 40
0.6122367821
 40
0.6454453047
 40
0.6800915508
 40
0.7161139673
 40
0.7534405571
 40
0.7919916843
 40
0.8316821766
 40
0.8724227121
 40
0.9141195777
 40
0.9566794769
 40
1.0
 40
1.0
 40
1.0
 40
1.0
 10
7.4000533718
 20
5.5070106141
 30
0.0
 10
7.3996489197
 20
5.5075825953
 30
0.0
 10
7.398826853
 20
5.5086889106
 30
0.0
 10
7.3975338922
 20
5.5102546362
 30
0.0
 10
7.3962071613
 20
5.511691368
 30
0.0
 10
7.3948534072
 20
5.5129903418
 30
0.0
 10
7.3934797
 20
5.5141429304
 30
0.0
 10
7.3920934528
 20
5.5151407348
 30
0.0
 10
7.3907022393
 20
5.5159758165
 30
0.0
 10
7.3893139922
 20
5.5166408247
 30
0.0
 10
7.38815139
 20
5.5170530077
 30
0.0
 10
7.3872332241
 20
5.5172878635
 30
0.0
 10
7.3865592786
 20
5.5174159008
 30
0.0
 10
7.3858924842
 20
5.5174976533
 30
0.0
 10
7.3852337887
 20
5.517532873
 30
0.0
 10
7.3845841371
 20
5.5175214414
 30
0.0
 10
7.3839444335
 20
5.5174633482
 30
0.0
 10
7.3833155386
 20
5.5173587357
 30
0.0
 10
7.382698263
 20
5.5172078524
 30
0.0
 10
7.3820933484
 20
5.5170111033
 30
0.0
 10
7.3815014738
 20
5.5167689844
 30
0.0
 10
7.3809232251
 20
5.5164821363
 30
0.0
 10
7.3803591277
 20
5.5161512644
 30
0.0
 10
7.3798095842
 20
5.5157771819
 30
0.0
 10
7.3790888968
 20
5.5152158363
 30
0.0
 10
7.3782251905
 20
5.5144050838
 30
0.0
 10
7.3772640756
 20
5.5132863641
 30
0.0
 10
7.3763664152
 20
5.5120196344
 30
0.0
 10
7.3755315758
 20
5.5106137173
 30
0.0
 10
7.3747582514
 20
5.5090772736
 30
0.0
 10
7.3740448283
 20
5.5074189014
 30
0.0
 10
7.3733894005
 20
5.505647025
 30
0.0
 10
7.3727898671
 20
5.5037698565
 30
0.0
 10
7.3722439994
 20
5.5017953584
 30
0.0
 10
7.3717495078
 20
5.4997312361
 30
0.0
 10
7.3713040964
 20
5.4975849459
 30
0.0
 10
7.3709055105
 20
5.495363715
 30
0.0
 10
7.3705515839
 20
5.4930745903
 30
0.0
 10
7.3702402554
 20
5.4907244123
 30
0.0
 10
7.3699696413
 20
5.4883199885
 30
0.0
 10
7.3698164454
 20
5.4866984165
 30
0.0
 10
7.3697458487
 20
5.4858798933
 30
0.0
  0
SPLINE
  5
2F3
100
AcDbEntity
  8
ALL_ASSEMBLY_MEMBERS
100
AcDbSpline
 62
7
  6
CONTINUOUS
 70
0
 71
3
 72
22
 73
18
 74
0
 42
0.0000001
 43
0.0000001
 44
0.0000000001
 40
0.0
 40
0.0
 40
0.0
 40
0.0
 40
0.0761137383
 40
0.1508841938
 40
0.2241648541
 40
0.2958268095
 40
0.3657465114
 40
0.4338137086
 40
0.4999308113
 40
0.5640149574
 40
0.625999777
 40
0.6858374268
 40
0.7435009409
 40
0.7989868295
 40
0.8523181171
 40
0.9035461465
 40
1.0
 40
1.0
 40
1.0
 40
1.0
 10
7.3697458487
 20
5.4858798933
 30
0.0
 10
7.3698867684
 20
5.4865800604
 30
0.0
 10
7.3701867976
 20
5.48796398
 30
0.0
 10
7.3706960614
 20
5.4900051785
 30
0.0
 10
7.3712593983
 20
5.4919887725
 30
0.0
 10
7.3718751568
 20
5.4939090007
 30
0.0
 10
7.3725415827
 20
5.4957603597
 30
0.0
 10
7.3732567542
 20
5.4975375128
 30
0.0
 10
7.3740186219
 20
5.4992353536
 30
0.0
 10
7.3748250038
 20
5.5008490041
 30
0.0
 10
7.3756735991
 20
5.5023738323
 30
0.0
 10
7.3765619896
 20
5.5038054578
 30
0.0
 10
7.3774876771
 20
5.5051397854
 30
0.0
 10
7.3784479934
 20
5.5063729351
 30
0.0
 10
7.3794404571
 20
5.5075015298
 30
0.0
 10
7.3807752754
 20
5.5088351126
 30
0.0
 10
7.3818564416
 20
5.5097130592
 30
0.0
 10
7.3826048736
 20
5.5102219763
 30
0.0
  0
LINE
  5
2F4
100
AcDbEntity
  8
ALL_ASSEMBLY_MEMBERS
100
AcDbLine
 62
7
  6
CONTINUOUS
 10
7.3694245789
 20
5.4586290644
 11
7.3689324053
 21
5.4703551191
  0
SPLINE
  5
2F5
100
AcDbEntity
  8
ALL_ASSEMBLY_MEMBERS
100
AcDbSpline
 62
7
  6
CONTINUOUS
 70
0
 71
3
 72
56
 73
52
 74
0
 42
0.0000001
 43
0.0000001
 44
0.0000000001
 40
0.0
 40
0.0
 40
0.0
 40
0.0
 40
0.0434609913
 40
0.0863164521
 40
0.128451433
 40
0.1697592096
 40
0.2101327906
 40
0.2494693759
 40
0.2876695586
 40
0.3246383695
 40
0.3602866499
 40
0.3945331055
 40
0.4111093645
 40
0.4273100189
 40
0.4431288622
 40
0.4585608506
 40
0.4736027529
 40
0.4882530342
 40
0.5025125265
 40
0.5163845185
 40
0.5298753259
 40
0.542994607
 40
0.5557558199
 40
0.5681766532
 40
0.5920798054
 40
0.6036326951
 40
0.6149639761
 40
0.6261155991
 40
0.6371337931
 40
0.6480682133
 40
0.6589708908
 40
0.6698949865
 40
0.6808933352
 40
0.692017223
 40
0.7033149155
 40
0.7148309223
 40
0.7266048494
 40
0.7386713537
 40
0.7510594405
 40
0.7768804974
 40
0.7903556522
 40
0.8042176767
 40
0.8184719217
 40
0.8331200959
 40
0.8481609672
 40
0.8635906769
 40
0.8794031993
 40
0.8955907884
 40
0.9290490351
 40
0.9638841975
 40
1.0
 40
1.0
 40
1.0
 40
1.0
 10
7.3694245789
 20
5.4586290644
 30
0.0
 10
7.369476643
 20
5.4577416067
 30
0.0
 10
7.3695934654
 20
5.455979808
 30
0.0
 10
7.3698103475
 20
5.4533612101
 30
0.0
 10
7.3700694673
 20
5.4507906886
 30
0.0
 10
7.3703727059
 20
5.4482760974
 30
0.0
 10
7.3707221969
 20
5.4458252854
 30
0.0
 10
7.3711202565
 20
5.4434462686
 30
0.0
 10
7.3715693747
 20
5.4411472212
 30
0.0
 10
7.3720721637
 20
5.4389365262
 30
0.0
 10
7.3726313067
 20
5.4368228837
 30
0.0
 10
7.3731519791
 20
5.4351318697
 30
0.0
 10
7.3736011584
 20
5.4338364723
 30
0.0
 10
7.3739501855
 20
5.4329056288
 30
0.0
 10
7.3743152983
 20
5.4320061759
 30
0.0
 10
7.3746967752
 20
5.4311393555
 30
0.0
 10
7.3750948834
 20
5.430306442
 30
0.0
 10
7.3755098406
 20
5.4295087075
 30
0.0
 10
7.3759418619
 20
5.428747453
 30
0.0
 10
7.3763910937
 20
5.4280239665
 30
0.0
 10
7.3768576769
 20
5.4273395523
 30
0.0
 10
7.3773416579
 20
5.4266955066
 30
0.0
 10
7.3778431238
 20
5.4260930712
 30
0.0
 10
7.3785260019
 20
5.4253566166
 30
0.0
 10
7.3792526827
 20
5.4246957199
 30
0.0
 10
7.380021385
 20
5.4241246189
 30
0.0
 10
7.3806080054
 20
5.423748589
 30
0.0
 10
7.381210666
 20
5.4234211417
 30
0.0
 10
7.3818288336
 20
5.423143153
 30
0.0
 10
7.3824618498
 20
5.4229154374
 30
0.0
 10
7.3831089509
 20
5.4227386377
 30
0.0
 10
7.3837692877
 20
5.422613293
 30
0.0
 10
7.384441919
 20
5.4225397272
 30
0.0
 10
7.3851258416
 20
5.422518167
 30
0.0
 10
7.3858199945
 20
5.4225485961
 30
0.0
 10
7.3865232715
 20
5.4226309272
 30
0.0
 10
7.387234535
 20
5.422764827
 30
0.0
 10
7.3879526382
 20
5.4229499262
 30
0.0
 10
7.3889309784
 20
5.4232685327
 30
0.0
 10
7.3899052782
 20
5.4236855689
 30
0.0
 10
7.390869315
 20
5.4241890935
 30
0.0
 10
7.3916035837
 20
5.4246194628
 30
0.0
 10
7.3923374043
 20
5.4250960699
 30
0.0
 10
7.3930696621
 20
5.4256178002
 30
0.0
 10
7.3937991523
 20
5.4261834974
 30
0.0
 10
7.3945247441
 20
5.4267919244
 30
0.0
 10
7.3952453083
 20
5.4274418522
 30
0.0
 10
7.3962084671
 20
5.428372254
 30
0.0
 10
7.3973916552
 20
5.4296333874
 30
0.0
 10
7.3987593076
 20
5.4312750453
 30
0.0
 10
7.3996268598
 20
5.4324394609
 30
0.0
 10
7.4000533718
 20
5.4330426388
 30
0.0
  0
SPLINE
  5
2F6
100
AcDbEntity
  8
ALL_ASSEMBLY_MEMBERS
100
AcDbSpline
 62
7
  6
CONTINUOUS
 70
0
 71
3
 72
35
 73
31
 74
0
 42
0.0000001
 43
0.0000001
 44
0.0000000001
 40
0.0
 40
0.0
 40
0.0
 40
0.0
 40
0.0034406993
 40
0.0118400412
 40
0.0250483762
 40
0.0428444902
 40
0.0910715263
 40
0.1540326064
 40
0.1902264837
 40
0.2291293171
 40
0.2704148647
 40
0.3137465964
 40
0.3587685811
 40
0.4050978753
 40
0.4523214726
 40
0.4999999888
 40
0.5476785052
 40
0.5949021028
 40
0.6412313974
 40
0.6862533829
 40
0.7295851155
 40
0.7708706641
 40
0.8097734988
 40
0.8459673773
 40
0.9089284607
 40
0.9571555007
 40
0.9749516168
 40
0.9881599541
 40
0.9965592983
 40
1.0
 40
1.0
 40
1.0
 40
1.0
 10
3.3383865125
 20
5.3322607244
 30
0.0
 10
3.3384693895
 20
5.3320497649
 30
0.0
 10
3.3387538377
 20
5.3313235239
 30
0.0
 10
3.3393506462
 20
5.3297851754
 30
0.0
 10
3.3402747952
 20
5.327359519
 30
0.0
 10
3.3420897859
 20
5.3224658318
 30
0.0
 10
3.3448899756
 20
5.3144424643
 30
0.0
 10
3.3477674694
 20
5.3051666915
 30
0.0
 10
3.3501657292
 20
5.2963932083
 30
0.0
 10
3.3519878214
 20
5.2889451363
 30
0.0
 10
3.3536833845
 20
5.2809855332
 30
0.0
 10
3.3551857699
 20
5.2725770504
 30
0.0
 10
3.3564322246
 20
5.2637907752
 30
0.0
 10
3.3573674181
 20
5.2547078519
 30
0.0
 10
3.3579475018
 20
5.2454197662
 30
0.0
 10
3.3581441375
 20
5.2360266288
 30
0.0
 10
3.357947502
 20
5.2266334913
 30
0.0
 10
3.3573674185
 20
5.2173454056
 30
0.0
 10
3.3564322252
 20
5.2082624822
 30
0.0
 10
3.3551857706
 20
5.1994762068
 30
0.0
 10
3.3536833853
 20
5.1910677237
 30
0.0
 10
3.3519878223
 20
5.1831081204
 30
0.0
 10
3.3501657301
 20
5.1756600482
 30
0.0
 10
3.3477674703
 20
5.1668865646
 30
0.0
 10
3.3448899764
 20
5.1576107912
 30
0.0
 10
3.3420897866
 20
5.1495874231
 30
0.0
 10
3.3402747957
 20
5.1446937354
 30
0.0
 10
3.3393506466
 20
5.1422680786
 30
0.0
 10
3.3387538379
 20
5.1407297297
 30
0.0
 10
3.3384693896
 20
5.1400034883
 30
0.0
 10
3.3383865126
 20
5.1397925287
 30
0.0
  0
SPLINE
  5
2F7
100
AcDbEntity
  8
ALL_ASSEMBLY_MEMBERS
100
AcDbSpline
 62
7
  6
CONTINUOUS
 70
0
 71
3
 72
13
 73
9
 74
0
 42
0.0000001
 43
0.0000001
 44
0.0000000001
 40
0.0
 40
0.0
 40
0.0
 40
0.0
 40
0.2552283207
 40
0.5083961584
 40
0.6335792675
 40
0.757437876
 40
0.8796804682
 40
1.0
 40
1.0
 40
1.0
 40
1.0
 10
3.6928618347
 20
5.4700266265
 30
0.0
 10
3.6928618347
 20
5.4678416064
 30
0.0
 10
3.6930596725
 20
5.463486779
 30
0.0
 10
3.6937980634
 20
5.458105241
 30
0.0
 10
3.694674541
 20
5.4538947708
 30
0.0
 10
3.6954653066
 20
5.4508148919
 30
0.0
 10
3.6963862227
 20
5.447815046
 30
0.0
 10
3.6970889617
 20
5.4458599881
 30
0.0
 10
3.697460858
 20
5.4448994061
 30
0.0
  0
SPLINE
  5
2F8
100
AcDbEntity
  8
ALL_ASSEMBLY_MEMBERS
100
AcDbSpline
 62
7
  6
CONTINUOUS
 70
0
 71
3
 72
11
 73
7
 74
0
 42
0.0000001
 43
0.0000001
 44
0.0000000001
 40
0.0
 40
0.0
 40
0.0
 40
0.0
 40
0.2566930855
 40
0.5092313528
 40
0.7571593679
 40
1.0
 40
1.0
 40
1.0
 40
1.0
 10
3.697460858
 20
5.4448994061
 30
0.0
 10
3.6977400662
 20
5.4441782309
 30
0.0
 10
3.6983201624
 20
5.4427575257
 30
0.0
 10
3.699261412
 20
5.4406791
 30
0.0
 10
3.7002634585
 20
5.4386758352
 30
0.0
 10
3.7009772859
 20
5.4373804801
 30
0.0
 10
3.7013437348
 20
5.4367472659
 30
0.0
  0
SPLINE
  5
2F9
100
AcDbEntity
  8
ALL_ASSEMBLY_MEMBERS
100
AcDbSpline
 62
7
  6
CONTINUOUS
 70
0
 71
3
 72
23
 73
19
 74
0
 42
0.0000001
 43
0.0000001
 44
0.0000000001
 40
0.0
 40
0.0
 40
0.0
 40
0.0
 40
0.0731561749
 40
0.1434740347
 40
0.2111169869
 40
0.2762957544
 40
0.3392709774
 40
0.400354176
 40
0.4599069587
 40
0.5183361431
 40
0.5760853812
 40
0.6336231864
 40
0.6914280019
 40
0.7499722709
 40
0.8097069082
 40
0.8710488419
 40
0.9343717363
 40
1.0
 40
1.0
 40
1.0
 40
1.0
 10
3.7013431993
 20
5.4367448418
 30
0.0
 10
3.7015848202
 20
5.4364908472
 30
0.0
 10
3.7020737916
 20
5.4360067569
 30
0.0
 10
3.7028388483
 20
5.4353436466
 30
0.0
 10
3.7036189724
 20
5.4347598987
 30
0.0
 10
3.704412321
 20
5.4342570948
 30
0.0
 10
3.705217041
 20
5.4338366306
 30
0.0
 10
3.7060312112
 20
5.4334997897
 30
0.0
 10
3.7068528171
 20
5.4332476711
 30
0.0
 10
3.7076797547
 20
5.4330811941
 30
0.0
 10
3.7085098285
 20
5.4330010772
 30
0.0
 10
3.7093407636
 20
5.4330077524
 30
0.0
 10
3.7101702528
 20
5.4331013836
 30
0.0
 10
3.7109959934
 20
5.4332818633
 30
0.0
 10
3.7118157304
 20
5.4335487847
 30
0.0
 10
3.7126272951
 20
5.4339015369
 30
0.0
 10
3.7134285098
 20
5.4343392599
 30
0.0
 10
3.7139445914
 20
5.4346805587
 30
0.0
 10
3.7142000414
 20
5.434863994
 30
0.0
  0
SPLINE
  5
2FA
100
AcDbEntity
  8
ALL_ASSEMBLY_MEMBERS
100
AcDbSpline
 62
7
  6
CONTINUOUS
 70
0
 71
3
 72
14
 73
10
 74
0
 42
0.0000001
 43
0.0000001
 44
0.0000000001
 40
0.0
 40
0.0
 40
0.0
 40
0.0
 40
0.2235566914
 40
0.3416150684
 40
0.4640796522
 40
0.5910823551
 40
0.7227114763
 40
0.8590142335
 40
1.0
 40
1.0
 40
1.0
 40
1.0
 10
3.7142000414
 20
5.434863994
 30
0.0
 10
3.7146796724
 20
5.435208411
 30
0.0
 10
3.7153754026
 20
5.435788226
 30
0.0
 10
3.7162433362
 20
5.4366542898
 30
0.0
 10
3.7168909049
 20
5.437378237
 30
0.0
 10
3.7175216381
 20
5.4381632468
 30
0.0
 10
3.7181342996
 20
5.4390080199
 30
0.0
 10
3.7187275405
 20
5.4399110001
 30
0.0
 10
3.7191029546
 20
5.4405401665
 30
0.0
 10
3.7192873282
 20
5.4408637067
 30
0.0
  0
SPLINE
  5
2FB
100
AcDbEntity
  8
ALL_ASSEMBLY_MEMBERS
100
AcDbSpline
 62
7
  6
CONTINUOUS
 70
0
 71
3
 72
24
 73
20
 74
0
 42
0.0000001
 43
0.0000001
 44
0.0000000001
 40
0.0
 40
0.0
 40
0.0
 40
0.0
 40
0.0751296812
 40
0.1474782006
 40
0.217136686
 40
0.2510037544
 40
0.2842535914
 40
0.3489903911
 40
0.4115940559
 40
0.4723500424
 40
0.5315920144
 40
0.589696518
 40
0.6470740789
 40
0.704157117
 40
0.7613856906
 40
0.8191922689
 40
0.8779857579
 40
0.9381458595
 40
1.0
 40
1.0
 40
1.0
 40
1.0
 10
3.7023905632
 20
5.5050346835
 30
0.0
 10
3.7027274776
 20
5.5054512431
 30
0.0
 10
3.7034121817
 20
5.506250474
 30
0.0
 10
3.7044913373
 20
5.5073622729
 30
0.0
 10
3.7054239935
 20
5.5082024641
 30
0.0
 10
3.7061834203
 20
5.5088148239
 30
0.0
 10
3.7069371212
 20
5.5093772836
 30
0.0
 10
3.7078940308
 20
5.5100087906
 30
0.0
 10
3.7090725685
 20
5.5106526678
 30
0.0
 10
3.7102677917
 20
5.5111739692
 30
0.0
 10
3.7114762163
 20
5.5115711043
 30
0.0
 10
3.7126942934
 20
5.511842902
 30
0.0
 10
3.713918364
 20
5.5119886016
 30
0.0
 10
3.7151447025
 20
5.5120079073
 30
0.0
 10
3.716369572
 20
5.5119010064
 30
0.0
 10
3.7175892638
 20
5.5116685736
 30
0.0
 10
3.7188002407
 20
5.5113117447
 30
0.0
 10
3.7199989162
 20
5.5108320817
 30
0.0
 10
3.7207758946
 20
5.5104376539
 30
0.0
 10
3.7211606543
 20
5.5102219763
 30
0.0
  0
SPLINE
  5
2FC
100
AcDbEntity
  8
ALL_ASSEMBLY_MEMBERS
100
AcDbSpline
 62
7
  6
CONTINUOUS
 70
0
 71
3
 72
18
 73
14
 74
0
 42
0.0000001
 43
0.0000001
 44
0.0000000001
 40
0.0
 40
0.0
 40
0.0
 40
0.0
 40
0.0563171831
 40
0.1139084221
 40
0.1726640851
 40
0.2324789544
 40
0.2932523137
 40
0.3548878833
 40
0.4803634965
 40
0.6082356508
 40
0.7378647925
 40
0.8686459602
 40
1.0
 40
1.0
 40
1.0
 40
1.0
 10
3.7023902138
 20
5.5050346212
 30
0.0
 10
3.7020211668
 20
5.5044518991
 30
0.0
 10
3.7012995554
 20
5.5032573687
 30
0.0
 10
3.7002789421
 20
5.5014046432
 30
0.0
 10
3.6993110544
 20
5.4994757666
 30
0.0
 10
3.6983995161
 20
5.4974767562
 30
0.0
 10
3.6975476669
 20
5.4954133632
 30
0.0
 10
3.6964894621
 20
5.4925671833
 30
0.0
 10
3.6953364748
 20
5.4888821673
 30
0.0
 10
3.6942437361
 20
5.4843170707
 30
0.0
 10
3.6934504539
 20
5.4796244337
 30
0.0
 10
3.6929692757
 20
5.474846995
 30
0.0
 10
3.6928618347
 20
5.471635407
 30
0.0
 10
3.6928618347
 20
5.4700266265
 30
0.0
  0
LINE
  5
2FD
100
AcDbEntity
  8
ALL_ASSEMBLY_MEMBERS
100
AcDbLine
 62
7
  6
CONTINUOUS
 10
3.7348331227
 20
5.4703551191
 11
3.734340949
 21
5.4586290644
  0
SPLINE
  5
2FE
100
AcDbEntity
  8
ALL_ASSEMBLY_MEMBERS
100
AcDbSpline
 62
7
  6
CONTINUOUS
 70
0
 71
3
 72
22
 73
18
 74
0
 42
0.0000001
 43
0.0000001
 44
0.0000000001
 40
0.0
 40
0.0
 40
0.0
 40
0.0
 40
0.0964538535
 40
0.1476818829
 40
0.2010131705
 40
0.2564990591
 40
0.3141625732
 40
0.374000223
 40
0.4359850426
 40
0.5000691887
 40
0.5661862914
 40
0.6342534886
 40
0.7041731905
 40
0.7758351459
 40
0.8491158062
 40
0.9238862617
 40
1.0
 40
1.0
 40
1.0
 40
1.0
 10
3.7211606543
 20
5.5102219763
 30
0.0
 10
3.7219090864
 20
5.5097130592
 30
0.0
 10
3.7229902526
 20
5.5088351126
 30
0.0
 10
3.7243250708
 20
5.5075015298
 30
0.0
 10
3.7253175346
 20
5.5063729351
 30
0.0
 10
3.7262778508
 20
5.5051397854
 30
0.0
 10
3.7272035384
 20
5.5038054578
 30
0.0
 10
3.7280919289
 20
5.5023738323
 30
0.0
 10
3.7289405242
 20
5.5008490041
 30
0.0
 10
3.729746906
 20
5.4992353536
 30
0.0
 10
3.7305087737
 20
5.4975375128
 30
0.0
 10
3.7312239452
 20
5.4957603597
 30
0.0
 10
3.7318903712
 20
5.4939090007
 30
0.0
 10
3.7325061296
 20
5.4919887725
 30
0.0
 10
3.7330694665
 20
5.4900051785
 30
0.0
 10
3.7335787303
 20
5.48796398
 30
0.0
 10
3.7338787595
 20
5.4865800604
 30
0.0
 10
3.7340196792
 20
5.4858798933
 30
0.0
  0
SPLINE
  5
2FF
100
AcDbEntity
  8
ALL_ASSEMBLY_MEMBERS
100
AcDbSpline
 62
7
  6
CONTINUOUS
 70
0
 71
3
 72
14
 73
10
 74
0
 42
0.0000001
 43
0.0000001
 44
0.0000000001
 40
0.0
 40
0.0
 40
0.0
 40
0.0
 40
0.1200746671
 40
0.2420623103
 40
0.3657162963
 40
0.4907950997
 40
0.6170369608
 40
0.744169933
 40
1.0
 40
1.0
 40
1.0
 40
1.0
 10
3.7340196792
 20
5.4858798933
 30
0.0
 10
3.7340880302
 20
5.4852611403
 30
0.0
 10
3.7342154416
 20
5.4840126099
 30
0.0
 10
3.73437884
 20
5.4821235731
 30
0.0
 10
3.7345166907
 20
5.4802064898
 30
0.0
 10
3.7346294851
 20
5.4782656844
 30
0.0
 10
3.7347176383
 20
5.4763055472
 30
0.0
 10
3.7348029173
 20
5.4736669494
 30
0.0
 10
3.7348305005
 20
5.4716814453
 30
0.0
 10
3.7348331227
 20
5.4703551191
 30
0.0
  0
SPLINE
  5
300
100
AcDbEntity
  8
ALL_ASSEMBLY_MEMBERS
100
AcDbSpline
 62
7
  6
CONTINUOUS
 70
0
 71
3
 72
22
 73
18
 74
0
 42
0.0000001
 43
0.0000001
 44
0.0000000001
 40
0.0
 40
0.0
 40
0.0
 40
0.0
 40
0.0560940383
 40
0.1135846625
 40
0.1723850242
 40
0.2323944715
 40
0.2935009778
 40
0.3555832794
 40
0.4185127695
 40
0.4821551869
 40
0.5463720773
 40
0.6110221294
 40
0.6759622636
 40
0.7410487498
 40
0.8061384582
 40
0.8710878735
 40
1.0
 40
1.0
 40
1.0
 40
1.0
 10
3.7244098277
 20
5.4916011749
 30
0.0
 10
3.7247802701
 20
5.4910652442
 30
0.0
 10
3.7255026229
 20
5.4899606188
 30
0.0
 10
3.7265184331
 20
5.4882345461
 30
0.0
 10
3.7274783774
 20
5.4864251646
 30
0.0
 10
3.7283805967
 20
5.4845397356
 30
0.0
 10
3.7292235155
 20
5.4825855276
 30
0.0
 10
3.7300057761
 20
5.4805698828
 30
0.0
 10
3.7307262528
 20
5.4785001635
 30
0.0
 10
3.7313840442
 20
5.4763837339
 30
0.0
 10
3.7319784678
 20
5.4742279316
 30
0.0
 10
3.7325090527
 20
5.4720400476
 30
0.0
 10
3.7329755352
 20
5.4698272998
 30
0.0
 10
3.7333778488
 20
5.4675968263
 30
0.0
 10
3.7337161259
 20
5.4653556179
 30
0.0
 10
3.7340812394
 20
5.4623700382
 30
0.0
 10
3.7342619037
 20
5.4601242114
 30
0.0
 10
3.734340949
 20
5.4586290644
 30
0.0
  0
SPLINE
  5
301
100
AcDbEntity
  8
ALL_ASSEMBLY_MEMBERS
100
AcDbSpline
 62
7
  6
CONTINUOUS
 70
0
 71
3
 72
32
 73
28
 74
0
 42
0.0000001
 43
0.0000001
 44
0.0000000001
 40
0.0
 40
0.0
 40
0.0
 40
0.0
 40
0.0761316766
 40
0.1519546614
 40
0.2270409314
 40
0.3009737347
 40
0.3733582786
 40
0.443827082
 40
0.512047575
 40
0.5452261659
 40
0.5777382163
 40
0.6095557281
 40
0.640654744
 40
0.6710154476
 40
0.7006227473
 40
0.729466683
 40
0.7575426962
 40
0.7848523942
 40
0.8114038077
 40
0.8372119551
 40
0.8622994884
 40
0.8866969021
 40
0.9104431653
 40
0.9335859196
 40
0.9561815141
 40
0.9782950918
 40
1.0
 40
1.0
 40
1.0
 40
1.0
 10
3.7348331227
 20
5.4703551191
 30
0.0
 10
3.7347651879
 20
5.4715993962
 30
0.0
 10
3.7345751615
 20
5.4740802861
 30
0.0
 10
3.7341275004
 20
5.4777706394
 30
0.0
 10
3.7335192291
 20
5.4814015911
 30
0.0
 10
3.7327535604
 20
5.4849451413
 30
0.0
 10
3.731834915
 20
5.4883741054
 30
0.0
 10
3.730768906
 20
5.4916620738
 30
0.0
 10
3.7297540649
 20
5.4942876416
 30
0.0
 10
3.7288719678
 20
5.4962945043
 30
0.0
 10
3.7281842636
 20
5.4977350758
 30
0.0
 10
3.7274654744
 20
5.4991221734
 30
0.0
 10
3.7267168
 20
5.5004531414
 30
0.0
 10
3.7259394863
 20
5.501725409
 30
0.0
 10
3.7251348394
 20
5.5029365266
 30
0.0
 10
3.7243042219
 20
5.5040841656
 30
0.0
 10
3.7234490234
 20
5.5051661056
 30
0.0
 10
3.7225707004
 20
5.5061802663
 30
0.0
 10
3.7216707366
 20
5.5071246859
 30
0.0
 10
3.7207506512
 20
5.5079975274
 30
0.0
 10
3.7198120164
 20
5.5087971027
 30
0.0
 10
3.7188564179
 20
5.509521834
 30
0.0
 10
3.7178854877
 20
5.5101702933
 30
0.0
 10
3.7169008983
 20
5.5107411887
 30
0.0
 10
3.7159043168
 20
5.5112333513
 30
0.0
 10
3.7148975663
 20
5.5116457605
 30
0.0
 10
3.7142150796
 20
5.5118687997
 30
0.0
 10
3.7138734358
 20
5.5119662413
 30
0.0
  0
SPLINE
  5
302
100
AcDbEntity
  8
ALL_ASSEMBLY_MEMBERS
100
AcDbSpline
 62
7
  6
CONTINUOUS
 70
0
 71
3
 72
46
 73
42
 74
0
 42
0.0000001
 43
0.0000001
 44
0.0000000001
 40
0.0
 40
0.0
 40
0.0
 40
0.0
 40
0.0433205231
 40
0.0858804223
 40
0.1275772879
 40
0.1683178234
 40
0.2080083157
 40
0.2465594429
 40
0.2838860327
 40
0.3199084492
 40
0.3545546953
 40
0.3877632179
 40
0.4194869654
 40
0.4496989339
 40
0.4783994634
 40
0.505625302
 40
0.5314601332
 40
0.5560454173
 40
0.5679375155
 40
0.5796011801
 40
0.5910732074
 40
0.6023943279
 40
0.6136086169
 40
0.6247627438
 40
0.635904988
 40
0.6470841662
 40
0.6583484697
 40
0.6697443731
 40
0.6813156239
 40
0.6931024381
 40
0.7051408898
 40
0.717462525
 40
0.7430479739
 40
0.7700302206
 40
0.79850083
 40
0.82849438
 40
0.8600008053
 40
0.8929771087
 40
0.9273574591
 40
0.9630613717
 40
1.0
 40
1.0
 40
1.0
 40
1.0
 10
3.7340196792
 20
5.4858798933
 30
0.0
 10
3.7339490825
 20
5.4866984165
 30
0.0
 10
3.7337958866
 20
5.4883199885
 30
0.0
 10
3.7335252725
 20
5.4907244123
 30
0.0
 10
3.7332139441
 20
5.4930745903
 30
0.0
 10
3.7328600175
 20
5.495363715
 30
0.0
 10
3.7324614316
 20
5.4975849459
 30
0.0
 10
3.7320160201
 20
5.4997312361
 30
0.0
 10
3.7315215286
 20
5.5017953584
 30
0.0
 10
3.7309756608
 20
5.5037698565
 30
0.0
 10
3.7303761275
 20
5.505647025
 30
0.0
 10
3.7297206997
 20
5.5074189014
 30
0.0
 10
3.7290072766
 20
5.5090772736
 30
0.0
 10
3.7282339522
 20
5.5106137173
 30
0.0
 10
3.7273991127
 20
5.5120196344
 30
0.0
 10
3.7265014523
 20
5.5132863641
 30
0.0
 10
3.7255403375
 20
5.5144050838
 30
0.0
 10
3.7246766312
 20
5.5152158363
 30
0.0
 10
3.7239559437
 20
5.5157771819
 30
0.0
 10
3.7234064002
 20
5.5161512644
 30
0.0
 10
3.7228423029
 20
5.5164821363
 30
0.0
 10
3.7222640542
 20
5.5167689844
 30
0.0
 10
3.7216721796
 20
5.5170111033
 30
0.0
 10
3.721067265
 20
5.5172078524
 30
0.0
 10
3.7204499894
 20
5.5173587357
 30
0.0
 10
3.7198210944
 20
5.5174633482
 30
0.0
 10
3.7191813908
 20
5.5175214414
 30
0.0
 10
3.7185317393
 20
5.517532873
 30
0.0
 10
3.7178730438
 20
5.5174976533
 30
0.0
 10
3.7172062493
 20
5.5174159008
 30
0.0
 10
3.7165323038
 20
5.5172878635
 30
0.0
 10
3.715614138
 20
5.5170530077
 30
0.0
 10
3.7144515357
 20
5.5166408247
 30
0.0
 10
3.7130632886
 20
5.5159758165
 30
0.0
 10
3.7116720751
 20
5.5151407348
 30
0.0
 10
3.710285828
 20
5.5141429304
 30
0.0
 10
3.7089121207
 20
5.5129903418
 30
0.0
 10
3.7075583667
 20
5.511691368
 30
0.0
 10
3.7062316358
 20
5.5102546362
 30
0.0
 10
3.7049386749
 20
5.5086889106
 30
0.0
 10
3.7041166082
 20
5.5075825953
 30
0.0
 10
3.7037121562
 20
5.5070106141
 30
0.0
  0
SPLINE
  5
303
100
AcDbEntity
  8
ALL_ASSEMBLY_MEMBERS
100
AcDbSpline
 62
7
  6
CONTINUOUS
 70
0
 71
3
 72
56
 73
52
 74
0
 42
0.0000001
 43
0.0000001
 44
0.0000000001
 40
0.0
 40
0.0
 40
0.0
 40
0.0
 40
0.0361158025
 40
0.0709509649
 40
0.1044092116
 40
0.1205968007
 40
0.1364093231
 40
0.1518390328
 40
0.1668799041
 40
0.1815280783
 40
0.1957823233
 40
0.2096443478
 40
0.2231195026
 40
0.2489405595
 40
0.2613286463
 40
0.2733951506
 40
0.2851690777
 40
0.2966850845
 40
0.307982777
 40
0.3191066648
 40
0.3301050135
 40
0.3410291092
 40
0.3519317867
 40
0.3628662069
 40
0.3738844009
 40
0.3850360239
 40
0.3963673049
 40
0.4079201946
 40
0.4318233468
 40
0.4442441801
 40
0.457005393
 40
0.4701246741
 40
0.4836154815
 40
0.4974874735
 40
0.5117469658
 40
0.5263972471
 40
0.5414391494
 40
0.5568711378
 40
0.5726899811
 40
0.5888906355
 40
0.6054668945
 40
0.6397133501
 40
0.6753616305
 40
0.7123304414
 40
0.7505306241
 40
0.7898672094
 40
0.8302407904
 40
0.871548567
 40
0.9136835479
 40
0.9565390087
 40
1.0
 40
1.0
 40
1.0
 40
1.0
 10
3.7037121561
 20
5.4330426388
 30
0.0
 10
3.7041386681
 20
5.4324394609
 30
0.0
 10
3.7050062204
 20
5.4312750453
 30
0.0
 10
3.7063738728
 20
5.4296333874
 30
0.0
 10
3.7075570608
 20
5.428372254
 30
0.0
 10
3.7085202196
 20
5.4274418522
 30
0.0
 10
3.7092407838
 20
5.4267919244
 30
0.0
 10
3.7099663757
 20
5.4261834974
 30
0.0
 10
3.7106958659
 20
5.4256178002
 30
0.0
 10
3.7114281237
 20
5.4250960699
 30
0.0
 10
3.7121619442
 20
5.4246194628
 30
0.0
 10
3.712896213
 20
5.4241890935
 30
0.0
 10
3.7138602497
 20
5.4236855689
 30
0.0
 10
3.7148345495
 20
5.4232685327
 30
0.0
 10
3.7158128897
 20
5.4229499262
 30
0.0
 10
3.7165309929
 20
5.422764827
 30
0.0
 10
3.7172422565
 20
5.4226309272
 30
0.0
 10
3.7179455334
 20
5.4225485961
 30
0.0
 10
3.7186396863
 20
5.422518167
 30
0.0
 10
3.7193236089
 20
5.4225397272
 30
0.0
 10
3.7199962403
 20
5.422613293
 30
0.0
 10
3.7206565771
 20
5.4227386377
 30
0.0
 10
3.7213036781
 20
5.4229154374
 30
0.0
 10
3.7219366944
 20
5.423143153
 30
0.0
 10
3.722554862
 20
5.4234211417
 30
0.0
 10
3.7231575225
 20
5.423748589
 30
0.0
 10
3.7237441429
 20
5.4241246189
 30
0.0
 10
3.7245128453
 20
5.4246957199
 30
0.0
 10
3.725239526
 20
5.4253566166
 30
0.0
 10
3.7259224042
 20
5.4260930712
 30
0.0
 10
3.7264238701
 20
5.4266955066
 30
0.0
 10
3.726907851
 20
5.4273395523
 30
0.0
 10
3.7273744343
 20
5.4280239665
 30
0.0
 10
3.727823666
 20
5.428747453
 30
0.0
 10
3.7282556874
 20
5.4295087075
 30
0.0
 10
3.7286706445
 20
5.430306442
 30
0.0
 10
3.7290687528
 20
5.4311393555
 30
0.0
 10
3.7294502296
 20
5.4320061759
 30
0.0
 10
3.7298153424
 20
5.4329056288
 30
0.0
 10
3.7301643695
 20
5.4338364723
 30
0.0
 10
3.7306135488
 20
5.4351318697
 30
0.0
 10
3.7311342212
 20
5.4368228837
 30
0.0
 10
3.7316933643
 20
5.4389365262
 30
0.0
 10
3.7321961532
 20
5.4411472212
 30
0.0
 10
3.7326452714
 20
5.4434462686
 30
0.0
 10
3.7330433311
 20
5.4458252854
 30
0.0
 10
3.7333928221
 20
5.4482760974
 30
0.0
 10
3.7336960607
 20
5.4507906886
 30
0.0
 10
3.7339551804
 20
5.4533612101
 30
0.0
 10
3.7341720626
 20
5.455979808
 30
0.0
 10
3.7342888849
 20
5.4577416067
 30
0.0
 10
3.734340949
 20
5.4586290644
 30
0.0
  0
SPLINE
  5
304
100
AcDbEntity
  8
0
100
AcDbSpline
 62
7
  6
CONTINUOUS
 70
0
 71
3
 72
15
 73
11
 74
0
 42
0.0000001
 43
0.0000001
 44
0.0000000001
 40
0.0
 40
0.0
 40
0.0
 40
0.0
 40
0.1358998208
 40
0.267238004
 40
0.3946686073
 40
0.5189074185
 40
0.6407265016
 40
0.7609445495
 40
0.8804131744
 40
1.0
 40
1.0
 40
1.0
 40
1.0
 10
6.1456351396
 20
6.0524056636
 30
0.0
 10
6.1316825171
 20
6.0362108322
 30
0.0
 10
6.105229362
 20
6.0034971528
 30
0.0
 10
6.0695524916
 20
5.9526330176
 30
0.0
 10
6.0386119792
 20
5.9008735945
 30
0.0
 10
6.0124167973
 20
5.8482209885
 30
0.0
 10
5.99097383
 20
5.7946770069
 30
0.0
 10
5.974289952
 20
5.7402450085
 30
0.0
 10
5.9623708494
 20
5.6849371541
 30
0.0
 10
5.9576157347
 20
5.6475825958
 30
0.0
 10
5.9560303678
 20
5.6288391265
 30
0.0
  0
SPLINE
  5
305
100
AcDbEntity
  8
0
100
AcDbSpline
 62
7
  6
CONTINUOUS
 70
0
 71
3
 72
15
 73
11
 74
0
 42
0.0000001
 43
0.0000001
 44
0.0000000001
 40
0.0
 40
0.0
 40
0.0
 40
0.0
 40
0.1358998208
 40
0.267238004
 40
0.3946686073
 40
0.5189074185
 40
0.6407265016
 40
0.7609445495
 40
0.8804131744
 40
1.0
 40
1.0
 40
1.0
 40
1.0
 10
4.9581353883
 20
6.0524056636
 30
0.0
 10
4.9720880109
 20
6.0362108322
 30
0.0
 10
4.998541166
 20
6.0034971528
 30
0.0
 10
5.0342180363
 20
5.9526330176
 30
0.0
 10
5.0651585487
 20
5.9008735945
 30
0.0
 10
5.0913537306
 20
5.8482209885
 30
0.0
 10
5.1127966979
 20
5.7946770069
 30
0.0
 10
5.1294805759
 20
5.7402450085
 30
0.0
 10
5.1413996786
 20
5.6849371541
 30
0.0
 10
5.1461547933
 20
5.6475825958
 30
0.0
 10
5.1477401602
 20
5.6288391265
 30
0.0
  0
SPLINE
  5
306
100
AcDbEntity
  8
0
100
AcDbSpline
 62
7
  6
CONTINUOUS
 70
0
 71
3
 72
21
 73
17
 74
0
 42
0.0000001
 43
0.0000001
 44
0.0000000001
 40
0.0
 40
0.0
 40
0.0
 40
0.0
 40
0.0698089599
 40
0.1377172362
 40
0.2039275282
 40
0.2686409128
 40
0.3320568797
 40
0.3943734214
 40
0.4557871812
 40
0.5164936584
 40
0.6365626198
 40
0.7561322095
 40
0.8162148943
 40
0.8767560555
 40
0.9379519044
 40
1.0
 40
1.0
 40
1.0
 40
1.0
 10
5.9560303678
 20
5.6288391265
 30
0.0
 10
5.9509501077
 20
5.5687762491
 30
0.0
 10
5.9415067055
 20
5.4502360706
 30
0.0
 10
5.9291756268
 20
5.2745825148
 30
0.0
 10
5.9186555886
 20
5.1032193465
 30
0.0
 10
5.9097140185
 20
4.9356513636
 30
0.0
 10
5.9021182127
 20
4.7713830079
 30
0.0
 10
5.8956352685
 20
4.609918699
 30
0.0
 10
5.8900324194
 20
4.4507627632
 30
0.0
 10
5.8834480151
 20
4.2417450417
 30
0.0
 10
5.8762116808
 20
3.9825095703
 30
0.0
 10
5.868785121
 20
3.7238177782
 30
0.0
 10
5.8618358885
 20
3.516535904
 30
0.0
 10
5.8558631832
 20
3.3596545561
 30
0.0
 10
5.8489046562
 20
3.2011148392
 30
0.0
 10
5.8434963566
 20
3.0948347555
 30
0.0
 10
5.8405603381
 20
3.0413391265
 30
0.0
  0
SPLINE
  5
307
100
AcDbEntity
  8
0
100
AcDbSpline
 62
7
  6
CONTINUOUS
 70
0
 71
3
 72
21
 73
17
 74
0
 42
0.0000001
 43
0.0000001
 44
0.0000000001
 40
0.0
 40
0.0
 40
0.0
 40
0.0
 40
0.0698089599
 40
0.1377172362
 40
0.2039275282
 40
0.2686409128
 40
0.3320568797
 40
0.3943734214
 40
0.4557871812
 40
0.5164936584
 40
0.6365626198
 40
0.7561322095
 40
0.8162148943
 40
0.8767560555
 40
0.9379519044
 40
1.0
 40
1.0
 40
1.0
 40
1.0
 10
5.1477401602
 20
5.6288391265
 30
0.0
 10
5.1528204203
 20
5.5687762491
 30
0.0
 10
5.1622638224
 20
5.4502360706
 30
0.0
 10
5.1745949011
 20
5.2745825148
 30
0.0
 10
5.1851149393
 20
5.1032193465
 30
0.0
 10
5.1940565095
 20
4.9356513636
 30
0.0
 10
5.2016523153
 20
4.7713830079
 30
0.0
 10
5.2081352595
 20
4.609918699
 30
0.0
 10
5.2137381085
 20
4.4507627632
 30
0.0
 10
5.2203225128
 20
4.2417450417
 30
0.0
 10
5.2275588471
 20
3.9825095703
 30
0.0
 10
5.234985407
 20
3.7238177782
 30
0.0
 10
5.2419346394
 20
3.516535904
 30
0.0
 10
5.2479073448
 20
3.3596545561
 30
0.0
 10
5.2548658717
 20
3.2011148392
 30
0.0
 10
5.2602741713
 20
3.0948347555
 30
0.0
 10
5.2632101898
 20
3.0413391265
 30
0.0
  0
SPLINE
  5
308
100
AcDbEntity
  8
0
100
AcDbSpline
 62
7
  6
CONTINUOUS
 70
0
 71
3
 72
15
 73
11
 74
0
 42
0.0000001
 43
0.0000001
 44
0.0000000001
 40
0.0
 40
0.0
 40
0.0
 40
0.0
 40
0.150864766
 40
0.2991688762
 40
0.4422678911
 40
0.5777769216
 40
0.7033610135
 40
0.8168693296
 40
0.9163359387
 40
1.0
 40
1.0
 40
1.0
 40
1.0
 10
5.8405603381
 20
3.0413391265
 30
0.0
 10
5.8395654343
 20
3.0232115134
 30
0.0
 10
5.8372793469
 20
2.9872806156
 30
0.0
 10
5.8331015652
 20
2.9342211863
 30
0.0
 10
5.8283829852
 20
2.8830627853
 30
0.0
 10
5.8233257647
 20
2.8346852633
 30
0.0
 10
5.8181274603
 20
2.7899059381
 30
0.0
 10
5.8129874459
 20
2.7494888516
 30
0.0
 10
5.808104992
 20
2.7141264807
 30
0.0
 10
5.8048574317
 20
2.6923288169
 30
0.0
 10
5.8033128116
 20
2.6823799708
 30
0.0
  0
SPLINE
  5
309
100
AcDbEntity
  8
0
100
AcDbSpline
 62
7
  6
CONTINUOUS
 70
0
 71
3
 72
15
 73
11
 74
0
 42
0.0000001
 43
0.0000001
 44
0.0000000001
 40
0.0
 40
0.0
 40
0.0
 40
0.0
 40
0.1511219668
 40
0.2996543823
 40
0.4429286518
 40
0.5785358625
 40
0.7041197066
 40
0.8175109791
 40
0.9167284172
 40
1.0
 40
1.0
 40
1.0
 40
1.0
 10
5.2632101898
 20
3.0413391265
 30
0.0
 10
5.2642091502
 20
3.0231376026
 30
0.0
 10
5.2665025606
 20
2.9870630688
 30
0.0
 10
5.2706874752
 20
2.933797837
 30
0.0
 10
5.2754069995
 20
2.8824565854
 30
0.0
 10
5.280456994
 20
2.8339293852
 30
0.0
 10
5.2856380354
 20
2.7890429371
 30
0.0
 10
5.290749047
 20
2.7485695073
 30
0.0
 10
5.2955892218
 20
2.7132083993
 30
0.0
 10
5.2987989959
 20
2.6914306647
 30
0.0
 10
5.3003212836
 20
2.6815021484
 30
0.0
  0
SPLINE
  5
30A
100
AcDbEntity
  8
0
100
AcDbSpline
 62
7
  6
CONTINUOUS
 70
0
 71
3
 72
9
 73
5
 74
0
 42
0.0000001
 43
0.0000001
 44
0.0000000001
 40
0.0
 40
0.0
 40
0.0
 40
0.0
 40
0.4999999929
 40
1.0
 40
1.0
 40
1.0
 40
1.0
 10
5.5094442275
 20
2.390010619
 30
0.0
 10
5.495555186
 20
2.3924549549
 30
0.0
 10
5.4681520433
 20
2.3997863125
 30
0.0
 10
5.44244391
 20
2.4117767193
 30
0.0
 10
5.4302307948
 20
2.4188279661
 30
0.0
  0
SPLINE
  5
30B
100
AcDbEntity
  8
0
100
AcDbSpline
 62
7
  6
CONTINUOUS
 70
0
 71
3
 72
49
 73
45
 74
0
 42
0.0000001
 43
0.0000001
 44
0.0000000001
 40
0.0
 40
0.0
 40
0.0
 40
0.0
 40
0.100165151
 40
0.1989912794
 40
0.2954518892
 40
0.3886798487
 40
0.4778323433
 40
0.5620804443
 40
0.6406593401
 40
0.7128543698
 40
0.7463577893
 40
0.778029377
 40
0.8077994552
 40
0.8356077705
 40
0.8613947166
 40
0.8851024793
 40
0.906685246
 40
0.9261021227
 40
0.9433122618
 40
0.9510782363
 40
0.9582808712
 40
0.9649176125
 40
0.9709859055
 40
0.9764831952
 40
0.9814069264
 40
0.9857545476
 40
0.9895242407
 40
0.9927157601
 40
0.9940946915
 40
0.9953290639
 40
0.9964188723
 40
0.9973641119
 40
0.9981647786
 40
0.9988208695
 40
0.9990946987
 40
0.999332384
 40
0.9995339263
 40
0.9996993277
 40
0.9998285922
 40
0.9999217301
 40
0.9999547603
 40
0.9999787757
 40
0.9999938048
 40
1.0
 40
1.0
 40
1.0
 40
1.0
 10
5.6963845989
 20
3.0413391265
 30
0.0
 10
5.6958133856
 20
3.0205468876
 30
0.0
 10
5.694643134
 20
2.9792413295
 30
0.0
 10
5.6928038266
 20
2.9179159643
 30
0.0
 10
5.6909093487
 20
2.858033544
 30
0.0
 10
5.6889833814
 20
2.8001620105
 30
0.0
 10
5.687049925
 20
2.7448282304
 30
0.0
 10
5.6851333605
 20
2.6925377863
 30
0.0
 10
5.683260136
 20
2.6437695457
 30
0.0
 10
5.6817208135
 20
2.6055338491
 30
0.0
 10
5.6805311779
 20
2.5770326901
 30
0.0
 10
5.6796892443
 20
2.5573345753
 30
0.0
 10
5.6788786728
 20
2.5388188432
 30
0.0
 10
5.6781032912
 20
2.5215247429
 30
0.0
 10
5.6773667812
 20
2.5054890616
 30
0.0
 10
5.6766726154
 20
2.4907455923
 30
0.0
 10
5.6760246928
 20
2.4773242159
 30
0.0
 10
5.6754268985
 20
2.4652512832
 30
0.0
 10
5.6749589085
 20
2.456044612
 30
0.0
 10
5.6746122788
 20
2.449371437
 30
0.0
 10
5.6743762302
 20
2.444891129
 30
0.0
 10
5.6741555486
 20
2.4407630384
 30
0.0
 10
5.6739507103
 20
2.4369887362
 30
0.0
 10
5.6737621927
 20
2.433569793
 30
0.0
 10
5.6735904752
 20
2.4305077787
 30
0.0
 10
5.6734360295
 20
2.4278041099
 30
0.0
 10
5.6732993072
 20
2.4254597241
 30
0.0
 10
5.6731961002
 20
2.4237309045
 30
0.0
 10
5.6731226465
 20
2.4225277271
 30
0.0
 10
5.6730750227
 20
2.4217602226
 30
0.0
 10
5.6730321842
 20
2.4210826544
 30
0.0
 10
5.6729941939
 20
2.4204950222
 30
0.0
 10
5.6729611114
 20
2.419997327
 30
0.0
 10
5.6729364166
 20
2.4196388048
 30
0.0
 10
5.6729190597
 20
2.4193969659
 30
0.0
 10
5.6729081155
 20
2.4192492949
 30
0.0
 10
5.6728984346
 20
2.419124124
 30
0.0
 10
5.6728900816
 20
2.4190213892
 30
0.0
 10
5.6728829425
 20
2.4189412568
 30
0.0
 10
5.6728778715
 20
2.4188882854
 30
0.0
 10
5.6728740593
 20
2.4188575571
 30
0.0
 10
5.672872293
 20
2.4188423124
 30
0.0
 10
5.6728701071
 20
2.4188338454
 30
0.0
 10
5.6728695601
 20
2.4188286595
 30
0.0
 10
5.6728684456
 20
2.4188280169
 30
0.0
  0
SPLINE
  5
30C
100
AcDbEntity
  8
0
100
AcDbSpline
 62
7
  6
CONTINUOUS
 70
0
 71
3
 72
49
 73
45
 74
0
 42
0.0000001
 43
0.0000001
 44
0.0000000001
 40
0.0
 40
0.0
 40
0.0
 40
0.0
 40
0.1001971629
 40
0.1990538358
 40
0.2955427017
 40
0.3887959004
 40
0.4779698882
 40
0.5622350568
 40
0.6408260286
 40
0.713027634
 40
0.7465321485
 40
0.7782032888
 40
0.8079713769
 40
0.8357761245
 40
0.8615578751
 40
0.8852588023
 40
0.9068331232
 40
0.9262399129
 40
0.9434382945
 40
0.9511977828
 40
0.9583935375
 40
0.9650230028
 40
0.9710836223
 40
0.9765728393
 40
0.9814880968
 40
0.9858268423
 40
0.9895872816
 40
0.9927691813
 40
0.9941431658
 40
0.9953725002
 40
0.9964571796
 40
0.9973971993
 40
0.9981925556
 40
0.9988432455
 40
0.9991143403
 40
0.9993492688
 40
0.9995480318
 40
0.9997106316
 40
0.9998370727
 40
0.9999273659
 40
0.9999589667
 40
0.9999815499
 40
0.9999951502
 40
1.0
 40
1.0
 40
1.0
 40
1.0
 10
5.4077095247
 20
3.0413391265
 30
0.0
 10
5.4082796068
 20
3.020541491
 30
0.0
 10
5.4094450287
 20
2.979225356
 30
0.0
 10
5.4112693974
 20
2.9178844712
 30
0.0
 10
5.413141372
 20
2.8579875874
 30
0.0
 10
5.4150375064
 20
2.800103069
 30
0.0
 10
5.416934091
 20
2.7447581807
 30
0.0
 10
5.4188070824
 20
2.6924588727
 30
0.0
 10
5.4206304676
 20
2.6436843402
 30
0.0
 10
5.4221223482
 20
2.605445029
 30
0.0
 10
5.4232708403
 20
2.5769424442
 30
0.0
 10
5.4240814001
 20
2.5572445111
 30
0.0
 10
5.4248593949
 20
2.5387297754
 30
0.0
 10
5.4256010807
 20
2.5214375025
 30
0.0
 10
5.4263028579
 20
2.5054044985
 30
0.0
 10
5.4269613251
 20
2.4906645611
 30
0.0
 10
5.4275726791
 20
2.4772475739
 30
0.0
 10
5.428133133
 20
2.4651798949
 30
0.0
 10
5.428568456
 20
2.4559780821
 30
0.0
 10
5.4288883286
 20
2.4493092071
 30
0.0
 10
5.4291048443
 20
2.4448324814
 30
0.0
 10
5.4293058604
 20
2.4407081805
 30
0.0
 10
5.4294909129
 20
2.4369378766
 30
0.0
 10
5.42965954
 20
2.4335231419
 30
0.0
 10
5.4298112791
 20
2.4304655478
 30
0.0
 10
5.4299456823
 20
2.4277665073
 30
0.0
 10
5.4300623128
 20
2.425426951
 30
0.0
 10
5.4301480553
 20
2.4237022373
 30
0.0
 10
5.4302072524
 20
2.4225024246
 30
0.0
 10
5.4302447007
 20
2.421737546
 30
0.0
 10
5.4302773685
 20
2.4210626523
 30
0.0
 10
5.4303052062
 20
2.4204777432
 30
0.0
 10
5.4303281602
 20
2.4199828214
 30
0.0
 10
5.4303440348
 20
2.4196266159
 30
0.0
 10
5.430354144
 20
2.4193866474
 30
0.0
 10
5.4303600015
 20
2.4192404084
 30
0.0
 10
5.4303645888
 20
2.4191167075
 30
0.0
 10
5.4303679618
 20
2.4190153867
 30
0.0
 10
5.430369981
 20
2.4189368661
 30
0.0
 10
5.4303709529
 20
2.4188848512
 30
0.0
 10
5.4303706586
 20
2.4188554586
 30
0.0
 10
5.4303705822
 20
2.4188403854
 30
0.0
 10
5.4303694667
 20
2.4188336676
 30
0.0
 10
5.43036933
 20
2.4188279661
 30
0.0
 10
5.430368323
 20
2.4188279661
 30
0.0
  0
SPLINE
  5
30D
100
AcDbEntity
  8
0
100
AcDbSpline
 62
7
  6
CONTINUOUS
 70
0
 71
3
 72
15
 73
11
 74
0
 42
0.0000001
 43
0.0000001
 44
0.0000000001
 40
0.0
 40
0.0
 40
0.0
 40
0.0
 40
0.1233029442
 40
0.2465582741
 40
0.3700357032
 40
0.4940034956
 40
0.6187267512
 40
0.7444657916
 40
0.8714746929
 40
1.0
 40
1.0
 40
1.0
 40
1.0
 10
5.2553431136
 20
6.0524056636
 30
0.0
 10
5.2624329337
 20
6.0359288625
 30
0.0
 10
5.2758435011
 20
6.0026456615
 30
0.0
 10
5.2936074773
 20
5.9518106419
 30
0.0
 10
5.3090030776
 20
5.900106895
 30
0.0
 10
5.3220296183
 20
5.847536571
 30
0.0
 10
5.3326873201
 20
5.7941001341
 30
0.0
 10
5.340976349
 20
5.7397980554
 30
0.0
 10
5.3468969654
 20
5.6846322486
 30
0.0
 10
5.3492500957
 20
5.6475195911
 30
0.0
 10
5.350039229
 20
5.6288391265
 30
0.0
  0
SPLINE
  5
30E
100
AcDbEntity
  8
0
100
AcDbSpline
 62
7
  6
CONTINUOUS
 70
0
 71
3
 72
32
 73
28
 74
0
 42
0.0000001
 43
0.0000001
 44
0.0000000001
 40
0.0
 40
0.0
 40
0.0
 40
0.0
 40
0.0283024233
 40
0.0550232536
 40
0.0802311643
 40
0.1040293427
 40
0.1479740816
 40
0.1686128344
 40
0.1887114171
 40
0.2085945854
 40
0.2285936889
 40
0.2490303141
 40
0.2702098011
 40
0.3157831489
 40
0.3406193435
 40
0.3669899369
 40
0.3949925191
 40
0.4246753682
 40
0.4560591886
 40
0.4891490908
 40
0.5239297446
 40
0.5603561393
 40
0.6379076438
 40
0.7213025377
 40
0.8099277902
 40
0.903100514
 40
1.0
 40
1.0
 40
1.0
 40
1.0
 10
6.1456351396
 20
6.0524056636
 30
0.0
 10
6.1456387654
 20
6.0559596332
 30
0.0
 10
6.1454909478
 20
6.0628708559
 30
0.0
 10
6.1447268822
 20
6.0729217739
 30
0.0
 10
6.1433958448
 20
6.0823467803
 30
0.0
 10
6.1408953035
 20
6.0937532307
 30
0.0
 10
6.1371055343
 20
6.1042808334
 30
0.0
 10
6.1318279075
 20
6.1135382645
 30
0.0
 10
6.127263944
 20
6.1196565769
 30
0.0
 10
6.1219996212
 20
6.1250735368
 30
0.0
 10
6.1160364026
 20
6.1297784075
 30
0.0
 10
6.1093803987
 20
6.133763488
 30
0.0
 10
6.0993527345
 20
6.1382150737
 30
0.0
 10
6.0881038496
 20
6.1410301999
 30
0.0
 10
6.0760238624
 20
6.1424154429
 30
0.0
 10
6.0660721576
 20
6.1427580401
 30
0.0
 10
6.0555168978
 20
6.1423723493
 30
0.0
 10
6.0443808415
 20
6.1412625115
 30
0.0
 10
6.0326946272
 20
6.1394308041
 30
0.0
 10
6.0204901135
 20
6.1368796886
 30
0.0
 10
6.0078028844
 20
6.1336131579
 30
0.0
 10
5.989920598
 20
6.128197488
 30
0.0
 10
5.9666445116
 20
6.1196124381
 30
0.0
 10
5.9380292433
 20
6.1067821894
 30
0.0
 10
5.9085397417
 20
6.0912672137
 30
0.0
 10
5.8785802008
 20
6.0731421111
 30
0.0
 10
5.8589077132
 20
6.0595977677
 30
0.0
 10
5.8490929892
 20
6.0524056636
 30
0.0
  0
SPLINE
  5
30F
100
AcDbEntity
  8
0
100
AcDbSpline
 62
7
  6
CONTINUOUS
 70
0
 71
3
 72
15
 73
11
 74
0
 42
0.0000001
 43
0.0000001
 44
0.0000000001
 40
0.0
 40
0.0
 40
0.0
 40
0.0
 40
0.1375412941
 40
0.2684113266
 40
0.3941597669
 40
0.5163303421
 40
0.6364622629
 40
0.7560924451
 40
0.8767582119
 40
1.0
 40
1.0
 40
1.0
 40
1.0
 10
5.7541843328
 20
5.6288391265
 30
0.0
 10
5.7491648316
 20
5.5102829488
 30
0.0
 10
5.7404969232
 20
5.278871834
 30
0.0
 10
5.7307832442
 20
4.9389497278
 30
0.0
 10
5.7237952399
 20
4.6122258613
 30
0.0
 10
5.7185923112
 20
4.2947355155
 30
0.0
 10
5.7142303074
 20
3.9825121698
 30
0.0
 10
5.7097627689
 20
3.6715885436
 30
0.0
 10
5.704242993
 20
3.3579976521
 30
0.0
 10
5.6993045205
 20
3.1476246577
 30
0.0
 10
5.6963845989
 20
3.0413391265
 30
0.0
  0
SPLINE
  5
310
100
AcDbEntity
  8
0
100
AcDbSpline
 62
7
  6
CONTINUOUS
 70
0
 71
3
 72
15
 73
11
 74
0
 42
0.0000001
 43
0.0000001
 44
0.0000000001
 40
0.0
 40
0.0
 40
0.0
 40
0.0
 40
0.1375410318
 40
0.2684109845
 40
0.3941594488
 40
0.516330099
 40
0.6364621133
 40
0.7560923855
 40
0.8767582148
 40
1.0
 40
1.0
 40
1.0
 40
1.0
 10
5.350039229
 20
5.6288391265
 30
0.0
 10
5.3550474937
 20
5.510282848
 30
0.0
 10
5.3636959939
 20
5.2788716094
 30
0.0
 10
5.3733879157
 20
4.9389495956
 30
0.0
 10
5.380360269
 20
4.6122257944
 30
0.0
 10
5.3855515453
 20
4.2947354901
 30
0.0
 10
5.3899037803
 20
3.9825121737
 30
0.0
 10
5.3943613135
 20
3.6715885793
 30
0.0
 10
5.3998687273
 20
3.3579977359
 30
0.0
 10
5.4047961408
 20
3.1476247022
 30
0.0
 10
5.4077095247
 20
3.0413391265
 30
0.0
  0
SPLINE
  5
311
100
AcDbEntity
  8
0
100
AcDbSpline
 62
7
  6
CONTINUOUS
 70
0
 71
3
 72
23
 73
19
 74
0
 42
0.0000001
 43
0.0000001
 44
0.0000000001
 40
0.0
 40
0.0
 40
0.0
 40
0.0
 40
0.0592692649
 40
0.1194968733
 40
0.1807385918
 40
0.2430060399
 40
0.3062555274
 40
0.3703197538
 40
0.4349702636
 40
0.4999251957
 40
0.5648830876
 40
0.62954231
 40
0.6936206777
 40
0.7568890536
 40
0.8191792651
 40
0.8804467398
 40
0.9407021181
 40
1.0
 40
1.0
 40
1.0
 40
1.0
 10
5.8490929892
 20
6.0524056636
 30
0.0
 10
5.8390428447
 20
6.0597702809
 30
0.0
 10
5.8180770004
 20
6.0736818861
 30
0.0
 10
5.7846461179
 20
6.0918319044
 30
0.0
 10
5.7492178965
 20
6.1073316865
 30
0.0
 10
5.712055118
 20
6.1201198633
 30
0.0
 10
5.6734404476
 20
6.1301353461
 30
0.0
 10
5.6336963132
 20
6.1373367182
 30
0.0
 10
5.5931789741
 20
6.1416707571
 30
0.0
 10
5.5522690766
 20
6.1431212487
 30
0.0
 10
5.5113573547
 20
6.1416706505
 30
0.0
 10
5.4708345832
 20
6.137336502
 30
0.0
 10
5.4310815758
 20
6.1301350118
 30
0.0
 10
5.3924548397
 20
6.1201194622
 30
0.0
 10
5.355277127
 20
6.1073312607
 30
0.0
 10
5.3198314337
 20
6.0918315305
 30
0.0
 10
5.2863808833
 20
6.0736816596
 30
0.0
 10
5.265400735
 20
6.0597702541
 30
0.0
 10
5.2553431136
 20
6.0524056636
 30
0.0
  0
SPLINE
  5
312
100
AcDbEntity
  8
0
100
AcDbSpline
 62
7
  6
CONTINUOUS
 70
0
 71
3
 72
15
 73
11
 74
0
 42
0.0000001
 43
0.0000001
 44
0.0000000001
 40
0.0
 40
0.0
 40
0.0
 40
0.0
 40
0.1233256978
 40
0.2465952423
 40
0.370079325
 40
0.494047232
 40
0.6187651157
 40
0.7444943657
 40
0.8714901267
 40
1.0
 40
1.0
 40
1.0
 40
1.0
 10
5.8490929892
 20
6.0524056636
 30
0.0
 10
5.8419875209
 20
6.0359294759
 30
0.0
 10
5.8285472442
 20
6.0026474049
 30
0.0
 10
5.8107432517
 20
5.9518122187
 30
0.0
 10
5.7953129627
 20
5.9001082763
 30
0.0
 10
5.7822570683
 20
5.8475377373
 30
0.0
 10
5.7715753499
 20
5.7941010714
 30
0.0
 10
5.7632676425
 20
5.7397987546
 30
0.0
 10
5.7573336862
 20
5.6846327126
 30
0.0
 10
5.7549752413
 20
5.6475196858
 30
0.0
 10
5.7541843328
 20
5.6288391265
 30
0.0
  0
SPLINE
  5
313
100
AcDbEntity
  8
0
100
AcDbSpline
 62
7
  6
CONTINUOUS
 70
0
 71
3
 72
32
 73
28
 74
0
 42
0.0000001
 43
0.0000001
 44
0.0000000001
 40
0.0
 40
0.0
 40
0.0
 40
0.0
 40
0.0968259348
 40
0.1899394379
 40
0.2785214927
 40
0.3618904337
 40
0.4394339024
 40
0.4758630699
 40
0.510650973
 40
0.5437525527
 40
0.5751523776
 40
0.6048553197
 40
0.6328817568
 40
0.6592795533
 40
0.6841456511
 40
0.7297833433
 40
0.7509944885
 40
0.7714604757
 40
0.7914849703
 40
0.8113880027
 40
0.831499701
 40
0.8521440754
 40
0.8960767986
 40
0.9198578672
 40
0.9450419629
 40
0.9717329087
 40
1.0
 40
1.0
 40
1.0
 40
1.0
 10
5.2553431136
 20
6.0524056636
 30
0.0
 10
5.2455205109
 20
6.059598164
 30
0.0
 10
5.2258310809
 20
6.0731432912
 30
0.0
 10
5.1958441158
 20
6.0912683773
 30
0.0
 10
5.1663238204
 20
6.1067833104
 30
0.0
 10
5.1376744416
 20
6.1196135271
 30
0.0
 10
5.1143679389
 20
6.1281980308
 30
0.0
 10
5.096459884
 20
6.1336133558
 30
0.0
 10
5.0837522318
 20
6.1368798728
 30
0.0
 10
5.0715266542
 20
6.1394309575
 30
0.0
 10
5.059818781
 20
6.1412626244
 30
0.0
 10
5.0486605242
 20
6.1423724129
 30
0.0
 10
5.0380825745
 20
6.1427580406
 30
0.0
 10
5.0281077632
 20
6.1424153869
 30
0.0
 10
5.0159965098
 20
6.1410299806
 30
0.0
 10
5.0047162353
 20
6.1382148524
 30
0.0
 10
4.9946557033
 20
6.1337635954
 30
0.0
 10
4.9879752446
 20
6.1297787744
 30
0.0
 10
4.9819873676
 20
6.1250742302
 30
0.0
 10
4.9766982187
 20
6.1196575918
 30
0.0
 10
4.9721093422
 20
6.1135395033
 30
0.0
 10
4.9667988474
 20
6.1042839669
 30
0.0
 10
4.9629754998
 20
6.0937560964
 30
0.0
 10
4.9604434074
 20
6.0823478005
 30
0.0
 10
4.9590887329
 20
6.0729226167
 30
0.0
 10
4.9583015108
 20
6.0628715261
 30
0.0
 10
4.9581390143
 20
6.0559598167
 30
0.0
 10
4.9581353883
 20
6.0524056636
 30
0.0
  0
ELLIPSE
  5
314
100
AcDbEntity
  8
ALL_FEATURES
100
AcDbEllipse
 62
7
  6
CONTINUOUS
 10
7.520385264
 20
5.7240897413
 30
0.0
 11
0.5205684689
 21
0.4949291313
 31
0.0
 40
0.5769821704
 41
0.021858488
 42
1.0690560392
  0
ELLIPSE
  5
315
100
AcDbEntity
  8
ALL_FEATURES
100
AcDbEllipse
 62
7
  6
CONTINUOUS
 10
7.520385264
 20
5.7240897413
 30
0.0
 11
-0.5205684689
 21
0.4949291313
 31
0.0
 40
0.5769821704
 41
-1.0690560392
 42
-0.021858488
  0
ELLIPSE
  5
316
100
AcDbEntity
  8
ALL_FEATURES
100
AcDbEllipse
 62
7
  6
CONTINUOUS
 10
3.583380264
 20
5.7240897413
 30
0.0
 11
0.5205684689
 21
0.4949291313
 31
0.0
 40
0.5769821704
 41
0.021858488
 42
1.0690560392
  0
ELLIPSE
  5
317
100
AcDbEntity
  8
ALL_FEATURES
100
AcDbEllipse
 62
7
  6
CONTINUOUS
 10
3.583380264
 20
5.7240897413
 30
0.0
 11
-0.5205684689
 21
0.4949291313
 31
0.0
 40
0.5769821704
 41
-1.0690560392
 42
-0.021858488
  0
ENDSEC
  0
SECTION
  2
OBJECTS
  0
DICTIONARY
  5
C
100
AcDbDictionary
280
0
281
1
  3
ACAD_GROUP
350
D
  3
ACAD_MLINESTYLE
350
17
  3
ACAD_LAYOUT
350
1A
  3
ACAD_PLOTSETTINGS
350
19
  3
ACAD_PLOTSTYLENAME
350
E
  0
DICTIONARY
  5
D
102
{ACAD_REACTORS
330
C
102
}
100
AcDbDictionary
280
0
281
1
  0
ACDBDICTIONARYWDFLT
  5
E
102
{ACAD_REACTORS
330
C
102
}
100
AcDbDictionary
281
1
  3
Normal
350
F
100
AcDbDictionaryWithDefault
340
F
  0
DICTIONARY
  5
17
102
{ACAD_REACTORS
330
C
102
}
100
AcDbDictionary
280
0
281
1
  3
Standard
350
18
  0
DICTIONARY
  5
19
102
{ACAD_REACTORS
330
C
102
}
100
AcDbDictionary
281
1
  0
DICTIONARY
  5
1A
102
{ACAD_REACTORS
330
C
102
}
100
AcDbDictionary
281
1
  3
Model
350
318
  3
Layout1
350
319
  0
ACDBPLACEHOLDER
  5
F
102
{ACAD_REACTORS
330
E
102
}
  0
MLINESTYLE
  5
18
102
{ACAD_REACTORS
330
17
102
}
100
AcDbMlineStyle
  2
STANDARD
 70
0
  3

 62
256
 51
90.0
 52
90.0
 71
2
 49
0.5
 62
256
  6
BYLAYER
 49
-0.5
 62
256
  6
BYLAYER
  0
LAYOUT
  5
318
102
{ACAD_REACTORS
330
1A
102
}
100
AcDbPlotSettings
  1

  2
none_device
  4
ANSI_A_(11.00_x_8.50_Inches)
  6

 40
0.0
 41
0.0
 42
0.0
 43
0.0
 44
279.4
 45
215.9
 46
0.0
 47
0.0
 48
0.0
 49
0.0
140
0.0
141
0.0
142
1.0
143
1.0
 70
1024
 72
0
 73
0
 74
0
  7

 75
0
147
1.0
148
0.0
149
0.0
100
AcDbLayout
  1
Model
 70
0
 71
0
 10
0.0
 20
0.0
 11
11.0
 21
8.5
 12
0.0
 22
0.0
 32
0.0
 14
0.0
 24
0.0
 34
0.0
 15
0.0
 25
0.0
 35
0.0
146
0.0
 13
0.0
 23
0.0
 33
0.0
 16
1.0
 26
0.0
 36
0.0
 17
0.0
 27
1.0
 37
0.0
 76
0
330
217
345
0
346
0
  0
LAYOUT
  5
319
102
{ACAD_REACTORS
330
1A
102
}
100
AcDbPlotSettings
  1

  2
none_device
  4
ANSI_A_(11.00_x_8.50_Inches)
  6

 40
0.0
 41
0.0
 42
0.0
 43
0.0
 44
279.4
 45
215.9
 46
0.0
 47
0.0
 48
0.0
 49
0.0
140
0.0
141
0.0
142
1.0
143
1.0
 70
0
 72
0
 73
0
 74
0
  7

 75
0
147
1.0
148
0.0
149
0.0
100
AcDbLayout
  1
Layout1
 70
0
 71
1
 10
0.0
 20
0.0
 11
11.0
 21
8.5
 12
0.0
 22
0.0
 32
0.0
 14
0.0
 24
0.0
 34
0.0
 15
0.0
 25
0.0
 35
0.0
146
0.0
 13
0.0
 23
0.0
 33
0.0
 16
1.0
 26
0.0
 36
0.0
 17
0.0
 27
1.0
 37
0.0
 76
0
330
218
345
0
346
0
  0
ENDSEC
  0
EOF
