999
DXF file: E:\BT Custom\CADOUTPUT\_RIGHT.dxf
999
Pro/ENGINEER 2018400 by Parametric Technology Corporation
  0
SECTION
  2
HEADER
  9
$ACADVER
  1
AC1018
  9
$DWGCODEPAGE
  3
ANSI_1252
  9
$EXTMAX
 10
22.0
 20
17.0
 30
0.0
  9
$EXTMIN
 10
0.0
 20
0.0
 30
0.0
  9
$LIMMIN
 10
0.0
 20
0.0
  9
$LIMMAX
 10
22.0
 20
17.0
  9
$VIEWCTR
 10
11.0
 20
8.5
  9
$VIEWSIZE
 40
17.0
  9
$CLAYER
  8
0
  9
$LTSCALE
 40
1.21
  9
$CELTYPE
  6
BYLAYER
  9
$DIMSCALE
 40
1.0
  9
$DIMASZ
 40
0.1
  9
$DIMEXO
 40
0.0625
  9
$DIMDLI
 40
0.836
  9
$DIMEXE
 40
0.125
  9
$DIMCEN
 40
0.198
  9
$DIMLFAC
 40
1.0
  9
$DIMBLK
  1
_FILLED
  9
$DIMALT
 70
1
  9
$DIMALTD
 70
2
  9
$DIMALTTD
 70
2
  9
$DIMALTF
 40
25.4
  9
$DIMTXT
 40
0.08
  9
$DIMTOL
 70
1
  9
$DIMLIM
 70
0
  9
$DIMTFAC
 40
1.0
  9
$DIMTP
 40
0.001
  9
$DIMTM
 40
0.001
  9
$DIMGAP
 40
0.09
  9
$DIMDSEP
 70
46
  9
$AUNITS
 70
0
  9
$PDMODE
 70
3
  9
$PDSIZE
 40
0.06
  9
$HANDSEED
  5
5CF
  9
$TILEMODE
 70
1
  9
$MEASUREMENT
 70
0
  9
$INSUNITS
 70
1
  0
ENDSEC
  0
SECTION
  2
CLASSES
  0
CLASS
  1
ACDBDICTIONARYWDFLT
  2
AcDbDictionaryWithDefault
  3
AutoCAD 2000
 90
0
 91
1
280
0
281
0
  0
CLASS
  1
ACDBPLACEHOLDER
  2
AcDbPlaceHolder
  3
AutoCAD 2000
 90
0
 91
1
280
0
281
0
  0
CLASS
  1
LAYOUT
  2
AcDbLayout
  3
AutoCAD 2000
 90
0
 91
0
280
0
281
0
  0
ENDSEC
  0
SECTION
  2
TABLES
  0
TABLE
  2
VPORT
  5
8
100
AcDbSymbolTable
 70
2
  0
VPORT
  5
1F4
100
AcDbSymbolTableRecord
100
AcDbViewportTableRecord
  2
*ACTIVE
 70
0
 10
0.0
 20
0.0
 11
1.0
 21
1.0
 12
11.0
 22
8.5
 13
0.0
 23
0.0
 14
1.0
 24
1.0
 15
0.0
 25
0.0
 16
0.0
 26
0.0
 36
1.0
 17
0.0
 27
0.0
 37
0.0
 40
17.0
 41
1.2941176471
 42
50.0
 43
0.0
 44
0.0
 50
0.0
 51
0.0
 71
0
 72
100
 73
1
 74
1
 75
0
 76
0
 77
0
 78
0
  0
ENDTAB
  0
TABLE
  2
LTYPE
  5
5
100
AcDbSymbolTable
 70
6
  0
LTYPE
  5
14
100
AcDbSymbolTableRecord
100
AcDbLinetypeTableRecord
  2
BYBLOCK
 70
0
  3

 72
65
 73
0
 40
0.0
  0
LTYPE
  5
15
100
AcDbSymbolTableRecord
100
AcDbLinetypeTableRecord
  2
BYLAYER
 70
0
  3

 72
65
 73
0
 40
0.0
  0
LTYPE
  5
16
100
AcDbSymbolTableRecord
100
AcDbLinetypeTableRecord
  2
CONTINUOUS
 70
64
  3
Solid line
 72
65
 73
0
 40
0.0
  0
LTYPE
  5
1F5
100
AcDbSymbolTableRecord
100
AcDbLinetypeTableRecord
  2
CENTER
 70
64
  3
____ _ ____ _ ____ _ ____ _ ____ _ ____ _ ____
 72
65
 73
4
 40
0.6
 49
0.375
 74
0
 49
-0.075
 74
0
 49
0.075
 74
0
 49
-0.075
 74
0
  0
LTYPE
  5
1F6
100
AcDbSymbolTableRecord
100
AcDbLinetypeTableRecord
  2
HIDDEN
 70
64
  3
- - - - - - - - - - - - - - - - - - - -
 72
65
 73
2
 40
0.2
 49
0.1
 74
0
 49
-0.1
 74
0
  0
LTYPE
  5
1F7
100
AcDbSymbolTableRecord
100
AcDbLinetypeTableRecord
  2
PHANTOM
 70
64
  3
_____ _ _ _____ _ _ _____ _ _ _____
 72
65
 73
6
 40
0.8
 49
0.45
 74
0
 49
-0.05
 74
0
 49
0.1
 74
0
 49
-0.05
 74
0
 49
0.1
 74
0
 49
-0.05
 74
0
  0
LTYPE
  5
1F8
100
AcDbSymbolTableRecord
100
AcDbLinetypeTableRecord
  2
DOT
 70
64
  3
. . . . . . . . . . . . . . . . . . . .
 72
65
 73
2
 40
0.2
 49
0.1
 74
0
 49
-0.1
 74
0
  0
LTYPE
  5
1F9
100
AcDbSymbolTableRecord
100
AcDbLinetypeTableRecord
  2
DASHED
 70
64
  3
- - - - - - - - - - - - - - - - - - - -
 72
65
 73
2
 40
0.2
 49
0.1
 74
0
 49
-0.1
 74
0
  0
ENDTAB
  0
TABLE
  2
LAYER
  5
2
100
AcDbSymbolTable
 70
36
  0
LAYER
  5
10
100
AcDbSymbolTableRecord
100
AcDbLayerTableRecord
  2
0
 70
0
 62
7
  6
CONTINUOUS
370
-3
390
F
  0
LAYER
  5
1FA
100
AcDbSymbolTableRecord
100
AcDbLayerTableRecord
  2
DEFAULT_1
 70
0
 62
7
  6
CENTER
370
-3
390
F
  0
LAYER
  5
1FB
100
AcDbSymbolTableRecord
100
AcDbLayerTableRecord
  2
DEFAULT_2
 70
0
 62
8
  6
HIDDEN
370
-3
390
F
  0
LAYER
  5
1FC
100
AcDbSymbolTableRecord
100
AcDbLayerTableRecord
  2
DEFAULT_3
 70
0
 62
7
  6
PHANTOM
370
-3
390
F
  0
LAYER
  5
1FD
100
AcDbSymbolTableRecord
100
AcDbLayerTableRecord
  2
ALL_FEATURES
 70
0
 62
7
  6
CONTINUOUS
370
-3
390
F
  0
LAYER
  5
1FE
100
AcDbSymbolTableRecord
100
AcDbLayerTableRecord
  2
AXES_FEATURES
 70
0
 62
7
  6
CONTINUOUS
370
-3
390
F
  0
LAYER
  5
1FF
100
AcDbSymbolTableRecord
100
AcDbLayerTableRecord
  2
DIMENSIONS
 70
0
 62
7
  6
CONTINUOUS
370
-3
390
F
  0
ENDTAB
  0
TABLE
  2
STYLE
  5
3
100
AcDbSymbolTable
 70
1
  0
STYLE
  5
11
100
AcDbSymbolTableRecord
100
AcDbTextStyleTableRecord
  2
STANDARD
 70
0
 40
0.0
 41
0.8
 50
0.0
 71
0
 42
0.2
  3
txt
  4

  0
STYLE
  5
200
100
AcDbSymbolTableRecord
100
AcDbTextStyleTableRecord
  2
TEXTSTYLE_1
 70
0
 40
0.0
 41
0.8
 50
0.0
 71
0
 42
0.2
  3
gdt
  4

  0
ENDTAB
  0
TABLE
  2
VIEW
  5
6
100
AcDbSymbolTable
 70
0
  0
ENDTAB
  0
TABLE
  2
UCS
  5
7
100
AcDbSymbolTable
 70
0
  0
ENDTAB
  0
TABLE
  2
APPID
  5
9
100
AcDbSymbolTable
 70
1
  0
APPID
  5
201
100
AcDbSymbolTableRecord
100
AcDbRegAppTableRecord
  2
ACAD
 70
0
  0
ENDTAB
  0
TABLE
  2
BLOCK_RECORD
  5
1
100
AcDbSymbolTable
 70
0
  0
BLOCK_RECORD
  5
202
100
AcDbSymbolTableRecord
100
AcDbBlockTableRecord
  2
*Model_Space
  0
BLOCK_RECORD
  5
203
100
AcDbSymbolTableRecord
100
AcDbBlockTableRecord
  2
*Paper_Space
  0
BLOCK_RECORD
  5
204
100
AcDbSymbolTableRecord
100
AcDbBlockTableRecord
  2
_FILLED
  0
ENDTAB
  0
TABLE
  2
DIMSTYLE
  5
A
100
AcDbSymbolTable
 70
1
100
AcDbDimStyleTable
 71
0
  0
DIMSTYLE
105
205
100
AcDbSymbolTableRecord
100
AcDbDimStyleTableRecord
  2
STANDARD
 70
0
  3

  4

 40
1.0
 41
0.1
 42
0.0625
 43
0.38
 44
0.125
 45
0.0
 46
0.0
 47
0.001
 48
0.001
140
0.08
141
0.09
142
0.0
143
25.4
144
1.0
145
0.0
146
1.0
147
0.09
 71
1.0
 72
0.0
 73
1
 74
1
 75
0
 76
0
 77
0
 78
4
 79
1
170
1
171
2
172
0
173
0
174
0
175
0
176
0
177
0
178
0
270
2
179
3
271
3
272
3
273
2
274
2
275
0
280
0
281
0
282
0
283
1
284
4
285
0
286
0
287
3
288
0
340
11
278
46
341
204
342
204
343
204
344
204
  0
ENDTAB
  0
ENDSEC
  0
SECTION
  2
BLOCKS
  0
BLOCK
  5
20
100
AcDbEntity
  8
0
100
AcDbBlockBegin
  2
*Model_Space
 70
0
 10
0.0
 20
0.0
 30
0.0
  3
*Model_Space
  1

  0
ENDBLK
  5
21
100
AcDbEntity
  8
0
100
AcDbBlockEnd
  0
BLOCK
  5
1C
100
AcDbEntity
  8
0
100
AcDbBlockBegin
  2
*Paper_Space
 70
0
 10
0.0
 20
0.0
 30
0.0
  3
*Paper_Space
  1

  0
ENDBLK
  5
1D
100
AcDbEntity
  8
0
100
AcDbBlockEnd
  0
BLOCK
  5
206
100
AcDbEntity
  8
0
100
AcDbBlockBegin
  2
_FILLED
 70
64
 10
0.0
 20
0.0
  3
_FILLED
  1

  0
SOLID
  5
207
100
AcDbEntity
  8
0
  6
BYBLOCK
 62
0
100
AcDbTrace
 10
0.0
 20
0.0
 11
-1.0
 21
0.2
 12
-1.0
 22
-0.2
 13
-1.0
 23
-0.2
  0
ENDBLK
  5
208
100
AcDbEntity
  8
0
  6
BYBLOCK
 62
0
100
AcDbBlockEnd
  0
ENDSEC
  0
SECTION
  2
ENTITIES
  0
LINE
  5
209
100
AcDbEntity
  8
0
100
AcDbLine
 62
7
  6
CONTINUOUS
 10
7.2728935045
 20
-2.9052471617
 11
8.7428920546
 21
-2.9052471617
  0
LINE
  5
20A
100
AcDbEntity
  8
0
100
AcDbLine
 62
7
  6
CONTINUOUS
 10
14.8348927796
 20
-2.6602471617
 11
14.3348927796
 21
-2.6602471617
  0
LINE
  5
20B
100
AcDbEntity
  8
0
100
AcDbLine
 62
9
  6
CONTINUOUS
 10
7.2728929418
 20
-2.2602471617
 11
8.7428926173
 21
-2.2602471617
  0
LINE
  5
20C
100
AcDbEntity
  8
0
100
AcDbLine
 62
7
  6
CONTINUOUS
 10
9.0078927796
 20
-1.9097662145
 11
10.3348927796
 21
-1.9097662145
  0
LINE
  5
20D
100
AcDbEntity
  8
0
100
AcDbLine
 62
7
  6
CONTINUOUS
 10
9.0078927796
 20
-1.2602471617
 11
10.3348927796
 21
-1.2602471617
  0
LINE
  5
20E
100
AcDbEntity
  8
0
100
AcDbLine
 62
7
  6
CONTINUOUS
 10
11.5848927796
 20
-1.2602471617
 11
13.5848927796
 21
-1.2602471617
  0
LWPOLYLINE
  5
20F
100
AcDbEntity
  8
0
100
AcDbPolyline
 62
7
  6
CONTINUOUS
 90
11
 70
0
 10
9.0078927796
 20
-0.6107281088
 10
8.7338822462
 20
-0.630929704
 10
8.4584529006
 20
-0.6941843759
 10
8.2011505872
 20
-0.7977290481
 10
7.9671921308
 20
-0.9380390742
 10
7.7612422346
 20
-1.1109781019
 10
7.5875146891
 20
-1.3117139169
 10
7.4496321848
 20
-1.5346476857
 10
7.3503112802
 20
-1.773583166
 10
7.2912049577
 20
-2.0220592016
 10
7.2728931315
 20
-2.2602471617
  0
LINE
  5
210
100
AcDbEntity
  8
0
100
AcDbLine
 62
7
  6
CONTINUOUS
 10
9.0078927796
 20
-0.6107281088
 11
10.3348927796
 21
-0.6107281088
  0
LINE
  5
211
100
AcDbEntity
  8
0
100
AcDbLine
 62
7
  6
CONTINUOUS
 10
7.208386006
 20
17.7821966353
 11
7.0789509388
 21
17.6527615681
  0
LINE
  5
212
100
AcDbEntity
  8
0
100
AcDbLine
 62
7
  6
CONTINUOUS
 10
6.8032279122
 20
17.0826705452
 11
6.8279199513
 21
17.1073625843
  0
LINE
  5
213
100
AcDbEntity
  8
0
100
AcDbLine
 62
7
  6
CONTINUOUS
 10
6.866811969
 20
17.0684705666
 11
6.84211993
 21
17.0437785275
  0
LINE
  5
214
100
AcDbEntity
  8
0
100
AcDbLine
 62
7
  6
CONTINUOUS
 10
7.567293842
 20
17.738053606
 11
7.5432603908
 21
17.7140201548
  0
LINE
  5
215
100
AcDbEntity
  8
0
100
AcDbLine
 62
7
  6
CONTINUOUS
 10
14.8348927796
 20
0.1397528383
 11
14.3348927796
 21
0.1397528383
  0
LINE
  5
216
100
AcDbEntity
  8
0
100
AcDbLine
 62
7
  6
CONTINUOUS
 10
7.2356454067
 20
16.4608811687
 11
7.2348762854
 21
16.4600339063
  0
LINE
  5
217
100
AcDbEntity
  8
0
100
AcDbLine
 62
7
  6
CONTINUOUS
 10
6.9808375956
 20
16.95444494
 11
6.9561455565
 21
16.9297529009
  0
LINE
  5
218
100
AcDbEntity
  8
0
100
AcDbLine
 62
7
  6
CONTINUOUS
 10
6.9520830318
 20
16.8944453469
 11
6.9423897868
 21
16.8847521018
  0
LINE
  5
219
100
AcDbEntity
  8
0
100
AcDbLine
 62
7
  6
CONTINUOUS
 10
7.0189504855
 20
16.8275778932
 11
7.0092572405
 21
16.8178846481
  0
LINE
  5
21A
100
AcDbEntity
  8
0
100
AcDbLine
 62
7
  6
CONTINUOUS
 10
7.0886053811
 20
16.8283663885
 11
7.073068725
 21
16.8128297324
  0
LINE
  5
21B
100
AcDbEntity
  8
0
100
AcDbLine
 62
7
  6
CONTINUOUS
 10
7.1622261729
 20
16.7730563627
 11
7.1375341338
 21
16.7483643236
  0
LINE
  5
21C
100
AcDbEntity
  8
0
100
AcDbLine
 62
7
  6
CONTINUOUS
 10
7.1239595433
 20
16.7321472334
 11
7.1094770992
 21
16.7176647894
  0
LINE
  5
21D
100
AcDbEntity
  8
0
100
AcDbLine
 62
7
  6
CONTINUOUS
 10
7.1481284864
 20
16.6983998923
 11
7.1384352414
 21
16.6887066472
  0
LINE
  5
21E
100
AcDbEntity
  8
0
100
AcDbLine
 62
7
  6
CONTINUOUS
 10
7.1183428657
 20
16.6405687882
 11
7.1135532846
 21
16.6357792071
  0
LINE
  5
21F
100
AcDbEntity
  8
0
100
AcDbLine
 62
7
  6
CONTINUOUS
 10
7.2721503984
 20
16.6491342511
 11
7.2544573023
 21
16.6314411551
  0
LINE
  5
220
100
AcDbEntity
  8
0
100
AcDbLine
 62
7
  6
CONTINUOUS
 10
7.2544456792
 20
16.6042773675
 11
7.2386551001
 21
16.5884867885
  0
LINE
  5
221
100
AcDbEntity
  8
0
100
AcDbLine
 62
7
  6
CONTINUOUS
 10
7.1986874343
 20
16.4591755932
 11
7.2174161476
 21
16.4779043064
  0
LINE
  5
222
100
AcDbEntity
  8
0
100
AcDbLine
 62
7
  6
CONTINUOUS
 10
7.2348709776
 20
16.4600289902
 11
7.2163525074
 21
16.4415105201
  0
LINE
  5
223
100
AcDbEntity
  8
0
100
AcDbLine
 62
7
  6
CONTINUOUS
 10
7.3509849863
 20
16.5358858305
 11
7.3211205222
 21
16.5060213664
  0
LINE
  5
224
100
AcDbEntity
  8
0
100
AcDbLine
 62
7
  6
CONTINUOUS
 10
7.3986163692
 20
16.5366661664
 11
7.3739243301
 21
16.5119741274
  0
LINE
  5
225
100
AcDbEntity
  8
0
100
AcDbLine
 62
7
  6
CONTINUOUS
 10
7.2888940223
 20
16.4047422903
 11
7.2710073797
 21
16.3868556478
  0
LINE
  5
226
100
AcDbEntity
  8
0
100
AcDbLine
 62
7
  6
CONTINUOUS
 10
7.431033626
 20
16.4154947527
 11
7.421340381
 21
16.4058015076
  0
LINE
  5
227
100
AcDbEntity
  8
0
100
AcDbLine
 62
7
  6
CONTINUOUS
 10
7.3759316193
 20
16.2913401698
 11
7.3712272385
 21
16.286635789
  0
LINE
  5
228
100
AcDbEntity
  8
0
100
AcDbLine
 62
7
  6
CONTINUOUS
 10
7.5113523423
 20
16.4155558025
 11
7.4908474986
 21
16.3950509588
  0
LINE
  5
229
100
AcDbEntity
  8
0
100
AcDbLine
 62
7
  6
CONTINUOUS
 10
7.38551502
 20
16.2788479845
 11
7.3822650315
 21
16.275597996
  0
LINE
  5
22A
100
AcDbEntity
  8
0
100
AcDbLine
 62
7
  6
CONTINUOUS
 10
7.3759316193
 20
16.2913401698
 11
7.3759292229
 21
16.2913377973
  0
LINE
  5
22B
100
AcDbEntity
  8
0
100
AcDbLine
 62
7
  6
CONTINUOUS
 10
7.2888940223
 20
16.4047422903
 11
7.2888965684
 21
16.4047448098
  0
LINE
  5
22C
100
AcDbEntity
  8
0
100
AcDbLine
 62
7
  6
CONTINUOUS
 10
7.3759270785
 20
16.2913387849
 11
7.3789295254
 21
16.2935024596
  0
LINE
  5
22D
100
AcDbEntity
  8
0
100
AcDbLine
 62
7
  6
CONTINUOUS
 10
7.8996575478
 20
15.7796454187
 11
7.8996416387
 21
15.7796292775
  0
LINE
  5
22E
100
AcDbEntity
  8
0
100
AcDbLine
 62
7
  6
CONTINUOUS
 10
7.7449551875
 20
15.9308054874
 11
7.7449442146
 21
15.9307943935
  0
LINE
  5
22F
100
AcDbEntity
  8
0
100
AcDbLine
 62
7
  6
CONTINUOUS
 10
7.5724558501
 20
16.3098709727
 11
7.544863383
 21
16.2822785056
  0
LINE
  5
230
100
AcDbEntity
  8
0
100
AcDbLine
 62
7
  6
CONTINUOUS
 10
9.441928134
 20
18.1348347253
 11
8.7772477597
 21
17.470154351
  0
LINE
  5
231
100
AcDbEntity
  8
0
100
AcDbLine
 62
7
  6
CONTINUOUS
 10
9.4524169874
 20
18.1243458719
 11
9.204929614
 21
17.8768584985
  0
LINE
  5
232
100
AcDbEntity
  8
0
100
AcDbLine
 62
7
  6
CONTINUOUS
 10
7.6738985832
 20
16.2613839524
 11
7.6492065441
 21
16.2366919133
  0
LINE
  5
233
100
AcDbEntity
  8
0
100
AcDbLine
 62
7
  6
CONTINUOUS
 10
7.6547764869
 20
16.191751892
 11
7.6450832418
 21
16.1820586468
  0
LINE
  5
234
100
AcDbEntity
  8
0
100
AcDbLine
 62
7
  6
CONTINUOUS
 10
10.0447366649
 20
18.5644020949
 11
9.8169578776
 21
18.3366233075
  0
LINE
  5
235
100
AcDbEntity
  8
0
100
AcDbLine
 62
7
  6
CONTINUOUS
 10
9.9658707344
 20
18.4664913301
 11
9.8264802947
 21
18.3271008904
  0
LINE
  5
236
100
AcDbEntity
  8
0
100
AcDbLine
 62
7
  6
CONTINUOUS
 10
10.2520591766
 20
18.7063172292
 11
10.2456061443
 21
18.6998641969
  0
LINE
  5
237
100
AcDbEntity
  8
0
100
AcDbLine
 62
7
  6
CONTINUOUS
 10
10.0963708428
 20
18.5506288955
 11
10.1109907488
 21
18.5652488014
  0
LINE
  5
238
100
AcDbEntity
  8
0
100
AcDbLine
 62
7
  6
CONTINUOUS
 10
10.1461795028
 20
18.6004375554
 11
10.1623605445
 21
18.6166185972
  0
LINE
  5
239
100
AcDbEntity
  8
0
100
AcDbLine
 62
7
  6
CONTINUOUS
 10
10.1958269937
 20
18.6500850463
 11
10.2136002916
 21
18.6678583443
  0
LINE
  5
23A
100
AcDbEntity
  8
0
100
AcDbLine
 62
7
  6
CONTINUOUS
 10
10.2828909144
 20
18.737148967
 11
11.0601937826
 21
19.5144518353
  0
LINE
  5
23B
100
AcDbEntity
  8
0
100
AcDbLine
 62
7
  6
CONTINUOUS
 10
9.3235150263
 20
17.7582730862
 11
9.5710023997
 21
18.0057604596
  0
LINE
  5
23C
100
AcDbEntity
  8
0
100
AcDbLine
 62
7
  6
CONTINUOUS
 10
10.2769246784
 20
18.6996545381
 11
10.2895536055
 21
18.7122834652
  0
LINE
  5
23D
100
AcDbEntity
  8
0
100
AcDbLine
 62
7
  6
CONTINUOUS
 10
10.2527033762
 20
18.6733985609
 11
10.2400741017
 21
18.6607692864
  0
LINE
  5
23E
100
AcDbEntity
  8
0
100
AcDbLine
 62
7
  6
CONTINUOUS
 10
10.2034618259
 20
18.6216266098
 11
10.1908328982
 21
18.6089976821
  0
LINE
  5
23F
100
AcDbEntity
  8
0
100
AcDbLine
 62
7
  6
CONTINUOUS
 10
10.1544418216
 20
18.56962512
 11
10.1418128945
 21
18.5569961929
  0
LINE
  5
240
100
AcDbEntity
  8
0
100
AcDbLine
 62
7
  6
CONTINUOUS
 10
10.105147606
 20
18.5179045031
 11
10.0981909313
 21
18.5109478285
  0
LINE
  5
241
100
AcDbEntity
  8
0
100
AcDbLine
 62
7
  6
CONTINUOUS
 10
7.6494327724
 20
16.0357226688
 11
7.6357865656
 21
16.0220764619
  0
LINE
  5
242
100
AcDbEntity
  8
0
100
AcDbLine
 62
7
  6
CONTINUOUS
 10
7.789910935
 20
16.1435499671
 11
7.7661297127
 21
16.1197687448
  0
LINE
  5
243
100
AcDbEntity
  8
0
100
AcDbLine
 62
7
  6
CONTINUOUS
 10
9.9146030784
 20
18.2389781067
 11
10.0539935181
 21
18.3783685464
  0
LINE
  5
244
100
AcDbEntity
  8
0
100
AcDbLine
 62
7
  6
CONTINUOUS
 10
7.8194757344
 20
16.0577853879
 11
7.7944161175
 21
16.0327257711
  0
LINE
  5
245
100
AcDbEntity
  8
0
100
AcDbLine
 62
7
  6
CONTINUOUS
 10
7.7449442146
 20
15.9307943935
 11
7.7360064243
 21
15.9218566032
  0
LINE
  5
246
100
AcDbEntity
  8
0
100
AcDbLine
 62
7
  6
CONTINUOUS
 10
7.800596896
 20
15.8810242523
 11
7.7887178356
 21
15.8691451919
  0
LINE
  5
247
100
AcDbEntity
  8
0
100
AcDbLine
 62
7
  6
CONTINUOUS
 10
7.9170747615
 20
15.9549446975
 11
7.8946359763
 21
15.9325059123
  0
LINE
  5
248
100
AcDbEntity
  8
0
100
AcDbLine
 62
7
  6
CONTINUOUS
 10
7.9693127871
 20
15.9659697485
 11
7.944620748
 21
15.9412777095
  0
LINE
  5
249
100
AcDbEntity
  8
0
100
AcDbLine
 62
7
  6
CONTINUOUS
 10
7.8996416387
 20
15.7796292775
 11
7.8889376943
 21
15.7689253332
  0
LINE
  5
24A
100
AcDbEntity
  8
0
100
AcDbLine
 62
7
  6
CONTINUOUS
 10
7.9546975098
 20
15.7232933292
 11
7.9446336041
 21
15.7132294234
  0
LINE
  5
24B
100
AcDbEntity
  8
0
100
AcDbLine
 62
7
  6
CONTINUOUS
 10
8.0862359556
 20
15.84904658
 11
8.0615439165
 21
15.8243545409
  0
LINE
  5
24C
100
AcDbEntity
  8
0
100
AcDbLine
 62
7
  6
CONTINUOUS
 10
8.0752109046
 20
15.7968085544
 11
8.0527721194
 21
15.7743697692
  0
LINE
  5
24D
100
AcDbEntity
  8
0
100
AcDbLine
 62
7
  6
CONTINUOUS
 10
7.800596896
 20
15.8810242523
 11
7.8006075473
 21
15.8810348019
  0
LINE
  5
24E
100
AcDbEntity
  8
0
100
AcDbLine
 62
7
  6
CONTINUOUS
 10
7.6494327724
 20
16.0357226688
 11
7.6494452786
 21
16.0357350216
  0
LINE
  5
24F
100
AcDbEntity
  8
0
100
AcDbLine
 62
7
  6
CONTINUOUS
 10
7.9546975098
 20
15.7232933292
 11
7.9547151175
 21
15.7233106419
  0
LWPOLYLINE
  5
250
100
AcDbEntity
  8
0
100
AcDbPolyline
 62
7
  6
CONTINUOUS
 90
3
 70
0
 10
7.744950201
 20
15.9308025891
 10
7.7455089637
 20
15.931321751
 10
7.7511737242
 20
15.9337967935
  0
LWPOLYLINE
  5
251
100
AcDbEntity
  8
0
100
AcDbPolyline
 62
7
  6
CONTINUOUS
 90
4
 70
0
 10
8.0573819762
 20
15.6255376278
 10
8.0586056728
 20
15.6265836863
 10
8.0640443968
 20
15.6285166564
 10
8.0655594301
 20
15.6284114283
  0
LWPOLYLINE
  5
252
100
AcDbEntity
  8
0
100
AcDbPolyline
 62
7
  6
CONTINUOUS
 90
3
 70
0
 10
7.8996603889
 20
15.7796510737
 10
7.9010047135
 20
15.7807811667
 10
7.9061332994
 20
15.782615833
  0
LINE
  5
253
100
AcDbEntity
  8
0
100
AcDbLine
 62
7
  6
CONTINUOUS
 10
8.2884916066
 20
15.2320478209
 11
8.3584401009
 21
15.2646653395
  0
LINE
  5
254
100
AcDbEntity
  8
0
100
AcDbLine
 62
7
  6
CONTINUOUS
 10
7.3523140279
 20
16.1682253995
 11
7.3873781396
 21
16.2434206298
  0
LINE
  5
255
100
AcDbEntity
  8
0
100
AcDbLine
 62
7
  6
CONTINUOUS
 10
10.8201246358
 20
18.156862362
 11
10.8201323658
 21
18.15687036
  0
LINE
  5
256
100
AcDbEntity
  8
0
100
AcDbLine
 62
7
  6
CONTINUOUS
 10
8.3589794952
 20
15.309524391
 11
8.3589835203
 21
15.3095284589
  0
LINE
  5
257
100
AcDbEntity
  8
0
100
AcDbLine
 62
7
  6
CONTINUOUS
 10
8.0573822247
 20
15.6255384219
 11
8.0573723521
 21
15.625528454
  0
LINE
  5
258
100
AcDbEntity
  8
0
100
AcDbLine
 62
7
  6
CONTINUOUS
 10
8.0573723521
 20
15.625528454
 11
8.0448534628
 21
15.6130095647
  0
LINE
  5
259
100
AcDbEntity
  8
0
100
AcDbLine
 62
7
  6
CONTINUOUS
 10
8.178051595
 20
15.6992095273
 11
8.1529919781
 21
15.6741499105
  0
LINE
  5
25A
100
AcDbEntity
  8
0
100
AcDbLine
 62
7
  6
CONTINUOUS
 10
8.2638161741
 20
15.6696447279
 11
8.2400349518
 21
15.6458635056
  0
LINE
  5
25B
100
AcDbEntity
  8
0
100
AcDbLine
 62
7
  6
CONTINUOUS
 10
10.6514751322
 20
17.9968236782
 11
10.6641070741
 21
18.0094556201
  0
LINE
  5
25C
100
AcDbEntity
  8
0
100
AcDbLine
 62
7
  6
CONTINUOUS
 10
10.7033162473
 20
18.0460096233
 11
10.7159451744
 21
18.0586385504
  0
LINE
  5
25D
100
AcDbEntity
  8
0
100
AcDbLine
 62
7
  6
CONTINUOUS
 10
10.7551201837
 20
18.095219412
 11
10.7677471016
 21
18.1078463299
  0
LINE
  5
25E
100
AcDbEntity
  8
0
100
AcDbLine
 62
7
  6
CONTINUOUS
 10
10.8069722816
 20
18.144386358
 11
10.8197534298
 21
18.1571675062
  0
LINE
  5
25F
100
AcDbEntity
  8
0
100
AcDbLine
 62
7
  6
CONTINUOUS
 10
10.8201246358
 20
18.156862362
 11
10.8325496723
 21
18.1692873984
  0
LINE
  5
260
100
AcDbEntity
  8
0
100
AcDbLine
 62
7
  6
CONTINUOUS
 10
10.6599508405
 20
17.9651603738
 11
10.6519646133
 21
17.9571741465
  0
LINE
  5
261
100
AcDbEntity
  8
0
100
AcDbLine
 62
7
  6
CONTINUOUS
 10
10.6957567298
 20
18.000966263
 11
10.7112287096
 21
18.0164382429
  0
LINE
  5
262
100
AcDbEntity
  8
0
100
AcDbLine
 62
7
  6
CONTINUOUS
 10
10.7454987101
 20
18.0507082433
 11
10.7624888738
 21
18.0676984071
  0
LINE
  5
263
100
AcDbEntity
  8
0
100
AcDbLine
 62
7
  6
CONTINUOUS
 10
10.7952558268
 20
18.10046536
 11
10.8137718468
 21
18.11898138
  0
LINE
  5
264
100
AcDbEntity
  8
0
100
AcDbLine
 62
7
  6
CONTINUOUS
 10
10.8574151741
 20
18.1626247073
 11
11.6347180423
 21
18.9399275756
  0
LINE
  5
265
100
AcDbEntity
  8
0
100
AcDbLine
 62
7
  6
CONTINUOUS
 10
10.6846683019
 20
17.9244704579
 11
10.4568895146
 21
17.6966916706
  0
LINE
  5
266
100
AcDbEntity
  8
0
100
AcDbLine
 62
7
  6
CONTINUOUS
 10
8.3120180989
 20
15.5345102798
 11
8.3023248539
 21
15.5248170347
  0
LINE
  5
267
100
AcDbEntity
  8
0
100
AcDbLine
 62
7
  6
CONTINUOUS
 10
8.3816501594
 20
15.5536323762
 11
8.3569581204
 21
15.5289403371
  0
LINE
  5
268
100
AcDbEntity
  8
0
100
AcDbLine
 62
7
  6
CONTINUOUS
 10
10.2551009324
 20
17.3216619269
 11
9.590420558
 21
16.6569815526
  0
LINE
  5
269
100
AcDbEntity
  8
0
100
AcDbLine
 62
7
  6
CONTINUOUS
 10
8.4301371797
 20
15.4521896431
 11
8.4025447126
 21
15.424597176
  0
LINE
  5
26A
100
AcDbEntity
  8
0
100
AcDbLine
 62
7
  6
CONTINUOUS
 10
8.3589835203
 20
15.3095284589
 11
8.3536590445
 21
15.304203983
  0
LINE
  5
26B
100
AcDbEntity
  8
0
100
AcDbLine
 62
7
  6
CONTINUOUS
 10
8.5358220095
 20
15.3910861352
 11
8.5153171659
 21
15.3705812916
  0
LINE
  5
26C
100
AcDbEntity
  8
0
100
AcDbLine
 62
7
  6
CONTINUOUS
 10
8.5357609597
 20
15.310767419
 11
8.5260677147
 21
15.3010741739
  0
LINE
  5
26D
100
AcDbEntity
  8
0
100
AcDbLine
 62
7
  6
CONTINUOUS
 10
8.4711441794
 20
15.2212494004
 11
8.4538789032
 21
15.2039841243
  0
LINE
  5
26E
100
AcDbEntity
  8
0
100
AcDbLine
 62
7
  6
CONTINUOUS
 10
8.6569323735
 20
15.2783501621
 11
8.6322403344
 21
15.253658123
  0
LINE
  5
26F
100
AcDbEntity
  8
0
100
AcDbLine
 62
7
  6
CONTINUOUS
 10
8.5488912485
 20
15.1452969861
 11
8.5307286449
 21
15.1271343826
  0
LINE
  5
270
100
AcDbEntity
  8
0
100
AcDbLine
 62
7
  6
CONTINUOUS
 10
8.6561520375
 20
15.2307187792
 11
8.6262875734
 21
15.2008543152
  0
LINE
  5
271
100
AcDbEntity
  8
0
100
AcDbLine
 62
7
  6
CONTINUOUS
 10
8.5910769603
 20
15.104069954
 11
8.5724350169
 21
15.0854280106
  0
LWPOLYLINE
  5
272
100
AcDbEntity
  8
0
100
AcDbPolyline
 62
7
  6
CONTINUOUS
 90
6
 70
0
 10
8.5910815458
 20
15.1040753793
 10
8.5922992353
 20
15.1051370477
 10
8.5973729652
 20
15.107348117
 10
8.6018210554
 20
15.1072679644
 10
8.6041787667
 20
15.106479814
 10
8.604609439
 20
15.1062592396
  0
LINE
  5
273
100
AcDbEntity
  8
0
100
AcDbLine
 62
7
  6
CONTINUOUS
 10
8.548892167
 20
15.1452972227
 11
8.5546163353
 21
15.1484237624
  0
LWPOLYLINE
  5
274
100
AcDbEntity
  8
0
100
AcDbPolyline
 62
7
  6
CONTINUOUS
 90
3
 70
0
 10
8.4711465516
 20
15.2212531707
 10
8.4767579714
 20
15.2243019973
 10
8.4806954514
 20
15.2243529773
  0
LINE
  5
275
100
AcDbEntity
  8
0
100
AcDbLine
 62
9
  6
CONTINUOUS
 10
11.9949710805
 20
2.4965536352
 11
11.6268144786
 21
2.4965536352
  0
LINE
  5
276
100
AcDbEntity
  8
0
100
AcDbLine
 62
7
  6
CONTINUOUS
 10
11.4778927796
 20
2.5467528383
 11
12.1438927796
 21
2.5467528383
  0
LINE
  5
277
100
AcDbEntity
  8
0
100
AcDbLine
 62
9
  6
CONTINUOUS
 10
11.4148927796
 20
2.6097528383
 11
12.2068927796
 21
2.6097528383
  0
LINE
  5
278
100
AcDbEntity
  8
0
100
AcDbLine
 62
7
  6
CONTINUOUS
 10
12.2068927796
 20
2.640685107
 11
11.4148927796
 21
2.640685107
  0
LINE
  5
279
100
AcDbEntity
  8
0
100
AcDbLine
 62
7
  6
CONTINUOUS
 10
12.1833927796
 20
2.6542528383
 11
11.4383927796
 21
2.6542528383
  0
LINE
  5
27A
100
AcDbEntity
  8
0
100
AcDbLine
 62
7
  6
CONTINUOUS
 10
12.2054961996
 20
2.6670142538
 11
11.4162893595
 21
2.6670142538
  0
LINE
  5
27B
100
AcDbEntity
  8
0
100
AcDbLine
 62
7
  6
CONTINUOUS
 10
13.1538927796
 20
3.1197528383
 11
13.0638927796
 21
3.1197528383
  0
LINE
  5
27C
100
AcDbEntity
  8
0
100
AcDbLine
 62
7
  6
CONTINUOUS
 10
8.3618599457
 20
15.3144134897
 11
8.3589759474
 21
15.3095202516
  0
LINE
  5
27D
100
AcDbEntity
  8
0
100
AcDbLine
 62
7
  6
CONTINUOUS
 10
8.7245435746
 20
15.1341794721
 11
8.7087529955
 21
15.1183888931
  0
LINE
  5
27E
100
AcDbEntity
  8
0
100
AcDbLine
 62
7
  6
CONTINUOUS
 10
8.7694004582
 20
15.1518841913
 11
8.7517073622
 21
15.1341910953
  0
LINE
  5
27F
100
AcDbEntity
  8
0
100
AcDbLine
 62
7
  6
CONTINUOUS
 10
8.7608349952
 20
14.9980766586
 11
8.7560454142
 21
14.9932870776
  0
LINE
  5
280
100
AcDbEntity
  8
0
100
AcDbLine
 62
7
  6
CONTINUOUS
 10
8.8186660993
 20
15.0278622794
 11
8.8089728543
 21
15.0181690343
  0
LINE
  5
281
100
AcDbEntity
  8
0
100
AcDbLine
 62
7
  6
CONTINUOUS
 10
8.8524134405
 20
15.0036933362
 11
8.8379309964
 21
14.9892108922
  0
LINE
  5
282
100
AcDbEntity
  8
0
100
AcDbLine
 62
7
  6
CONTINUOUS
 10
8.8933225698
 20
15.0419599658
 11
8.8686305307
 21
15.0172679267
  0
LINE
  5
283
100
AcDbEntity
  8
0
100
AcDbLine
 62
7
  6
CONTINUOUS
 10
8.9486325955
 20
14.968339174
 11
8.9330959395
 21
14.952802518
  0
LINE
  5
284
100
AcDbEntity
  8
0
100
AcDbLine
 62
7
  6
CONTINUOUS
 10
8.9478441002
 20
14.8986842785
 11
8.9381508552
 21
14.8889910334
  0
LINE
  5
285
100
AcDbEntity
  8
0
100
AcDbLine
 62
7
  6
CONTINUOUS
 10
9.0147115539
 20
14.8318168248
 11
9.0050183089
 21
14.8221235797
  0
LINE
  5
286
100
AcDbEntity
  8
0
100
AcDbLine
 62
7
  6
CONTINUOUS
 10
9.0747111471
 20
14.8605713885
 11
9.050019108
 21
14.8358793494
  0
LINE
  5
287
100
AcDbEntity
  8
0
100
AcDbLine
 62
7
  6
CONTINUOUS
 10
9.858319813
 20
15.4470276349
 11
9.8342863619
 21
15.4229941838
  0
LINE
  5
288
100
AcDbEntity
  8
0
100
AcDbLine
 62
7
  6
CONTINUOUS
 10
9.1887367736
 20
14.746545762
 11
9.1640447345
 21
14.7218537229
  0
LINE
  5
289
100
AcDbEntity
  8
0
100
AcDbLine
 62
7
  6
CONTINUOUS
 10
12.92089781
 20
3.9874533417
 11
13.05689781
 21
4.0189533417
  0
LINE
  5
28A
100
AcDbEntity
  8
0
100
AcDbLine
 62
7
  6
CONTINUOUS
 10
13.0638927796
 20
4.0197528383
 11
13.05689781
 21
4.0189533417
  0
LINE
  5
28B
100
AcDbEntity
  8
0
100
AcDbLine
 62
7
  6
CONTINUOUS
 10
14.0808927796
 20
3.3337528383
 11
13.9808927796
 21
3.3337528383
  0
LINE
  5
28C
100
AcDbEntity
  8
0
100
AcDbLine
 62
7
  6
CONTINUOUS
 10
13.9688927796
 20
3.3927528383
 11
13.3898927796
 21
3.3927528383
  0
LINE
  5
28D
100
AcDbEntity
  8
0
100
AcDbLine
 62
7
  6
CONTINUOUS
 10
13.9688927796
 20
3.7467528383
 11
13.3898927796
 21
3.7467528383
  0
LINE
  5
28E
100
AcDbEntity
  8
0
100
AcDbLine
 62
7
  6
CONTINUOUS
 10
14.0808927796
 20
3.8057528383
 11
13.9808927796
 21
3.8057528383
  0
LINE
  5
28F
100
AcDbEntity
  8
0
100
AcDbLine
 62
7
  6
CONTINUOUS
 10
13.1538927796
 20
4.0197528383
 11
13.0638927796
 21
4.0197528383
  0
LINE
  5
290
100
AcDbEntity
  8
0
100
AcDbLine
 62
7
  6
CONTINUOUS
 10
13.0638927796
 20
3.1197528383
 11
13.05689781
 21
3.120552335
  0
LINE
  5
291
100
AcDbEntity
  8
0
100
AcDbLine
 62
7
  6
CONTINUOUS
 10
12.92089781
 20
3.152052335
 11
13.05689781
 21
3.120552335
  0
LINE
  5
292
100
AcDbEntity
  8
0
100
AcDbLine
 62
7
  6
CONTINUOUS
 10
11.4162893595
 20
2.6670142538
 11
11.4383927796
 21
2.6542528383
  0
LINE
  5
293
100
AcDbEntity
  8
0
100
AcDbLine
 62
7
  6
CONTINUOUS
 10
9.2838760941
 20
14.5323520566
 11
9.3468253086
 21
14.5953386133
  0
LINE
  5
294
100
AcDbEntity
  8
0
100
AcDbLine
 62
7
  6
CONTINUOUS
 10
9.3591240919
 20
14.6053027077
 11
9.3342662671
 21
14.5804448828
  0
LINE
  5
295
100
AcDbEntity
  8
0
100
AcDbLine
 62
7
  6
CONTINUOUS
 10
9.9024628424
 20
15.088119799
 11
9.7730277751
 21
14.9586847317
  0
LINE
  5
296
100
AcDbEntity
  8
0
100
AcDbLine
 62
7
  6
CONTINUOUS
 10
14.0808927796
 20
4.5522528383
 11
13.7741455368
 21
4.5522528383
  0
LINE
  5
297
100
AcDbEntity
  8
0
100
AcDbLine
 62
7
  6
CONTINUOUS
 10
12.1833927796
 20
2.6542528383
 11
12.2068927796
 21
2.640685107
  0
LINE
  5
298
100
AcDbEntity
  8
0
100
AcDbLine
 62
7
  6
CONTINUOUS
 10
6.7974622977
 20
17.0572195351
 11
6.7974622977
 21
17.0687507688
  0
LINE
  5
299
100
AcDbEntity
  8
0
100
AcDbLine
 62
7
  6
CONTINUOUS
 10
6.8363543154
 20
17.0183278736
 11
6.8363543154
 21
17.0298582579
  0
LINE
  5
29A
100
AcDbEntity
  8
0
100
AcDbLine
 62
7
  6
CONTINUOUS
 10
6.9366241722
 20
16.8593014479
 11
6.9366241722
 21
16.870832263
  0
LINE
  5
29B
100
AcDbEntity
  8
0
100
AcDbLine
 62
7
  6
CONTINUOUS
 10
6.950379942
 20
16.904302247
 11
6.950379942
 21
16.9158326313
  0
LINE
  5
29C
100
AcDbEntity
  8
0
100
AcDbLine
 62
7
  6
CONTINUOUS
 10
7.0034916259
 20
16.7924339942
 11
7.0034916259
 21
16.8039648094
  0
LINE
  5
29D
100
AcDbEntity
  8
0
100
AcDbLine
 62
7
  6
CONTINUOUS
 10
7.1317685193
 20
16.7229136697
 11
7.1317685193
 21
16.734444054
  0
LINE
  5
29E
100
AcDbEntity
  8
0
100
AcDbLine
 62
7
  6
CONTINUOUS
 10
7.1326696268
 20
16.6632559933
 11
7.1326696268
 21
16.6747868085
  0
LINE
  5
29F
100
AcDbEntity
  8
0
100
AcDbLine
 62
7
  6
CONTINUOUS
 10
7.1952279725
 20
16.4508239696
 11
7.1952276287
 21
16.4327700456
  0
LINE
  5
2A0
100
AcDbEntity
  8
0
100
AcDbLine
 62
7
  6
CONTINUOUS
 10
7.2128931387
 20
16.4151045879
 11
7.2128931387
 21
16.4331588033
  0
LINE
  5
2A1
100
AcDbEntity
  8
0
100
AcDbLine
 62
7
  6
CONTINUOUS
 10
7.267548011
 20
16.3604497156
 11
7.267548011
 21
16.378503931
  0
LINE
  5
2A2
100
AcDbEntity
  8
0
100
AcDbLine
 62
7
  6
CONTINUOUS
 10
7.2728929418
 20
-2.2602471617
 11
7.2728929418
 21
-2.9052471617
  0
LINE
  5
2A3
100
AcDbEntity
  8
0
100
AcDbLine
 62
7
  6
CONTINUOUS
 10
7.3153549077
 20
16.4805707125
 11
7.3153549077
 21
16.4921015276
  0
LINE
  5
2A4
100
AcDbEntity
  8
0
100
AcDbLine
 62
7
  6
CONTINUOUS
 10
7.3681587155
 20
16.4865234734
 11
7.3681587155
 21
16.4980538578
  0
LINE
  5
2A5
100
AcDbEntity
  8
0
100
AcDbLine
 62
7
  6
CONTINUOUS
 10
7.3788056627
 20
16.2491920638
 11
7.3788056627
 21
16.2672462793
  0
LINE
  5
2A6
100
AcDbEntity
  8
0
100
AcDbLine
 62
7
  6
CONTINUOUS
 10
7.4104211255
 20
16.0721158603
 11
7.4104211255
 21
16.0836462563
  0
LINE
  5
2A7
100
AcDbEntity
  8
0
100
AcDbLine
 62
7
  6
CONTINUOUS
 10
12.0763927796
 20
5.0757528383
 11
11.5453927796
 21
5.0757528383
  0
LINE
  5
2A8
100
AcDbEntity
  8
0
100
AcDbLine
 62
7
  6
CONTINUOUS
 10
12.0763927796
 20
5.1697528383
 11
11.5453927796
 21
5.1697528383
  0
LINE
  5
2A9
100
AcDbEntity
  8
0
100
AcDbLine
 62
9
  6
CONTINUOUS
 10
11.6283927796
 20
5.2327528383
 11
11.9933927796
 21
5.2327528383
  0
LINE
  5
2AA
100
AcDbEntity
  8
0
100
AcDbLine
 62
7
  6
CONTINUOUS
 10
12.1238927796
 20
5.2497528383
 11
12.0033927796
 21
5.2497528383
  0
LINE
  5
2AB
100
AcDbEntity
  8
0
100
AcDbLine
 62
7
  6
CONTINUOUS
 10
11.6183927796
 20
5.2497528383
 11
11.4988927796
 21
5.2497528383
  0
LINE
  5
2AC
100
AcDbEntity
  8
0
100
AcDbLine
 62
7
  6
CONTINUOUS
 10
12.4338927796
 20
5.3097528383
 11
12.5538927796
 21
5.3097528383
  0
LINE
  5
2AD
100
AcDbEntity
  8
0
100
AcDbLine
 62
7
  6
CONTINUOUS
 10
12.4338927796
 20
5.4272528383
 11
12.1238927796
 21
5.4272528383
  0
LINE
  5
2AE
100
AcDbEntity
  8
0
100
AcDbLine
 62
7
  6
CONTINUOUS
 10
12.9467009298
 20
5.4074819963
 11
12.5538927796
 21
5.4510777037
  0
LINE
  5
2AF
100
AcDbEntity
  8
0
100
AcDbLine
 62
7
  6
CONTINUOUS
 10
12.9467009298
 20
5.0752111543
 11
12.5538927796
 21
5.1624025691
  0
LINE
  5
2B0
100
AcDbEntity
  8
0
100
AcDbLine
 62
7
  6
CONTINUOUS
 10
7.5390977685
 20
16.2568278517
 11
7.5390977685
 21
16.2683586668
  0
LINE
  5
2B1
100
AcDbEntity
  8
0
100
AcDbLine
 62
7
  6
CONTINUOUS
 10
7.5889565063
 20
15.8935804794
 11
7.5889565063
 21
15.9051108731
  0
LINE
  5
2B2
100
AcDbEntity
  8
0
100
AcDbLine
 62
7
  6
CONTINUOUS
 10
7.6323271968
 20
15.9956705297
 11
7.6323271968
 21
16.0137247451
  0
LINE
  5
2B3
100
AcDbEntity
  8
0
100
AcDbLine
 62
7
  6
CONTINUOUS
 10
7.6434409296
 20
16.2112412594
 11
7.6434409296
 21
16.2227716437
  0
LINE
  5
2B4
100
AcDbEntity
  8
0
100
AcDbLine
 62
7
  6
CONTINUOUS
 10
7.7852584669
 20
15.8427392597
 11
7.7852584669
 21
15.8607934752
  0
LINE
  5
2B5
100
AcDbEntity
  8
0
100
AcDbLine
 62
7
  6
CONTINUOUS
 10
7.788650503
 20
16.0072751171
 11
7.788650503
 21
16.0188059323
  0
LINE
  5
2B6
100
AcDbEntity
  8
0
100
AcDbLine
 62
7
  6
CONTINUOUS
 10
7.8414436633
 20
15.6410933225
 11
7.8414436633
 21
15.6526237184
  0
LINE
  5
2B7
100
AcDbEntity
  8
0
100
AcDbLine
 62
7
  6
CONTINUOUS
 10
7.9388551334
 20
15.9158270555
 11
7.9388551334
 21
15.9273574401
  0
LINE
  5
2B8
100
AcDbEntity
  8
0
100
AcDbLine
 62
7
  6
CONTINUOUS
 10
7.9411742353
 20
15.6868234912
 11
7.9411742353
 21
15.7048777067
  0
LINE
  5
2B9
100
AcDbEntity
  8
0
100
AcDbLine
 62
7
  6
CONTINUOUS
 10
8.0199790441
 20
15.4625579416
 11
8.0199790441
 21
15.4686902993
  0
LINE
  5
2BA
100
AcDbEntity
  8
0
100
AcDbLine
 62
7
  6
CONTINUOUS
 10
8.0470065048
 20
15.7489191153
 11
8.0470065048
 21
15.7604499304
  0
LINE
  5
2BB
100
AcDbEntity
  8
0
100
AcDbLine
 62
7
  6
CONTINUOUS
 10
8.2342693373
 20
15.6204128517
 11
8.2342693373
 21
15.631943236
  0
LINE
  5
2BC
100
AcDbEntity
  8
0
100
AcDbLine
 62
7
  6
CONTINUOUS
 10
8.2965592393
 20
15.4993663808
 11
8.2965592393
 21
15.510897196
  0
LINE
  5
2BD
100
AcDbEntity
  8
0
100
AcDbLine
 62
7
  6
CONTINUOUS
 10
12.9467009298
 20
6.4042945223
 11
12.5538927796
 21
6.3171031075
  0
LINE
  5
2BE
100
AcDbEntity
  8
0
100
AcDbLine
 62
7
  6
CONTINUOUS
 10
12.9467009298
 20
6.0720236803
 11
12.5538927796
 21
6.0284279729
  0
LINE
  5
2BF
100
AcDbEntity
  8
0
100
AcDbLine
 62
7
  6
CONTINUOUS
 10
12.4338927796
 20
6.0522528383
 11
12.1238927796
 21
6.0522528383
  0
LINE
  5
2C0
100
AcDbEntity
  8
0
100
AcDbLine
 62
7
  6
CONTINUOUS
 10
12.4338927796
 20
6.1697528383
 11
12.5538927796
 21
6.1697528383
  0
LINE
  5
2C1
100
AcDbEntity
  8
0
100
AcDbLine
 62
7
  6
CONTINUOUS
 10
12.1238927796
 20
6.2297528383
 11
11.4988927796
 21
6.2297528383
  0
LINE
  5
2C2
100
AcDbEntity
  8
0
100
AcDbLine
 62
7
  6
CONTINUOUS
 10
8.3501996757
 20
15.2777980508
 11
8.3501996757
 21
15.2958522663
  0
LINE
  5
2C3
100
AcDbEntity
  8
0
100
AcDbLine
 62
7
  6
CONTINUOUS
 10
8.5095515513
 20
15.3451306377
 11
8.5095515513
 21
15.356661022
  0
LINE
  5
2C4
100
AcDbEntity
  8
0
100
AcDbLine
 62
7
  6
CONTINUOUS
 10
8.5203021001
 20
15.27562352
 11
8.5203021001
 21
15.2871543352
  0
LINE
  5
2C5
100
AcDbEntity
  8
0
100
AcDbLine
 62
7
  6
CONTINUOUS
 10
8.702987381
 20
15.0929382392
 11
8.702987381
 21
15.1044690543
  0
LINE
  5
2C6
100
AcDbEntity
  8
0
100
AcDbLine
 62
7
  6
CONTINUOUS
 10
8.7428926173
 20
-2.2602471617
 11
8.7428926173
 21
-2.9052471617
  0
LINE
  5
2C7
100
AcDbEntity
  8
0
100
AcDbLine
 62
7
  6
CONTINUOUS
 10
8.7459417476
 20
15.1087404414
 11
8.7459417476
 21
15.1202708257
  0
LINE
  5
2C8
100
AcDbEntity
  8
0
100
AcDbLine
 62
7
  6
CONTINUOUS
 10
8.8321653819
 20
14.9637602383
 11
8.8321653819
 21
14.9752910534
  0
LINE
  5
2C9
100
AcDbEntity
  8
0
100
AcDbLine
 62
7
  6
CONTINUOUS
 10
8.9273303249
 20
14.9273518641
 11
8.9273303249
 21
14.9388822484
  0
LINE
  5
2CA
100
AcDbEntity
  8
0
100
AcDbLine
 62
9
  6
CONTINUOUS
 10
9.0078927796
 20
-0.6107281088
 11
9.0078927796
 21
-1.9097662145
  0
LINE
  5
2CB
100
AcDbEntity
  8
0
100
AcDbLine
 62
7
  6
CONTINUOUS
 10
9.0413559515
 20
14.8133262375
 11
9.0413559515
 21
14.8248566219
  0
LINE
  5
2CC
100
AcDbEntity
  8
0
100
AcDbLine
 62
7
  6
CONTINUOUS
 10
14.0808927796
 20
6.9272528383
 11
13.7741455368
 21
6.9272528383
  0
LINE
  5
2CD
100
AcDbEntity
  8
0
100
AcDbLine
 62
7
  6
CONTINUOUS
 10
13.7741455368
 20
5.1460028383
 11
13.7591246528
 21
5.1548970157
  0
LINE
  5
2CE
100
AcDbEntity
  8
0
100
AcDbLine
 62
7
  6
CONTINUOUS
 10
13.3898927796
 20
3.7947528383
 11
13.1759067386
 21
4.0105790979
  0
LINE
  5
2CF
100
AcDbEntity
  8
0
100
AcDbLine
 62
7
  6
CONTINUOUS
 10
9.7618939525
 20
18.1303710679
 11
9.7618939525
 21
18.2036872327
  0
LWPOLYLINE
  5
2D0
100
AcDbEntity
  8
0
100
AcDbPolyline
 62
7
  6
CONTINUOUS
 90
9
 70
0
 10
8.7428924276
 20
-2.2602471617
 10
8.7460184242
 20
-2.1879114841
 10
8.7600987051
 20
-2.1135802556
 10
8.7865170302
 20
-2.0493311095
 10
8.8235926194
 20
-1.9963932412
 10
8.8685776617
 20
-1.9557723784
 10
8.9186045755
 20
-1.9279128383
 10
8.9710276345
 20
-1.9128313397
 10
9.0078927796
 20
-1.9097662145
  0
LINE
  5
2D1
100
AcDbEntity
  8
0
100
AcDbLine
 62
7
  6
CONTINUOUS
 10
10.2455547235
 20
18.6991564174
 11
10.2456045443
 21
18.699862597
  0
LINE
  5
2D2
100
AcDbEntity
  8
0
100
AcDbLine
 62
9
  6
CONTINUOUS
 10
10.3348927796
 20
-1.9097662145
 11
10.3348927796
 21
-0.6107281088
  0
LINE
  5
2D3
100
AcDbEntity
  8
0
100
AcDbLine
 62
7
  6
CONTINUOUS
 10
10.6600058048
 20
17.9659153096
 11
10.6599534388
 21
17.965162972
  0
LINE
  5
2D4
100
AcDbEntity
  8
0
100
AcDbLine
 62
7
  6
CONTINUOUS
 10
13.7741455368
 20
4.5522528383
 11
13.7591246528
 21
4.570041193
  0
LWPOLYLINE
  5
2D5
100
AcDbEntity
  8
0
100
AcDbPolyline
 62
7
  6
CONTINUOUS
 90
5
 70
0
 10
7.8040143614
 20
15.8880372349
 10
7.8034623501
 20
15.88929352
 10
7.8035800103
 20
15.8878855839
 10
7.801605063
 20
15.8821945812
 10
7.8006032722
 20
15.8810299229
  0
LWPOLYLINE
  5
2D6
100
AcDbEntity
  8
0
100
AcDbPolyline
 62
7
  6
CONTINUOUS
 90
5
 70
0
 10
7.652798167
 20
16.0429125105
 10
7.6523277766
 20
16.0440638527
 10
7.6524477395
 20
16.042329461
 10
7.6503452107
 20
16.0367596084
 10
7.6494493262
 20
16.035738424
  0
LINE
  5
2D7
100
AcDbEntity
  8
0
100
AcDbLine
 62
7
  6
CONTINUOUS
 10
11.4148927796
 20
2.640685107
 11
11.4148927796
 21
2.6097528383
  0
LINE
  5
2D8
100
AcDbEntity
  8
0
100
AcDbLine
 62
7
  6
CONTINUOUS
 10
11.4988927796
 20
6.2297528383
 11
11.4988927796
 21
5.2497528383
  0
LINE
  5
2D9
100
AcDbEntity
  8
0
100
AcDbLine
 62
9
  6
CONTINUOUS
 10
11.5848927796
 20
-0.5566015211
 11
11.5848927796
 21
-1.9638928022
  0
LINE
  5
2DA
100
AcDbEntity
  8
0
100
AcDbLine
 62
7
  6
CONTINUOUS
 10
11.6283927796
 20
5.2535514416
 11
11.6283927796
 21
5.2327528383
  0
LWPOLYLINE
  5
2DB
100
AcDbEntity
  8
0
100
AcDbPolyline
 62
7
  6
CONTINUOUS
 90
6
 70
0
 10
7.237545047
 20
16.4724359869
 10
7.2373474701
 20
16.472782155
 10
7.2375691708
 20
16.4722812224
 10
7.2381866675
 20
16.4699433947
 10
7.2380284292
 20
16.4657654422
 10
7.2356454067
 20
16.4608811687
  0
LWPOLYLINE
  5
2DC
100
AcDbEntity
  8
0
100
AcDbPolyline
 62
7
  6
CONTINUOUS
 90
6
 70
0
 10
7.2922232877
 20
16.4148127476
 10
7.2917953991
 20
16.4156685336
 10
7.2919493666
 20
16.4151429193
 10
7.2921384834
 20
16.4112304654
 10
7.2894876437
 20
16.4053817453
 10
7.2888977117
 20
16.4047460772
  0
LWPOLYLINE
  5
2DD
100
AcDbEntity
  8
0
100
AcDbPolyline
 62
7
  6
CONTINUOUS
 90
5
 70
0
 10
7.9577625926
 20
15.7314575901
 10
7.957495091
 20
15.732075607
 10
7.9577031083
 20
15.7299809632
 10
7.9558757682
 20
15.7246979298
 10
7.9547161904
 20
15.7233121079
  0
LINE
  5
2DE
100
AcDbEntity
  8
0
100
AcDbLine
 62
7
  6
CONTINUOUS
 10
12.0763927796
 20
5.0757528383
 11
12.2054961996
 21
2.6670142538
  0
LINE
  5
2DF
100
AcDbEntity
  8
0
100
AcDbLine
 62
7
  6
CONTINUOUS
 10
11.9933927796
 20
5.2535499303
 11
11.9933927796
 21
5.2327528383
  0
LINE
  5
2E0
100
AcDbEntity
  8
0
100
AcDbLine
 62
7
  6
CONTINUOUS
 10
12.1238927796
 20
5.2497528383
 11
12.1238927796
 21
6.2297528383
  0
LINE
  5
2E1
100
AcDbEntity
  8
0
100
AcDbLine
 62
7
  6
CONTINUOUS
 10
12.2068927796
 20
2.640685107
 11
12.2068927796
 21
2.6097528383
  0
LINE
  5
2E2
100
AcDbEntity
  8
0
100
AcDbLine
 62
7
  6
CONTINUOUS
 10
12.4338927796
 20
6.1697528383
 11
12.4338927796
 21
5.3097528383
  0
LINE
  5
2E3
100
AcDbEntity
  8
0
100
AcDbLine
 62
7
  6
CONTINUOUS
 10
11.5453927796
 20
5.0757528383
 11
11.4162893595
 21
2.6670142538
  0
LINE
  5
2E4
100
AcDbEntity
  8
0
100
AcDbLine
 62
7
  6
CONTINUOUS
 10
7.2184847351
 20
16.4933774496
 11
7.2187172168
 21
16.4930613943
  0
LWPOLYLINE
  5
2E5
100
AcDbEntity
  8
0
100
AcDbPolyline
 62
7
  6
CONTINUOUS
 90
4
 70
0
 10
8.3613171031
 20
15.3217769765
 10
8.3612735623
 20
15.3218432715
 10
8.3619503554
 20
15.3200980276
 10
8.3618599457
 20
15.3144134897
  0
LINE
  5
2E6
100
AcDbEntity
  8
0
100
AcDbLine
 62
7
  6
CONTINUOUS
 10
9.829756889
 20
15.4016846892
 11
9.9194483657
 21
15.1680304038
  0
LINE
  5
2E7
100
AcDbEntity
  8
0
100
AcDbLine
 62
7
  6
CONTINUOUS
 10
12.5538927796
 20
6.3171031075
 11
12.5538927796
 21
5.1624025691
  0
LINE
  5
2E8
100
AcDbEntity
  8
0
100
AcDbLine
 62
9
  6
CONTINUOUS
 10
12.5848927796
 20
20.1460028383
 11
12.5848927796
 21
19.3335028383
  0
LINE
  5
2E9
100
AcDbEntity
  8
0
100
AcDbLine
 62
9
  6
CONTINUOUS
 10
12.8348927796
 20
-0.4483483456
 11
12.8348927796
 21
-2.0721459777
  0
LINE
  5
2EA
100
AcDbEntity
  8
0
100
AcDbLine
 62
7
  6
CONTINUOUS
 10
12.8968927796
 20
3.9572280098
 11
12.8968927796
 21
3.1822776668
  0
LINE
  5
2EB
100
AcDbEntity
  8
0
100
AcDbLine
 62
9
  6
CONTINUOUS
 10
12.92089781
 20
3.9874533417
 11
12.92089781
 21
3.152052335
  0
LINE
  5
2EC
100
AcDbEntity
  8
0
100
AcDbLine
 62
9
  6
CONTINUOUS
 10
12.9467009298
 20
5.0752111543
 11
12.9467009298
 21
6.4042945223
  0
LINE
  5
2ED
100
AcDbEntity
  8
0
100
AcDbLine
 62
9
  6
CONTINUOUS
 10
13.05689781
 20
3.120552335
 11
13.05689781
 21
4.0189533417
  0
LINE
  5
2EE
100
AcDbEntity
  8
0
100
AcDbLine
 62
9
  6
CONTINUOUS
 10
13.0638927796
 20
4.0197528383
 11
13.0638927796
 21
3.1197528383
  0
LINE
  5
2EF
100
AcDbEntity
  8
0
100
AcDbLine
 62
9
  6
CONTINUOUS
 10
13.1538927796
 20
3.1197528383
 11
13.1538927796
 21
4.0197528383
  0
LINE
  5
2F0
100
AcDbEntity
  8
0
100
AcDbLine
 62
9
  6
CONTINUOUS
 10
13.1759067386
 20
4.0105790979
 11
13.1759067386
 21
3.1289265788
  0
LINE
  5
2F1
100
AcDbEntity
  8
0
100
AcDbLine
 62
7
  6
CONTINUOUS
 10
6.715107075
 20
17.2493197245
 11
6.61593984
 21
17.3594560968
  0
LINE
  5
2F2
100
AcDbEntity
  8
0
100
AcDbLine
 62
9
  6
CONTINUOUS
 10
7.3859831836
 20
16.2962019079
 11
7.3852091312
 21
16.2970866338
  0
LINE
  5
2F3
100
AcDbEntity
  8
0
100
AcDbLine
 62
9
  6
CONTINUOUS
 10
8.5906133158
 20
15.104707138
 11
8.5910770428
 21
15.1040700367
  0
LINE
  5
2F4
100
AcDbEntity
  8
0
100
AcDbLine
 62
7
  6
CONTINUOUS
 10
10.2895536055
 20
18.7122834652
 11
10.2828909144
 21
18.737148967
  0
LINE
  5
2F5
100
AcDbEntity
  8
0
100
AcDbLine
 62
7
  6
CONTINUOUS
 10
10.0963197955
 20
18.549927576
 11
10.1050905552
 21
18.5171251278
  0
LINE
  5
2F6
100
AcDbEntity
  8
0
100
AcDbLine
 62
7
  6
CONTINUOUS
 10
10.1461282577
 20
18.599730736
 11
10.154385866
 21
18.5688470537
  0
LINE
  5
2F7
100
AcDbEntity
  8
0
100
AcDbLine
 62
7
  6
CONTINUOUS
 10
10.1957769393
 20
18.6493842997
 11
10.2034060473
 21
18.6208516848
  0
LINE
  5
2F8
100
AcDbEntity
  8
0
100
AcDbLine
 62
7
  6
CONTINUOUS
 10
10.2455552718
 20
18.6991569642
 11
10.2526484622
 21
18.6726287999
  0
LINE
  5
2F9
100
AcDbEntity
  8
0
100
AcDbLine
 62
7
  6
CONTINUOUS
 10
10.8138244773
 20
18.1197333992
 11
10.807028184
 21
18.1451544304
  0
LINE
  5
2FA
100
AcDbEntity
  8
0
100
AcDbLine
 62
7
  6
CONTINUOUS
 10
10.6600051135
 20
17.9659146202
 11
10.65153161
 21
17.9976105316
  0
LINE
  5
2FB
100
AcDbEntity
  8
0
100
AcDbLine
 62
7
  6
CONTINUOUS
 10
10.7112838064
 20
18.017189721
 11
10.703372312
 21
18.0467824032
  0
LINE
  5
2FC
100
AcDbEntity
  8
0
100
AcDbLine
 62
7
  6
CONTINUOUS
 10
10.7625401333
 20
18.0684491973
 11
10.755176416
 21
18.0959932373
  0
LINE
  5
2FD
100
AcDbEntity
  8
0
100
AcDbLine
 62
7
  6
CONTINUOUS
 10
13.3898927796
 20
3.3447541277
 11
13.3898927796
 21
3.7947515489
  0
LINE
  5
2FE
100
AcDbEntity
  8
0
100
AcDbLine
 62
9
  6
CONTINUOUS
 10
13.5848927796
 20
-0.2318419946
 11
13.5848927796
 21
-0.2368136708
  0
LINE
  5
2FF
100
AcDbEntity
  8
0
100
AcDbLine
 62
9
  6
CONTINUOUS
 10
13.5848927796
 20
-1.2552754846
 11
13.5848927796
 21
-1.2652188378
  0
LINE
  5
300
100
AcDbEntity
  8
0
100
AcDbLine
 62
9
  6
CONTINUOUS
 10
13.5848927796
 20
-2.2836806516
 11
13.5848927796
 21
-2.2886523287
  0
LINE
  5
301
100
AcDbEntity
  8
0
100
AcDbLine
 62
9
  6
CONTINUOUS
 10
13.7591246528
 20
6.9094644837
 11
13.7591246528
 21
4.570041193
  0
LINE
  5
302
100
AcDbEntity
  8
0
100
AcDbLine
 62
7
  6
CONTINUOUS
 10
13.9688927796
 20
3.7937246549
 11
13.9688927796
 21
3.3457810218
  0
LINE
  5
303
100
AcDbEntity
  8
0
100
AcDbLine
 62
9
  6
CONTINUOUS
 10
13.9808927796
 20
3.8057528383
 11
13.9808927796
 21
3.3337528383
  0
LINE
  5
304
100
AcDbEntity
  8
0
100
AcDbLine
 62
7
  6
CONTINUOUS
 10
14.0808927796
 20
8.4932955848
 11
14.0808927796
 21
2.9862100919
  0
LINE
  5
305
100
AcDbEntity
  8
0
100
AcDbLine
 62
7
  6
CONTINUOUS
 10
14.4180356772
 20
20.1869678056
 11
14.4182234858
 21
20.1903194089
  0
LINE
  5
306
100
AcDbEntity
  8
0
100
AcDbLine
 62
7
  6
CONTINUOUS
 10
9.3695859316
 20
14.594840868
 11
9.4797223038
 21
14.495673633
  0
LINE
  5
307
100
AcDbEntity
  8
0
100
AcDbLine
 62
7
  6
CONTINUOUS
 10
7.4161965958
 20
16.0581865796
 11
7.568894868
 21
15.9054883074
  0
LINE
  5
308
100
AcDbEntity
  8
0
100
AcDbLine
 62
7
  6
CONTINUOUS
 10
7.594726325
 20
15.8796568505
 11
7.7474359006
 21
15.7269472749
  0
LINE
  5
309
100
AcDbEntity
  8
0
100
AcDbLine
 62
7
  6
CONTINUOUS
 10
7.8472321572
 20
15.6271510182
 11
7.9999043822
 21
15.4744787932
  0
LINE
  5
30A
100
AcDbEntity
  8
0
100
AcDbLine
 62
7
  6
CONTINUOUS
 10
8.0257602485
 20
15.448622927
 11
8.1783110445
 21
15.2960721309
  0
LINE
  5
30B
100
AcDbEntity
  8
0
100
AcDbLine
 62
9
  6
CONTINUOUS
 10
7.4104211255
 20
16.072114979
 11
7.5827160194
 21
15.8998200851
  0
LINE
  5
30C
100
AcDbEntity
  8
0
100
AcDbLine
 62
9
  6
CONTINUOUS
 10
7.5889565063
 20
15.8935795981
 11
7.7613586482
 21
15.7211774562
  0
LINE
  5
30D
100
AcDbEntity
  8
0
100
AcDbLine
 62
9
  6
CONTINUOUS
 10
7.8414436633
 20
15.6410924412
 11
8.0138458052
 21
15.4686902993
  0
LINE
  5
30E
100
AcDbEntity
  8
0
100
AcDbLine
 62
9
  6
CONTINUOUS
 10
8.0199790441
 20
15.4625570603
 11
8.192381186
 21
15.2901549184
  0
LINE
  5
30F
100
AcDbEntity
  8
0
100
AcDbLine
 62
9
  6
CONTINUOUS
 10
7.8414436633
 20
15.6480523563
 11
7.7683185634
 21
15.7211774562
  0
LINE
  5
310
100
AcDbEntity
  8
0
100
AcDbLine
 62
9
  6
CONTINUOUS
 10
8.203912461
 20
15.2901549184
 11
7.8414436633
 21
15.6526237184
  0
LINE
  5
311
100
AcDbEntity
  8
0
100
AcDbLine
 62
9
  6
CONTINUOUS
 10
7.7728899232
 20
15.7211774562
 11
7.4104211255
 21
16.0836462563
  0
LINE
  5
312
100
AcDbEntity
  8
0
100
AcDbLine
 62
7
  6
CONTINUOUS
 10
7.3562401848
 20
16.1459818403
 11
8.2662480474
 21
15.2359739777
  0
LINE
  5
313
100
AcDbEntity
  8
0
100
AcDbLine
 62
9
  6
CONTINUOUS
 10
7.3523140142
 20
16.16822537
 11
8.288491577
 21
15.2320478071
  0
LINE
  5
314
100
AcDbEntity
  8
0
100
AcDbLine
 62
7
  6
CONTINUOUS
 10
7.1986867978
 20
16.4244186426
 11
7.3364588367
 21
16.2866466037
  0
LINE
  5
315
100
AcDbEntity
  8
0
100
AcDbLine
 62
7
  6
CONTINUOUS
 10
7.3822650138
 20
16.2408404266
 11
7.3848328862
 21
16.2382725542
  0
LINE
  5
316
100
AcDbEntity
  8
0
100
AcDbLine
 62
7
  6
CONTINUOUS
 10
7.6357947847
 20
15.9873106557
 11
7.7012406181
 21
15.9218648223
  0
LINE
  5
317
100
AcDbEntity
  8
0
100
AcDbLine
 62
7
  6
CONTINUOUS
 10
7.7887269858
 20
15.8343784546
 11
7.8540745795
 21
15.7690308609
  0
LINE
  5
318
100
AcDbEntity
  8
0
100
AcDbLine
 62
7
  6
CONTINUOUS
 10
7.9446520898
 20
15.6784533506
 11
8.01007739
 21
15.6130280504
  0
LINE
  5
319
100
AcDbEntity
  8
0
100
AcDbLine
 62
7
  6
CONTINUOUS
 10
8.3536743973
 20
15.2694310431
 11
8.4256715579
 21
15.1974338825
  0
LINE
  5
31A
100
AcDbEntity
  8
0
100
AcDbLine
 62
7
  6
CONTINUOUS
 10
8.4305101752
 20
15.1925952652
 11
8.4959696688
 21
15.1271357716
  0
LINE
  5
31B
100
AcDbEntity
  8
0
100
AcDbLine
 62
7
  6
CONTINUOUS
 10
8.5000622392
 20
15.1230432012
 11
8.5376589896
 21
15.0854464508
  0
LINE
  5
31C
100
AcDbEntity
  8
0
100
AcDbLine
 62
9
  6
CONTINUOUS
 10
7.1952276287
 20
16.4327700456
 11
7.3448212541
 21
16.2831764203
  0
LINE
  5
31D
100
AcDbEntity
  8
0
100
AcDbLine
 62
9
  6
CONTINUOUS
 10
7.3788056627
 20
16.2491920116
 11
7.3864873497
 21
16.2415103246
  0
LINE
  5
31E
100
AcDbEntity
  8
0
100
AcDbLine
 62
9
  6
CONTINUOUS
 10
7.6323271968
 20
15.9956704782
 11
7.7096004406
 21
15.9183972345
  0
LINE
  5
31F
100
AcDbEntity
  8
0
100
AcDbLine
 62
9
  6
CONTINUOUS
 10
7.7852584669
 20
15.8427392075
 11
7.86253171
 21
15.7654659644
  0
LINE
  5
320
100
AcDbEntity
  8
0
100
AcDbLine
 62
9
  6
CONTINUOUS
 10
7.9411742353
 20
15.686823439
 11
8.0184474784
 21
15.609550196
  0
LINE
  5
321
100
AcDbEntity
  8
0
100
AcDbLine
 62
9
  6
CONTINUOUS
 10
8.3501996757
 20
15.2777979986
 11
8.5460290325
 21
15.0819686419
  0
LINE
  5
322
100
AcDbEntity
  8
0
100
AcDbLine
 62
9
  6
CONTINUOUS
 10
8.3501996757
 20
15.2805990937
 11
8.0212485734
 21
15.609550196
  0
LINE
  5
323
100
AcDbEntity
  8
0
100
AcDbLine
 62
9
  6
CONTINUOUS
 10
7.9411742353
 20
15.6896245341
 11
7.865332805
 21
15.7654659644
  0
LINE
  5
324
100
AcDbEntity
  8
0
100
AcDbLine
 62
9
  6
CONTINUOUS
 10
7.7852584669
 20
15.8455403025
 11
7.7124015349
 21
15.9183972345
  0
LINE
  5
325
100
AcDbEntity
  8
0
100
AcDbLine
 62
9
  6
CONTINUOUS
 10
7.633727744
 20
15.9970710254
 11
7.3873781396
 21
16.2434206298
  0
LINE
  5
326
100
AcDbEntity
  8
0
100
AcDbLine
 62
9
  6
CONTINUOUS
 10
8.5640833002
 20
15.0819686419
 11
8.5248231022
 21
15.1212288398
  0
LINE
  5
327
100
AcDbEntity
  8
0
100
AcDbLine
 62
9
  6
CONTINUOUS
 10
8.5223769282
 20
15.1236750139
 11
8.3501996757
 21
15.2958522663
  0
LINE
  5
328
100
AcDbEntity
  8
0
100
AcDbLine
 62
9
  6
CONTINUOUS
 10
8.0365017461
 20
15.609550196
 11
7.9411742353
 21
15.7048777067
  0
LINE
  5
329
100
AcDbEntity
  8
0
100
AcDbLine
 62
9
  6
CONTINUOUS
 10
7.8805859776
 20
15.7654659644
 11
7.7852584669
 21
15.8607934752
  0
LINE
  5
32A
100
AcDbEntity
  8
0
100
AcDbLine
 62
9
  6
CONTINUOUS
 10
7.7276547075
 20
15.9183972345
 11
7.6323271968
 21
16.0137247451
  0
LINE
  5
32B
100
AcDbEntity
  8
0
100
AcDbLine
 62
9
  6
CONTINUOUS
 10
7.3904761364
 20
16.2555758056
 11
7.3788056627
 21
16.2672462793
  0
LINE
  5
32C
100
AcDbEntity
  8
0
100
AcDbLine
 62
9
  6
CONTINUOUS
 10
7.3628755217
 20
16.2831764203
 11
7.267548011
 21
16.378503931
  0
LINE
  5
32D
100
AcDbEntity
  8
0
100
AcDbLine
 62
9
  6
CONTINUOUS
 10
7.265101837
 20
16.3809501051
 11
7.2128931387
 21
16.4331588033
  0
LINE
  5
32E
100
AcDbEntity
  8
0
100
AcDbLine
 62
9
  6
CONTINUOUS
 10
7.2104469647
 20
16.4356049774
 11
7.1952279725
 21
16.4508239696
  0
LINE
  5
32F
100
AcDbEntity
  8
0
100
AcDbLine
 62
9
  6
CONTINUOUS
 10
7.1986874343
 20
16.4591755932
 11
7.3712272385
 21
16.286635789
  0
LINE
  5
330
100
AcDbEntity
  8
0
100
AcDbLine
 62
9
  6
CONTINUOUS
 10
7.3822650315
 20
16.275597996
 11
7.3896673218
 21
16.2681957057
  0
LINE
  5
331
100
AcDbEntity
  8
0
100
AcDbLine
 62
9
  6
CONTINUOUS
 10
7.6357865656
 20
16.0220764619
 11
7.7360064243
 21
15.9218566032
  0
LINE
  5
332
100
AcDbEntity
  8
0
100
AcDbLine
 62
9
  6
CONTINUOUS
 10
7.7887178356
 20
15.8691451919
 11
7.8889376943
 21
15.7689253332
  0
LINE
  5
333
100
AcDbEntity
  8
0
100
AcDbLine
 62
9
  6
CONTINUOUS
 10
7.9446336041
 20
15.7132294234
 11
8.0448534628
 21
15.6130095647
  0
LINE
  5
334
100
AcDbEntity
  8
0
100
AcDbLine
 62
9
  6
CONTINUOUS
 10
8.3536590445
 20
15.304203983
 11
8.5724350169
 21
15.0854280106
  0
LINE
  5
335
100
AcDbEntity
  8
0
100
AcDbLine
 62
9
  6
CONTINUOUS
 10
8.3583012932
 20
15.3088462313
 11
8.049495712
 21
15.6176518139
  0
LINE
  5
336
100
AcDbEntity
  8
0
100
AcDbLine
 62
9
  6
CONTINUOUS
 10
7.9493845658
 20
15.7177629601
 11
7.8935799435
 21
15.7735675823
  0
LINE
  5
337
100
AcDbEntity
  8
0
100
AcDbLine
 62
9
  6
CONTINUOUS
 10
7.7927356831
 20
15.8744118428
 11
7.7406486735
 21
15.9264988524
  0
LINE
  5
338
100
AcDbEntity
  8
0
100
AcDbLine
 62
9
  6
CONTINUOUS
 10
7.6404288147
 20
16.0267187111
 11
7.3822014417
 21
16.2849460842
  0
LINE
  5
339
100
AcDbEntity
  8
0
100
AcDbLine
 62
7
  6
CONTINUOUS
 10
7.1135532846
 20
16.6357792071
 11
8.7560454142
 21
14.9932870776
  0
LINE
  5
33A
100
AcDbEntity
  8
0
100
AcDbLine
 62
7
  6
CONTINUOUS
 10
7.1099826267
 20
16.6489290271
 11
8.7691952342
 21
14.9897164197
  0
LINE
  5
33B
100
AcDbEntity
  8
0
100
AcDbLine
 62
9
  6
CONTINUOUS
 10
7.0579498892
 20
16.7226554716
 11
8.8429216787
 21
14.9376836822
  0
LINE
  5
33C
100
AcDbEntity
  8
0
100
AcDbLine
 62
7
  6
CONTINUOUS
 10
8.9656401727
 20
14.8221316371
 11
8.9048065075
 21
14.8829653023
  0
LINE
  5
33D
100
AcDbEntity
  8
0
100
AcDbLine
 62
7
  6
CONTINUOUS
 10
8.8987798523
 20
14.8889919575
 11
8.8379319205
 21
14.9498398893
  0
LINE
  5
33E
100
AcDbEntity
  8
0
100
AcDbLine
 62
7
  6
CONTINUOUS
 10
8.7695917188
 20
15.0181800911
 11
8.7088835042
 21
15.0788883057
  0
LINE
  5
33F
100
AcDbEntity
  8
0
100
AcDbLine
 62
7
  6
CONTINUOUS
 10
8.586904114
 20
15.2008676959
 11
8.5260810954
 21
15.2616907145
  0
LINE
  5
340
100
AcDbEntity
  8
0
100
AcDbLine
 62
7
  6
CONTINUOUS
 10
8.3631737291
 20
15.4245980808
 11
8.3023257587
 21
15.4854460511
  0
LINE
  5
341
100
AcDbEntity
  8
0
100
AcDbLine
 62
7
  6
CONTINUOUS
 10
8.1136174506
 20
15.6741543593
 11
8.0528231433
 21
15.7349486665
  0
LINE
  5
342
100
AcDbEntity
  8
0
100
AcDbLine
 62
7
  6
CONTINUOUS
 10
7.8552369398
 20
15.9325348701
 11
7.7944450753
 21
15.9933267346
  0
LINE
  5
343
100
AcDbEntity
  8
0
100
AcDbLine
 62
7
  6
CONTINUOUS
 10
7.6057121775
 20
16.1820596324
 11
7.5448643686
 21
16.2429074413
  0
LINE
  5
344
100
AcDbEntity
  8
0
100
AcDbLine
 62
7
  6
CONTINUOUS
 10
7.3819689997
 20
16.4058028102
 11
7.3211218248
 21
16.4666499851
  0
LINE
  5
345
100
AcDbEntity
  8
0
100
AcDbLine
 62
7
  6
CONTINUOUS
 10
7.1992560636
 20
16.5885157462
 11
7.1384641991
 21
16.6493076107
  0
LINE
  5
346
100
AcDbEntity
  8
0
100
AcDbLine
 62
7
  6
CONTINUOUS
 10
7.0700780627
 20
16.7176937471
 11
7.0092667042
 21
16.7785051056
  0
LINE
  5
347
100
AcDbEntity
  8
0
100
AcDbLine
 62
7
  6
CONTINUOUS
 10
7.0032458257
 20
16.7845259842
 11
6.9423835279
 21
16.8453882819
  0
LINE
  5
348
100
AcDbEntity
  8
0
100
AcDbLine
 62
9
  6
CONTINUOUS
 10
7.0773773307
 20
16.7132222731
 11
7.1339927251
 21
16.6566068787
  0
LINE
  5
349
100
AcDbEntity
  8
0
100
AcDbLine
 62
9
  6
CONTINUOUS
 10
7.2105412101
 20
16.5800583938
 11
7.316678006
 21
16.4739215979
  0
LINE
  5
34A
100
AcDbEntity
  8
0
100
AcDbLine
 62
9
  6
CONTINUOUS
 10
7.3892406125
 20
16.4013589914
 11
7.5404208668
 21
16.2501787371
  0
LINE
  5
34B
100
AcDbEntity
  8
0
100
AcDbLine
 62
9
  6
CONTINUOUS
 10
7.6129834733
 20
16.1776161306
 11
7.7899736013
 21
16.0006260025
  0
LINE
  5
34C
100
AcDbEntity
  8
0
100
AcDbLine
 62
9
  6
CONTINUOUS
 10
7.8625362078
 20
15.9280633961
 11
8.0483296031
 21
15.7422700007
  0
LINE
  5
34D
100
AcDbEntity
  8
0
100
AcDbLine
 62
9
  6
CONTINUOUS
 10
8.1208922096
 20
15.6697073942
 11
8.2978823376
 21
15.4927172662
  0
LINE
  5
34E
100
AcDbEntity
  8
0
100
AcDbLine
 62
9
  6
CONTINUOUS
 10
8.3704449441
 20
15.4201546597
 11
8.5216251984
 21
15.2689744054
  0
LINE
  5
34F
100
AcDbEntity
  8
0
100
AcDbLine
 62
9
  6
CONTINUOUS
 10
8.5941878049
 20
15.1964117989
 11
8.7003246008
 21
15.090275003
  0
LINE
  5
350
100
AcDbEntity
  8
0
100
AcDbLine
 62
9
  6
CONTINUOUS
 10
8.7710056158
 20
15.0195939881
 11
8.8295023737
 21
14.9610972301
  0
LINE
  5
351
100
AcDbEntity
  8
0
100
AcDbLine
 62
9
  6
CONTINUOUS
 10
6.9366241722
 20
16.8593009919
 11
7.0840259893
 21
16.7118991748
  0
LINE
  5
352
100
AcDbEntity
  8
0
100
AcDbLine
 62
9
  6
CONTINUOUS
 10
7.1326696268
 20
16.6632555373
 11
7.2132039902
 21
16.5827211739
  0
LINE
  5
353
100
AcDbEntity
  8
0
100
AcDbLine
 62
9
  6
CONTINUOUS
 10
7.3153549077
 20
16.4805702565
 11
7.3958892711
 21
16.4000358931
  0
LINE
  5
354
100
AcDbEntity
  8
0
100
AcDbLine
 62
9
  6
CONTINUOUS
 10
7.5390977685
 20
16.2568273957
 11
7.6196321319
 21
16.1762930323
  0
LINE
  5
355
100
AcDbEntity
  8
0
100
AcDbLine
 62
9
  6
CONTINUOUS
 10
7.788650503
 20
16.0072746611
 11
7.8691848664
 21
15.9267402978
  0
LINE
  5
356
100
AcDbEntity
  8
0
100
AcDbLine
 62
9
  6
CONTINUOUS
 10
8.0470065048
 20
15.7489186593
 11
8.1275408682
 21
15.6683842959
  0
LINE
  5
357
100
AcDbEntity
  8
0
100
AcDbLine
 62
9
  6
CONTINUOUS
 10
8.2965592393
 20
15.4993659248
 11
8.3770936027
 21
15.4188315614
  0
LINE
  5
358
100
AcDbEntity
  8
0
100
AcDbLine
 62
9
  6
CONTINUOUS
 10
8.5203021001
 20
15.275623064
 11
8.6008364635
 21
15.1950887006
  0
LINE
  5
359
100
AcDbEntity
  8
0
100
AcDbLine
 62
9
  6
CONTINUOUS
 10
8.702987381
 20
15.0929377832
 11
8.7835217444
 21
15.0124034198
  0
LINE
  5
35A
100
AcDbEntity
  8
0
100
AcDbLine
 62
9
  6
CONTINUOUS
 10
8.8321653819
 20
14.9637597823
 11
8.979567199
 21
14.8163579652
  0
LINE
  5
35B
100
AcDbEntity
  8
0
100
AcDbLine
 62
9
  6
CONTINUOUS
 10
8.9910980737
 20
14.8163583616
 11
8.8321653819
 21
14.9752910534
  0
LINE
  5
35C
100
AcDbEntity
  8
0
100
AcDbLine
 62
9
  6
CONTINUOUS
 10
8.7950530155
 20
15.0124034198
 11
8.703031194
 21
15.1044252413
  0
LINE
  5
35D
100
AcDbEntity
  8
0
100
AcDbLine
 62
9
  6
CONTINUOUS
 10
8.6123677347
 20
15.1950887006
 11
8.5203021001
 21
15.2871543352
  0
LINE
  5
35E
100
AcDbEntity
  8
0
100
AcDbLine
 62
9
  6
CONTINUOUS
 10
8.3886248739
 20
15.4188315614
 11
8.2965592393
 21
15.510897196
  0
LINE
  5
35F
100
AcDbEntity
  8
0
100
AcDbLine
 62
9
  6
CONTINUOUS
 10
8.1390721393
 20
15.6683842959
 11
8.0470065048
 21
15.7604499304
  0
LINE
  5
360
100
AcDbEntity
  8
0
100
AcDbLine
 62
9
  6
CONTINUOUS
 10
7.8807161375
 20
15.9267402978
 11
7.788694316
 21
16.0187621193
  0
LINE
  5
361
100
AcDbEntity
  8
0
100
AcDbLine
 62
9
  6
CONTINUOUS
 10
7.631163403
 20
16.1762930323
 11
7.5390977685
 21
16.2683586668
  0
LINE
  5
362
100
AcDbEntity
  8
0
100
AcDbLine
 62
9
  6
CONTINUOUS
 10
7.4074205422
 20
16.4000358931
 11
7.3153549077
 21
16.4921015276
  0
LINE
  5
363
100
AcDbEntity
  8
0
100
AcDbLine
 62
9
  6
CONTINUOUS
 10
7.2247352614
 20
16.5827211739
 11
7.1326696268
 21
16.6747868085
  0
LINE
  5
364
100
AcDbEntity
  8
0
100
AcDbLine
 62
9
  6
CONTINUOUS
 10
7.0955572605
 20
16.7118991748
 11
6.9366241722
 21
16.870832263
  0
LINE
  5
365
100
AcDbEntity
  8
0
100
AcDbLine
 62
9
  6
CONTINUOUS
 10
8.8335858439
 20
14.9848657397
 11
8.8038645879
 21
15.0145869957
  0
LINE
  5
366
100
AcDbEntity
  8
0
100
AcDbLine
 62
9
  6
CONTINUOUS
 10
8.704407843
 20
15.1140437406
 11
8.6178653088
 21
15.2005862748
  0
LINE
  5
367
100
AcDbEntity
  8
0
100
AcDbLine
 62
9
  6
CONTINUOUS
 10
8.520667041
 20
15.2977845426
 11
8.3981995601
 21
15.4202520235
  0
LINE
  5
368
100
AcDbEntity
  8
0
100
AcDbLine
 62
9
  6
CONTINUOUS
 10
8.2979797014
 20
15.5204718822
 11
8.1486468256
 21
15.669804758
  0
LINE
  5
369
100
AcDbEntity
  8
0
100
AcDbLine
 62
9
  6
CONTINUOUS
 10
8.0484269669
 20
15.7700246167
 11
7.8902908238
 21
15.9281607598
  0
LINE
  5
36A
100
AcDbEntity
  8
0
100
AcDbLine
 62
9
  6
CONTINUOUS
 10
7.7900709651
 20
16.0283806186
 11
7.6407380893
 21
16.1777134943
  0
LINE
  5
36B
100
AcDbEntity
  8
0
100
AcDbLine
 62
9
  6
CONTINUOUS
 10
7.5413825588
 20
16.2770690248
 11
7.4169952285
 21
16.4014563551
  0
LINE
  5
36C
100
AcDbEntity
  8
0
100
AcDbLine
 62
9
  6
CONTINUOUS
 10
7.3208524818
 20
16.4975991018
 11
7.2343099476
 21
16.584141636
  0
LINE
  5
36D
100
AcDbEntity
  8
0
100
AcDbLine
 62
9
  6
CONTINUOUS
 10
7.1348532917
 20
16.6835982919
 11
7.1051319467
 21
16.7133196369
  0
LINE
  5
36E
100
AcDbEntity
  8
0
100
AcDbLine
 62
9
  6
CONTINUOUS
 10
6.9423897868
 20
16.8847521018
 11
7.1094770992
 21
16.7176647894
  0
LINE
  5
36F
100
AcDbEntity
  8
0
100
AcDbLine
 62
9
  6
CONTINUOUS
 10
7.1384352414
 20
16.6887066472
 11
7.2386551001
 21
16.5884867885
  0
LINE
  5
370
100
AcDbEntity
  8
0
100
AcDbLine
 62
9
  6
CONTINUOUS
 10
7.3211205222
 20
16.5060213664
 11
7.421340381
 21
16.4058015076
  0
LINE
  5
371
100
AcDbEntity
  8
0
100
AcDbLine
 62
9
  6
CONTINUOUS
 10
7.544863383
 20
16.2822785056
 11
7.6450832418
 21
16.1820586468
  0
LINE
  5
372
100
AcDbEntity
  8
0
100
AcDbLine
 62
9
  6
CONTINUOUS
 10
7.7944161175
 20
16.0327257711
 11
7.8946359763
 21
15.9325059123
  0
LINE
  5
373
100
AcDbEntity
  8
0
100
AcDbLine
 62
9
  6
CONTINUOUS
 10
8.0527721194
 20
15.7743697692
 11
8.1529919781
 21
15.6741499105
  0
LINE
  5
374
100
AcDbEntity
  8
0
100
AcDbLine
 62
9
  6
CONTINUOUS
 10
8.3023248539
 20
15.5248170347
 11
8.4025447126
 21
15.424597176
  0
LINE
  5
375
100
AcDbEntity
  8
0
100
AcDbLine
 62
9
  6
CONTINUOUS
 10
8.5260677147
 20
15.3010741739
 11
8.6262875734
 21
15.2008543152
  0
LINE
  5
376
100
AcDbEntity
  8
0
100
AcDbLine
 62
9
  6
CONTINUOUS
 10
8.7087529955
 20
15.1183888931
 11
8.8089728543
 21
15.0181690343
  0
LINE
  5
377
100
AcDbEntity
  8
0
100
AcDbLine
 62
9
  6
CONTINUOUS
 10
8.8379309964
 20
14.9892108922
 11
9.0050183089
 21
14.8221235797
  0
LINE
  5
378
100
AcDbEntity
  8
0
100
AcDbLine
 62
9
  6
CONTINUOUS
 10
8.8460616271
 20
14.9973415229
 11
8.817103485
 21
15.026299665
  0
LINE
  5
379
100
AcDbEntity
  8
0
100
AcDbLine
 62
9
  6
CONTINUOUS
 10
8.7168836262
 20
15.1265195238
 11
8.6344182041
 21
15.2089849459
  0
LINE
  5
37A
100
AcDbEntity
  8
0
100
AcDbLine
 62
9
  6
CONTINUOUS
 10
8.5331428242
 20
15.3102603258
 11
8.4106753433
 21
15.4327278067
  0
LINE
  5
37B
100
AcDbEntity
  8
0
100
AcDbLine
 62
9
  6
CONTINUOUS
 10
8.3104554846
 20
15.5329476654
 11
8.1611226088
 21
15.6822805412
  0
LINE
  5
37C
100
AcDbEntity
  8
0
100
AcDbLine
 62
9
  6
CONTINUOUS
 10
8.0609027501
 20
15.7825003999
 11
7.902766607
 21
15.940636543
  0
LINE
  5
37D
100
AcDbEntity
  8
0
100
AcDbLine
 62
9
  6
CONTINUOUS
 10
7.8025467483
 20
16.0408564018
 11
7.6532138725
 21
16.1901892775
  0
LINE
  5
37E
100
AcDbEntity
  8
0
100
AcDbLine
 62
9
  6
CONTINUOUS
 10
7.5529940137
 20
16.2904091363
 11
7.4305265333
 21
16.4128766167
  0
LINE
  5
37F
100
AcDbEntity
  8
0
100
AcDbLine
 62
9
  6
CONTINUOUS
 10
7.3292511529
 20
16.5141519971
 11
7.2467857309
 21
16.5966174192
  0
LINE
  5
380
100
AcDbEntity
  8
0
100
AcDbLine
 62
9
  6
CONTINUOUS
 10
7.1465658721
 20
16.6968372779
 11
7.1203633853
 21
16.7230397648
  0
LINE
  5
381
100
AcDbEntity
  8
0
100
AcDbLine
 62
7
  6
CONTINUOUS
 10
9.1246746673
 20
14.7218537114
 11
9.0471215545
 21
14.7994068242
  0
LINE
  5
382
100
AcDbEntity
  8
0
100
AcDbLine
 62
7
  6
CONTINUOUS
 10
9.0106236699
 20
14.8359047088
 11
8.9331212988
 21
14.9134070799
  0
LINE
  5
383
100
AcDbEntity
  8
0
100
AcDbLine
 62
7
  6
CONTINUOUS
 10
8.8292601137
 20
15.017268265
 11
8.7517077004
 21
15.0948206783
  0
LINE
  5
384
100
AcDbEntity
  8
0
100
AcDbLine
 62
7
  6
CONTINUOUS
 10
8.592860814
 20
15.2536675647
 11
8.5154549303
 21
15.3310734484
  0
LINE
  5
385
100
AcDbEntity
  8
0
100
AcDbLine
 62
7
  6
CONTINUOUS
 10
8.3174404852
 20
15.5290878935
 11
8.2401825083
 21
15.6063458704
  0
LINE
  5
386
100
AcDbEntity
  8
0
100
AcDbLine
 62
7
  6
CONTINUOUS
 10
8.0221726517
 20
15.824355727
 11
7.9446275413
 21
15.9019008374
  0
LINE
  5
387
100
AcDbEntity
  8
0
100
AcDbLine
 62
7
  6
CONTINUOUS
 10
7.7267540445
 20
16.1197743342
 11
7.6492653998
 21
16.1972629789
  0
LINE
  5
388
100
AcDbEntity
  8
0
100
AcDbLine
 62
7
  6
CONTINUOUS
 10
7.4514774199
 20
16.3950509588
 11
7.3739243301
 21
16.4726040486
  0
LINE
  5
389
100
AcDbEntity
  8
0
100
AcDbLine
 62
7
  6
CONTINUOUS
 10
7.2149396672
 20
16.6315887115
 11
7.1375355092
 21
16.7089928695
  0
LINE
  5
38A
100
AcDbEntity
  8
0
100
AcDbLine
 62
7
  6
CONTINUOUS
 10
7.0336937564
 20
16.8128346223
 11
6.9561504464
 21
16.8903779323
  0
LINE
  5
38B
100
AcDbEntity
  8
0
100
AcDbLine
 62
7
  6
CONTINUOUS
 10
6.9195254633
 20
16.9270029154
 11
6.8422674864
 21
17.0042608923
  0
LINE
  5
38C
100
AcDbEntity
  8
0
100
AcDbLine
 62
7
  6
CONTINUOUS
 10
6.8397288661
 20
17.0067995126
 11
6.8032280675
 21
17.0433003112
  0
LINE
  5
38D
100
AcDbEntity
  8
0
100
AcDbLine
 62
9
  6
CONTINUOUS
 10
6.7974622977
 20
17.0572195351
 11
6.9335920518
 21
16.9210897444
  0
LINE
  5
38E
100
AcDbEntity
  8
0
100
AcDbLine
 62
9
  6
CONTINUOUS
 10
6.950379942
 20
16.9043018542
 11
7.0476176783
 21
16.8070641179
  0
LINE
  5
38F
100
AcDbEntity
  8
0
100
AcDbLine
 62
9
  6
CONTINUOUS
 10
7.1317685193
 20
16.7229132769
 11
7.228814111
 21
16.6258676851
  0
LINE
  5
390
100
AcDbEntity
  8
0
100
AcDbLine
 62
9
  6
CONTINUOUS
 10
7.3681587155
 20
16.4865230806
 11
7.4653964519
 21
16.3892853443
  0
LINE
  5
391
100
AcDbEntity
  8
0
100
AcDbLine
 62
9
  6
CONTINUOUS
 10
7.6434409296
 20
16.2112408666
 11
7.7404936565
 21
16.1141881397
  0
LINE
  5
392
100
AcDbEntity
  8
0
100
AcDbLine
 62
9
  6
CONTINUOUS
 10
7.9388551334
 20
15.9158266628
 11
8.0360928698
 21
15.8185889264
  0
LINE
  5
393
100
AcDbEntity
  8
0
100
AcDbLine
 62
9
  6
CONTINUOUS
 10
8.2342693373
 20
15.6204124589
 11
8.3315070737
 21
15.5231747225
  0
LINE
  5
394
100
AcDbEntity
  8
0
100
AcDbLine
 62
9
  6
CONTINUOUS
 10
8.5095515513
 20
15.3451302449
 11
8.6067892877
 21
15.2478925085
  0
LINE
  5
395
100
AcDbEntity
  8
0
100
AcDbLine
 62
9
  6
CONTINUOUS
 10
8.7459417476
 20
15.1087400486
 11
8.8429944745
 21
15.0116873217
  0
LINE
  5
396
100
AcDbEntity
  8
0
100
AcDbLine
 62
9
  6
CONTINUOUS
 10
8.9273303249
 20
14.9273514713
 11
9.0245680613
 21
14.8301137349
  0
LINE
  5
397
100
AcDbEntity
  8
0
100
AcDbLine
 62
9
  6
CONTINUOUS
 10
9.0413559515
 20
14.8133258447
 11
9.1385936878
 21
14.7160881084
  0
LINE
  5
398
100
AcDbEntity
  8
0
100
AcDbLine
 62
9
  6
CONTINUOUS
 10
9.1501244649
 20
14.7160881084
 11
9.0413559515
 21
14.8248566219
  0
LINE
  5
399
100
AcDbEntity
  8
0
100
AcDbLine
 62
9
  6
CONTINUOUS
 10
9.0360988384
 20
14.8301137349
 11
8.9273303249
 21
14.9388822484
  0
LINE
  5
39A
100
AcDbEntity
  8
0
100
AcDbLine
 62
9
  6
CONTINUOUS
 10
8.8547102611
 20
15.0115023122
 11
8.7459417476
 21
15.1202708257
  0
LINE
  5
39B
100
AcDbEntity
  8
0
100
AcDbLine
 62
9
  6
CONTINUOUS
 10
8.6183200648
 20
15.2478925085
 11
8.5095515513
 21
15.356661022
  0
LINE
  5
39C
100
AcDbEntity
  8
0
100
AcDbLine
 62
9
  6
CONTINUOUS
 10
8.3430378508
 20
15.5231747225
 11
8.2342693373
 21
15.631943236
  0
LINE
  5
39D
100
AcDbEntity
  8
0
100
AcDbLine
 62
9
  6
CONTINUOUS
 10
8.0476236471
 20
15.8185889264
 11
7.9388551334
 21
15.9273574401
  0
LINE
  5
39E
100
AcDbEntity
  8
0
100
AcDbLine
 62
9
  6
CONTINUOUS
 10
7.7522094431
 20
16.1140031302
 11
7.6434409296
 21
16.2227716437
  0
LINE
  5
39F
100
AcDbEntity
  8
0
100
AcDbLine
 62
9
  6
CONTINUOUS
 10
7.476927229
 20
16.3892853443
 11
7.3681943732
 21
16.4980182001
  0
LINE
  5
3A0
100
AcDbEntity
  8
0
100
AcDbLine
 62
9
  6
CONTINUOUS
 10
7.2405370328
 20
16.6256755406
 11
7.1317685193
 21
16.734444054
  0
LINE
  5
3A1
100
AcDbEntity
  8
0
100
AcDbLine
 62
9
  6
CONTINUOUS
 10
7.0591484554
 20
16.8070641179
 11
6.950379942
 21
16.9158326313
  0
LINE
  5
3A2
100
AcDbEntity
  8
0
100
AcDbLine
 62
9
  6
CONTINUOUS
 10
6.9451228289
 20
16.9210897444
 11
6.7974622977
 21
17.0687507688
  0
LINE
  5
3A3
100
AcDbEntity
  8
0
100
AcDbLine
 62
9
  6
CONTINUOUS
 10
6.8032279122
 20
17.0826705452
 11
6.954965771
 21
16.9309326865
  0
LINE
  5
3A4
100
AcDbEntity
  8
0
100
AcDbLine
 62
9
  6
CONTINUOUS
 10
6.9561455565
 20
16.9297529009
 11
7.073068725
 21
16.8128297324
  0
LINE
  5
3A5
100
AcDbEntity
  8
0
100
AcDbLine
 62
9
  6
CONTINUOUS
 10
7.1375341338
 20
16.7483643236
 11
7.2544573023
 21
16.6314411551
  0
LINE
  5
3A6
100
AcDbEntity
  8
0
100
AcDbLine
 62
9
  6
CONTINUOUS
 10
7.3739243301
 20
16.5119741274
 11
7.4908474986
 21
16.3950509588
  0
LINE
  5
3A7
100
AcDbEntity
  8
0
100
AcDbLine
 62
9
  6
CONTINUOUS
 10
7.6492065441
 20
16.2366919133
 11
7.7661297127
 21
16.1197687448
  0
LINE
  5
3A8
100
AcDbEntity
  8
0
100
AcDbLine
 62
9
  6
CONTINUOUS
 10
7.944620748
 20
15.9412777095
 11
8.0615439165
 21
15.8243545409
  0
LINE
  5
3A9
100
AcDbEntity
  8
0
100
AcDbLine
 62
9
  6
CONTINUOUS
 10
8.2400349518
 20
15.6458635056
 11
8.3569581204
 21
15.5289403371
  0
LINE
  5
3AA
100
AcDbEntity
  8
0
100
AcDbLine
 62
9
  6
CONTINUOUS
 10
8.5153171659
 20
15.3705812916
 11
8.6322403344
 21
15.253658123
  0
LINE
  5
3AB
100
AcDbEntity
  8
0
100
AcDbLine
 62
9
  6
CONTINUOUS
 10
8.7517073622
 20
15.1341910953
 11
8.8686305307
 21
15.0172679267
  0
LINE
  5
3AC
100
AcDbEntity
  8
0
100
AcDbLine
 62
9
  6
CONTINUOUS
 10
8.9330959395
 20
14.952802518
 11
9.1640447345
 21
14.7218537229
  0
LINE
  5
3AD
100
AcDbEntity
  8
0
100
AcDbLine
 62
7
  6
CONTINUOUS
 10
6.8279199513
 20
17.1073625843
 11
9.2448628199
 21
14.6904197157
  0
LINE
  5
3AE
100
AcDbEntity
  8
0
100
AcDbLine
 62
7
  6
CONTINUOUS
 10
9.3695859316
 20
14.594840868
 11
6.715107075
 21
17.2493197245
  0
LINE
  5
3AF
100
AcDbEntity
  8
0
100
AcDbLine
 62
9
  6
CONTINUOUS
 10
9.4797223038
 20
14.495673633
 11
6.61593984
 21
17.3594560968
  0
LINE
  5
3B0
100
AcDbEntity
  8
0
100
AcDbLine
 62
7
  6
CONTINUOUS
 10
6.6051808879
 20
17.5253849445
 11
9.6454857196
 21
14.4850801128
  0
LINE
  5
3B1
100
AcDbEntity
  8
0
100
AcDbLine
 62
9
  6
CONTINUOUS
 10
9.6609879803
 20
14.5693422548
 11
6.6896084619
 21
17.5407217732
  0
LINE
  5
3B2
100
AcDbEntity
  8
0
100
AcDbLine
 62
9
  6
CONTINUOUS
 10
9.6442270829
 20
14.6923723536
 11
6.8126385607
 21
17.5239608759
  0
LINE
  5
3B3
100
AcDbEntity
  8
0
100
AcDbLine
 62
9
  6
CONTINUOUS
 10
9.2764592064
 20
14.6591632501
 11
6.7775218886
 21
17.1581010196
  0
LINE
  5
3B4
100
AcDbEntity
  8
0
100
AcDbLine
 62
7
  6
CONTINUOUS
 10
7.3852091312
 20
16.2970866338
 11
7.3851919248
 21
16.2971038861
  0
LINE
  5
3B5
100
AcDbEntity
  8
0
100
AcDbLine
 62
7
  6
CONTINUOUS
 10
14.4180356772
 20
19.292537871
 11
14.4182234858
 21
19.2891862678
  0
LINE
  5
3B6
100
AcDbEntity
  8
0
100
AcDbLine
 62
9
  6
CONTINUOUS
 10
14.2088927796
 20
2.7679637455
 11
14.2088927796
 21
8.7115419312
  0
LINE
  5
3B7
100
AcDbEntity
  8
0
100
AcDbLine
 62
7
  6
CONTINUOUS
 10
14.3368829444
 20
8.9328889688
 11
14.3368829444
 21
2.5466167079
  0
LINE
  5
3B8
100
AcDbEntity
  8
0
100
AcDbLine
 62
7
  6
CONTINUOUS
 10
14.4180356772
 20
20.1869678056
 11
14.4180356772
 21
19.292537871
  0
LINE
  5
3B9
100
AcDbEntity
  8
0
100
AcDbLine
 62
9
  6
CONTINUOUS
 10
14.4182234858
 20
19.2891862678
 11
14.4182234858
 21
20.1903194089
  0
LINE
  5
3BA
100
AcDbEntity
  8
0
100
AcDbLine
 62
9
  6
CONTINUOUS
 10
14.4608905844
 20
2.3306800325
 11
14.4608905844
 21
9.1488256442
  0
LINE
  5
3BB
100
AcDbEntity
  8
0
100
AcDbLine
 62
9
  6
CONTINUOUS
 10
14.5545472552
 20
20.8931480508
 11
14.5545472552
 21
18.5863576258
  0
LINE
  5
3BC
100
AcDbEntity
  8
0
100
AcDbLine
 62
7
  6
CONTINUOUS
 10
14.5848927796
 20
9.3647528383
 11
14.5848927796
 21
2.1147528383
  0
LINE
  5
3BD
100
AcDbEntity
  8
0
100
AcDbLine
 62
9
  6
CONTINUOUS
 10
14.6027195323
 20
20.9297528383
 11
14.6027195323
 21
18.5497528383
  0
LINE
  5
3BE
100
AcDbEntity
  8
0
100
AcDbLine
 62
7
  6
CONTINUOUS
 10
14.8348927796
 20
-2.6602299417
 11
14.8348927796
 21
0.1397356184
  0
LINE
  5
3BF
100
AcDbEntity
  8
0
100
AcDbLine
 62
7
  6
CONTINUOUS
 10
14.8348927796
 20
1.8647857666
 11
14.8348927796
 21
9.6147199101
  0
LINE
  5
3C0
100
AcDbEntity
  8
0
100
AcDbLine
 62
7
  6
CONTINUOUS
 10
14.8348927796
 20
18.5497843129
 11
14.8348927796
 21
20.9297213638
  0
LINE
  5
3C1
100
AcDbEntity
  8
0
100
AcDbLine
 62
7
  6
CONTINUOUS
 10
13.7741455368
 20
6.9272528383
 11
13.7591246528
 21
6.9094644837
  0
LINE
  5
3C2
100
AcDbEntity
  8
0
100
AcDbLine
 62
7
  6
CONTINUOUS
 10
13.7741455368
 20
6.3335028383
 11
13.7591246528
 21
6.324608661
  0
LINE
  5
3C3
100
AcDbEntity
  8
0
100
AcDbLine
 62
9
  6
CONTINUOUS
 10
7.2348714262
 20
16.4600294354
 11
7.2364657616
 21
16.4588546916
  0
LINE
  5
3C4
100
AcDbEntity
  8
0
100
AcDbLine
 62
7
  6
CONTINUOUS
 10
9.2764608216
 20
14.6591662578
 11
9.2749036901
 21
14.6603788466
  0
LINE
  5
3C5
100
AcDbEntity
  8
0
100
AcDbLine
 62
9
  6
CONTINUOUS
 10
7.0789509388
 20
17.6527615681
 11
9.7730277751
 21
14.9586847317
  0
LINE
  5
3C6
100
AcDbEntity
  8
0
100
AcDbLine
 62
9
  6
CONTINUOUS
 10
9.9024628424
 20
15.088119799
 11
7.208386006
 21
17.7821966353
  0
LINE
  5
3C7
100
AcDbEntity
  8
0
100
AcDbLine
 62
9
  6
CONTINUOUS
 10
7.2882966108
 20
17.7991821587
 11
9.9194483657
 21
15.1680304038
  0
LINE
  5
3C8
100
AcDbEntity
  8
0
100
AcDbLine
 62
9
  6
CONTINUOUS
 10
9.829756889
 20
15.4016846892
 11
7.5219508962
 21
17.7094906819
  0
LINE
  5
3C9
100
AcDbEntity
  8
0
100
AcDbLine
 62
9
  6
CONTINUOUS
 10
7.5432603908
 20
17.7140201548
 11
9.8342863619
 21
15.4229941838
  0
LINE
  5
3CA
100
AcDbEntity
  8
0
100
AcDbLine
 62
9
  6
CONTINUOUS
 10
9.858319813
 20
15.4470276349
 11
7.567293842
 21
17.738053606
  0
LINE
  5
3CB
100
AcDbEntity
  8
0
100
AcDbLine
 62
9
  6
CONTINUOUS
 10
7.5921944049
 20
17.7407713708
 11
9.8610375778
 21
15.4719281978
  0
LINE
  5
3CC
100
AcDbEntity
  8
0
100
AcDbLine
 62
7
  6
CONTINUOUS
 10
7.3883006656
 20
16.2938359159
 11
7.3890934765
 21
16.2934340597
  0
LINE
  5
3CD
100
AcDbEntity
  8
0
100
AcDbLine
 62
7
  6
CONTINUOUS
 10
8.7772795569
 20
17.4701225537
 11
9.5903887608
 21
16.6570133499
  0
LINE
  5
3CE
100
AcDbEntity
  8
0
100
AcDbLine
 62
7
  6
CONTINUOUS
 10
13.3898927796
 20
3.3447528383
 11
13.1759067386
 21
3.1289265788
  0
LINE
  5
3CF
100
AcDbEntity
  8
0
100
AcDbLine
 62
7
  6
CONTINUOUS
 10
11.4383927796
 20
2.6542528383
 11
11.4148927796
 21
2.640685107
  0
LINE
  5
3D0
100
AcDbEntity
  8
0
100
AcDbLine
 62
7
  6
CONTINUOUS
 10
9.1385940806
 20
14.7160881084
 11
9.1501244649
 21
14.7160881084
  0
LINE
  5
3D1
100
AcDbEntity
  8
0
100
AcDbLine
 62
7
  6
CONTINUOUS
 10
8.979567655
 20
14.8163579652
 11
8.9910984701
 21
14.8163579652
  0
LINE
  5
3D2
100
AcDbEntity
  8
0
100
AcDbLine
 62
7
  6
CONTINUOUS
 10
9.0245684541
 20
14.8301137349
 11
9.0360988384
 21
14.8301137349
  0
LINE
  5
3D3
100
AcDbEntity
  8
0
100
AcDbLine
 62
7
  6
CONTINUOUS
 10
8.9127002013
 20
14.8832254189
 11
8.9242310164
 21
14.8832254189
  0
LINE
  5
3D4
100
AcDbEntity
  8
0
100
AcDbLine
 62
7
  6
CONTINUOUS
 10
8.4806954514
 20
15.2243529773
 11
8.4812538767
 21
15.2242126556
  0
LINE
  5
3D5
100
AcDbEntity
  8
0
100
AcDbLine
 62
7
  6
CONTINUOUS
 10
8.5592065405
 20
15.1484455659
 11
8.5603951624
 21
15.1480958166
  0
LINE
  5
3D6
100
AcDbEntity
  8
0
100
AcDbLine
 62
7
  6
CONTINUOUS
 10
9.3235150263
 20
17.7582730862
 11
9.204929614
 21
17.8768584985
  0
LINE
  5
3D7
100
AcDbEntity
  8
0
100
AcDbLine
 62
7
  6
CONTINUOUS
 10
10.2551003061
 20
17.3216625532
 11
9.4419287602
 21
18.134834099
  0
LINE
  5
3D8
100
AcDbEntity
  8
0
100
AcDbLine
 62
9
  6
CONTINUOUS
 10
9.6818596199
 20
18.0503710752
 11
10.1706372775
 21
17.561597984
  0
LINE
  5
3D9
100
AcDbEntity
  8
0
100
AcDbLine
 62
9
  6
CONTINUOUS
 10
9.7618939525
 20
18.1303710679
 11
10.2506372749
 21
17.6416277454
  0
LINE
  5
3DA
100
AcDbEntity
  8
0
100
AcDbLine
 62
9
  6
CONTINUOUS
 10
10.3239534397
 20
17.6416277454
 11
9.7618939525
 21
18.2036872327
  0
LINE
  5
3DB
100
AcDbEntity
  8
0
100
AcDbLine
 62
9
  6
CONTINUOUS
 10
9.8169578776
 20
18.3366233075
 11
9.8264802947
 21
18.3271008904
  0
LINE
  5
3DC
100
AcDbEntity
  8
0
100
AcDbLine
 62
9
  6
CONTINUOUS
 10
9.9146030784
 20
18.2389781067
 11
10.4568895146
 21
17.6966916706
  0
LINE
  5
3DD
100
AcDbEntity
  8
0
100
AcDbLine
 62
7
  6
CONTINUOUS
 10
12.2054961996
 20
2.6670142538
 11
12.1833927796
 21
2.6542528383
  0
LINE
  5
3DE
100
AcDbEntity
  8
0
100
AcDbLine
 62
7
  6
CONTINUOUS
 10
8.5546163353
 20
15.1484237624
 11
8.5592065405
 21
15.1484455659
  0
LINE
  5
3DF
100
AcDbEntity
  8
0
100
AcDbLine
 62
7
  6
CONTINUOUS
 10
8.8431798768
 20
15.0115023122
 11
8.8547102611
 21
15.0115023122
  0
LINE
  5
3E0
100
AcDbEntity
  8
0
100
AcDbLine
 62
7
  6
CONTINUOUS
 10
8.7835222004
 20
15.0124034198
 11
8.7950530155
 21
15.0124034198
  0
LINE
  5
3E1
100
AcDbEntity
  8
0
100
AcDbLine
 62
7
  6
CONTINUOUS
 10
8.5460290847
 20
15.0819686419
 11
8.5640833002
 21
15.0819686419
  0
LINE
  5
3E2
100
AcDbEntity
  8
0
100
AcDbLine
 62
7
  6
CONTINUOUS
 10
8.5043227127
 20
15.1236750139
 11
8.5223769282
 21
15.1236750139
  0
LINE
  5
3E3
100
AcDbEntity
  8
0
100
AcDbLine
 62
7
  6
CONTINUOUS
 10
8.6008369195
 20
15.1950887006
 11
8.6123677347
 21
15.1950887006
  0
LINE
  5
3E4
100
AcDbEntity
  8
0
100
AcDbLine
 62
7
  6
CONTINUOUS
 10
8.427472971
 20
15.2005247556
 11
8.4455271865
 21
15.2005247556
  0
LINE
  5
3E5
100
AcDbEntity
  8
0
100
AcDbLine
 62
7
  6
CONTINUOUS
 10
8.6067896805
 20
15.2478925085
 11
8.6183200648
 21
15.2478925085
  0
LINE
  5
3E6
100
AcDbEntity
  8
0
100
AcDbLine
 62
7
  6
CONTINUOUS
 10
8.1923820674
 20
15.2901549184
 11
8.203912461
 21
15.2901549184
  0
LINE
  5
3E7
100
AcDbEntity
  8
0
100
AcDbLine
 62
7
  6
CONTINUOUS
 10
8.3770940587
 20
15.4188315614
 11
8.3886248739
 21
15.4188315614
  0
LINE
  5
3E8
100
AcDbEntity
  8
0
100
AcDbLine
 62
7
  6
CONTINUOUS
 10
8.0138466865
 20
15.4686902993
 11
8.0253770825
 21
15.4686902993
  0
LINE
  5
3E9
100
AcDbEntity
  8
0
100
AcDbLine
 62
7
  6
CONTINUOUS
 10
8.3315074664
 20
15.5231747225
 11
8.3430378508
 21
15.5231747225
  0
LINE
  5
3EA
100
AcDbEntity
  8
0
100
AcDbLine
 62
7
  6
CONTINUOUS
 10
8.0184475306
 20
15.609550196
 11
8.0365017461
 21
15.609550196
  0
LINE
  5
3EB
100
AcDbEntity
  8
0
100
AcDbLine
 62
7
  6
CONTINUOUS
 10
8.1275413242
 20
15.6683842959
 11
8.1390721393
 21
15.6683842959
  0
LINE
  5
3EC
100
AcDbEntity
  8
0
100
AcDbLine
 62
7
  6
CONTINUOUS
 10
7.7613595295
 20
15.7211774562
 11
7.7728899232
 21
15.7211774562
  0
LINE
  5
3ED
100
AcDbEntity
  8
0
100
AcDbLine
 62
7
  6
CONTINUOUS
 10
7.8625317621
 20
15.7654659644
 11
7.8805859776
 21
15.7654659644
  0
LINE
  5
3EE
100
AcDbEntity
  8
0
100
AcDbLine
 62
7
  6
CONTINUOUS
 10
8.0360932626
 20
15.8185889264
 11
8.0476236471
 21
15.8185889264
  0
LINE
  5
3EF
100
AcDbEntity
  8
0
100
AcDbLine
 62
7
  6
CONTINUOUS
 10
7.7511737242
 20
15.9337967935
 11
7.7534796435
 21
15.9337302927
  0
LINE
  5
3F0
100
AcDbEntity
  8
0
100
AcDbLine
 62
7
  6
CONTINUOUS
 10
7.9061332994
 20
15.782615833
 11
7.9080356923
 21
15.7824946443
  0
LINE
  5
3F1
100
AcDbEntity
  8
0
100
AcDbLine
 62
7
  6
CONTINUOUS
 10
7.384763593
 20
16.2946853857
 11
7.3883006656
 21
16.2938359159
  0
LINE
  5
3F2
100
AcDbEntity
  8
0
100
AcDbLine
 62
7
  6
CONTINUOUS
 10
10.0539935181
 20
18.3783685464
 11
9.9658707344
 21
18.4664913301
  0
LINE
  5
3F3
100
AcDbEntity
  8
0
100
AcDbLine
 62
7
  6
CONTINUOUS
 10
10.6846485545
 20
17.9244902053
 11
10.0447564124
 21
18.5643823474
  0
LINE
  5
3F4
100
AcDbEntity
  8
0
100
AcDbLine
 62
7
  6
CONTINUOUS
 10
10.3424262751
 20
18.6159501307
 11
10.2520591766
 21
18.7063172292
  0
LINE
  5
3F5
100
AcDbEntity
  8
0
100
AcDbLine
 62
7
  6
CONTINUOUS
 10
10.2769246784
 20
18.6996545381
 11
10.81958257
 21
18.1569966465
  0
LINE
  5
3F6
100
AcDbEntity
  8
0
100
AcDbLine
 62
7
  6
CONTINUOUS
 10
10.8325496723
 20
18.1692873984
 11
10.2895536055
 21
18.7122834652
  0
LINE
  5
3F7
100
AcDbEntity
  8
0
100
AcDbLine
 62
7
  6
CONTINUOUS
 10
10.2828909144
 20
18.737148967
 11
10.8574151741
 21
18.1626247073
  0
LINE
  5
3F8
100
AcDbEntity
  8
0
100
AcDbLine
 62
7
  6
CONTINUOUS
 10
7.5828241487
 20
15.8997128371
 11
7.5889565063
 21
15.8997128371
  0
LINE
  5
3F9
100
AcDbEntity
  8
0
100
AcDbLine
 62
7
  6
CONTINUOUS
 10
7.7096004921
 20
15.9183972345
 11
7.7276547075
 21
15.9183972345
  0
LINE
  5
3FA
100
AcDbEntity
  8
0
100
AcDbLine
 62
7
  6
CONTINUOUS
 10
7.8691853224
 20
15.9267402978
 11
7.8807161375
 21
15.9267402978
  0
LINE
  5
3FB
100
AcDbEntity
  8
0
100
AcDbLine
 62
7
  6
CONTINUOUS
 10
7.7406790588
 20
16.1140031302
 11
7.7522094431
 21
16.1140031302
  0
LINE
  5
3FC
100
AcDbEntity
  8
0
100
AcDbLine
 62
7
  6
CONTINUOUS
 10
7.6196325879
 20
16.1762930323
 11
7.631163403
 21
16.1762930323
  0
LINE
  5
3FD
100
AcDbEntity
  8
0
100
AcDbLine
 62
7
  6
CONTINUOUS
 10
7.3448213063
 20
16.2831764203
 11
7.3628755217
 21
16.2831764203
  0
LINE
  5
3FE
100
AcDbEntity
  8
0
100
AcDbLine
 62
7
  6
CONTINUOUS
 10
7.4653968447
 20
16.3892853443
 11
7.476927229
 21
16.3892853443
  0
LINE
  5
3FF
100
AcDbEntity
  8
0
100
AcDbLine
 62
7
  6
CONTINUOUS
 10
7.3958897271
 20
16.4000358931
 11
7.4074205422
 21
16.4000358931
  0
LINE
  5
400
100
AcDbEntity
  8
0
100
AcDbLine
 62
7
  6
CONTINUOUS
 10
7.2132044462
 20
16.5827211739
 11
7.2247352614
 21
16.5827211739
  0
LINE
  5
401
100
AcDbEntity
  8
0
100
AcDbLine
 62
7
  6
CONTINUOUS
 10
7.2290066484
 20
16.6256755406
 11
7.2405370328
 21
16.6256755406
  0
LINE
  5
402
100
AcDbEntity
  8
0
100
AcDbLine
 62
7
  6
CONTINUOUS
 10
7.5219508962
 20
17.7094906819
 11
7.2882966108
 21
17.7991821587
  0
LINE
  5
403
100
AcDbEntity
  8
0
100
AcDbLine
 62
9
  6
CONTINUOUS
 10
11.6347180423
 20
18.9399275756
 11
11.0601937826
 21
19.5144518353
  0
LINE
  5
404
100
AcDbEntity
  8
0
100
AcDbLine
 62
7
  6
CONTINUOUS
 10
7.3789295254
 20
16.2935024596
 11
7.384763593
 21
16.2946853857
  0
LINE
  5
405
100
AcDbEntity
  8
0
100
AcDbLine
 62
7
  6
CONTINUOUS
 10
7.0840264453
 20
16.7118991748
 11
7.0955572605
 21
16.7118991748
  0
LINE
  5
406
100
AcDbEntity
  8
0
100
AcDbLine
 62
7
  6
CONTINUOUS
 10
7.0476180711
 20
16.8070641179
 11
7.0591484554
 21
16.8070641179
  0
LINE
  5
407
100
AcDbEntity
  8
0
100
AcDbLine
 62
7
  6
CONTINUOUS
 10
6.9335924446
 20
16.9210897444
 11
6.9451228289
 21
16.9210897444
  0
LINE
  5
408
100
AcDbEntity
  8
0
100
AcDbLine
 62
7
  6
CONTINUOUS
 10
10.7454987101
 20
18.0507082433
 11
10.7448034092
 21
18.0506570866
  0
LINE
  5
409
100
AcDbEntity
  8
0
100
AcDbLine
 62
7
  6
CONTINUOUS
 10
10.7952558268
 20
18.10046536
 11
10.79455157
 21
18.1004141383
  0
LINE
  5
40A
100
AcDbEntity
  8
0
100
AcDbLine
 62
7
  6
CONTINUOUS
 10
10.6957567298
 20
18.000966263
 11
10.6950525662
 21
18.000915503
  0
LINE
  5
40B
100
AcDbEntity
  8
0
100
AcDbLine
 62
7
  6
CONTINUOUS
 10
10.2506372749
 20
17.6416277454
 11
10.3239534397
 21
17.6416277454
  0
LINE
  5
40C
100
AcDbEntity
  8
0
100
AcDbLine
 62
7
  6
CONTINUOUS
 10
10.6633250805
 20
18.009398853
 11
10.695052571
 21
18.0009155078
  0
LINE
  5
40D
100
AcDbEntity
  8
0
100
AcDbLine
 62
7
  6
CONTINUOUS
 10
10.715168534
 20
18.0585826393
 11
10.7448046133
 21
18.0506582938
  0
LINE
  5
40E
100
AcDbEntity
  8
0
100
AcDbLine
 62
7
  6
CONTINUOUS
 10
10.1425897718
 20
18.5570520941
 11
10.1117296315
 21
18.5653026517
  0
LINE
  5
40F
100
AcDbEntity
  8
0
100
AcDbLine
 62
7
  6
CONTINUOUS
 10
10.1916035256
 20
18.6090536693
 11
10.1881071879
 21
18.6099883079
  0
LINE
  5
410
100
AcDbEntity
  8
0
100
AcDbLine
 62
7
  6
CONTINUOUS
 10
10.2408462251
 20
18.6608249462
 11
10.214342718
 21
18.6679106184
  0
LINE
  5
411
100
AcDbEntity
  8
0
100
AcDbLine
 62
7
  6
CONTINUOUS
 10
10.8325496723
 20
18.1692873984
 11
10.8574151741
 21
18.1626247073
  0
LINE
  5
412
100
AcDbEntity
  8
0
100
AcDbLine
 62
7
  6
CONTINUOUS
 10
10.2769246784
 20
18.6996545381
 11
10.2520591766
 21
18.7063172292
  0
LINE
  5
413
100
AcDbEntity
  8
0
100
AcDbLine
 62
7
  6
CONTINUOUS
 10
10.2136002916
 20
18.6678583443
 11
10.2143455268
 21
18.667913435
  0
LINE
  5
414
100
AcDbEntity
  8
0
100
AcDbLine
 62
7
  6
CONTINUOUS
 10
10.1109907488
 20
18.5652488014
 11
10.1117302312
 21
18.565303253
  0
LINE
  5
415
100
AcDbEntity
  8
0
100
AcDbLine
 62
7
  6
CONTINUOUS
 10
10.1623605445
 20
18.6166185972
 11
10.1631049002
 21
18.6166729933
  0
LINE
  5
416
100
AcDbEntity
  8
0
100
AcDbLine
 62
7
  6
CONTINUOUS
 10
14.6027195323
 20
18.5497528383
 11
14.8348927796
 21
18.5497528383
  0
LINE
  5
417
100
AcDbEntity
  8
0
100
AcDbLine
 62
7
  6
CONTINUOUS
 10
12.5848927796
 20
19.3335028383
 11
14.4180356772
 21
19.3335028383
  0
LINE
  5
418
100
AcDbEntity
  8
0
100
AcDbLine
 62
7
  6
CONTINUOUS
 10
12.5848927796
 20
20.1460028383
 11
14.4180356772
 21
20.1460028383
  0
LINE
  5
419
100
AcDbEntity
  8
0
100
AcDbLine
 62
7
  6
CONTINUOUS
 10
14.6027195323
 20
20.9297528383
 11
14.8348927796
 21
20.9297528383
  0
ARC
  5
41A
100
AcDbEntity
  8
0
100
AcDbCircle
 62
7
  6
CONTINUOUS
 10
-37.3196373274
 20
-30.7148457493
 40
68.5944584423
100
AcDbArc
 50
45.7534126054
 51
45.9856589974
  0
ARC
  5
41B
100
AcDbEntity
  8
0
100
AcDbCircle
 62
7
  6
CONTINUOUS
 10
9.0078938842
 20
-2.2602485865
 40
1.0000018906
100
AcDbArc
 50
90.0000632937
 51
179.9999183616
  0
ARC
  5
41C
100
AcDbEntity
  8
0
100
AcDbCircle
 62
7
  6
CONTINUOUS
 10
11.8108927796
 20
2.5347528383
 40
0.188
100
AcDbArc
 50
191.7234029883
 51
348.2765970117
  0
ARC
  5
41D
100
AcDbEntity
  8
0
100
AcDbCircle
 62
7
  6
CONTINUOUS
 10
12.0566568941
 20
2.4837528383
 40
0.063
100
AcDbArc
 50
90.0
 51
168.2765970114
  0
ARC
  5
41E
100
AcDbEntity
  8
0
100
AcDbCircle
 62
7
  6
CONTINUOUS
 10
11.565128665
 20
2.4837528383
 40
0.063
100
AcDbArc
 50
11.7234029886
 51
90.0
  0
ARC
  5
41F
100
AcDbEntity
  8
0
100
AcDbCircle
 62
7
  6
CONTINUOUS
 10
11.4778927796
 20
2.6097528383
 40
0.063
100
AcDbArc
 50
180.0
 51
270.0
  0
ARC
  5
420
100
AcDbEntity
  8
0
100
AcDbCircle
 62
7
  6
CONTINUOUS
 10
12.1438927796
 20
2.6097528383
 40
0.063
100
AcDbArc
 50
270.0
 51
360.0
  0
ARC
  5
421
100
AcDbEntity
  8
0
100
AcDbCircle
 62
7
  6
CONTINUOUS
 10
12.0563927796
 20
5.2327528383
 40
0.063
100
AcDbArc
 50
180.0
 51
270.0
  0
ARC
  5
422
100
AcDbEntity
  8
0
100
AcDbCircle
 62
7
  6
CONTINUOUS
 10
11.5653927796
 20
5.2327528383
 40
0.063
100
AcDbArc
 50
270.0
 51
360.0
  0
ARC
  5
423
100
AcDbEntity
  8
0
100
AcDbCircle
 62
7
  6
CONTINUOUS
 10
12.0763927796
 20
5.1227528383
 40
0.047
100
AcDbArc
 50
270.0
 51
90.0
  0
ARC
  5
424
100
AcDbEntity
  8
0
100
AcDbCircle
 62
7
  6
CONTINUOUS
 10
11.5453927796
 20
5.1227528383
 40
0.047
100
AcDbArc
 50
90.0
 51
270.0
  0
ARC
  5
425
100
AcDbEntity
  8
0
100
AcDbCircle
 62
9
  6
CONTINUOUS
 10
6.0606061937
 20
11.9595345204
 40
4.0475245817
100
AcDbArc
 50
51.7630900851
 51
51.9731450357
  0
ARC
  5
426
100
AcDbEntity
  8
0
100
AcDbCircle
 62
9
  6
CONTINUOUS
 10
6.6884836257
 20
12.6653478188
 40
3.09382678
100
AcDbArc
 50
52.9798934887
 51
53.1371719096
  0
ARC
  5
427
100
AcDbEntity
  8
0
100
AcDbCircle
 62
9
  6
CONTINUOUS
 10
6.8442553676
 20
12.8720260693
 40
2.8350204243
100
AcDbArc
 50
52.8542697696
 51
52.9785181334
  0
ARC
  5
428
100
AcDbEntity
  8
0
100
AcDbCircle
 62
9
  6
CONTINUOUS
 10
7.5916233644
 20
14.052286342
 40
1.4654473613
100
AcDbArc
 50
52.4146295672
 51
53.0209582774
  0
ARC
  5
429
100
AcDbEntity
  8
0
100
AcDbCircle
 62
9
  6
CONTINUOUS
 10
7.8848904059
 20
14.3943908714
 40
1.0035206936
100
AcDbArc
 50
53.4320507032
 51
54.6768866347
  0
ARC
  5
42A
100
AcDbEntity
  8
0
100
AcDbCircle
 62
7
  6
CONTINUOUS
 10
8.0396640835
 20
15.4625579416
 40
0.0196850394
100
AcDbArc
 50
180.0025651908
 51
225.0
  0
ARC
  5
42B
100
AcDbEntity
  8
0
100
AcDbCircle
 62
7
  6
CONTINUOUS
 10
8.0138466865
 20
15.4883753386
 40
0.0196850394
100
AcDbArc
 50
225.0
 51
269.9974348702
  0
ARC
  5
42C
100
AcDbEntity
  8
0
100
AcDbCircle
 62
7
  6
CONTINUOUS
 10
8.0253779156
 20
15.4490052599
 40
0.0196850394
100
AcDbArc
 50
45.0039181288
 51
90.0000000001
  0
ARC
  5
42D
100
AcDbEntity
  8
0
100
AcDbCircle
 62
7
  6
CONTINUOUS
 10
7.8611287026
 20
15.6410933225
 40
0.0196850394
100
AcDbArc
 50
180.0025651298
 51
225.0
  0
ARC
  5
42E
100
AcDbEntity
  8
0
100
AcDbCircle
 62
7
  6
CONTINUOUS
 10
8.0184475306
 20
15.6213612196
 40
0.0118110236
100
AcDbArc
 50
225.0
 51
269.9997468386
  0
ARC
  5
42F
100
AcDbEntity
  8
0
100
AcDbCircle
 62
7
  6
CONTINUOUS
 10
8.0365018079
 20
15.6213612196
 40
0.0118110236
100
AcDbArc
 50
270.0
 51
315.0
  0
ARC
  5
430
100
AcDbEntity
  8
0
100
AcDbCircle
 62
7
  6
CONTINUOUS
 10
8.4169089777
 20
14.2394281856
 40
0.881830479
100
AcDbArc
 50
54.0766202039
 51
54.9323500272
  0
ARC
  5
431
100
AcDbEntity
  8
0
100
AcDbCircle
 62
9
  6
CONTINUOUS
 10
8.3169966359
 20
15.239564345
 40
0.0975447238
100
AcDbArc
 50
59.1037782069
 51
59.8559468963
  0
ARC
  5
432
100
AcDbEntity
  8
0
100
AcDbCircle
 62
9
  6
CONTINUOUS
 10
8.3251656994
 20
15.2536472433
 40
0.0812640128
100
AcDbArc
 50
59.850471715
 51
60.4636639346
  0
ARC
  5
433
100
AcDbEntity
  8
0
100
AcDbCircle
 62
7
  6
CONTINUOUS
 10
8.2801723494
 20
15.2498885253
 40
0.0196850394
100
AcDbArc
 50
225.0
 51
294.9999051781
  0
ARC
  5
434
100
AcDbEntity
  8
0
100
AcDbCircle
 62
7
  6
CONTINUOUS
 10
8.2039132964
 20
15.270469879
 40
0.0196850394
100
AcDbArc
 50
45.0039289499
 51
90.000000001
  0
ARC
  5
435
100
AcDbEntity
  8
0
100
AcDbCircle
 62
7
  6
CONTINUOUS
 10
8.3620106994
 20
15.2777980508
 40
0.0118110236
100
AcDbArc
 50
180.0002533404
 51
225.0
  0
ARC
  5
436
100
AcDbEntity
  8
0
100
AcDbCircle
 62
7
  6
CONTINUOUS
 10
8.427472971
 20
15.2123357792
 40
0.0118110236
100
AcDbArc
 50
225.0
 51
269.9997466597
  0
ARC
  5
437
100
AcDbEntity
  8
0
100
AcDbCircle
 62
7
  6
CONTINUOUS
 10
8.4455272483
 20
15.2123357792
 40
0.0118110236
100
AcDbArc
 50
269.9999999996
 51
315.0
  0
ARC
  5
438
100
AcDbEntity
  8
0
100
AcDbCircle
 62
7
  6
CONTINUOUS
 10
8.4388604411
 20
15.2009483091
 40
0.0118110236
100
AcDbArc
 50
180.0002527492
 51
225.0
  0
ARC
  5
439
100
AcDbEntity
  8
0
100
AcDbCircle
 62
7
  6
CONTINUOUS
 10
8.4340415233
 20
15.2057672269
 40
0.0118110236
100
AcDbArc
 50
225.0
 51
247.4968079174
  0
ARC
  5
43A
100
AcDbEntity
  8
0
100
AcDbCircle
 62
7
  6
CONTINUOUS
 10
8.3430386955
 20
15.5428597619
 40
0.0196850394
100
AcDbArc
 50
270.0000000002
 51
315.0
  0
ARC
  5
43B
100
AcDbEntity
  8
0
100
AcDbCircle
 62
7
  6
CONTINUOUS
 10
8.3315074664
 20
15.5428597619
 40
0.0196850394
100
AcDbArc
 50
224.9952694196
 51
269.9988567101
  0
ARC
  5
43C
100
AcDbEntity
  8
0
100
AcDbCircle
 62
7
  6
CONTINUOUS
 10
8.2539543766
 20
15.6204128517
 40
0.0196850394
100
AcDbArc
 50
180.001143291
 51
225.0047305807
  0
ARC
  5
43D
100
AcDbEntity
  8
0
100
AcDbCircle
 62
7
  6
CONTINUOUS
 10
8.2539543766
 20
15.6319440808
 40
0.0196850394
100
AcDbArc
 50
135.0
 51
179.9999999998
  0
ARC
  5
43E
100
AcDbEntity
  8
0
100
AcDbCircle
 62
7
  6
CONTINUOUS
 10
8.3162442787
 20
15.4993663808
 40
0.0196850394
100
AcDbArc
 50
180.0013272037
 51
225.0037238648
  0
ARC
  5
43F
100
AcDbEntity
  8
0
100
AcDbCircle
 62
7
  6
CONTINUOUS
 10
8.3770940587
 20
15.4385166008
 40
0.0196850394
100
AcDbArc
 50
224.9962761352
 51
269.9986727964
  0
ARC
  5
440
100
AcDbEntity
  8
0
100
AcDbCircle
 62
7
  6
CONTINUOUS
 10
8.3886252878
 20
15.4385166008
 40
0.0196850394
100
AcDbArc
 50
270.0000000001
 51
315.0
  0
ARC
  5
441
100
AcDbEntity
  8
0
100
AcDbCircle
 62
7
  6
CONTINUOUS
 10
8.3162442787
 20
15.5108976099
 40
0.0196850394
100
AcDbArc
 50
135.0
 51
179.9999999999
  0
ARC
  5
442
100
AcDbEntity
  8
0
100
AcDbCircle
 62
7
  6
CONTINUOUS
 10
8.1923820674
 20
15.3098399578
 40
0.0196850394
100
AcDbArc
 50
225.0
 51
269.9974348094
  0
ARC
  5
443
100
AcDbEntity
  8
0
100
AcDbCircle
 62
7
  6
CONTINUOUS
 10
8.3620106994
 20
15.2958523281
 40
0.0118110236
100
AcDbArc
 50
135.0
 51
180.0000000004
  0
ARC
  5
444
100
AcDbEntity
  8
0
100
AcDbCircle
 62
7
  6
CONTINUOUS
 10
8.4715992038
 20
15.0853061174
 40
0.2388818267
100
AcDbArc
 50
45.0118215121
 51
46.260709209
  0
ARC
  5
445
100
AcDbEntity
  8
0
100
AcDbCircle
 62
7
  6
CONTINUOUS
 10
8.637720803
 20
14.9335404687
 40
0.2208923742
100
AcDbArc
 50
60.4729842269
 51
61.4315367045
  0
ARC
  5
446
100
AcDbEntity
  8
0
100
AcDbCircle
 62
7
  6
CONTINUOUS
 10
8.6183209096
 20
15.2675775479
 40
0.0196850394
100
AcDbArc
 50
270.0000000003
 51
315.0
  0
ARC
  5
447
100
AcDbEntity
  8
0
100
AcDbCircle
 62
7
  6
CONTINUOUS
 10
8.6067896805
 20
15.2675775479
 40
0.0196850394
100
AcDbArc
 50
224.9961427139
 51
269.9988567112
  0
ARC
  5
448
100
AcDbEntity
  8
0
100
AcDbCircle
 62
7
  6
CONTINUOUS
 10
8.5399871395
 20
15.27562352
 40
0.0196850394
100
AcDbArc
 50
180.0013272046
 51
225.0021567324
  0
ARC
  5
449
100
AcDbEntity
  8
0
100
AcDbCircle
 62
7
  6
CONTINUOUS
 10
8.6008369195
 20
15.21477374
 40
0.0196850394
100
AcDbArc
 50
224.9978432703
 51
269.9986727957
  0
ARC
  5
44A
100
AcDbEntity
  8
0
100
AcDbCircle
 62
7
  6
CONTINUOUS
 10
8.6123681486
 20
15.21477374
 40
0.0196850394
100
AcDbArc
 50
270.0000000002
 51
315.0
  0
ARC
  5
44B
100
AcDbEntity
  8
0
100
AcDbCircle
 62
7
  6
CONTINUOUS
 10
8.7226724203
 20
15.0929382392
 40
0.0196850394
100
AcDbArc
 50
180.0013272037
 51
225.0017539018
  0
ARC
  5
44C
100
AcDbEntity
  8
0
100
AcDbCircle
 62
7
  6
CONTINUOUS
 10
8.7226724203
 20
15.1044694682
 40
0.0196850394
100
AcDbArc
 50
135.0
 51
179.9999999998
  0
ARC
  5
44D
100
AcDbEntity
  8
0
100
AcDbCircle
 62
7
  6
CONTINUOUS
 10
8.5043227127
 20
15.1354860375
 40
0.0118110236
100
AcDbArc
 50
225.0
 51
269.9997472501
  0
ARC
  5
44E
100
AcDbEntity
  8
0
100
AcDbCircle
 62
7
  6
CONTINUOUS
 10
8.52237699
 20
15.1354860375
 40
0.0118110236
100
AcDbArc
 50
270.0000000004
 51
315.0
  0
ARC
  5
44F
100
AcDbEntity
  8
0
100
AcDbCircle
 62
7
  6
CONTINUOUS
 10
8.5460290847
 20
15.0937796655
 40
0.0118110236
100
AcDbArc
 50
225.0
 51
269.999746834
  0
ARC
  5
450
100
AcDbEntity
  8
0
100
AcDbCircle
 62
7
  6
CONTINUOUS
 10
8.564083362
 20
15.0937796655
 40
0.0118110236
100
AcDbArc
 50
269.9999999998
 51
315.0
  0
ARC
  5
451
100
AcDbEntity
  8
0
100
AcDbCircle
 62
9
  6
CONTINUOUS
 10
8.5990457929
 20
15.0966257525
 40
0.0115616826
100
AcDbArc
 50
52.9706170426
 51
60.0929739366
  0
ARC
  5
452
100
AcDbEntity
  8
0
100
AcDbCircle
 62
7
  6
CONTINUOUS
 10
8.5292365907
 20
15.3451306377
 40
0.0196850394
100
AcDbArc
 50
180.0011432888
 51
225.0038572844
  0
ARC
  5
453
100
AcDbEntity
  8
0
100
AcDbCircle
 62
7
  6
CONTINUOUS
 10
8.5292365907
 20
15.3566618668
 40
0.0196850394
100
AcDbArc
 50
135.0
 51
179.9999999997
  0
ARC
  5
454
100
AcDbEntity
  8
0
100
AcDbCircle
 62
7
  6
CONTINUOUS
 10
8.5399871395
 20
15.2871547491
 40
0.0196850394
100
AcDbArc
 50
135.0
 51
179.9999999998
  0
ARC
  5
455
100
AcDbEntity
  8
0
100
AcDbCircle
 62
7
  6
CONTINUOUS
 10
6.3359092253
 20
16.2796772539
 40
0.9110454836
100
AcDbArc
 50
34.9456975814
 51
35.9102106568
  0
ARC
  5
456
100
AcDbEntity
  8
0
100
AcDbCircle
 62
7
  6
CONTINUOUS
 10
6.65946295
 20
17.4666188171
 40
0.08
100
AcDbArc
 50
67.8632234306
 51
132.7285491584
  0
ARC
  5
457
100
AcDbEntity
  8
0
100
AcDbCircle
 62
7
  6
CONTINUOUS
 10
6.8560393548
 20
17.0183278736
 40
0.0196850394
100
AcDbArc
 50
180.0011432851
 51
225.0200232849
  0
ARC
  5
458
100
AcDbEntity
  8
0
100
AcDbCircle
 62
7
  6
CONTINUOUS
 10
6.8560393548
 20
17.0298591027
 40
0.0196850394
100
AcDbArc
 50
135.0
 51
179.9999999998
  0
ARC
  5
459
100
AcDbEntity
  8
0
100
AcDbCircle
 62
7
  6
CONTINUOUS
 10
6.817147337
 20
17.0687511204
 40
0.0196850394
100
AcDbArc
 50
135.0
 51
180.0010232894
  0
ARC
  5
45A
100
AcDbEntity
  8
0
100
AcDbCircle
 62
7
  6
CONTINUOUS
 10
6.817147337
 20
17.0572198913
 40
0.0196850394
100
AcDbArc
 50
180.0010369685
 51
225.0006056817
  0
ARC
  5
45B
100
AcDbEntity
  8
0
100
AcDbCircle
 62
7
  6
CONTINUOUS
 10
7.1994778148
 20
16.3453752009
 40
0.2474041316
100
AcDbArc
 50
43.7623450039
 51
44.9661978285
  0
ARC
  5
45C
100
AcDbEntity
  8
0
100
AcDbCircle
 62
9
  6
CONTINUOUS
 10
7.1857703239
 20
16.3033977344
 40
0.157468695
100
AcDbArc
 50
44.493065733
 51
44.9162744424
  0
ARC
  5
45D
100
AcDbEntity
  8
0
100
AcDbCircle
 62
7
  6
CONTINUOUS
 10
7.2405378775
 20
16.6453605799
 40
0.0196850394
100
AcDbArc
 50
269.9999999999
 51
315.0
  0
ARC
  5
45E
100
AcDbEntity
  8
0
100
AcDbCircle
 62
7
  6
CONTINUOUS
 10
7.2290066484
 20
16.6453605799
 40
0.0196850394
100
AcDbArc
 50
224.9943399463
 51
269.9988567112
  0
ARC
  5
45F
100
AcDbEntity
  8
0
100
AcDbCircle
 62
7
  6
CONTINUOUS
 10
7.1514535586
 20
16.7229136697
 40
0.0196850394
100
AcDbArc
 50
180.0011432888
 51
225.0056600518
  0
ARC
  5
460
100
AcDbEntity
  8
0
100
AcDbCircle
 62
7
  6
CONTINUOUS
 10
7.1514535586
 20
16.7344448988
 40
0.0196850394
100
AcDbArc
 50
135.0
 51
180.0000000001
  0
ARC
  5
461
100
AcDbEntity
  8
0
100
AcDbCircle
 62
7
  6
CONTINUOUS
 10
7.1523546662
 20
16.6747872224
 40
0.0196850394
100
AcDbArc
 50
135.0
 51
179.9999999998
  0
ARC
  5
462
100
AcDbEntity
  8
0
100
AcDbCircle
 62
7
  6
CONTINUOUS
 10
7.1523546662
 20
16.6632559933
 40
0.0196850394
100
AcDbArc
 50
180.0013272046
 51
225.0112563584
  0
ARC
  5
463
100
AcDbEntity
  8
0
100
AcDbCircle
 62
7
  6
CONTINUOUS
 10
7.2132044462
 20
16.6024062133
 40
0.0196850394
100
AcDbArc
 50
224.9887436423
 51
269.9986727964
  0
ARC
  5
464
100
AcDbEntity
  8
0
100
AcDbCircle
 62
7
  6
CONTINUOUS
 10
7.2247356753
 20
16.6024062133
 40
0.0196850394
100
AcDbArc
 50
270.0000000002
 51
315.0
  0
ARC
  5
465
100
AcDbEntity
  8
0
100
AcDbCircle
 62
7
  6
CONTINUOUS
 10
7.0840264453
 20
16.7315842142
 40
0.0196850394
100
AcDbArc
 50
224.9954670408
 51
269.9986728003
  0
ARC
  5
466
100
AcDbEntity
  8
0
100
AcDbCircle
 62
7
  6
CONTINUOUS
 10
7.0955576744
 20
16.7315842142
 40
0.0196850394
100
AcDbArc
 50
270.0000000001
 51
315.0
  0
ARC
  5
467
100
AcDbEntity
  8
0
100
AcDbCircle
 62
7
  6
CONTINUOUS
 10
7.2247041623
 20
16.4151045879
 40
0.0118110236
100
AcDbArc
 50
180.0002531609
 51
225.0
  0
ARC
  5
468
100
AcDbEntity
  8
0
100
AcDbCircle
 62
7
  6
CONTINUOUS
 10
7.2247041623
 20
16.4331588652
 40
0.0118110236
100
AcDbArc
 50
135.0
 51
180.0000000002
  0
ARC
  5
469
100
AcDbEntity
  8
0
100
AcDbCircle
 62
7
  6
CONTINUOUS
 10
7.2070376246
 20
16.4508244132
 40
0.0118096522
100
AcDbArc
 50
134.996604943
 51
180.0021523685
  0
ARC
  5
46A
100
AcDbEntity
  8
0
100
AcDbCircle
 62
7
  6
CONTINUOUS
 10
7.2070363755
 20
16.4327691547
 40
0.0118087468
100
AcDbArc
 50
179.9956773823
 51
225.0032061753
  0
ARC
  5
46B
100
AcDbEntity
  8
0
100
AcDbCircle
 62
7
  6
CONTINUOUS
 10
7.2090670863
 20
16.4862561834
 40
0.0118085137
100
AcDbArc
 50
314.9903403961
 51
37.0951785211
  0
ARC
  5
46C
100
AcDbEntity
  8
0
100
AcDbCircle
 62
9
  6
CONTINUOUS
 10
7.2287811177
 20
16.4674085937
 40
0.011195163
100
AcDbArc
 50
9.8392749533
 51
36.8967114693
  0
ARC
  5
46D
100
AcDbEntity
  8
0
100
AcDbCircle
 62
7
  6
CONTINUOUS
 10
7.0644134352
 20
16.7271567031
 40
0.0078740157
100
AcDbArc
 50
155.6698960501
 51
214.8540451713
  0
ARC
  5
46E
100
AcDbEntity
  8
0
100
AcDbCircle
 62
7
  6
CONTINUOUS
 10
7.4075514914
 20
16.0697162312
 40
0.2944546102
100
AcDbArc
 50
34.554384613
 51
37.2031694915
  0
ARC
  5
46F
100
AcDbEntity
  8
0
100
AcDbCircle
 62
7
  6
CONTINUOUS
 10
7.3516967545
 20
16.260059195
 40
0.0393700787
100
AcDbArc
 50
335.0
 51
39.2088798426
  0
ARC
  5
470
100
AcDbEntity
  8
0
100
AcDbCircle
 62
7
  6
CONTINUOUS
 10
7.3701547324
 20
16.1599061424
 40
0.0196850394
100
AcDbArc
 50
155.0000948218
 51
225.0
  0
ARC
  5
471
100
AcDbEntity
  8
0
100
AcDbCircle
 62
7
  6
CONTINUOUS
 10
7.3907360861
 20
16.0836470894
 40
0.0196850394
100
AcDbArc
 50
0.0
 51
44.9960818712
  0
ARC
  5
472
100
AcDbEntity
  8
0
100
AcDbCircle
 62
7
  6
CONTINUOUS
 10
7.4301061648
 20
16.0721158603
 40
0.0196850394
100
AcDbArc
 50
180.0025651327
 51
225.0
  0
ARC
  5
473
100
AcDbEntity
  8
0
100
AcDbCircle
 62
7
  6
CONTINUOUS
 10
7.2793590346
 20
16.3604497156
 40
0.0118110236
100
AcDbArc
 50
180.0002531659
 51
225.0
  0
ARC
  5
474
100
AcDbEntity
  8
0
100
AcDbCircle
 62
7
  6
CONTINUOUS
 10
7.3448213063
 20
16.2949874439
 40
0.0118110236
100
AcDbArc
 50
225.0
 51
269.999746834
  0
ARC
  5
475
100
AcDbEntity
  8
0
100
AcDbCircle
 62
7
  6
CONTINUOUS
 10
7.3628755836
 20
16.2949874439
 40
0.0118110236
100
AcDbArc
 50
270.0000000005
 51
315.0
  0
ARC
  5
476
100
AcDbEntity
  8
0
100
AcDbCircle
 62
7
  6
CONTINUOUS
 10
7.2793590346
 20
16.3785039929
 40
0.0118110236
100
AcDbArc
 50
135.0
 51
179.9999999995
  0
ARC
  5
477
100
AcDbEntity
  8
0
100
AcDbCircle
 62
7
  6
CONTINUOUS
 10
7.3906166864
 20
16.2491920638
 40
0.0118110236
100
AcDbArc
 50
180.0002531652
 51
225.0
  0
ARC
  5
478
100
AcDbEntity
  8
0
100
AcDbCircle
 62
7
  6
CONTINUOUS
 10
7.3906166864
 20
16.2672463411
 40
0.0118110236
100
AcDbArc
 50
135.0
 51
180.0000000006
  0
ARC
  5
479
100
AcDbEntity
  8
0
100
AcDbCircle
 62
7
  6
CONTINUOUS
 10
7.4653968447
 20
16.4089703836
 40
0.0196850394
100
AcDbArc
 50
224.9968216318
 51
269.9988567091
  0
ARC
  5
47A
100
AcDbEntity
  8
0
100
AcDbCircle
 62
7
  6
CONTINUOUS
 10
7.3878437549
 20
16.4865234734
 40
0.0196850394
100
AcDbArc
 50
180.0011432893
 51
225.0031783663
  0
ARC
  5
47B
100
AcDbEntity
  8
0
100
AcDbCircle
 62
7
  6
CONTINUOUS
 10
7.3878437549
 20
16.4980547025
 40
0.0196850394
100
AcDbArc
 50
135.0
 51
179.9999999997
  0
ARC
  5
47C
100
AcDbEntity
  8
0
100
AcDbCircle
 62
7
  6
CONTINUOUS
 10
7.335039947
 20
16.4805707125
 40
0.0196850394
100
AcDbArc
 50
180.0013272066
 51
225.0022046605
  0
ARC
  5
47D
100
AcDbEntity
  8
0
100
AcDbCircle
 62
7
  6
CONTINUOUS
 10
7.3958897271
 20
16.4197209324
 40
0.0196850394
100
AcDbArc
 50
224.9977953379
 51
269.9986727934
  0
ARC
  5
47E
100
AcDbEntity
  8
0
100
AcDbCircle
 62
7
  6
CONTINUOUS
 10
7.4074209561
 20
16.4197209324
 40
0.0196850394
100
AcDbArc
 50
270.0000000002
 51
315.0
  0
ARC
  5
47F
100
AcDbEntity
  8
0
100
AcDbCircle
 62
7
  6
CONTINUOUS
 10
7.335039947
 20
16.4921019415
 40
0.0196850394
100
AcDbArc
 50
135.0
 51
179.9999999998
  0
ARC
  5
480
100
AcDbEntity
  8
0
100
AcDbCircle
 62
7
  6
CONTINUOUS
 10
7.0591493002
 20
16.8267491572
 40
0.0196850394
100
AcDbArc
 50
270.0000000003
 51
315.0
  0
ARC
  5
481
100
AcDbEntity
  8
0
100
AcDbCircle
 62
7
  6
CONTINUOUS
 10
7.0476180711
 20
16.8267491572
 40
0.0196850394
100
AcDbArc
 50
224.9843673875
 51
269.9988567075
  0
ARC
  5
482
100
AcDbEntity
  8
0
100
AcDbCircle
 62
7
  6
CONTINUOUS
 10
6.9700649813
 20
16.904302247
 40
0.0196850394
100
AcDbArc
 50
180.0011433053
 51
225.015632627
  0
ARC
  5
483
100
AcDbEntity
  8
0
100
AcDbCircle
 62
7
  6
CONTINUOUS
 10
6.9700649813
 20
16.9158334761
 40
0.0196850394
100
AcDbArc
 50
135.0
 51
179.9999999997
  0
ARC
  5
484
100
AcDbEntity
  8
0
100
AcDbCircle
 62
7
  6
CONTINUOUS
 10
6.9451236737
 20
16.9407747838
 40
0.0196850394
100
AcDbArc
 50
270.0000000002
 51
292.498770594
  0
ARC
  5
485
100
AcDbEntity
  8
0
100
AcDbCircle
 62
7
  6
CONTINUOUS
 10
6.9335924446
 20
16.9407747838
 40
0.0196850394
100
AcDbArc
 50
224.9799767121
 51
269.9988567156
  0
ARC
  5
486
100
AcDbEntity
  8
0
100
AcDbCircle
 62
7
  6
CONTINUOUS
 10
6.9563092116
 20
16.870832677
 40
0.0196850394
100
AcDbArc
 50
135.0
 51
179.9999999996
  0
ARC
  5
487
100
AcDbEntity
  8
0
100
AcDbCircle
 62
7
  6
CONTINUOUS
 10
6.9563092116
 20
16.8593014479
 40
0.0196850394
100
AcDbArc
 50
180.0013272098
 51
224.9762634417
  0
ARC
  5
488
100
AcDbEntity
  8
0
100
AcDbCircle
 62
7
  6
CONTINUOUS
 10
7.0171589916
 20
16.7984516679
 40
0.0196850394
100
AcDbArc
 50
225.0237365512
 51
237.7150423085
  0
ARC
  5
489
100
AcDbEntity
  8
0
100
AcDbCircle
 62
7
  6
CONTINUOUS
 10
7.0231766653
 20
16.7924339942
 40
0.0196850394
100
AcDbArc
 50
180.0013271956
 51
225.0045329433
  0
ARC
  5
48A
100
AcDbEntity
  8
0
100
AcDbCircle
 62
7
  6
CONTINUOUS
 10
7.0231766653
 20
16.8039652233
 40
0.0196850394
100
AcDbArc
 50
135.0
 51
179.9999999999
  0
ARC
  5
48B
100
AcDbEntity
  8
0
100
AcDbCircle
 62
7
  6
CONTINUOUS
 10
6.7607528873
 20
17.9709596196
 40
0.45
100
AcDbArc
 50
276.6210152009
 51
315.0
  0
ARC
  5
48C
100
AcDbEntity
  8
0
100
AcDbCircle
 62
7
  6
CONTINUOUS
 10
6.7838131866
 20
17.7722935113
 40
0.25
100
AcDbArc
 50
247.8632234306
 51
276.6210152007
  0
ARC
  5
48D
100
AcDbEntity
  8
0
100
AcDbCircle
 62
7
  6
CONTINUOUS
 10
7.2614190146
 20
17.7291636267
 40
0.075
100
AcDbArc
 50
69.0000000005
 51
135.0
  0
ARC
  5
48E
100
AcDbEntity
  8
0
100
AcDbCircle
 62
9
  6
CONTINUOUS
 10
7.7798826123
 20
15.8449363155
 40
0.0581052903
100
AcDbArc
 50
58.7952574355
 51
59.5007188513
  0
ARC
  5
48F
100
AcDbEntity
  8
0
100
AcDbCircle
 62
7
  6
CONTINUOUS
 10
7.7613595295
 20
15.7408624956
 40
0.0196850394
100
AcDbArc
 50
225.0
 51
269.9974348123
  0
ARC
  5
490
100
AcDbEntity
  8
0
100
AcDbCircle
 62
7
  6
CONTINUOUS
 10
7.7728907586
 20
15.7014924168
 40
0.0196850394
100
AcDbArc
 50
45.0039289499
 51
90.000000001
  0
ARC
  5
491
100
AcDbEntity
  8
0
100
AcDbCircle
 62
7
  6
CONTINUOUS
 10
7.5692714669
 20
15.9051117085
 40
0.0196850394
100
AcDbArc
 50
0.0
 51
44.9960710504
  0
ARC
  5
492
100
AcDbEntity
  8
0
100
AcDbCircle
 62
7
  6
CONTINUOUS
 10
7.6086415457
 20
15.8935804794
 40
0.0196850394
100
AcDbArc
 50
180.0025651879
 51
225.0
  0
ARC
  5
493
100
AcDbEntity
  8
0
100
AcDbCircle
 62
7
  6
CONTINUOUS
 10
7.5828241487
 20
15.9193978764
 40
0.0196850394
100
AcDbArc
 50
225.0
 51
269.9974348675
  0
ARC
  5
494
100
AcDbEntity
  8
0
100
AcDbCircle
 62
7
  6
CONTINUOUS
 10
7.7970694905
 20
15.8427392597
 40
0.0118110236
100
AcDbArc
 50
180.0002531655
 51
225.0
  0
ARC
  5
495
100
AcDbEntity
  8
0
100
AcDbCircle
 62
7
  6
CONTINUOUS
 10
7.7970694905
 20
15.860793537
 40
0.0118110236
100
AcDbArc
 50
135.0
 51
180.0
  0
ARC
  5
496
100
AcDbEntity
  8
0
100
AcDbCircle
 62
7
  6
CONTINUOUS
 10
7.6441382205
 20
15.9956705297
 40
0.0118110236
100
AcDbArc
 50
180.0002500373
 51
225.0
  0
ARC
  5
497
100
AcDbEntity
  8
0
100
AcDbCircle
 62
7
  6
CONTINUOUS
 10
7.7096004921
 20
15.9302082581
 40
0.0118110236
100
AcDbArc
 50
225.0
 51
269.9997499662
  0
ARC
  5
498
100
AcDbEntity
  8
0
100
AcDbCircle
 62
7
  6
CONTINUOUS
 10
7.7276547694
 20
15.9302082581
 40
0.0118110236
100
AcDbArc
 50
270.0000000002
 51
315.0
  0
ARC
  5
499
100
AcDbEntity
  8
0
100
AcDbCircle
 62
7
  6
CONTINUOUS
 10
7.6441382205
 20
16.0137248071
 40
0.0118110236
100
AcDbArc
 50
135.0
 51
179.9999999998
  0
ARC
  5
49A
100
AcDbEntity
  8
0
100
AcDbCircle
 62
7
  6
CONTINUOUS
 10
7.7522102879
 20
16.1336881696
 40
0.0196850394
100
AcDbArc
 50
270.0000000002
 51
315.0
  0
ARC
  5
49B
100
AcDbEntity
  8
0
100
AcDbCircle
 62
7
  6
CONTINUOUS
 10
7.7406790588
 20
16.1336881696
 40
0.0196850394
100
AcDbArc
 50
224.9941455932
 51
269.9988567082
  0
ARC
  5
49C
100
AcDbEntity
  8
0
100
AcDbCircle
 62
7
  6
CONTINUOUS
 10
7.663125969
 20
16.2112412594
 40
0.0196850394
100
AcDbArc
 50
180.001143289
 51
225.0058544042
  0
ARC
  5
49D
100
AcDbEntity
  8
0
100
AcDbCircle
 62
7
  6
CONTINUOUS
 10
7.663125969
 20
16.2227724885
 40
0.0196850394
100
AcDbArc
 50
135.0
 51
179.9999999998
  0
ARC
  5
49E
100
AcDbEntity
  8
0
100
AcDbCircle
 62
7
  6
CONTINUOUS
 10
7.4769280738
 20
16.4089703836
 40
0.0196850394
100
AcDbArc
 50
270.0000000003
 51
315.0
  0
ARC
  5
49F
100
AcDbEntity
  8
0
100
AcDbCircle
 62
7
  6
CONTINUOUS
 10
7.5587828078
 20
16.2683590808
 40
0.0196850394
100
AcDbArc
 50
135.0
 51
179.9999999999
  0
ARC
  5
4A0
100
AcDbEntity
  8
0
100
AcDbCircle
 62
7
  6
CONTINUOUS
 10
7.5587828078
 20
16.2568278517
 40
0.0196850394
100
AcDbArc
 50
180.0013272051
 51
225.004056052
  0
ARC
  5
4A1
100
AcDbEntity
  8
0
100
AcDbCircle
 62
7
  6
CONTINUOUS
 10
7.6196325879
 20
16.1959780717
 40
0.0196850394
100
AcDbArc
 50
224.9959439492
 51
269.9986727964
  0
ARC
  5
4A2
100
AcDbEntity
  8
0
100
AcDbCircle
 62
7
  6
CONTINUOUS
 10
7.6311638169
 20
16.1959780717
 40
0.0196850394
100
AcDbArc
 50
270.0000000001
 51
315.0
  0
ARC
  5
4A3
100
AcDbEntity
  8
0
100
AcDbCircle
 62
9
  6
CONTINUOUS
 10
7.8155298754
 20
16.0257101044
 40
0.1113520973
100
AcDbArc
 50
233.0941078477
 51
233.5900340997
  0
ARC
  5
4A4
100
AcDbEntity
  8
0
100
AcDbCircle
 62
9
  6
CONTINUOUS
 10
7.9635318258
 20
15.8732034029
 40
0.106968159
100
AcDbArc
 50
234.9705601608
 51
236.1993724197
  0
ARC
  5
4A5
100
AcDbEntity
  8
0
100
AcDbCircle
 62
9
  6
CONTINUOUS
 10
7.9420589663
 20
15.6996340202
 40
0.0435981761
100
AcDbArc
 50
61.7907501978
 51
63.5178353443
  0
ARC
  5
4A6
100
AcDbEntity
  8
0
100
AcDbCircle
 62
7
  6
CONTINUOUS
 10
8.0476244917
 20
15.8382739657
 40
0.0196850394
100
AcDbArc
 50
270.0000000003
 51
315.0
  0
ARC
  5
4A7
100
AcDbEntity
  8
0
100
AcDbCircle
 62
7
  6
CONTINUOUS
 10
8.0360932626
 20
15.8382739657
 40
0.0196850394
100
AcDbArc
 50
224.99511898
 51
269.9988567114
  0
ARC
  5
4A8
100
AcDbEntity
  8
0
100
AcDbCircle
 62
7
  6
CONTINUOUS
 10
7.9585401728
 20
15.9158270555
 40
0.0196850394
100
AcDbArc
 50
180.0011432886
 51
225.0048810202
  0
ARC
  5
4A9
100
AcDbEntity
  8
0
100
AcDbCircle
 62
7
  6
CONTINUOUS
 10
7.9585401728
 20
15.9273582846
 40
0.0196850394
100
AcDbArc
 50
135.0
 51
179.9999999998
  0
ARC
  5
4AA
100
AcDbEntity
  8
0
100
AcDbCircle
 62
7
  6
CONTINUOUS
 10
8.0666915442
 20
15.7604503444
 40
0.0196850394
100
AcDbArc
 50
135.0
 51
179.9999999996
  0
ARC
  5
4AB
100
AcDbEntity
  8
0
100
AcDbCircle
 62
7
  6
CONTINUOUS
 10
8.0666915442
 20
15.7489191153
 40
0.0196850394
100
AcDbArc
 50
180.0013272058
 51
225.0037322062
  0
ARC
  5
4AC
100
AcDbEntity
  8
0
100
AcDbCircle
 62
7
  6
CONTINUOUS
 10
8.1275413242
 20
15.6880693353
 40
0.0196850394
100
AcDbArc
 50
224.9962677939
 51
269.9986727928
  0
ARC
  5
4AD
100
AcDbEntity
  8
0
100
AcDbCircle
 62
7
  6
CONTINUOUS
 10
8.1390725533
 20
15.6880693353
 40
0.0196850394
100
AcDbArc
 50
270.0000000004
 51
315.0
  0
ARC
  5
4AE
100
AcDbEntity
  8
0
100
AcDbCircle
 62
7
  6
CONTINUOUS
 10
7.8083355424
 20
16.0072751171
 40
0.0196850394
100
AcDbArc
 50
180.0013272127
 51
225.0044235209
  0
ARC
  5
4AF
100
AcDbEntity
  8
0
100
AcDbCircle
 62
7
  6
CONTINUOUS
 10
7.8691853224
 20
15.9464253371
 40
0.0196850394
100
AcDbArc
 50
224.9955764821
 51
269.9986727872
  0
ARC
  5
4B0
100
AcDbEntity
  8
0
100
AcDbCircle
 62
7
  6
CONTINUOUS
 10
7.8807165515
 20
15.9464253371
 40
0.0196850394
100
AcDbArc
 50
270.0000000001
 51
315.0
  0
ARC
  5
4B1
100
AcDbEntity
  8
0
100
AcDbCircle
 62
7
  6
CONTINUOUS
 10
7.8083355424
 20
16.0188063462
 40
0.0196850394
100
AcDbArc
 50
135.0
 51
179.9999999999
  0
ARC
  5
4B2
100
AcDbEntity
  8
0
100
AcDbCircle
 62
7
  6
CONTINUOUS
 10
7.8217586239
 20
15.6526245516
 40
0.0196850394
100
AcDbArc
 50
0.0
 51
44.9960818715
  0
ARC
  5
4B3
100
AcDbEntity
  8
0
100
AcDbCircle
 62
7
  6
CONTINUOUS
 10
7.8625317621
 20
15.7772769881
 40
0.0118110236
100
AcDbArc
 50
225.0
 51
269.9997468342
  0
ARC
  5
4B4
100
AcDbEntity
  8
0
100
AcDbCircle
 62
7
  6
CONTINUOUS
 10
7.8805860395
 20
15.7772769881
 40
0.0118110236
100
AcDbArc
 50
270.0
 51
315.0
  0
ARC
  5
4B5
100
AcDbEntity
  8
0
100
AcDbCircle
 62
7
  6
CONTINUOUS
 10
7.952985259
 20
15.6868234912
 40
0.0118110236
100
AcDbArc
 50
180.0002531662
 51
225.0
  0
ARC
  5
4B6
100
AcDbEntity
  8
0
100
AcDbCircle
 62
7
  6
CONTINUOUS
 10
7.952985259
 20
15.7048777685
 40
0.0118110236
100
AcDbArc
 50
135.0
 51
180.0000000001
  0
ARC
  5
4B7
100
AcDbEntity
  8
0
100
AcDbCircle
 62
7
  6
CONTINUOUS
 10
8.6142449975
 20
19.3424619108
 40
1.9
100
AcDbArc
 50
237.4577510794
 51
275.4956073782
  0
ARC
  5
4B8
100
AcDbEntity
  8
0
100
AcDbCircle
 62
7
  6
CONTINUOUS
 10
7.5291182552
 20
17.7281622904
 40
0.02
100
AcDbArc
 50
249.000000002
 51
315.0
  0
ARC
  5
4B9
100
AcDbEntity
  8
0
100
AcDbCircle
 62
7
  6
CONTINUOUS
 10
7.5814359776
 20
17.7239114703
 40
0.02
100
AcDbArc
 50
57.4577510794
 51
135.0
  0
ARC
  5
4BA
100
AcDbEntity
  8
0
100
AcDbCircle
 62
7
  6
CONTINUOUS
 10
9.0751072329
 20
14.1854296408
 40
0.4724409449
100
AcDbArc
 50
34.4249169013
 51
56.7360257681
  0
ARC
  5
4BB
100
AcDbEntity
  8
0
100
AcDbCircle
 62
7
  6
CONTINUOUS
 10
9.1501253097
 20
14.7357731477
 40
0.0196850394
100
AcDbArc
 50
270.0000000002
 51
315.0
  0
ARC
  5
4BC
100
AcDbEntity
  8
0
100
AcDbCircle
 62
7
  6
CONTINUOUS
 10
9.1385940806
 20
14.7357731477
 40
0.0196850394
100
AcDbArc
 50
224.9799767133
 51
269.9988567106
  0
ARC
  5
4BD
100
AcDbEntity
  8
0
100
AcDbCircle
 62
7
  6
CONTINUOUS
 10
9.0610409908
 20
14.8133262375
 40
0.0196850394
100
AcDbArc
 50
180.0011432885
 51
225.0200232854
  0
ARC
  5
4BE
100
AcDbEntity
  8
0
100
AcDbCircle
 62
7
  6
CONTINUOUS
 10
9.3511456453
 20
14.3746134638
 40
0.1377952756
100
AcDbArc
 50
249.6710480596
 51
34.4249169055
  0
ARC
  5
4BF
100
AcDbEntity
  8
0
100
AcDbCircle
 62
9
  6
CONTINUOUS
 10
9.2806277579
 20
14.6661159389
 40
0.0276169556
100
AcDbArc
 50
152.4695308645
 51
239.2971526216
  0
ARC
  5
4C0
100
AcDbEntity
  8
0
100
AcDbCircle
 62
7
  6
CONTINUOUS
 10
9.0346567502
 20
14.9076363581
 40
0.441563617
100
AcDbArc
 50
314.9881590692
 51
315.9995732389
  0
ARC
  5
4C1
100
AcDbEntity
  8
0
100
AcDbCircle
 62
7
  6
CONTINUOUS
 10
9.0610409908
 20
14.8248574666
 40
0.0196850394
100
AcDbArc
 50
157.5012294073
 51
179.9999999998
  0
ARC
  5
4C2
100
AcDbEntity
  8
0
100
AcDbCircle
 62
7
  6
CONTINUOUS
 10
9.0360996832
 20
14.8497987743
 40
0.0196850394
100
AcDbArc
 50
270.0000000003
 51
315.0
  0
ARC
  5
4C3
100
AcDbEntity
  8
0
100
AcDbCircle
 62
7
  6
CONTINUOUS
 10
9.0245684541
 20
14.8497987743
 40
0.0196850394
100
AcDbArc
 50
224.9962100727
 51
269.9988567085
  0
ARC
  5
4C4
100
AcDbEntity
  8
0
100
AcDbCircle
 62
7
  6
CONTINUOUS
 10
8.9470153643
 20
14.9273518641
 40
0.0196850394
100
AcDbArc
 50
180.0011432916
 51
225.0037899267
  0
ARC
  5
4C5
100
AcDbEntity
  8
0
100
AcDbCircle
 62
7
  6
CONTINUOUS
 10
8.9470153643
 20
14.9388830932
 40
0.0196850394
100
AcDbArc
 50
135.0
 51
179.9999999997
  0
ARC
  5
4C6
100
AcDbEntity
  8
0
100
AcDbCircle
 62
7
  6
CONTINUOUS
 10
8.8547111059
 20
15.0311873516
 40
0.0196850394
100
AcDbArc
 50
269.9999999999
 51
315.0
  0
ARC
  5
4C7
100
AcDbEntity
  8
0
100
AcDbCircle
 62
7
  6
CONTINUOUS
 10
8.8431798768
 20
15.0311873516
 40
0.0196850394
100
AcDbArc
 50
224.9986076958
 51
269.9988567082
  0
ARC
  5
4C8
100
AcDbEntity
  8
0
100
AcDbCircle
 62
7
  6
CONTINUOUS
 10
8.765626787
 20
15.1087404414
 40
0.0196850394
100
AcDbArc
 50
180.0011432917
 51
225.0013923022
  0
ARC
  5
4C9
100
AcDbEntity
  8
0
100
AcDbCircle
 62
7
  6
CONTINUOUS
 10
8.765626787
 20
15.1202716705
 40
0.0196850394
100
AcDbArc
 50
135.0
 51
180.0000000001
  0
ARC
  5
4CA
100
AcDbEntity
  8
0
100
AcDbCircle
 62
7
  6
CONTINUOUS
 10
8.8518504213
 20
14.9752914673
 40
0.0196850394
100
AcDbArc
 50
135.0
 51
179.9999999999
  0
ARC
  5
4CB
100
AcDbEntity
  8
0
100
AcDbCircle
 62
7
  6
CONTINUOUS
 10
8.8518504213
 20
14.9637602383
 40
0.0196850394
100
AcDbArc
 50
180.0013272051
 51
225.0038038125
  0
ARC
  5
4CC
100
AcDbEntity
  8
0
100
AcDbCircle
 62
7
  6
CONTINUOUS
 10
8.9127002013
 20
14.9029104582
 40
0.0196850394
100
AcDbArc
 50
224.9961961902
 51
269.9986727935
  0
ARC
  5
4CD
100
AcDbEntity
  8
0
100
AcDbCircle
 62
7
  6
CONTINUOUS
 10
8.9242314304
 20
14.9029104582
 40
0.0196850394
100
AcDbArc
 50
270.0000000001
 51
315.0
  0
ARC
  5
4CE
100
AcDbEntity
  8
0
100
AcDbCircle
 62
7
  6
CONTINUOUS
 10
8.7835222004
 20
15.0320884591
 40
0.0196850394
100
AcDbArc
 50
224.9982460982
 51
269.9986727963
  0
ARC
  5
4CF
100
AcDbEntity
  8
0
100
AcDbCircle
 62
7
  6
CONTINUOUS
 10
8.7950534294
 20
15.0320884591
 40
0.0196850394
100
AcDbArc
 50
270.0000000002
 51
315.0
  0
ARC
  5
4D0
100
AcDbEntity
  8
0
100
AcDbCircle
 62
7
  6
CONTINUOUS
 10
8.9187178749
 20
14.8968927846
 40
0.0196850394
100
AcDbArc
 50
212.2935011197
 51
225.0158427602
  0
ARC
  5
4D1
100
AcDbEntity
  8
0
100
AcDbCircle
 62
7
  6
CONTINUOUS
 10
8.979567655
 20
14.8360430046
 40
0.0196850394
100
AcDbArc
 50
224.9841572397
 51
269.9986727872
  0
ARC
  5
4D2
100
AcDbEntity
  8
0
100
AcDbCircle
 62
7
  6
CONTINUOUS
 10
8.991098884
 20
14.8360430046
 40
0.0196850394
100
AcDbArc
 50
270.0000000001
 51
315.0
  0
ARC
  5
4D3
100
AcDbEntity
  8
0
100
AcDbCircle
 62
7
  6
CONTINUOUS
 10
8.8474229101
 20
14.9441472281
 40
0.0078740157
100
AcDbArc
 50
235.1459548286
 51
287.6666386175
  0
ARC
  5
4D4
100
AcDbEntity
  8
0
100
AcDbCircle
 62
7
  6
CONTINUOUS
 10
9.4810822801
 20
14.7253330822
 40
0.5118110236
100
AcDbArc
 50
169.7131274917
 51
249.6710480595
  0
ARC
  5
4D5
100
AcDbEntity
  8
0
100
AcDbCircle
 62
7
  6
CONTINUOUS
 10
10.0912258267
 20
14.6404866802
 40
0.45
100
AcDbArc
 50
135.0
 51
173.3789847991
  0
ARC
  5
4D6
100
AcDbEntity
  8
0
100
AcDbCircle
 62
9
  6
CONTINUOUS
 10
9.4806731585
 20
14.7250033392
 40
0.4448752278
100
AcDbArc
 50
169.8192619809
 51
249.6637379636
  0
ARC
  5
4D7
100
AcDbEntity
  8
0
100
AcDbCircle
 62
7
  6
CONTINUOUS
 10
9.8925597183
 20
14.6635469795
 40
0.25
100
AcDbArc
 50
173.3789847993
 51
202.1367765694
  0
ARC
  5
4D8
100
AcDbEntity
  8
0
100
AcDbCircle
 62
7
  6
CONTINUOUS
 10
9.5868850241
 20
14.539196743
 40
0.08
100
AcDbArc
 50
317.2714508416
 51
22.1367765694
  0
ARC
  5
4D9
100
AcDbEntity
  8
0
100
AcDbCircle
 62
7
  6
CONTINUOUS
 10
9.8494298338
 20
15.1411528076
 40
0.075
100
AcDbArc
 50
315.0
 51
20.9999999995
  0
ARC
  5
4DA
100
AcDbEntity
  8
0
100
AcDbCircle
 62
7
  6
CONTINUOUS
 10
9.8484284975
 20
15.4088520481
 40
0.02
100
AcDbArc
 50
135.0
 51
200.999999998
  0
ARC
  5
4DB
100
AcDbEntity
  8
0
100
AcDbCircle
 62
7
  6
CONTINUOUS
 10
9.8441776774
 20
15.4611697705
 40
0.02
100
AcDbArc
 50
315.0
 51
32.5422489205
  0
ARC
  5
4DC
100
AcDbEntity
  8
0
100
AcDbCircle
 62
7
  6
CONTINUOUS
 10
9.6046778672
 20
17.4844116602
 40
2.5590551181
100
AcDbArc
 50
222.9830120127
 51
227.3706131117
  0
ARC
  5
4DD
100
AcDbEntity
  8
0
100
AcDbCircle
 62
7
  6
CONTINUOUS
 10
11.4627281179
 20
16.4939787905
 40
1.9
100
AcDbArc
 50
174.5043926218
 51
212.5422489205
  0
ARC
  5
4DE
100
AcDbEntity
  8
0
100
AcDbCircle
 62
7
  6
CONTINUOUS
 10
9.683403029
 20
18.0221993088
 40
0.6927222289
100
AcDbArc
 50
49.5032631509
 51
49.6228958001
  0
ARC
  5
4DF
100
AcDbEntity
  8
0
100
AcDbCircle
 62
7
  6
CONTINUOUS
 10
11.1560537224
 20
18.570934564
 40
0.664173263
100
AcDbArc
 50
229.4514457167
 51
229.5693790593
  0
ARC
  5
4E0
100
AcDbEntity
  8
0
100
AcDbCircle
 62
7
  6
CONTINUOUS
 10
9.7895501894
 20
18.1380871116
 40
0.6080916851
100
AcDbArc
 50
49.6883680436
 51
49.819134565
  0
ARC
  5
4E1
100
AcDbEntity
  8
0
100
AcDbCircle
 62
7
  6
CONTINUOUS
 10
11.1568837865
 20
18.5636388848
 40
0.589036406
100
AcDbArc
 50
229.6417186789
 51
229.7706445919
  0
ARC
  5
4E2
100
AcDbEntity
  8
0
100
AcDbCircle
 62
7
  6
CONTINUOUS
 10
9.8855269847
 20
18.2422275377
 40
0.5388189678
100
AcDbArc
 50
49.8681096618
 51
50.0106248867
  0
ARC
  5
4E3
100
AcDbEntity
  8
0
100
AcDbCircle
 62
7
  6
CONTINUOUS
 10
9.6816376737
 20
17.5613706414
 40
0.4889995483
100
AcDbArc
 50
345.437670489
 51
0.0258975848
  0
ARC
  5
4E4
100
AcDbEntity
  8
0
100
AcDbCircle
 62
7
  6
CONTINUOUS
 10
9.6816580012
 20
17.561376868
 40
0.488981483
100
AcDbArc
 50
343.8994093048
 51
344.4069406941
  0
ARC
  5
4E5
100
AcDbEntity
  8
0
100
AcDbCircle
 62
7
  6
CONTINUOUS
 10
9.6815882902
 20
17.5616411178
 40
0.4887262648
100
AcDbArc
 50
89.9683956634
 51
106.0127264836
  0
ARC
  5
4E6
100
AcDbEntity
  8
0
100
AcDbCircle
 62
7
  6
CONTINUOUS
 10
9.6819727771
 20
17.5612895561
 40
0.4886548226
100
AcDbArc
 50
344.4068803879
 51
345.4369932801
  0
ARC
  5
4E7
100
AcDbEntity
  8
0
100
AcDbCircle
 62
7
  6
CONTINUOUS
 10
11.0636039359
 20
18.4508378933
 40
0.4166893915
100
AcDbArc
 50
230.2943523746
 51
230.5157724949
  0
ARC
  5
4E8
100
AcDbEntity
  8
0
100
AcDbCircle
 62
7
  6
CONTINUOUS
 10
9.9498939525
 20
18.2036872327
 40
0.188
100
AcDbArc
 50
135.0
 51
180.0
  0
ARC
  5
4E9
100
AcDbEntity
  8
0
100
AcDbCircle
 62
7
  6
CONTINUOUS
 10
10.3239534397
 20
17.8296277454
 40
0.188
100
AcDbArc
 50
270.0
 51
315.0
  0
ARC
  5
4EA
100
AcDbEntity
  8
0
100
AcDbCircle
 62
7
  6
CONTINUOUS
 10
10.2506372749
 20
17.5616277454
 40
0.08
100
AcDbArc
 50
90.0
 51
180.0258404645
  0
ARC
  5
4EB
100
AcDbEntity
  8
0
100
AcDbCircle
 62
7
  6
CONTINUOUS
 10
9.6818939525
 20
18.1303710679
 40
0.08
100
AcDbArc
 50
269.9741595356
 51
360.0
  0
ARC
  5
4EC
100
AcDbEntity
  8
0
100
AcDbCircle
 62
7
  6
CONTINUOUS
 10
13.034964243
 20
1.8207669804
 40
2.125
100
AcDbArc
 50
284.9982711846
 51
307.7147778021
  0
ARC
  5
4ED
100
AcDbEntity
  8
0
100
AcDbCircle
 62
7
  6
CONTINUOUS
 10
13.034964243
 20
-4.3412613038
 40
2.125
100
AcDbArc
 50
52.2852221917
 51
75.0017288154
  0
ARC
  5
4EE
100
AcDbEntity
  8
0
100
AcDbCircle
 62
7
  6
CONTINUOUS
 10
12.9166021997
 20
5.7397528383
 40
1.5
100
AcDbArc
 50
160.9334198993
 51
199.0665801007
  0
ARC
  5
4EF
100
AcDbEntity
  8
0
100
AcDbCircle
 62
7
  6
CONTINUOUS
 10
14.5868939218
 20
2.5466167079
 40
0.2500109774
100
AcDbArc
 50
180.0
 51
239.7355898687
  0
ARC
  5
4F0
100
AcDbEntity
  8
0
100
AcDbCircle
 62
7
  6
CONTINUOUS
 10
14.8348927796
 20
2.1147528383
 40
0.25
100
AcDbArc
 50
180.0
 51
270.0
  0
ARC
  5
4F1
100
AcDbEntity
  8
0
100
AcDbCircle
 62
7
  6
CONTINUOUS
 10
14.3348927796
 20
2.1147528383
 40
0.25
100
AcDbArc
 50
0.0
 51
59.7355898687
  0
ARC
  5
4F2
100
AcDbEntity
  8
0
100
AcDbCircle
 62
7
  6
CONTINUOUS
 10
14.0868927796
 20
2.5497528383
 40
0.25
100
AcDbArc
 50
0.9819789042
 51
60.7907880663
  0
ARC
  5
4F3
100
AcDbEntity
  8
0
100
AcDbCircle
 62
7
  6
CONTINUOUS
 10
14.3308927796
 20
2.9861746526
 40
0.25
100
AcDbArc
 50
180.0
 51
240.7907880663
  0
ARC
  5
4F4
100
AcDbEntity
  8
0
100
AcDbCircle
 62
7
  6
CONTINUOUS
 10
12.9278927796
 20
3.1822528383
 40
0.031
100
AcDbArc
 50
180.0
 51
256.9592389661
  0
ARC
  5
4F5
100
AcDbEntity
  8
0
100
AcDbCircle
 62
7
  6
CONTINUOUS
 10
12.9278927796
 20
3.9572528383
 40
0.031
100
AcDbArc
 50
103.0407610339
 51
180.0
  0
ARC
  5
4F6
100
AcDbEntity
  8
0
100
AcDbCircle
 62
7
  6
CONTINUOUS
 10
13.1538927796
 20
3.1507528383
 40
0.031
100
AcDbArc
 50
270.0
 51
315.2453073489
  0
ARC
  5
4F7
100
AcDbEntity
  8
0
100
AcDbCircle
 62
7
  6
CONTINUOUS
 10
13.1538927796
 20
3.9887528383
 40
0.031
100
AcDbArc
 50
44.7546926511
 51
90.0
  0
ARC
  5
4F8
100
AcDbEntity
  8
0
100
AcDbCircle
 62
7
  6
CONTINUOUS
 10
13.9808927796
 20
3.7937528383
 40
0.012
100
AcDbArc
 50
90.0
 51
180.0
  0
ARC
  5
4F9
100
AcDbEntity
  8
0
100
AcDbCircle
 62
7
  6
CONTINUOUS
 10
13.9808927796
 20
3.3457528383
 40
0.012
100
AcDbArc
 50
180.0
 51
270.0
  0
ARC
  5
4FA
100
AcDbEntity
  8
0
100
AcDbCircle
 62
9
  6
CONTINUOUS
 10
12.9366370974
 20
20.8166355518
 40
7.1827073082
100
AcDbArc
 50
239.2718807813
 51
240.0142010091
  0
ARC
  5
4FB
100
AcDbEntity
  8
0
100
AcDbCircle
 62
7
  6
CONTINUOUS
 10
12.9371583895
 20
20.8168921825
 40
7.16910609
100
AcDbArc
 50
215.6768182416
 51
217.0936747382
  0
ARC
  5
4FC
100
AcDbEntity
  8
0
100
AcDbCircle
 62
7
  6
CONTINUOUS
 10
12.9371583895
 20
20.8168921825
 40
7.16910609
100
AcDbArc
 50
219.1433842706
 51
219.2088798426
  0
ARC
  5
4FD
100
AcDbEntity
  8
0
100
AcDbCircle
 62
7
  6
CONTINUOUS
 10
12.9371583892
 20
20.8168921822
 40
7.1691060896
100
AcDbArc
 50
232.8131041875
 51
234.2623504528
  0
ARC
  5
4FE
100
AcDbEntity
  8
0
100
AcDbCircle
 62
7
  6
CONTINUOUS
 10
12.9371833724
 20
20.8169171664
 40
7.1643817033
100
AcDbArc
 50
210.0673085657
 51
210.7101670176
  0
ARC
  5
4FF
100
AcDbEntity
  8
0
100
AcDbCircle
 62
7
  6
CONTINUOUS
 10
12.9371833604
 20
20.8169171533
 40
7.1643816849
100
AcDbArc
 50
234.425011764
 51
235.1468864006
  0
ARC
  5
500
100
AcDbEntity
  8
0
100
AcDbCircle
 62
7
  6
CONTINUOUS
 10
12.9371833604
 20
20.8169171533
 40
7.1643816849
100
AcDbArc
 50
214.8531135994
 51
215.5747727043
  0
ARC
  5
501
100
AcDbEntity
  8
0
100
AcDbCircle
 62
9
  6
CONTINUOUS
 10
12.9369945155
 20
20.8170180973
 40
7.1637067967
100
AcDbArc
 50
239.2706437555
 51
239.9166226523
  0
ARC
  5
502
100
AcDbEntity
  8
0
100
AcDbCircle
 62
9
  6
CONTINUOUS
 10
12.9385729385
 20
20.8193678166
 40
7.1466699368
100
AcDbArc
 50
238.3769520559
 51
238.6171522377
  0
ARC
  5
503
100
AcDbEntity
  8
0
100
AcDbCircle
 62
7
  6
CONTINUOUS
 10
18.8900521953
 20
19.6875789262
 40
4.5
100
AcDbArc
 50
164.4604045094
 51
173.5855182737
  0
ARC
  5
504
100
AcDbEntity
  8
0
100
AcDbCircle
 62
7
  6
CONTINUOUS
 10
18.8900521953
 20
19.7919267505
 40
4.5
100
AcDbArc
 50
186.4144817263
 51
195.5395954906
  0
ARC
  5
505
100
AcDbEntity
  8
0
100
AcDbCircle
 62
7
  6
CONTINUOUS
 10
12.5848927796
 20
17.9897528383
 40
2.15625
100
AcDbArc
 50
90.0
 51
134.9999999999
  0
ARC
  5
506
100
AcDbEntity
  8
0
100
AcDbCircle
 62
7
  6
CONTINUOUS
 10
12.5848927796
 20
17.9897528383
 40
1.34375
100
AcDbArc
 50
90.0
 51
134.9999999999
  0
ARC
  5
507
100
AcDbEntity
  8
0
100
AcDbCircle
 62
7
  6
CONTINUOUS
 10
14.5868939218
 20
8.9328889688
 40
0.2500109774
100
AcDbArc
 50
120.2644101313
 51
180.0
  0
ARC
  5
508
100
AcDbEntity
  8
0
100
AcDbCircle
 62
7
  6
CONTINUOUS
 10
14.8348927796
 20
9.3647528383
 40
0.25
100
AcDbArc
 50
90.0
 51
180.0
  0
ARC
  5
509
100
AcDbEntity
  8
0
100
AcDbCircle
 62
7
  6
CONTINUOUS
 10
14.3348927796
 20
9.3647528383
 40
0.25
100
AcDbArc
 50
300.2644101313
 51
360.0
  0
ARC
  5
50A
100
AcDbEntity
  8
0
100
AcDbCircle
 62
7
  6
CONTINUOUS
 10
14.0868927796
 20
8.9297528383
 40
0.25
100
AcDbArc
 50
299.2092119337
 51
359.0180210958
  0
ARC
  5
50B
100
AcDbEntity
  8
0
100
AcDbCircle
 62
7
  6
CONTINUOUS
 10
14.3308927796
 20
8.493331024
 40
0.25
100
AcDbArc
 50
119.2092119337
 51
180.0
  0
ARC
  5
50C
100
AcDbEntity
  8
0
100
AcDbCircle
 62
7
  6
CONTINUOUS
 10
14.6027195323
 20
18.5997528383
 40
0.05
100
AcDbArc
 50
195.5395954906
 51
270.0
  0
ARC
  5
50D
100
AcDbEntity
  8
0
100
AcDbCircle
 62
7
  6
CONTINUOUS
 10
14.6027195323
 20
20.8797528383
 40
0.05
100
AcDbArc
 50
90.0
 51
164.4604045094
  0
SPLINE
  5
50E
100
AcDbEntity
  8
0
100
AcDbSpline
 62
7
  6
CONTINUOUS
 70
0
 71
3
 72
14
 73
10
 74
0
 42
0.0000001
 43
0.0000001
 44
0.0000000001
 40
0.0
 40
0.0
 40
0.0
 40
0.0
 40
0.1232919025
 40
0.2473254905
 40
0.3722312799
 40
0.4978565436
 40
0.749828185
 40
0.875319563
 40
1.0
 40
1.0
 40
1.0
 40
1.0
 10
12.8348927796
 20
-0.4483483456
 30
0.0
 10
12.8666226663
 20
-0.4441208244
 30
0.0
 10
12.9299469047
 20
-0.433070814
 30
0.0
 10
13.0239401233
 20
-0.4104113983
 30
0.0
 10
13.1173259669
 20
-0.3831860084
 30
0.0
 10
13.2413939298
 20
-0.3428021717
 30
0.0
 10
13.3646357175
 20
-0.2995091837
 30
0.0
 10
13.4885981425
 20
-0.2591089465
 30
0.0
 10
13.5509637627
 20
-0.2408891793
 30
0.0
 10
13.5822412309
 20
-0.232547277
 30
0.0
  0
LINE
  5
50F
100
AcDbEntity
  8
0
100
AcDbLine
 62
7
  6
CONTINUOUS
 10
13.5822412309
 20
-0.232547277
 11
13.5834708034
 21
-0.2322197506
  0
LINE
  5
510
100
AcDbEntity
  8
0
100
AcDbLine
 62
7
  6
CONTINUOUS
 10
13.5834708034
 20
-0.2322197506
 11
13.5848927796
 21
-0.2318419947
  0
SPLINE
  5
511
100
AcDbEntity
  8
0
100
AcDbSpline
 62
7
  6
CONTINUOUS
 70
0
 71
3
 72
11
 73
7
 74
0
 42
0.0000001
 43
0.0000001
 44
0.0000000001
 40
0.0
 40
0.0
 40
0.0
 40
0.0
 40
0.2487967447
 40
0.4971172054
 40
0.7468549419
 40
1.0
 40
1.0
 40
1.0
 40
1.0
 10
11.5848927796
 20
-0.5566015211
 30
0.0
 10
11.6887969191
 20
-0.5506026128
 30
0.0
 10
11.8963789347
 20
-0.5381127355
 30
0.0
 10
12.208003432
 20
-0.5155694805
 30
0.0
 10
12.5209611783
 20
-0.4868949717
 30
0.0
 10
12.7299241906
 20
-0.4623338017
 30
0.0
 10
12.8348927796
 20
-0.4483483456
 30
0.0
  0
SPLINE
  5
512
100
AcDbEntity
  8
0
100
AcDbSpline
 62
7
  6
CONTINUOUS
 70
0
 71
3
 72
11
 73
7
 74
0
 42
0.0000001
 43
0.0000001
 44
0.0000000001
 40
0.0
 40
0.0
 40
0.0
 40
0.0
 40
0.2487967447
 40
0.4971172054
 40
0.7468549419
 40
1.0
 40
1.0
 40
1.0
 40
1.0
 10
11.5848927796
 20
-1.9638928022
 30
0.0
 10
11.6887969191
 20
-1.9698917105
 30
0.0
 10
11.8963789347
 20
-1.9823815878
 30
0.0
 10
12.208003432
 20
-2.0049248428
 30
0.0
 10
12.5209611783
 20
-2.0335993516
 30
0.0
 10
12.7299241906
 20
-2.0581605216
 30
0.0
 10
12.8348927796
 20
-2.0721459777
 30
0.0
  0
SPLINE
  5
513
100
AcDbEntity
  8
0
100
AcDbSpline
 62
7
  6
CONTINUOUS
 70
0
 71
3
 72
14
 73
10
 74
0
 42
0.0000001
 43
0.0000001
 44
0.0000000001
 40
0.0
 40
0.0
 40
0.0
 40
0.0
 40
0.1232919025
 40
0.2473254905
 40
0.3722312799
 40
0.4978565436
 40
0.7498281851
 40
0.875319563
 40
1.0
 40
1.0
 40
1.0
 40
1.0
 10
12.8348927796
 20
-2.0721459777
 30
0.0
 10
12.8666226664
 20
-2.0763734989
 30
0.0
 10
12.929946905
 20
-2.0874235094
 30
0.0
 10
13.0239401239
 20
-2.1100829252
 30
0.0
 10
13.1173259677
 20
-2.1373083151
 30
0.0
 10
13.241393931
 20
-2.177692152
 30
0.0
 10
13.3646357191
 20
-2.2209851402
 30
0.0
 10
13.4885981444
 20
-2.2613853774
 30
0.0
 10
13.5509637648
 20
-2.2796051446
 30
0.0
 10
13.5822412331
 20
-2.2879470469
 30
0.0
  0
LINE
  5
514
100
AcDbEntity
  8
0
100
AcDbLine
 62
7
  6
CONTINUOUS
 10
13.5822412331
 20
-2.2879470469
 11
13.5834708071
 21
-2.2882745737
  0
LINE
  5
515
100
AcDbEntity
  8
0
100
AcDbLine
 62
7
  6
CONTINUOUS
 10
13.5834708071
 20
-2.2882745737
 11
13.5848927796
 21
-2.2886523287
  0
SPLINE
  5
516
100
AcDbEntity
  8
0
100
AcDbSpline
 62
7
  6
CONTINUOUS
 70
0
 71
3
 72
8
 73
4
 74
0
 42
0.0000001
 43
0.0000001
 44
0.0000000001
 40
0.0
 40
0.0
 40
0.0
 40
0.0
 40
1.0
 40
1.0
 40
1.0
 40
1.0
 10
10.3348927796
 20
-0.6107281088
 30
0.0
 10
10.7517875217
 20
-0.6107281088
 30
0.0
 10
11.1678989666
 20
-0.5806766701
 30
0.0
 10
11.5848927796
 20
-0.5566015211
 30
0.0
  0
SPLINE
  5
517
100
AcDbEntity
  8
0
100
AcDbSpline
 62
7
  6
CONTINUOUS
 70
0
 71
3
 72
8
 73
4
 74
0
 42
0.0000001
 43
0.0000001
 44
0.0000000001
 40
0.0
 40
0.0
 40
0.0
 40
0.0
 40
1.0
 40
1.0
 40
1.0
 40
1.0
 10
10.3348927796
 20
-1.9097662145
 30
0.0
 10
10.7517875217
 20
-1.9097662145
 30
0.0
 10
11.1678989666
 20
-1.9398176532
 30
0.0
 10
11.5848927796
 20
-1.9638928022
 30
0.0
  0
SPLINE
  5
518
100
AcDbEntity
  8
0
100
AcDbSpline
 62
7
  6
CONTINUOUS
 70
0
 71
3
 72
19
 73
15
 74
0
 42
0.0000001
 43
0.0000001
 44
0.0000000001
 40
0.0
 40
0.0
 40
0.0
 40
0.0
 40
0.1376991747
 40
0.2695878339
 40
0.3960056204
 40
0.4575358806
 40
0.5181735859
 40
0.5781420696
 40
0.6376744084
 40
0.6970363055
 40
0.7565039322
 40
0.8163349451
 40
0.8767561384
 40
1.0
 40
1.0
 40
1.0
 40
1.0
 10
14.3348927796
 20
-0.5602468919
 30
0.0
 10
14.3348927583
 20
-0.5317856715
 30
0.0
 10
14.331960648
 20
-0.4760034902
 30
0.0
 10
14.3181104403
 20
-0.3951385097
 30
0.0
 10
14.2985610784
 20
-0.3317510346
 30
0.0
 10
14.2782546694
 20
-0.2845118323
 30
0.0
 10
14.2608976536
 20
-0.2510664336
 30
0.0
 10
14.2413247673
 20
-0.2193523431
 30
0.0
 10
14.2195673375
 20
-0.1894195612
 30
0.0
 10
14.1956815913
 20
-0.1612929014
 30
0.0
 10
14.169737887
 20
-0.1349683762
 30
0.0
 10
14.1417937957
 20
-0.1104440195
 30
0.0
 10
14.1017331356
 20
-0.0799306316
 30
0.0
 10
14.0693109314
 20
-0.0599428907
 30
0.0
 10
14.0469113427
 20
-0.0478121769
 30
0.0
  0
SPLINE
  5
519
100
AcDbEntity
  8
0
100
AcDbSpline
 62
9
  6
CONTINUOUS
 70
0
 71
3
 72
11
 73
7
 74
0
 42
0.0000001
 43
0.0000001
 44
0.0000000001
 40
0.0
 40
0.0
 40
0.0
 40
0.0
 40
0.2497134374
 40
0.4996569182
 40
0.7497220581
 40
1.0
 40
1.0
 40
1.0
 40
1.0
 10
13.5848927793
 20
-2.2836806516
 30
0.0
 10
13.5861517604
 20
-2.1989138984
 30
0.0
 10
13.5872458283
 20
-2.0292829997
 30
0.0
 10
13.5876190306
 20
-1.7747578765
 30
0.0
 10
13.5872457121
 20
-1.5200410915
 30
0.0
 10
13.586150765
 20
-1.3501772725
 30
0.0
 10
13.5848927792
 20
-1.2652188378
 30
0.0
  0
LINE
  5
51A
100
AcDbEntity
  8
0
100
AcDbLine
 62
7
  6
CONTINUOUS
 10
14.0469113427
 20
-1.2602471617
 11
13.5848927796
 21
-1.2602471617
  0
SPLINE
  5
51B
100
AcDbEntity
  8
0
100
AcDbSpline
 62
7
  6
CONTINUOUS
 70
0
 71
3
 72
13
 73
9
 74
0
 42
0.0000001
 43
0.0000001
 44
0.0000000001
 40
0.0
 40
0.0
 40
0.0
 40
0.0
 40
0.1150742698
 40
0.2344755546
 40
0.357451514
 40
0.4832787117
 40
0.7400949754
 40
1.0
 40
1.0
 40
1.0
 40
1.0
 10
14.3348927796
 20
-1.9602461285
 30
0.0
 10
14.334892754
 20
-1.9305801058
 30
0.0
 10
14.3315805482
 20
-1.8700948631
 30
0.0
 10
14.3174222408
 20
-1.7789037661
 30
0.0
 10
14.2940392516
 20
-1.6867576535
 30
0.0
 10
14.2504999739
 20
-1.5637342445
 30
0.0
 10
14.1741596945
 20
-1.4156640895
 30
0.0
 10
14.0923631517
 20
-1.3094768944
 30
0.0
 10
14.0469113427
 20
-1.2602471617
 30
0.0
  0
SPLINE
  5
51C
100
AcDbEntity
  8
0
100
AcDbSpline
 62
7
  6
CONTINUOUS
 70
0
 71
3
 72
13
 73
9
 74
0
 42
0.0000001
 43
0.0000001
 44
0.0000000001
 40
0.0
 40
0.0
 40
0.0
 40
0.0
 40
0.2599056506
 40
0.516722165
 40
0.6425493862
 40
0.7655251399
 40
0.8849259862
 40
1.0
 40
1.0
 40
1.0
 40
1.0
 10
14.0469113427
 20
-1.2602471617
 30
0.0
 10
14.0923633238
 20
-1.2110172424
 30
0.0
 10
14.1741600936
 20
-1.1048296943
 30
0.0
 10
14.2505004611
 20
-0.9567590561
 30
0.0
 10
14.2940396337
 20
-0.8337353991
 30
0.0
 10
14.3174224923
 20
-0.7415892846
 30
0.0
 10
14.3315806939
 20
-0.6503982767
 30
0.0
 10
14.3348927931
 20
-0.5899131236
 30
0.0
 10
14.3348927796
 20
-0.560247126
 30
0.0
  0
SPLINE
  5
51D
100
AcDbEntity
  8
0
100
AcDbSpline
 62
9
  6
CONTINUOUS
 70
0
 71
3
 72
15
 73
11
 74
0
 42
0.0000001
 43
0.0000001
 44
0.0000000001
 40
0.0
 40
0.0
 40
0.0
 40
0.0
 40
0.1252193533
 40
0.250365433
 40
0.3754377214
 40
0.5004597069
 40
0.6254368936
 40
0.750363865
 40
0.8752173507
 40
1.0
 40
1.0
 40
1.0
 40
1.0
 10
13.5848927796
 20
-0.2368136848
 30
0.0
 10
13.5842810345
 20
-0.2793205185
 30
0.0
 10
13.5833860923
 20
-0.3643141112
 30
0.0
 10
13.5826875814
 20
-0.4917713586
 30
0.0
 10
13.5823900115
 20
-0.6191630258
 30
0.0
 10
13.5822949292
 20
-0.7464975866
 30
0.0
 10
13.5823895144
 20
-0.8737828131
 30
0.0
 10
13.5826862143
 20
-1.0010106056
 30
0.0
 10
13.5833868117
 20
-1.1281709188
 30
0.0
 10
13.5842830639
 20
-1.2129168813
 30
0.0
 10
13.5848927796
 20
-1.2552754703
 30
0.0
  0
SPLINE
  5
51E
100
AcDbEntity
  8
0
100
AcDbSpline
 62
9
  6
CONTINUOUS
 70
0
 71
3
 72
11
 73
7
 74
0
 42
0.0000001
 43
0.0000001
 44
0.0000000001
 40
0.0
 40
0.0
 40
0.0
 40
0.0
 40
0.2502778963
 40
0.5003430593
 40
0.7502866
 40
1.0
 40
1.0
 40
1.0
 40
1.0
 10
13.5848927793
 20
-1.2552754847
 30
0.0
 10
13.5861496053
 20
-1.1703170483
 30
0.0
 10
13.5872456655
 20
-1.0004532584
 30
0.0
 10
13.5876190316
 20
-0.7457364511
 30
0.0
 10
13.5872458713
 20
-0.4912113221
 30
0.0
 10
13.5861529263
 20
-0.3215803941
 30
0.0
 10
13.5848927793
 20
-0.2368136709
 30
0.0
  0
SPLINE
  5
51F
100
AcDbEntity
  8
0
100
AcDbSpline
 62
9
  6
CONTINUOUS
 70
0
 71
3
 72
15
 73
11
 74
0
 42
0.0000001
 43
0.0000001
 44
0.0000000001
 40
0.0
 40
0.0
 40
0.0
 40
0.0
 40
0.1247824116
 40
0.2496362517
 40
0.3745631758
 40
0.4995402831
 40
0.6245621987
 40
0.7496344436
 40
0.8747808834
 40
1.0
 40
1.0
 40
1.0
 40
1.0
 10
13.5848927796
 20
-1.2652188518
 30
0.0
 10
13.58428081
 20
-1.3075773277
 30
0.0
 10
13.5833854704
 20
-1.3923233547
 30
0.0
 10
13.582687324
 20
-1.5194836979
 30
0.0
 10
13.582389949
 20
-1.6467115656
 30
0.0
 10
13.5822949293
 20
-1.7739967254
 30
0.0
 10
13.5823895761
 20
-1.9013312208
 30
0.0
 10
13.5826864744
 20
-2.0287229738
 30
0.0
 10
13.5833874322
 20
-2.1561802418
 30
0.0
 10
13.5842832812
 20
-2.2411738518
 30
0.0
 10
13.5848927796
 20
-2.2836806373
 30
0.0
  0
SPLINE
  5
520
100
AcDbEntity
  8
0
100
AcDbSpline
 62
7
  6
CONTINUOUS
 70
0
 71
3
 72
19
 73
15
 74
0
 42
0.0000001
 43
0.0000001
 44
0.0000000001
 40
0.0
 40
0.0
 40
0.0
 40
0.0
 40
0.1232440085
 40
0.1836653679
 40
0.2434965588
 40
0.3029643196
 40
0.3623262838
 40
0.4218585982
 40
0.4818271078
 40
0.5424648678
 40
0.6039951175
 40
0.730412798
 40
0.8623009899
 40
1.0
 40
1.0
 40
1.0
 40
1.0
 10
14.0469113427
 20
-2.4726821464
 30
0.0
 10
14.0693109951
 20
-2.4605513982
 30
0.0
 10
14.1017332859
 20
-2.4405635517
 30
0.0
 10
14.141794077
 20
-2.4100500344
 30
0.0
 10
14.1697383061
 20
-2.3855255904
 30
0.0
 10
14.1956820554
 20
-2.3592009106
 30
0.0
 10
14.2195678003
 20
-2.3310741246
 30
0.0
 10
14.2413252801
 20
-2.301141286
 30
0.0
 10
14.2608981241
 20
-2.2694270802
 30
0.0
 10
14.2782550689
 20
-2.2359815604
 30
0.0
 10
14.2985614671
 20
-2.1887422751
 30
0.0
 10
14.3181106628
 20
-2.1253547594
 30
0.0
 10
14.3319607947
 20
-2.0444897871
 30
0.0
 10
14.3348927944
 20
-1.988707637
 30
0.0
 10
14.3348927796
 20
-1.9602464037
 30
0.0
  0
LINE
  5
521
100
AcDbEntity
  8
0
100
AcDbLine
 62
7
  6
CONTINUOUS
 10
10.3348927796
 20
-1.2602471617
 11
11.5848927796
 21
-1.2602471617
  0
SPLINE
  5
522
100
AcDbEntity
  8
0
100
AcDbSpline
 62
7
  6
CONTINUOUS
 70
0
 71
3
 72
23
 73
19
 74
0
 42
0.0000001
 43
0.0000001
 44
0.0000000001
 40
0.0
 40
0.0
 40
0.0
 40
0.0
 40
0.0622563411
 40
0.1245222275
 40
0.1868086737
 40
0.2491226008
 40
0.3114716613
 40
0.3738597609
 40
0.4362917362
 40
0.4987685027
 40
0.5612919695
 40
0.6238601317
 40
0.686472007
 40
0.749122795
 40
0.8118086489
 40
0.8745218111
 40
0.9372555187
 40
1.0
 40
1.0
 40
1.0
 40
1.0
 10
7.3713628548
 20
-2.2602471617
 30
0.0
 10
7.3713628548
 20
-2.2067096936
 30
0.0
 10
7.3765353472
 20
-2.0995555211
 30
0.0
 10
7.3997136798
 20
-1.9403490004
 30
0.0
 10
7.4382111238
 20
-1.7840702027
 30
0.0
 10
7.4916527395
 20
-1.6321777225
 30
0.0
 10
7.5596579259
 20
-1.4861245016
 30
0.0
 10
7.6415745668
 20
-1.3472756035
 30
0.0
 10
7.736741041
 20
-1.2170121084
 30
0.0
 10
7.8442398711
 20
-1.096565921
 30
0.0
 10
7.9631404976
 20
-0.9871849441
 30
0.0
 10
8.0922837019
 20
-0.8899140285
 30
0.0
 10
8.2304942784
 20
-0.805811278
 30
0.0
 10
8.3764080142
 20
-0.735683227
 30
0.0
 10
8.5286409121
 20
-0.6803461456
 30
0.0
 10
8.6856765384
 20
-0.6403235586
 30
0.0
 10
8.8459540627
 20
-0.616144994
 30
0.0
 10
8.9539355343
 20
-0.6107259942
 30
0.0
 10
9.0078927796
 20
-0.6107259942
 30
0.0
  0
SPLINE
  5
523
100
AcDbEntity
  8
0
100
AcDbSpline
 62
7
  6
CONTINUOUS
 70
0
 71
3
 72
17
 73
13
 74
0
 42
0.0000001
 43
0.0000001
 44
0.0000000001
 40
0.0
 40
0.0
 40
0.0
 40
0.0
 40
0.0636595882
 40
0.1272752983
 40
0.190802138
 40
0.2542095903
 40
0.3803787141
 40
0.5057834477
 40
0.630354092
 40
0.7541270882
 40
0.8772522049
 40
1.0
 40
1.0
 40
1.0
 40
1.0
 10
8.644421328
 20
-2.2602471617
 30
0.0
 10
8.644421328
 20
-2.2483596309
 30
0.0
 10
8.6456952687
 20
-2.2245739229
 30
0.0
 10
8.6513394665
 20
-2.1893317393
 30
0.0
 10
8.6606333606
 20
-2.1549139236
 30
0.0
 10
8.677613255
 20
-2.1107320536
 30
0.0
 10
8.7070896406
 20
-2.0593211408
 30
0.0
 10
8.7537871553
 20
-2.0062482365
 30
0.0
 10
8.8095843315
 20
-1.9635910128
 30
0.0
 10
8.872106204
 20
-1.9325830329
 30
0.0
 10
8.9389467125
 20
-1.9138874975
 30
0.0
 10
8.9849713591
 20
-1.9097662145
 30
0.0
 10
9.0078927796
 20
-1.9097662145
 30
0.0
  0
SPLINE
  5
524
100
AcDbEntity
  8
0
100
AcDbSpline
 62
7
  6
CONTINUOUS
 70
0
 71
3
 72
24
 73
20
 74
0
 42
0.0000001
 43
0.0000001
 44
0.0000000001
 40
0.0
 40
0.0
 40
0.0
 40
0.0
 40
0.0401937547
 40
0.0879208527
 40
0.1508765436
 40
0.2263786878
 40
0.311710474
 40
0.3572065323
 40
0.4040402633
 40
0.4517967478
 40
0.500038336
 40
0.5482775446
 40
0.5960267393
 40
0.6428484263
 40
0.6883286493
 40
0.8490711407
 40
0.9120422347
 40
0.9597908558
 40
1.0
 40
1.0
 40
1.0
 40
1.0
 10
12.0033927796
 20
5.2497528383
 30
0.0
 10
11.9984642558
 20
5.2516908357
 30
0.0
 10
11.9876352695
 20
5.2558081449
 30
0.0
 10
11.9688747724
 20
5.2623900802
 30
0.0
 10
11.9454548118
 20
5.2697132702
 30
0.0
 10
11.9169134625
 20
5.2771699957
 30
0.0
 10
11.8902245892
 20
5.2824600338
 30
0.0
 10
11.8670474042
 20
5.2857735159
 30
0.0
 10
11.8486853145
 20
5.2876940914
 30
0.0
 10
11.8298979988
 20
5.2888804238
 30
0.0
 10
11.8108922129
 20
5.289270561
 30
0.0
 10
11.7918873724
 20
5.2888800716
 30
0.0
 10
11.7731029804
 20
5.2876946371
 30
0.0
 10
11.7547450085
 20
5.2857759938
 30
0.0
 10
11.7217358653
 20
5.2810558728
 30
0.0
 10
11.6870647187
 20
5.2730697019
 30
0.0
 10
11.6529246452
 20
5.2623943302
 30
0.0
 10
11.6341566325
 20
5.25581086
 30
0.0
 10
11.6233228151
 20
5.2516917604
 30
0.0
 10
11.6183927796
 20
5.2497528383
 30
0.0
  0
SPLINE
  5
525
100
AcDbEntity
  8
0
100
AcDbSpline
 62
7
  6
CONTINUOUS
 70
0
 71
3
 72
11
 73
7
 74
0
 42
0.0000001
 43
0.0000001
 44
0.0000000001
 40
0.0
 40
0.0
 40
0.0
 40
0.0
 40
0.2500258301
 40
0.5000267445
 40
0.7500250591
 40
1.0
 40
1.0
 40
1.0
 40
1.0
 10
13.7591246528
 20
4.570041193
 30
0.0
 10
13.7068189732
 20
4.6319837509
 30
0.0
 10
13.5930999507
 20
4.7485282369
 30
0.0
 10
13.3978415592
 20
4.8951740567
 30
0.0
 10
13.1812678365
 20
5.0081800914
 30
0.0
 10
13.0258310665
 20
5.0576466802
 30
0.0
 10
12.9467009298
 20
5.0752111543
 30
0.0
  0
SPLINE
  5
526
100
AcDbEntity
  8
0
100
AcDbSpline
 62
7
  6
CONTINUOUS
 70
0
 71
3
 72
11
 73
7
 74
0
 42
0.0000001
 43
0.0000001
 44
0.0000000001
 40
0.0
 40
0.0
 40
0.0
 40
0.0
 40
0.2500258301
 40
0.5000267445
 40
0.7500250591
 40
1.0
 40
1.0
 40
1.0
 40
1.0
 10
13.7591246528
 20
6.9094644837
 30
0.0
 10
13.7068189732
 20
6.8475219258
 30
0.0
 10
13.5930999507
 20
6.7309774398
 30
0.0
 10
13.3978415592
 20
6.58433162
 30
0.0
 10
13.1812678365
 20
6.4713255853
 30
0.0
 10
13.0258310665
 20
6.4218589964
 30
0.0
 10
12.9467009298
 20
6.4042945223
 30
0.0
  0
SPLINE
  5
527
100
AcDbEntity
  8
0
100
AcDbSpline
 62
7
  6
CONTINUOUS
 70
0
 71
3
 72
15
 73
11
 74
0
 42
0.0000001
 43
0.0000001
 44
0.0000000001
 40
0.0
 40
0.0
 40
0.0
 40
0.0
 40
0.1089838896
 40
0.2230632029
 40
0.342060122
 40
0.4657567444
 40
0.5938875958
 40
0.7260334256
 40
0.8616719908
 40
1.0
 40
1.0
 40
1.0
 40
1.0
 10
13.7591246528
 20
5.1548970157
 30
0.0
 10
13.7323394137
 20
5.1707571119
 30
0.0
 10
13.6764395607
 20
5.2014280165
 30
0.0
 10
13.5880744223
 20
5.2432291319
 30
0.0
 10
13.4935770176
 20
5.2815100725
 30
0.0
 10
13.3933572489
 20
5.315931643
 30
0.0
 10
13.2878795154
 20
5.3461455954
 30
0.0
 10
13.1777078844
 20
5.3718467528
 30
0.0
 10
13.0635575157
 20
5.3926936362
 30
0.0
 10
12.9859698946
 20
5.4031237408
 30
0.0
 10
12.9467009298
 20
5.4074819963
 30
0.0
  0
SPLINE
  5
528
100
AcDbEntity
  8
0
100
AcDbSpline
 62
7
  6
CONTINUOUS
 70
0
 71
3
 72
15
 73
11
 74
0
 42
0.0000001
 43
0.0000001
 44
0.0000000001
 40
0.0
 40
0.0
 40
0.0
 40
0.0
 40
0.1089838907
 40
0.2230632049
 40
0.3420601224
 40
0.4657567434
 40
0.5938875954
 40
0.7260334263
 40
0.8616719912
 40
1.0
 40
1.0
 40
1.0
 40
1.0
 10
13.7591246528
 20
6.324608661
 30
0.0
 10
13.7323394134
 20
6.3087485646
 30
0.0
 10
13.6764395608
 20
6.2780776581
 30
0.0
 10
13.5880744234
 20
6.2362765402
 30
0.0
 10
13.4935770175
 20
6.1979956038
 30
0.0
 10
13.3933572478
 20
6.1635740381
 30
0.0
 10
13.2878795154
 20
6.1333600823
 30
0.0
 10
13.177707885
 20
6.1076589199
 30
0.0
 10
13.0635575157
 20
6.0868120384
 30
0.0
 10
12.9859698945
 20
6.0763819359
 30
0.0
 10
12.9467009298
 20
6.0720236803
 30
0.0
  0
LINE
  5
529
100
AcDbEntity
  8
0
100
AcDbLine
 62
7
  6
CONTINUOUS
 10
7.2217332881
 20
16.4892319132
 11
7.2184847351
 21
16.4933774496
  0
SPLINE
  5
52A
100
AcDbEntity
  8
0
100
AcDbSpline
 62
7
  6
CONTINUOUS
 70
0
 71
3
 72
20
 73
16
 74
0
 42
0.0000001
 43
0.0000001
 44
0.0000000001
 40
0.0
 40
0.0
 40
0.0
 40
0.0
 40
0.071600727
 40
0.1369447688
 40
0.1992484873
 40
0.2598471292
 40
0.3783880064
 40
0.4957622585
 40
0.6137731412
 40
0.7342249553
 40
0.7962331418
 40
0.8601942437
 40
0.9272651433
 40
0.9626447379
 40
1.0
 40
1.0
 40
1.0
 40
1.0
 10
9.6455060936
 20
14.4850930703
 30
0.0
 10
9.6422322299
 20
14.4824309183
 30
0.0
 10
9.6354135302
 20
14.4780082979
 30
0.0
 10
9.624694429
 20
14.4731539053
 30
0.0
 10
9.6141267282
 20
14.4697150362
 30
0.0
 10
9.6002432391
 20
14.466536218
 30
0.0
 10
9.5828177159
 20
14.4645784809
 30
0.0
 10
9.5619152762
 20
14.4648542957
 30
0.0
 10
9.5410753818
 20
14.4675700095
 30
0.0
 10
9.5238647923
 20
14.4719567298
 30
0.0
 10
9.5102264923
 20
14.4769801114
 30
0.0
 10
9.4998836787
 20
14.4817504834
 30
0.0
 10
9.4913931726
 20
14.4866997418
 30
0.0
 10
9.4846639333
 20
14.4914626613
 30
0.0
 10
9.4813582978
 20
14.4942005774
 30
0.0
 10
9.4797223038
 20
14.495673633
 30
0.0
  0
SPLINE
  5
52B
100
AcDbEntity
  8
0
100
AcDbSpline
 62
7
  6
CONTINUOUS
 70
0
 71
3
 72
20
 73
16
 74
0
 42
0.0000001
 43
0.0000001
 44
0.0000000001
 40
0.0
 40
0.0
 40
0.0
 40
0.0
 40
0.071600727
 40
0.1369447688
 40
0.1992484873
 40
0.2598471292
 40
0.3783880064
 40
0.4957622585
 40
0.6137731412
 40
0.7342249553
 40
0.7962331418
 40
0.8601942437
 40
0.9272651433
 40
0.9626447379
 40
1.0
 40
1.0
 40
1.0
 40
1.0
 10
6.6053592774
 20
17.5252398866
 30
0.0
 10
6.6026971254
 20
17.5219660228
 30
0.0
 10
6.598274505
 20
17.5151473231
 30
0.0
 10
6.5934201123
 20
17.504428222
 30
0.0
 10
6.5899812433
 20
17.4938605211
 30
0.0
 10
6.5868024251
 20
17.4799770321
 30
0.0
 10
6.584844688
 20
17.4625515088
 30
0.0
 10
6.5851205028
 20
17.4416490691
 30
0.0
 10
6.5878362165
 20
17.4208091748
 30
0.0
 10
6.5922229368
 20
17.4035985852
 30
0.0
 10
6.5972463184
 20
17.3899602853
 30
0.0
 10
6.6020166904
 20
17.3796174716
 30
0.0
 10
6.6069659488
 20
17.3711269655
 30
0.0
 10
6.6117288684
 20
17.3643977262
 30
0.0
 10
6.6144667845
 20
17.3610920907
 30
0.0
 10
6.61593984
 20
17.3594560968
 30
0.0
  0
SPLINE
  5
52C
100
AcDbEntity
  8
0
100
AcDbSpline
 62
7
  6
CONTINUOUS
 70
0
 71
3
 72
19
 73
15
 74
0
 42
0.0000001
 43
0.0000001
 44
0.0000000001
 40
0.0
 40
0.0
 40
0.0
 40
0.0
 40
0.0196870536
 40
0.042571863
 40
0.0708495673
 40
0.1056351046
 40
0.1474397325
 40
0.1963305509
 40
0.2521617507
 40
0.3147051048
 40
0.4585731465
 40
0.6242268482
 40
0.8069593763
 40
1.0
 40
1.0
 40
1.0
 40
1.0
 10
8.1780495835
 20
15.6992077332
 30
0.0
 10
8.1783507881
 20
15.6995083208
 30
0.0
 10
8.1788444773
 20
15.7003255932
 30
0.0
 10
8.1790720854
 20
15.7018647849
 30
0.0
 10
8.1788825647
 20
15.7037243815
 30
0.0
 10
8.1782864363
 20
15.7059183264
 30
0.0
 10
8.1772848346
 20
15.7084430089
 30
0.0
 10
8.1758838651
 20
15.711286209
 30
0.0
 10
8.1740918026
 20
15.7144282029
 30
0.0
 10
8.1710482698
 20
15.719212165
 30
0.0
 10
8.1663213586
 20
15.725727032
 30
0.0
 10
8.1596042051
 20
15.7339834788
 30
0.0
 10
8.1518088456
 20
15.7427167342
 30
0.0
 10
8.1461698053
 20
15.7485654279
 30
0.0
 10
8.1432193793
 20
15.7515158539
 30
0.0
  0
LINE
  5
52D
100
AcDbEntity
  8
0
100
AcDbLine
 62
7
  6
CONTINUOUS
 10
9.3579013113
 20
14.6069071356
 11
9.3522887496
 21
14.6008981296
  0
SPLINE
  5
52E
100
AcDbEntity
  8
0
100
AcDbSpline
 62
7
  6
CONTINUOUS
 70
0
 71
3
 72
18
 73
14
 74
0
 42
0.0000001
 43
0.0000001
 44
0.0000000001
 40
0.0
 40
0.0
 40
0.0
 40
0.0
 40
0.0217032464
 40
0.0451596494
 40
0.0725339096
 40
0.1052362908
 40
0.1440630914
 40
0.1893999174
 40
0.3001861829
 40
0.4380662741
 40
0.6022977817
 40
0.7905311545
 40
1.0
 40
1.0
 40
1.0
 40
1.0
 10
8.6561466016
 20
15.2307195354
 30
0.0
 10
8.6562966482
 20
15.2308699126
 30
0.0
 10
8.656553041
 20
15.2312441115
 30
0.0
 10
8.6567276105
 20
15.2319438572
 30
0.0
 10
8.6567084736
 20
15.2327680409
 30
0.0
 10
8.6565047666
 20
15.2337183446
 30
0.0
 10
8.6561193663
 20
15.2347978221
 30
0.0
 10
8.6553083844
 20
15.2365273697
 30
0.0
 10
8.6538028253
 20
15.2389882801
 30
0.0
 10
8.6514094486
 20
15.242247649
 30
0.0
 10
8.648340048
 20
15.2459404756
 30
0.0
 10
8.6446435132
 20
15.2500148681
 30
0.0
 10
8.6419290793
 20
15.2528061538
 30
0.0
 10
8.6404793085
 20
15.2542559246
 30
0.0
  0
LINE
  5
52F
100
AcDbEntity
  8
0
100
AcDbLine
 62
7
  6
CONTINUOUS
 10
8.2648630254
 20
15.6704150613
 11
8.2638143332
 21
15.6696423259
  0
SPLINE
  5
530
100
AcDbEntity
  8
0
100
AcDbSpline
 62
7
  6
CONTINUOUS
 70
0
 71
3
 72
11
 73
7
 74
0
 42
0.0000001
 43
0.0000001
 44
0.0000000001
 40
0.0
 40
0.0
 40
0.0
 40
0.0
 40
0.3236046047
 40
0.5919684257
 40
0.812492057
 40
1.0
 40
1.0
 40
1.0
 40
1.0
 10
8.5431664783
 20
15.3921063618
 30
0.0
 10
8.5423522868
 20
15.3922482642
 30
0.0
 10
8.5408482157
 20
15.3924386441
 30
0.0
 10
8.5387634648
 20
15.3923974486
 30
0.0
 10
8.5370644255
 20
15.391995518
 30
0.0
 10
8.5361580836
 20
15.3914230163
 30
0.0
 10
8.5358197729
 20
15.3910840845
 30
0.0
  0
SPLINE
  5
531
100
AcDbEntity
  8
0
100
AcDbSpline
 62
7
  6
CONTINUOUS
 70
0
 71
3
 72
13
 73
9
 74
0
 42
0.0000001
 43
0.0000001
 44
0.0000000001
 40
0.0
 40
0.0
 40
0.0
 40
0.0
 40
0.3734473019
 40
0.5289043728
 40
0.6629455524
 40
0.7755521005
 40
0.8675571092
 40
1.0
 40
1.0
 40
1.0
 40
1.0
 10
8.7863498934
 20
15.1489229466
 30
0.0
 10
8.7843147977
 20
15.1497771345
 30
0.0
 10
8.7813961346
 20
15.1509089513
 30
0.0
 10
8.7776397331
 20
15.1520334812
 30
0.0
 10
8.7753234415
 20
15.1525634559
 30
0.0
 10
8.7733270444
 20
15.1528253137
 30
0.0
 10
8.7713552824
 20
15.1528311312
 30
0.0
 10
8.7699565488
 20
15.1524316798
 30
0.0
 10
8.7694015114
 20
15.1518797548
 30
0.0
  0
SPLINE
  5
532
100
AcDbEntity
  8
0
100
AcDbSpline
 62
7
  6
CONTINUOUS
 70
0
 71
3
 72
17
 73
13
 74
0
 42
0.0000001
 43
0.0000001
 44
0.0000000001
 40
0.0
 40
0.0
 40
0.0
 40
0.0
 40
0.2077005204
 40
0.394697468
 40
0.5590119797
 40
0.6987996013
 40
0.8127902077
 40
0.8598640104
 40
0.9002526912
 40
0.9340095416
 40
0.9613821879
 40
1.0
 40
1.0
 40
1.0
 40
1.0
 10
8.977838138
 20
14.9574350868
 30
0.0
 10
8.9759023899
 20
14.9584714222
 30
0.0
 10
8.9722052311
 20
14.960406435
 30
0.0
 10
8.9669058281
 20
14.9630230458
 30
0.0
 10
8.962184032
 20
14.9651838914
 30
0.0
 10
8.9580934474
 20
14.9668612713
 30
0.0
 10
8.9550858213
 20
14.9679044946
 30
0.0
 10
8.9530274037
 20
14.9684570643
 30
0.0
 10
8.9517723304
 20
14.9687132665
 30
0.0
 10
8.9506996077
 20
14.9688361748
 30
0.0
 10
8.9496573109
 20
14.9688291264
 30
0.0
 10
8.9489198261
 20
14.9686252231
 30
0.0
 10
8.9486311109
 20
14.9683365889
 30
0.0
  0
SPLINE
  5
533
100
AcDbEntity
  8
0
100
AcDbSpline
 62
7
  6
CONTINUOUS
 70
0
 71
3
 72
12
 73
8
 74
0
 42
0.0000001
 43
0.0000001
 44
0.0000000001
 40
0.0
 40
0.0
 40
0.0
 40
0.0
 40
0.1255935282
 40
0.2153449983
 40
0.3264827394
 40
0.6166685249
 40
1.0
 40
1.0
 40
1.0
 40
1.0
 10
7.1239581974
 20
16.7321446424
 30
0.0
 10
7.1240683682
 20
16.7322547041
 30
0.0
 10
7.1241421689
 20
16.7325394646
 30
0.0
 10
7.1241383143
 20
16.7329392108
 30
0.0
 10
7.1240588632
 20
16.7335465334
 30
0.0
 10
7.1238046785
 20
16.7344870919
 30
0.0
 10
7.1235220393
 20
16.7352737313
 30
0.0
 10
7.1233502449
 20
16.7357169049
 30
0.0
  0
SPLINE
  5
534
100
AcDbEntity
  8
0
100
AcDbSpline
 62
7
  6
CONTINUOUS
 70
0
 71
3
 72
15
 73
11
 74
0
 42
0.0000001
 43
0.0000001
 44
0.0000000001
 40
0.0
 40
0.0
 40
0.0
 40
0.0
 40
0.0282101116
 40
0.0627526809
 40
0.1497236501
 40
0.2584016874
 40
0.3855230291
 40
0.5274711942
 40
0.680111461
 40
1.0
 40
1.0
 40
1.0
 40
1.0
 10
7.1233502449
 20
16.7357169049
 30
0.0
 10
7.1230870265
 20
16.7363959227
 30
0.0
 10
7.1224466305
 20
16.7378849906
 30
0.0
 10
7.1207766874
 20
16.741371316
 30
0.0
 10
7.1179733701
 20
16.7466137524
 30
0.0
 10
7.1138135826
 20
16.7538341135
 30
0.0
 10
7.108754564
 20
16.7621717297
 30
0.0
 10
7.1029445242
 20
16.7713787714
 30
0.0
 10
7.0942827145
 20
16.7846684474
 30
0.0
 10
7.0874195652
 20
16.7947552317
 30
0.0
 10
7.0826889144
 20
16.8015239453
 30
0.0
  0
SPLINE
  5
535
100
AcDbEntity
  8
0
100
AcDbSpline
 62
7
  6
CONTINUOUS
 70
0
 71
3
 72
11
 73
7
 74
0
 42
0.0000001
 43
0.0000001
 44
0.0000000001
 40
0.0
 40
0.0
 40
0.0
 40
0.0
 40
0.3104666906
 40
0.5860141264
 40
0.8182691984
 40
1.0
 40
1.0
 40
1.0
 40
1.0
 10
9.1045812246
 20
14.8306924454
 30
0.0
 10
9.1009563993
 20
14.8328488538
 30
0.0
 10
9.0940912452
 20
14.8368802829
 30
0.0
 10
9.084426181
 20
14.8423733999
 30
0.0
 10
9.0761940786
 20
14.8468441377
 30
0.0
 10
9.0711795167
 20
14.8493948183
 30
0.0
 10
9.0689468507
 20
14.8504485863
 30
0.0
  0
LINE
  5
536
100
AcDbEntity
  8
0
100
AcDbLine
 62
9
  6
CONTINUOUS
 10
8.5605681374
 20
15.1512940509
 11
8.5579664367
 21
15.1538136407
  0
SPLINE
  5
537
100
AcDbEntity
  8
0
100
AcDbSpline
 62
9
  6
CONTINUOUS
 70
0
 71
3
 72
13
 73
9
 74
0
 42
0.0000001
 43
0.0000001
 44
0.0000000001
 40
0.0
 40
0.0
 40
0.0
 40
0.0
 40
0.0800980005
 40
0.1795431608
 40
0.2956972008
 40
0.4251004003
 40
0.7088812695
 40
1.0
 40
1.0
 40
1.0
 40
1.0
 10
8.5579664367
 20
15.1538136407
 30
0.0
 10
8.5561438418
 20
15.1555384137
 30
0.0
 10
8.5519880784
 20
15.1593300894
 30
0.0
 10
8.5450195269
 20
15.1654341784
 30
0.0
 10
8.5367856404
 20
15.172436274
 30
0.0
 10
8.524034362
 20
15.1830388468
 30
0.0
 10
8.5068711386
 20
15.1969066199
 30
0.0
 10
8.4926901831
 20
15.2080111117
 30
0.0
 10
8.4854624978
 20
15.2135733747
 30
0.0
  0
SPLINE
  5
538
100
AcDbEntity
  8
0
100
AcDbSpline
 62
9
  6
CONTINUOUS
 70
0
 71
3
 72
24
 73
20
 74
0
 42
0.0000001
 43
0.0000001
 44
0.0000000001
 40
0.0
 40
0.0
 40
0.0
 40
0.0
 40
0.222084569
 40
0.3133687771
 40
0.3911342934
 40
0.4551768186
 40
0.5053941348
 40
0.5419476852
 40
0.5553921557
 40
0.5660207201
 40
0.5746241492
 40
0.582628178
 40
0.602880815
 40
0.6345917346
 40
0.6796971929
 40
0.7387189629
 40
0.8117912946
 40
0.8989085472
 40
1.0
 40
1.0
 40
1.0
 40
1.0
 10
8.5605681374
 20
15.1512940509
 30
0.0
 10
8.5611521075
 20
15.1507074591
 30
0.0
 10
8.5619665496
 20
15.1498698492
 30
0.0
 10
8.5629448657
 20
15.1487888526
 30
0.0
 10
8.5635075238
 20
15.1481268154
 30
0.0
 10
8.5639473177
 20
15.14756148
 30
0.0
 10
8.5642614856
 20
15.147095366
 30
0.0
 10
8.5644369616
 20
15.1467628919
 30
0.0
 10
8.564501425
 20
15.1465453541
 30
0.0
 10
8.5645120064
 20
15.1464228439
 30
0.0
 10
8.5644863852
 20
15.1463212956
 30
0.0
 10
8.5643879175
 20
15.1462171173
 30
0.0
 10
8.564149261
 20
15.1461889015
 30
0.0
 10
8.5637971589
 20
15.1462570164
 30
0.0
 10
8.5633142545
 20
15.1464187273
 30
0.0
 10
8.5627081782
 20
15.146680112
 30
0.0
 10
8.5619746116
 20
15.1470409848
 30
0.0
 10
8.5611167273
 20
15.1475018573
 30
0.0
 10
8.5605075034
 20
15.1478497391
 30
0.0
 10
8.5601820665
 20
15.1480395986
 30
0.0
  0
SPLINE
  5
539
100
AcDbEntity
  8
0
100
AcDbSpline
 62
9
  6
CONTINUOUS
 70
0
 71
3
 72
9
 73
5
 74
0
 42
0.0000001
 43
0.0000001
 44
0.0000000001
 40
0.0
 40
0.0
 40
0.0
 40
0.0
 40
0.4253455833
 40
1.0
 40
1.0
 40
1.0
 40
1.0
 10
8.5601820665
 20
15.1480395986
 30
0.0
 10
8.5586285142
 20
15.1489459395
 30
0.0
 10
8.555058514
 20
15.1512162737
 30
0.0
 10
8.5515592035
 20
15.1535901643
 30
0.0
 10
8.549561006
 20
15.1549728975
 30
0.0
  0
SPLINE
  5
53A
100
AcDbEntity
  8
0
100
AcDbSpline
 62
7
  6
CONTINUOUS
 70
0
 71
3
 72
22
 73
18
 74
0
 42
0.0000001
 43
0.0000001
 44
0.0000000001
 40
0.0
 40
0.0
 40
0.0
 40
0.0
 40
0.0089380946
 40
0.0185033663
 40
0.0291517642
 40
0.0412103209
 40
0.0703281403
 40
0.1068167842
 40
0.1508518209
 40
0.2023411782
 40
0.2610185246
 40
0.3263531946
 40
0.3977296708
 40
0.4745017932
 40
0.641063374
 40
0.8191474199
 40
1.0
 40
1.0
 40
1.0
 40
1.0
 10
7.917071592
 20
15.9549441897
 30
0.0
 10
7.9172481328
 20
15.9551214407
 30
0.0
 10
7.917564481
 20
15.9555402329
 30
0.0
 10
7.9178832761
 20
15.9562984466
 30
0.0
 10
7.918059248
 20
15.9571894636
 30
0.0
 10
7.9181099759
 20
15.9586437699
 30
0.0
 10
7.9177670664
 20
15.9608069248
 30
0.0
 10
7.9168508651
 20
15.9637406954
 30
0.0
 10
7.9154085046
 20
15.9671476942
 30
0.0
 10
7.9134477158
 20
15.9709952887
 30
0.0
 10
7.9109817733
 20
15.9752458475
 30
0.0
 10
7.9080370609
 20
15.979855643
 30
0.0
 10
7.9046430017
 20
15.9847746607
 30
0.0
 10
7.8994173827
 20
15.9918669925
 30
0.0
 10
7.8920313541
 20
16.0010703299
 30
0.0
 10
7.8823103589
 20
16.0121135279
 30
0.0
 10
7.8753613632
 20
16.01937387
 30
0.0
 10
7.8717820609
 20
16.0229531722
 30
0.0
  0
SPLINE
  5
53B
100
AcDbEntity
  8
0
100
AcDbSpline
 62
9
  6
CONTINUOUS
 70
0
 71
3
 72
11
 73
7
 74
0
 42
0.0000001
 43
0.0000001
 44
0.0000000001
 40
0.0
 40
0.0
 40
0.0
 40
0.0
 40
0.2818484477
 40
0.5297364802
 40
0.7525931019
 40
1.0
 40
1.0
 40
1.0
 40
1.0
 10
8.5456424524
 20
15.1496780012
 30
0.0
 10
8.5467222035
 20
15.1507586593
 30
0.0
 10
8.5491434369
 20
15.1524396651
 30
0.0
 10
8.553161412
 20
15.1534946497
 30
0.0
 10
8.5571081112
 20
15.1532020346
 30
0.0
 10
8.5594902391
 20
15.1520917089
 30
0.0
 10
8.5605686813
 20
15.1512947473
 30
0.0
  0
SPLINE
  5
53C
100
AcDbEntity
  8
0
100
AcDbSpline
 62
7
  6
CONTINUOUS
 70
0
 71
3
 72
19
 73
15
 74
0
 42
0.0000001
 43
0.0000001
 44
0.0000000001
 40
0.0
 40
0.0
 40
0.0
 40
0.0
 40
0.0207891081
 40
0.0439702101
 40
0.0717574933
 40
0.1053691109
 40
0.1454178792
 40
0.1922002532
 40
0.2458396299
 40
0.30627127
 40
0.4466833329
 40
0.6115311564
 40
0.7975628072
 40
1.0
 40
1.0
 40
1.0
 40
1.0
 10
8.4301345843
 20
15.45218828
 30
0.0
 10
8.4303612488
 20
15.4524144214
 30
0.0
 10
8.4307438612
 20
15.4529984937
 30
0.0
 10
8.4309681715
 20
15.4540992966
 30
0.0
 10
8.430888671
 20
15.4554090158
 30
0.0
 10
8.4305228309
 20
15.456933456
 30
0.0
 10
8.4298730365
 20
15.4586743443
 30
0.0
 10
8.4289392957
 20
15.4606282309
 30
0.0
 10
8.4277222193
 20
15.4627876983
 30
0.0
 10
8.4256198085
 20
15.4660971347
 30
0.0
 10
8.4222946225
 20
15.4706496948
 30
0.0
 10
8.4174838124
 20
15.4764935338
 30
0.0
 10
8.4117767577
 20
15.4828253333
 30
0.0
 10
8.4076123311
 20
15.4871229021
 30
0.0
 10
8.4054076953
 20
15.4893275379
 30
0.0
  0
SPLINE
  5
53D
100
AcDbEntity
  8
0
100
AcDbSpline
 62
9
  6
CONTINUOUS
 70
0
 71
3
 72
10
 73
6
 74
0
 42
0.0000001
 43
0.0000001
 44
0.0000000001
 40
0.0
 40
0.0
 40
0.0
 40
0.0
 40
0.5774796511
 40
0.8120886262
 40
1.0
 40
1.0
 40
1.0
 40
1.0
 10
8.5656779098
 20
15.1386965069
 30
0.0
 10
8.5721652256
 20
15.1335837513
 30
0.0
 10
8.5812662796
 20
15.1263658777
 30
0.0
 10
8.5923972256
 20
15.1173832218
 30
0.0
 10
8.5970711089
 20
15.1135517899
 30
0.0
 10
8.5991362514
 20
15.1118315516
 30
0.0
  0
LINE
  5
53E
100
AcDbEntity
  8
0
100
AcDbLine
 62
9
  6
CONTINUOUS
 10
8.5991362514
 20
15.1118315516
 11
8.6054828768
 21
15.1063577436
  0
LINE
  5
53F
100
AcDbEntity
  8
0
100
AcDbLine
 62
9
  6
CONTINUOUS
 10
8.6054828768
 20
15.1063577436
 11
8.6060076194
 21
15.1058545653
  0
SPLINE
  5
540
100
AcDbEntity
  8
0
100
AcDbSpline
 62
9
  6
CONTINUOUS
 70
0
 71
3
 72
20
 73
16
 74
0
 42
0.0000001
 43
0.0000001
 44
0.0000000001
 40
0.0
 40
0.0
 40
0.0
 40
0.0
 40
0.154478457
 40
0.2534848058
 40
0.2827211668
 40
0.2999158952
 40
0.31203893
 40
0.3323867353
 40
0.3655864052
 40
0.4126704756
 40
0.4740179957
 40
0.5498301138
 40
0.6402416365
 40
0.745357272
 40
1.0
 40
1.0
 40
1.0
 40
1.0
 10
8.6060076194
 20
15.1058545653
 30
0.0
 10
8.6061152014
 20
15.1057459754
 30
0.0
 10
8.6062866084
 20
15.1055663516
 30
0.0
 10
8.6064726998
 20
15.105348213
 30
0.0
 10
8.606541368
 20
15.1052282841
 30
0.0
 10
8.6065632661
 20
15.1051653528
 30
0.0
 10
8.6065194035
 20
15.1051283262
 30
0.0
 10
8.6064515088
 20
15.1051434309
 30
0.0
 10
8.6063581128
 20
15.1051712157
 30
0.0
 10
8.6062291318
 20
15.1052293276
 30
0.0
 10
8.6060667857
 20
15.105311289
 30
0.0
 10
8.6058696706
 20
15.1054206235
 30
0.0
 10
8.6056381011
 20
15.1055564121
 30
0.0
 10
8.605258061
 20
15.1057888685
 30
0.0
 10
8.6049584681
 20
15.105981198
 30
0.0
 10
8.6047474348
 20
15.1061188744
 30
0.0
  0
SPLINE
  5
541
100
AcDbEntity
  8
0
100
AcDbSpline
 62
9
  6
CONTINUOUS
 70
0
 71
3
 72
11
 73
7
 74
0
 42
0.0000001
 43
0.0000001
 44
0.0000000001
 40
0.0
 40
0.0
 40
0.0
 40
0.0
 40
0.2767897938
 40
0.5275700855
 40
0.7521098526
 40
1.0
 40
1.0
 40
1.0
 40
1.0
 10
8.5906139239
 20
15.1047065306
 30
0.0
 10
8.5916136556
 20
15.105707218
 30
0.0
 10
8.5938843392
 20
15.1072857671
 30
0.0
 10
8.597658306
 20
15.1083071357
 30
0.0
 10
8.6014003721
 20
15.1081407476
 30
0.0
 10
8.603712167
 20
15.1072793097
 30
0.0
 10
8.604810379
 20
15.1066478307
 30
0.0
  0
SPLINE
  5
542
100
AcDbEntity
  8
0
100
AcDbSpline
 62
9
  6
CONTINUOUS
 70
0
 71
3
 72
11
 73
7
 74
0
 42
0.0000001
 43
0.0000001
 44
0.0000000001
 40
0.0
 40
0.0
 40
0.0
 40
0.0
 40
0.3383357218
 40
0.4707361308
 40
0.6249870102
 40
1.0
 40
1.0
 40
1.0
 40
1.0
 10
7.8006033266
 20
15.8810299761
 30
0.0
 10
7.801309397
 20
15.8817190473
 30
0.0
 10
7.8030172927
 20
15.8815691213
 30
0.0
 10
7.8047127021
 20
15.8810627157
 30
0.0
 10
7.8065278722
 20
15.8803595948
 30
0.0
 10
7.8079006151
 20
15.879660722
 30
0.0
 10
7.8088593581
 20
15.8791347583
 30
0.0
  0
SPLINE
  5
543
100
AcDbEntity
  8
0
100
AcDbSpline
 62
9
  6
CONTINUOUS
 70
0
 71
3
 72
13
 73
9
 74
0
 42
0.0000001
 43
0.0000001
 44
0.0000000001
 40
0.0
 40
0.0
 40
0.0
 40
0.0
 40
0.0799291648
 40
0.176102796
 40
0.2872841243
 40
0.4116788403
 40
0.6922573713
 40
1.0
 40
1.0
 40
1.0
 40
1.0
 10
7.8088593581
 20
15.8791347583
 30
0.0
 10
7.8102257333
 20
15.8783851686
 30
0.0
 10
7.8131564611
 20
15.8765887784
 30
0.0
 10
7.8177573206
 20
15.8733906659
 30
0.0
 10
7.822907749
 20
15.8694744325
 30
0.0
 10
7.8307147513
 20
15.8631211249
 30
0.0
 10
7.8411178571
 20
15.8538982595
 30
0.0
 10
7.8493821822
 20
15.8459382644
 30
0.0
 10
7.8536246749
 20
15.8416948328
 30
0.0
  0
SPLINE
  5
544
100
AcDbEntity
  8
0
100
AcDbSpline
 62
7
  6
CONTINUOUS
 70
0
 71
3
 72
15
 73
11
 74
0
 42
0.0000001
 43
0.0000001
 44
0.0000000001
 40
0.0
 40
0.0
 40
0.0
 40
0.0
 40
0.177667436
 40
0.3397813605
 40
0.481404273
 40
0.6049384958
 40
0.7147368012
 40
0.8149223807
 40
0.9090155051
 40
1.0
 40
1.0
 40
1.0
 40
1.0
 10
9.8264802947
 20
18.3271008904
 30
0.0
 10
9.8218671352
 20
18.3224877309
 30
0.0
 10
9.8138521356
 20
18.3128080369
 30
0.0
 10
9.8052748595
 20
18.2972366361
 30
0.0
 10
9.8003811823
 20
18.2822304334
 30
0.0
 10
9.798650397
 20
18.2684871665
 30
0.0
 10
9.7994774467
 20
18.2561919445
 30
0.0
 10
9.8023915871
 20
18.2453383476
 30
0.0
 10
9.8070653415
 20
18.2358913506
 30
0.0
 10
9.8112531016
 20
18.2304725622
 30
0.0
 10
9.8135485233
 20
18.2280449826
 30
0.0
  0
LINE
  5
545
100
AcDbEntity
  8
0
100
AcDbLine
 62
7
  6
CONTINUOUS
 10
9.8135485233
 20
18.2280449826
 11
9.8145338746
 21
18.2270316866
  0
SPLINE
  5
546
100
AcDbEntity
  8
0
100
AcDbSpline
 62
7
  6
CONTINUOUS
 70
0
 71
3
 72
16
 73
12
 74
0
 42
0.0000001
 43
0.0000001
 44
0.0000000001
 40
0.0
 40
0.0
 40
0.0
 40
0.0
 40
0.2080100366
 40
0.3938773195
 40
0.5563081741
 40
0.6941103402
 40
0.8064747202
 40
0.8934516487
 40
0.9277764378
 40
0.9564351118
 40
1.0
 40
1.0
 40
1.0
 40
1.0
 10
8.7433534198
 20
15.1275383843
 30
0.0
 10
8.742110934
 20
15.1282141461
 30
0.0
 10
8.7397442426
 20
15.1294683508
 30
0.0
 10
8.7363537494
 20
15.1311468626
 30
0.0
 10
8.7333411923
 20
15.1325085573
 30
0.0
 10
8.7307318988
 20
15.1335437696
 30
0.0
 10
8.7285462468
 20
15.1342413987
 30
0.0
 10
8.726986608
 20
15.1345713783
 30
0.0
 10
8.7259638996
 20
15.1346286229
 30
0.0
 10
8.7252454693
 20
15.1345736829
 30
0.0
 10
8.7247510443
 20
15.13438717
 30
0.0
 10
8.7245415488
 20
15.134177748
 30
0.0
  0
SPLINE
  5
547
100
AcDbEntity
  8
0
100
AcDbSpline
 62
9
  6
CONTINUOUS
 70
0
 71
3
 72
19
 73
15
 74
0
 42
0.0000001
 43
0.0000001
 44
0.0000000001
 40
0.0
 40
0.0
 40
0.0
 40
0.0
 40
0.0158671482
 40
0.0355123146
 40
0.0611812196
 40
0.0937955426
 40
0.1337162678
 40
0.1810627078
 40
0.2357286119
 40
0.2974467084
 40
0.4407852689
 40
0.6082730706
 40
0.7960845649
 40
1.0
 40
1.0
 40
1.0
 40
1.0
 10
7.6494492939
 20
16.0357383924
 30
0.0
 10
7.649638136
 20
16.0359235891
 30
0.0
 10
7.6501948245
 20
16.0362052086
 30
0.0
 10
7.6512328388
 20
16.0362175809
 30
0.0
 10
7.6525050536
 20
16.0359283137
 30
0.0
 10
7.6540343589
 20
16.0353327575
 30
0.0
 10
7.6558205289
 20
16.0344325314
 30
0.0
 10
7.6578572297
 20
16.0332258213
 30
0.0
 10
7.6601337498
 20
16.0317188131
 30
0.0
 10
7.663649908
 20
16.0291913833
 30
0.0
 10
7.668517242
 20
16.0253293999
 30
0.0
 10
7.6748044503
 20
16.0198899323
 30
0.0
 10
7.6816510133
 20
16.0135615853
 30
0.0
 10
7.6863223571
 20
16.0089977014
 30
0.0
 10
7.6887256565
 20
16.0065938412
 30
0.0
  0
SPLINE
  5
548
100
AcDbEntity
  8
0
100
AcDbSpline
 62
7
  6
CONTINUOUS
 70
0
 71
3
 72
10
 73
6
 74
0
 42
0.0000001
 43
0.0000001
 44
0.0000000001
 40
0.0
 40
0.0
 40
0.0
 40
0.0
 40
0.2428379697
 40
0.4960203572
 40
1.0
 40
1.0
 40
1.0
 40
1.0
 10
8.4054076953
 20
15.4893275379
 30
0.0
 10
8.4026452605
 20
15.4920899726
 30
0.0
 10
8.3968922853
 20
15.497623004
 30
0.0
 10
8.3849354944
 20
15.5083882594
 30
0.0
 10
8.3755020811
 20
15.5161125733
 30
0.0
 10
8.369056623
 20
15.5210311721
 30
0.0
  0
LINE
  5
549
100
AcDbEntity
  8
0
100
AcDbLine
 62
7
  6
CONTINUOUS
 10
8.369056623
 20
15.5210311721
 11
8.3570518601
 21
15.5297548044
  0
SPLINE
  5
54A
100
AcDbEntity
  8
0
100
AcDbSpline
 62
9
  6
CONTINUOUS
 70
0
 71
3
 72
13
 73
9
 74
0
 42
0.0000001
 43
0.0000001
 44
0.0000000001
 40
0.0
 40
0.0
 40
0.0
 40
0.0
 40
0.1140417361
 40
0.2009307966
 40
0.3113174383
 40
0.4462408146
 40
0.6061245319
 40
1.0
 40
1.0
 40
1.0
 40
1.0
 10
8.3589800279
 20
15.3095243479
 30
0.0
 10
8.3591630826
 20
15.3097061863
 30
0.0
 10
8.3596761849
 20
15.309775732
 30
0.0
 10
8.360359702
 20
15.3096843929
 30
0.0
 10
8.3610948457
 20
15.3094989829
 30
0.0
 10
8.3619605996
 20
15.3092011312
 30
0.0
 10
8.3634046161
 20
15.3086120945
 30
0.0
 10
8.3645321846
 20
15.3080637591
 30
0.0
 10
8.3653255837
 20
15.3076579795
 30
0.0
  0
SPLINE
  5
54B
100
AcDbEntity
  8
0
100
AcDbSpline
 62
9
  6
CONTINUOUS
 70
0
 71
3
 72
18
 73
14
 74
0
 42
0.0000001
 43
0.0000001
 44
0.0000000001
 40
0.0
 40
0.0
 40
0.0
 40
0.0
 40
0.035629755
 40
0.0795153174
 40
0.1309623065
 40
0.1890976857
 40
0.3216254358
 40
0.468377523
 40
0.6196215728
 40
0.765137671
 40
0.8948990373
 40
0.951046297
 40
1.0
 40
1.0
 40
1.0
 40
1.0
 10
8.3653255837
 20
15.3076579795
 30
0.0
 10
8.3666292037
 20
15.3069912503
 30
0.0
 10
8.3694863793
 20
15.3054018785
 30
0.0
 10
8.3740862022
 20
15.3026065894
 30
0.0
 10
8.379384465
 20
15.2991840952
 30
0.0
 10
8.3876280682
 20
15.2936119791
 30
0.0
 10
8.3989112274
 20
15.285548007
 30
0.0
 10
8.4130471539
 20
15.2749060014
 30
0.0
 10
8.4273607358
 20
15.2636196205
 30
0.0
 10
8.4408752973
 20
15.2524553373
 30
0.0
 10
8.4511493224
 20
15.2435098333
 30
0.0
 10
8.4582469628
 20
15.2369683262
 30
0.0
 10
8.4613533714
 20
15.2339664012
 30
0.0
 10
8.4627756491
 20
15.2325435934
 30
0.0
  0
SPLINE
  5
54C
100
AcDbEntity
  8
0
100
AcDbSpline
 62
7
  6
CONTINUOUS
 70
0
 71
3
 72
15
 73
11
 74
0
 42
0.0000001
 43
0.0000001
 44
0.0000000001
 40
0.0
 40
0.0
 40
0.0
 40
0.0
 40
0.0912245149
 40
0.1852731358
 40
0.2852061315
 40
0.394628069
 40
0.5177814434
 40
0.6592110988
 40
0.8215763494
 40
1.0
 40
1.0
 40
1.0
 40
1.0
 10
9.8145338746
 20
18.2270316866
 30
0.0
 10
9.8169327423
 20
18.224632819
 30
0.0
 10
9.8223139758
 20
18.2202424325
 30
0.0
 10
9.8317717553
 20
18.2152927328
 30
0.0
 10
9.8426841654
 20
18.2121392791
 30
0.0
 10
9.8550872335
 20
18.2111143786
 30
0.0
 10
9.8689930481
 20
18.2127015344
 30
0.0
 10
9.884222227
 20
18.2175312562
 30
0.0
 10
9.9000636507
 20
18.2261583517
 30
0.0
 10
9.9099111957
 20
18.2342862241
 30
0.0
 10
9.9146030784
 20
18.2389781067
 30
0.0
  0
SPLINE
  5
54D
100
AcDbEntity
  8
0
100
AcDbSpline
 62
7
  6
CONTINUOUS
 70
0
 71
3
 72
19
 73
15
 74
0
 42
0.0000001
 43
0.0000001
 44
0.0000000001
 40
0.0
 40
0.0
 40
0.0
 40
0.0
 40
0.1930653311
 40
0.3757724618
 40
0.5414007444
 40
0.6852528231
 40
0.7478005423
 40
0.8036450899
 40
0.8525414774
 40
0.8943323699
 40
0.9291212655
 40
0.9574152431
 40
0.9803098515
 40
1.0
 40
1.0
 40
1.0
 40
1.0
 10
7.8717820609
 20
16.0229531722
 30
0.0
 10
7.8688312546
 20
16.0259039785
 30
0.0
 10
7.8629827076
 20
16.0315431646
 30
0.0
 10
7.8542496837
 20
16.0393379493
 30
0.0
 10
7.8459944413
 20
16.0460543129
 30
0.0
 10
7.8394801324
 20
16.0507806362
 30
0.0
 10
7.8346962319
 20
16.0538243402
 30
0.0
 10
7.8315540586
 20
16.0556170796
 30
0.0
 10
7.8287109946
 20
16.0570186492
 30
0.0
 10
7.8261861481
 20
16.0580195722
 30
0.0
 10
7.8239920563
 20
16.0586156295
 30
0.0
 10
7.822132046
 20
16.0588059469
 30
0.0
 10
7.8205918108
 20
16.0585793331
 30
0.0
 10
7.8197748179
 20
16.0580843617
 30
0.0
 10
7.8194744567
 20
16.0577828364
 30
0.0
  0
SPLINE
  5
54E
100
AcDbEntity
  8
0
100
AcDbSpline
 62
7
  6
CONTINUOUS
 70
0
 71
3
 72
16
 73
12
 74
0
 42
0.0000001
 43
0.0000001
 44
0.0000000001
 40
0.0
 40
0.0
 40
0.0
 40
0.0
 40
0.0372347978
 40
0.0623706128
 40
0.0933070947
 40
0.1744633853
 40
0.2829161228
 40
0.4194373811
 40
0.5843677005
 40
0.777865477
 40
1.0
 40
1.0
 40
1.0
 40
1.0
 10
10.6599534388
 20
17.965162972
 30
0.0
 10
10.6598808726
 20
17.9650904058
 30
0.0
 10
10.6596983651
 20
17.9650364623
 30
0.0
 10
10.6594435296
 20
17.9650538203
 30
0.0
 10
10.6590716455
 20
17.9651333827
 30
0.0
 10
10.6585044092
 20
17.9653579725
 30
0.0
 10
10.657704102
 20
17.9657683129
 30
0.0
 10
10.6567333939
 20
17.9663475185
 30
0.0
 10
10.6555918699
 20
17.9670947798
 30
0.0
 10
10.6542799727
 20
17.9680112336
 30
0.0
 10
10.6533557569
 20
17.9686881843
 30
0.0
 10
10.65286481
 20
17.9690539704
 30
0.0
  0
SPLINE
  5
54F
100
AcDbEntity
  8
0
100
AcDbSpline
 62
7
  6
CONTINUOUS
 70
0
 71
3
 72
15
 73
11
 74
0
 42
0.0000001
 43
0.0000001
 44
0.0000000001
 40
0.0
 40
0.0
 40
0.0
 40
0.0
 40
0.0254636538
 40
0.0563724729
 40
0.1342487436
 40
0.2329734489
 40
0.3515744534
 40
0.4889566593
 40
0.6438560891
 40
1.0
 40
1.0
 40
1.0
 40
1.0
 10
10.65286481
 20
17.9690539704
 30
0.0
 10
10.6516942234
 20
17.9699261305
 30
0.0
 10
10.6491388304
 20
17.9719053338
 30
0.0
 10
10.6431573218
 20
17.9767485882
 30
0.0
 10
10.634089782
 20
17.9844510242
 30
0.0
 10
10.6213676844
 20
17.9956112904
 30
0.0
 10
10.6062252003
 20
18.0091838613
 30
0.0
 10
10.5888006431
 20
18.0250339801
 30
0.0
 10
10.5614336829
 20
18.0501909139
 30
0.0
 10
10.5399806574
 20
18.0701431816
 30
0.0
 10
10.5250595862
 20
18.0840791737
 30
0.0
  0
SPLINE
  5
550
100
AcDbEntity
  8
0
100
AcDbSpline
 62
9
  6
CONTINUOUS
 70
0
 71
3
 72
12
 73
8
 74
0
 42
0.0000001
 43
0.0000001
 44
0.0000000001
 40
0.0
 40
0.0
 40
0.0
 40
0.0
 40
0.1626031607
 40
0.2598710118
 40
0.3721039582
 40
0.6484244781
 40
1.0
 40
1.0
 40
1.0
 40
1.0
 10
7.9547161819
 20
15.7233120996
 30
0.0
 10
7.9549416549
 20
15.723529982
 30
0.0
 10
7.9554206272
 20
15.7237574294
 30
0.0
 10
7.9561322567
 20
15.7238507573
 30
0.0
 10
7.9570727829
 20
15.7238284983
 30
0.0
 10
7.958477505
 20
15.7235301373
 30
0.0
 10
7.9596204192
 20
15.7231256014
 30
0.0
 10
7.9602499935
 20
15.7228741322
 30
0.0
  0
SPLINE
  5
551
100
AcDbEntity
  8
0
100
AcDbSpline
 62
9
  6
CONTINUOUS
 70
0
 71
3
 72
15
 73
11
 74
0
 42
0.0000001
 43
0.0000001
 44
0.0000000001
 40
0.0
 40
0.0
 40
0.0
 40
0.0
 40
0.0315157578
 40
0.0687059505
 40
0.1594212141
 40
0.2700934715
 40
0.3977803249
 40
0.5388888906
 40
0.6893168984
 40
1.0
 40
1.0
 40
1.0
 40
1.0
 10
7.9602499935
 20
15.7228741322
 30
0.0
 10
7.961021836
 20
15.7225658371
 30
0.0
 10
7.9626716744
 20
15.7218115698
 30
0.0
 10
7.9663806375
 20
15.7198285039
 30
0.0
 10
7.971707981
 20
15.7164679246
 30
0.0
 10
7.9787815864
 20
15.7114363884
 30
0.0
 10
7.9866904195
 20
15.7053005825
 30
0.0
 10
7.9951993188
 20
15.6982389643
 30
0.0
 10
8.0071280239
 20
15.6877518492
 30
0.0
 10
8.0159492757
 20
15.6793712393
 30
0.0
 10
8.0217428546
 20
15.6735776627
 30
0.0
  0
SPLINE
  5
552
100
AcDbEntity
  8
0
100
AcDbSpline
 62
7
  6
CONTINUOUS
 70
0
 71
3
 72
9
 73
5
 74
0
 42
0.0000001
 43
0.0000001
 44
0.0000000001
 40
0.0
 40
0.0
 40
0.0
 40
0.0
 40
0.5456118731
 40
1.0
 40
1.0
 40
1.0
 40
1.0
 10
7.3745221316
 20
16.5202131015
 30
0.0
 10
7.3723938268
 20
16.5223414064
 30
0.0
 10
7.3684135489
 20
16.5261634164
 30
0.0
 10
7.3642233835
 20
16.5297607734
 30
0.0
 10
7.3622433017
 20
16.5312978228
 30
0.0
  0
SPLINE
  5
553
100
AcDbEntity
  8
0
100
AcDbSpline
 62
7
  6
CONTINUOUS
 70
0
 71
3
 72
15
 73
11
 74
0
 42
0.0000001
 43
0.0000001
 44
0.0000000001
 40
0.0
 40
0.0
 40
0.0
 40
0.0
 40
0.2039200511
 40
0.3837807599
 40
0.5394879023
 40
0.6712347316
 40
0.7797676118
 40
0.8670868318
 40
0.9377256437
 40
1.0
 40
1.0
 40
1.0
 40
1.0
 10
7.3622433017
 20
16.5312978228
 30
0.0
 10
7.3615555208
 20
16.5318317164
 30
0.0
 10
7.3602426346
 20
16.5328132179
 30
0.0
 10
7.3583331408
 20
16.5341034287
 30
0.0
 10
7.3566129842
 20
16.5351177729
 30
0.0
 10
7.3550883695
 20
16.5358545255
 30
0.0
 10
7.3537619617
 20
16.5363131582
 30
0.0
 10
7.3526295644
 20
16.5364909855
 30
0.0
 10
7.3516773498
 20
16.5363761212
 30
0.0
 10
7.3511735314
 20
16.5360687902
 30
0.0
 10
7.3509851589
 20
16.5358811326
 30
0.0
  0
SPLINE
  5
554
100
AcDbEntity
  8
0
100
AcDbSpline
 62
9
  6
CONTINUOUS
 70
0
 71
3
 72
15
 73
11
 74
0
 42
0.0000001
 43
0.0000001
 44
0.0000000001
 40
0.0
 40
0.0
 40
0.0
 40
0.0
 40
0.0875430535
 40
0.1244348429
 40
0.1681959119
 40
0.276939395
 40
0.4144880967
 40
0.5809952669
 40
0.7763824317
 40
1.0
 40
1.0
 40
1.0
 40
1.0
 10
7.2888976653
 20
16.4047460317
 30
0.0
 10
7.2890695282
 20
16.4049160068
 30
0.0
 10
7.2895151236
 20
16.4048060724
 30
0.0
 10
7.2899162108
 20
16.4046144217
 30
0.0
 10
7.2903766052
 20
16.404353116
 30
0.0
 10
7.2910304595
 20
16.4038948842
 30
0.0
 10
7.2919221277
 20
16.4031818609
 30
0.0
 10
7.2929583692
 20
16.402272171
 30
0.0
 10
7.2941387695
 20
16.4011669566
 30
0.0
 10
7.2949638534
 20
16.4003558627
 30
0.0
 10
7.2954003467
 20
16.3999191611
 30
0.0
  0
LINE
  5
555
100
AcDbEntity
  8
0
100
AcDbLine
 62
7
  6
CONTINUOUS
 10
7.7899088419
 20
16.1435477797
 11
7.7906765035
 21
16.1445889047
  0
SPLINE
  5
556
100
AcDbEntity
  8
0
100
AcDbSpline
 62
9
  6
CONTINUOUS
 70
0
 71
3
 72
13
 73
9
 74
0
 42
0.0000001
 43
0.0000001
 44
0.0000000001
 40
0.0
 40
0.0
 40
0.0
 40
0.0
 40
0.3045151932
 40
0.5948584951
 40
0.7237837703
 40
0.8364556864
 40
0.9294980961
 40
1.0
 40
1.0
 40
1.0
 40
1.0
 10
8.482763643
 20
15.2003693915
 30
0.0
 10
8.489355766
 20
15.1954890597
 30
0.0
 10
8.5021389678
 20
15.185827838
 30
0.0
 10
8.5174731557
 20
15.1737870666
 30
0.0
 10
8.5285776556
 20
15.1647326525
 30
0.0
 10
8.5354770571
 20
15.1589315922
 30
0.0
 10
8.5410718023
 20
15.1540272664
 30
0.0
 10
8.5442965484
 20
15.1510233349
 30
0.0
 10
8.5456389688
 20
15.1496802278
 30
0.0
  0
SPLINE
  5
557
100
AcDbEntity
  8
0
100
AcDbSpline
 62
9
  6
CONTINUOUS
 70
0
 71
3
 72
14
 73
10
 74
0
 42
0.0000001
 43
0.0000001
 44
0.0000000001
 40
0.0
 40
0.0
 40
0.0
 40
0.0
 40
0.2243976353
 40
0.4199386149
 40
0.5863646196
 40
0.7236932513
 40
0.8321494248
 40
0.912462051
 40
1.0
 40
1.0
 40
1.0
 40
1.0
 10
8.5456422705
 20
15.149677816
 30
0.0
 10
8.545937473
 20
15.1493826997
 30
0.0
 10
8.5464851516
 20
15.148825415
 30
0.0
 10
8.547230731
 20
15.1480298
 30
0.0
 10
8.5478439786
 20
15.1473299909
 30
0.0
 10
8.5483228039
 20
15.1467361223
 30
0.0
 10
8.5486725787
 20
15.146225516
 30
0.0
 10
8.5489125549
 20
15.1458067218
 30
0.0
 10
8.5490068829
 20
15.1454128127
 30
0.0
 10
8.5488921785
 20
15.1452972342
 30
0.0
  0
SPLINE
  5
558
100
AcDbEntity
  8
0
100
AcDbSpline
 62
7
  6
CONTINUOUS
 70
0
 71
3
 72
33
 73
29
 74
0
 42
0.0000001
 43
0.0000001
 44
0.0000000001
 40
0.0
 40
0.0
 40
0.0
 40
0.0
 40
0.1942020804
 40
0.2888451369
 40
0.3806274662
 40
0.4687521698
 40
0.5524295298
 40
0.6308771974
 40
0.7033466127
 40
0.7691693049
 40
0.8277065282
 40
0.8540706867
 40
0.8784126633
 40
0.9006681669
 40
0.9207799648
 40
0.9387044344
 40
0.9543996458
 40
0.9678239261
 40
0.9789368252
 40
0.9836176135
 40
0.9877122639
 40
0.9912193701
 40
0.9941379315
 40
0.9964677665
 40
0.9982106274
 40
0.9993741137
 40
0.9997479888
 40
1.0
 40
1.0
 40
1.0
 40
1.0
 10
10.5419947864
 20
18.4223489245
 30
0.0
 10
10.5598375705
 20
18.4049984981
 30
0.0
 10
10.5863791974
 20
18.3791958351
 30
0.0
 10
10.6213704966
 20
18.3452105871
 30
0.0
 10
10.6466212838
 20
18.3207082937
 30
0.0
 10
10.6708788856
 20
18.2972004599
 30
0.0
 10
10.6939287269
 20
18.2749019396
 30
0.0
 10
10.7155602027
 20
18.2540228051
 30
0.0
 10
10.7355738581
 20
18.2347623377
 30
0.0
 10
10.7537830122
 20
18.2173066135
 30
0.0
 10
10.7677618274
 20
18.2039762547
 30
0.0
 10
10.7779209435
 20
18.194343385
 30
0.0
 10
10.7847203533
 20
18.1879249013
 30
0.0
 10
10.7909529613
 20
18.1820732887
 30
0.0
 10
10.7966037371
 20
18.1768035687
 30
0.0
 10
10.8016595343
 20
18.1721286355
 30
0.0
 10
10.8061085238
 20
18.1680599282
 30
0.0
 10
10.8099391455
 20
18.1646087484
 30
0.0
 10
10.8127470576
 20
18.1621314268
 30
0.0
 10
10.814679899
 20
18.1604699194
 30
0.0
 10
10.8158845051
 20
18.159456696
 30
0.0
 10
10.8169284966
 20
18.1586033741
 30
0.0
 10
10.8178110827
 20
18.1579107158
 30
0.0
 10
10.8185318641
 20
18.1573772593
 30
0.0
 10
10.8190893166
 20
18.1570054243
 30
0.0
 10
10.819458833
 20
18.156798256
 30
0.0
 10
10.8196758533
 20
18.1567254216
 30
0.0
 10
10.8197588397
 20
18.1567187562
 30
0.0
 10
10.8197900474
 20
18.1567270707
 30
0.0
  0
SPLINE
  5
559
100
AcDbEntity
  8
0
100
AcDbSpline
 62
7
  6
CONTINUOUS
 70
0
 71
3
 72
45
 73
41
 74
0
 42
0.0000001
 43
0.0000001
 44
0.0000000001
 40
0.0
 40
0.0
 40
0.0
 40
0.0
 40
0.0029273714
 40
0.0069768494
 40
0.0121251886
 40
0.0183437193
 40
0.0256027657
 40
0.0338855855
 40
0.0534921925
 40
0.0770987819
 40
0.1045768936
 40
0.1356508247
 40
0.1700208546
 40
0.2073670279
 40
0.2473540816
 40
0.3338161057
 40
0.4262730751
 40
0.5213723494
 40
0.615670942
 40
0.6614459582
 40
0.7057505026
 40
0.7481764152
 40
0.7883435376
 40
0.8258860516
 40
0.860457243
 40
0.8917536954
 40
0.9194819667
 40
0.9433965151
 40
0.9632860806
 40
0.9716594621
 40
0.9789629783
 40
0.98518388
 40
0.9903104903
 40
0.9924604676
 40
0.9943337217
 40
0.9959302912
 40
0.9972522943
 40
0.9983041447
 40
0.9990949369
 40
1.0
 40
1.0
 40
1.0
 40
1.0
 10
10.8182587672
 20
18.1572590999
 30
0.0
 10
10.8175881988
 20
18.1575899815
 30
0.0
 10
10.8160528613
 20
18.1585021261
 30
0.0
 10
10.8134880568
 20
18.1602383098
 30
0.0
 10
10.8103157259
 20
18.1625733244
 30
0.0
 10
10.8065615787
 20
18.1654965391
 30
0.0
 10
10.8022494341
 20
18.1690044733
 30
0.0
 10
10.7953755786
 20
18.174780543
 30
0.0
 10
10.7854540793
 20
18.1834183709
 30
0.0
 10
10.7719730423
 20
18.1954319861
 30
0.0
 10
10.7563982062
 20
18.2094982119
 30
0.0
 10
10.7388681911
 20
18.2255009876
 30
0.0
 10
10.7195549643
 20
18.2432887104
 30
0.0
 10
10.6986334933
 20
18.2626906765
 30
0.0
 10
10.668026389
 20
18.2912168733
 30
0.0
 10
10.6272266299
 20
18.3294539435
 30
0.0
 10
10.5762517058
 20
18.3774204451
 30
0.0
 10
10.523859601
 20
18.4268018573
 30
0.0
 10
10.480134579
 20
18.467993586
 30
0.0
 10
10.4458202419
 20
18.5002528314
 30
0.0
 10
10.4211363154
 20
18.5234112536
 30
0.0
 10
10.3974659963
 20
18.5455564167
 30
0.0
 10
10.3750182293
 20
18.5664800148
 30
0.0
 10
10.3539908351
 20
18.5859847237
 30
0.0
 10
10.3345675198
 20
18.6038866796
 30
0.0
 10
10.316920032
 20
18.6200160637
 30
0.0
 10
10.3012013804
 20
18.6342205982
 30
0.0
 10
10.2875485353
 20
18.6463644769
 30
0.0
 10
10.2774913202
 20
18.6551112116
 30
0.0
 10
10.2705512514
 20
18.6609742804
 30
0.0
 10
10.2662348404
 20
18.6645321009
 30
0.0
 10
10.262509226
 20
18.667501883
 30
0.0
 10
10.2597644178
 20
18.6695890661
 30
0.0
 10
10.2578637713
 20
18.6709499103
 30
0.0
 10
10.256677213
 20
18.6717572432
 30
0.0
 10
10.255641538
 20
18.6724130611
 30
0.0
 10
10.2547656359
 20
18.6729163583
 30
0.0
 10
10.2540253674
 20
18.673272391
 30
0.0
 10
10.2533980223
 20
18.6735044064
 30
0.0
 10
10.2528661009
 20
18.6735620711
 30
0.0
 10
10.2527035335
 20
18.673397696
 30
0.0
  0
SPLINE
  5
55A
100
AcDbEntity
  8
0
100
AcDbSpline
 62
9
  6
CONTINUOUS
 70
0
 71
3
 72
22
 73
18
 74
0
 42
0.0000001
 43
0.0000001
 44
0.0000000001
 40
0.0
 40
0.0
 40
0.0
 40
0.0
 40
0.2063573848
 40
0.359457291
 40
0.4161820994
 40
0.4601194582
 40
0.4922766853
 40
0.5154569818
 40
0.5258542927
 40
0.5369441671
 40
0.5648445349
 40
0.6040149741
 40
0.6562025693
 40
0.7219411991
 40
0.801255719
 40
0.8940117636
 40
1.0
 40
1.0
 40
1.0
 40
1.0
 10
7.2914127004
 20
16.4159367996
 30
0.0
 10
7.291105126
 20
16.416495647
 30
0.0
 10
7.2905873104
 20
16.4174788718
 30
0.0
 10
7.2900600955
 20
16.4186552609
 30
0.0
 10
7.2898176898
 20
16.4194022711
 30
0.0
 10
7.2897357123
 20
16.4198059939
 30
0.0
 10
7.2897274882
 20
16.4201148388
 30
0.0
 10
7.2898049852
 20
16.4203156296
 30
0.0
 10
7.2899178182
 20
16.4204008623
 30
0.0
 10
7.2900662594
 20
16.4204460088
 30
0.0
 10
7.2903133829
 20
16.4204154126
 30
0.0
 10
7.2906572442
 20
16.420281584
 30
0.0
 10
7.291083444
 20
16.4200459125
 30
0.0
 10
7.2915908441
 20
16.4197074335
 30
0.0
 10
7.2921795483
 20
16.4192666364
 30
0.0
 10
7.2928471218
 20
16.4187249917
 30
0.0
 10
7.2933128388
 20
16.4183241787
 30
0.0
 10
7.2935588858
 20
16.4181078352
 30
0.0
  0
LINE
  5
55B
100
AcDbEntity
  8
0
100
AcDbLine
 62
9
  6
CONTINUOUS
 10
7.2935588858
 20
16.4181078352
 11
7.2972800972
 21
16.4145820875
  0
SPLINE
  5
55C
100
AcDbEntity
  8
0
100
AcDbSpline
 62
9
  6
CONTINUOUS
 70
0
 71
3
 72
17
 73
13
 74
0
 42
0.0000001
 43
0.0000001
 44
0.0000000001
 40
0.0
 40
0.0
 40
0.0
 40
0.0
 40
0.0408536862
 40
0.0894522582
 40
0.2068736713
 40
0.3443123427
 40
0.4924178543
 40
0.6414130943
 40
0.7815531042
 40
0.9037454595
 40
0.9555531813
 40
1.0
 40
1.0
 40
1.0
 40
1.0
 10
7.2980982983
 20
16.4137554078
 30
0.0
 10
7.2994631377
 20
16.4123666024
 30
0.0
 10
7.3024028062
 20
16.4092778146
 30
0.0
 10
7.3090565355
 20
16.4020005856
 30
0.0
 10
7.3185572888
 20
16.3910925047
 30
0.0
 10
7.3308929036
 20
16.3763702709
 30
0.0
 10
7.3439431326
 20
16.3602866044
 30
0.0
 10
7.3568362246
 20
16.343912573
 30
0.0
 10
7.3687279586
 20
16.3283251337
 30
0.0
 10
7.3775959442
 20
16.3162592008
 30
0.0
 10
7.3835862801
 20
16.3077429251
 30
0.0
 10
7.3861603252
 20
16.3039448135
 30
0.0
 10
7.3873247348
 20
16.3021750698
 30
0.0
  0
SPLINE
  5
55D
100
AcDbEntity
  8
0
100
AcDbSpline
 62
9
  6
CONTINUOUS
 70
0
 71
3
 72
23
 73
19
 74
0
 42
0.0000001
 43
0.0000001
 44
0.0000000001
 40
0.0
 40
0.0
 40
0.0
 40
0.0
 40
0.2503046328
 40
0.4517404193
 40
0.6023405229
 40
0.6581170883
 40
0.7008762912
 40
0.7310823683
 40
0.7419496746
 40
0.7505917037
 40
0.7580485859
 40
0.7658699742
 40
0.7754463905
 40
0.7875923169
 40
0.8210217345
 40
0.8676066773
 40
0.927368233
 40
1.0
 40
1.0
 40
1.0
 40
1.0
 10
7.3873247348
 20
16.3021750698
 30
0.0
 10
7.3881394028
 20
16.3009368857
 30
0.0
 10
7.3895887976
 20
16.2986881552
 30
0.0
 10
7.3914284928
 20
16.2956320051
 30
0.0
 10
7.3925798899
 20
16.2935071677
 30
0.0
 10
7.393181395
 20
16.2921582158
 30
0.0
 10
7.3934344754
 20
16.291439444
 30
0.0
 10
7.3935386579
 20
16.2909485728
 30
0.0
 10
7.3935251226
 20
16.2906527183
 30
0.0
 10
7.3934750535
 20
16.2904976122
 30
0.0
 10
7.3933744342
 20
16.2903899092
 30
0.0
 10
7.3932293292
 20
16.2903439773
 30
0.0
 10
7.3930525619
 20
16.2903531559
 30
0.0
 10
7.392736102
 20
16.2904395187
 30
0.0
 10
7.3922480562
 20
16.2906927927
 30
0.0
 10
7.3915609304
 20
16.2911540108
 30
0.0
 10
7.3907231574
 20
16.2918046176
 30
0.0
 10
7.3901254636
 20
16.2923120156
 30
0.0
 10
7.3898015796
 20
16.2925949816
 30
0.0
  0
LINE
  5
55E
100
AcDbEntity
  8
0
100
AcDbLine
 62
9
  6
CONTINUOUS
 10
7.3898015796
 20
16.2925949816
 11
7.3859824628
 21
16.2962013213
  0
SPLINE
  5
55F
100
AcDbEntity
  8
0
100
AcDbSpline
 62
9
  6
CONTINUOUS
 70
0
 71
3
 72
13
 73
9
 74
0
 42
0.0000001
 43
0.0000001
 44
0.0000000001
 40
0.0
 40
0.0
 40
0.0
 40
0.0
 40
0.2857026134
 40
0.5347631529
 40
0.6442144322
 40
0.7565167286
 40
0.8755209162
 40
1.0
 40
1.0
 40
1.0
 40
1.0
 10
7.2953974275
 20
16.399923027
 30
0.0
 10
7.2964766918
 20
16.4010013672
 30
0.0
 10
7.2981641855
 20
16.4033898406
 30
0.0
 10
7.2991199379
 20
16.4067626998
 30
0.0
 10
7.2991851777
 20
16.4092852687
 30
0.0
 10
7.2989314101
 20
16.4110964863
 30
0.0
 10
7.2983291987
 20
16.4129101234
 30
0.0
 10
7.2976729693
 20
16.4140459488
 30
0.0
 10
7.2972812787
 20
16.4145830073
 30
0.0
  0
SPLINE
  5
560
100
AcDbEntity
  8
0
100
AcDbSpline
 62
9
  6
CONTINUOUS
 70
0
 71
3
 72
17
 73
13
 74
0
 42
0.0000001
 43
0.0000001
 44
0.0000000001
 40
0.0
 40
0.0
 40
0.0
 40
0.0
 40
0.0405337319
 40
0.0899395995
 40
0.2114005416
 40
0.3547015998
 40
0.5085559409
 40
0.6610572709
 40
0.8005549196
 40
0.9164687205
 40
0.9627587105
 40
1.0
 40
1.0
 40
1.0
 40
1.0
 10
7.295397554
 20
16.3999231637
 30
0.0
 10
7.2966296058
 20
16.3986912613
 30
0.0
 10
7.2992973657
 20
16.395891957
 30
0.0
 10
7.3053881821
 20
16.3891480876
 30
0.0
 10
7.3141341443
 20
16.3788553842
 30
0.0
 10
7.3254617748
 20
16.3648737495
 30
0.0
 10
7.3373330546
 20
16.3496198213
 30
0.0
 10
7.348827776
 20
16.3342839228
 30
0.0
 10
7.3590613863
 20
16.3200456909
 30
0.0
 10
7.3663713103
 20
16.3093304408
 30
0.0
 10
7.370968021
 20
16.3020935083
 30
0.0
 10
7.3728008961
 20
16.2990046597
 30
0.0
 10
7.3735783466
 20
16.2976053751
 30
0.0
  0
LINE
  5
561
100
AcDbEntity
  8
0
100
AcDbLine
 62
9
  6
CONTINUOUS
 10
7.3735783466
 20
16.2976053751
 11
7.3756800669
 21
16.293323507
  0
SPLINE
  5
562
100
AcDbEntity
  8
0
100
AcDbSpline
 62
9
  6
CONTINUOUS
 70
0
 71
3
 72
11
 73
7
 74
0
 42
0.0000001
 43
0.0000001
 44
0.0000000001
 40
0.0
 40
0.0
 40
0.0
 40
0.0
 40
0.3731784085
 40
0.6579703347
 40
0.8606871852
 40
1.0
 40
1.0
 40
1.0
 40
1.0
 10
7.3756800669
 20
16.293323507
 30
0.0
 10
7.3757710829
 20
16.2930837068
 30
0.0
 10
7.3759202972
 20
16.2926562916
 30
0.0
 10
7.3760539556
 20
16.2920778759
 30
0.0
 10
7.3760822252
 20
16.2916462316
 30
0.0
 10
7.3759969548
 20
16.2914089913
 30
0.0
 10
7.3759294189
 20
16.2913411138
 30
0.0
  0
SPLINE
  5
563
100
AcDbEntity
  8
0
100
AcDbSpline
 62
7
  6
CONTINUOUS
 70
0
 71
3
 72
11
 73
7
 74
0
 42
0.0000001
 43
0.0000001
 44
0.0000000001
 40
0.0
 40
0.0
 40
0.0
 40
0.0
 40
0.1875480452
 40
0.4080415249
 40
0.6763547273
 40
1.0
 40
1.0
 40
1.0
 40
1.0
 10
7.5113504006
 20
16.4155534288
 30
0.0
 10
7.5116888126
 20
16.4158916132
 30
0.0
 10
7.5122608117
 20
16.4167966329
 30
0.0
 10
7.5126634673
 20
16.4184933149
 30
0.0
 10
7.5127055835
 20
16.4205755522
 30
0.0
 10
7.512515578
 20
16.4220778779
 30
0.0
 10
7.5123738946
 20
16.4228912332
 30
0.0
  0
SPLINE
  5
564
100
AcDbEntity
  8
0
100
AcDbSpline
 62
7
  6
CONTINUOUS
 70
0
 71
3
 72
16
 73
12
 74
0
 42
0.0000001
 43
0.0000001
 44
0.0000000001
 40
0.0
 40
0.0
 40
0.0
 40
0.0
 40
0.0353112678
 40
0.059833625
 40
0.0903537523
 40
0.1711285995
 40
0.2796418188
 40
0.4165693615
 40
0.5821999335
 40
0.7766606399
 40
1.0
 40
1.0
 40
1.0
 40
1.0
 10
10.2456045443
 20
18.699862597
 30
0.0
 10
10.2456786397
 20
18.6999366924
 30
0.0
 10
10.245871167
 20
18.6999853052
 30
0.0
 10
10.2461352782
 20
18.699957263
 30
0.0
 10
10.2465288078
 20
18.6998597094
 30
0.0
 10
10.2471305828
 20
18.6996030225
 30
0.0
 10
10.2479834762
 20
18.6991439242
 30
0.0
 10
10.2490211524
 20
18.6985015147
 30
0.0
 10
10.2502441877
 20
18.6976767959
 30
0.0
 10
10.2516518842
 20
18.6966685537
 30
0.0
 10
10.2526445385
 20
18.6959255888
 30
0.0
 10
10.2531720919
 20
18.6955244129
 30
0.0
  0
LINE
  5
565
100
AcDbEntity
  8
0
100
AcDbLine
 62
7
  6
CONTINUOUS
 10
10.2531720919
 20
18.6955244129
 11
10.2627324556
 21
18.6878024186
  0
SPLINE
  5
566
100
AcDbEntity
  8
0
100
AcDbSpline
 62
7
  6
CONTINUOUS
 70
0
 71
3
 72
11
 73
7
 74
0
 42
0.0000001
 43
0.0000001
 44
0.0000000001
 40
0.0
 40
0.0
 40
0.0
 40
0.0
 40
0.1751682993
 40
0.402641524
 40
0.6791541578
 40
1.0
 40
1.0
 40
1.0
 40
1.0
 10
10.2627324556
 20
18.6878024186
 30
0.0
 10
10.2675323831
 20
18.6837749273
 30
0.0
 10
10.2784072939
 20
18.6743296074
 30
0.0
 10
10.2965111873
 20
18.6581301101
 30
0.0
 10
10.3183119263
 20
18.6382491038
 30
0.0
 10
10.3340107529
 20
18.6237535274
 30
0.0
 10
10.3424262751
 20
18.6159501307
 30
0.0
  0
SPLINE
  5
567
100
AcDbEntity
  8
0
100
AcDbSpline
 62
7
  6
CONTINUOUS
 70
0
 71
3
 72
20
 73
16
 74
0
 42
0.0000001
 43
0.0000001
 44
0.0000000001
 40
0.0
 40
0.0
 40
0.0
 40
0.0
 40
0.1763505906
 40
0.3503694604
 40
0.5152341915
 40
0.6644454582
 40
0.7313003231
 40
0.7920972062
 40
0.8461849689
 40
0.8930134245
 40
0.9321318821
 40
0.9631199342
 40
0.9856849155
 40
0.9938381365
 40
1.0
 40
1.0
 40
1.0
 40
1.0
 10
8.9235587016
 20
14.9611837196
 30
0.0
 10
8.9195746583
 20
14.963981656
 30
0.0
 10
8.9116163256
 20
14.9694796507
 30
0.0
 10
8.8997956326
 20
14.9773916011
 30
0.0
 10
8.8884809715
 20
14.9847096923
 30
0.0
 10
8.87954931
 20
14.9902622539
 30
0.0
 10
8.8729856163
 20
14.994178719
 30
0.0
 10
8.8686412845
 20
14.9966887478
 30
0.0
 10
8.8647371173
 20
14.9988545286
 30
0.0
 10
8.8613147759
 20
15.0006527738
 30
0.0
 10
8.8584118039
 20
15.0020677746
 30
0.0
 10
8.8560630984
 20
15.0030811715
 30
0.0
 10
8.8544494351
 20
15.0036444953
 30
0.0
 10
8.8534518303
 20
15.0038516443
 30
0.0
 10
8.8530542521
 20
15.0038788743
 30
0.0
 10
8.8528846754
 20
15.0038654687
 30
0.0
  0
LINE
  5
568
100
AcDbEntity
  8
0
100
AcDbLine
 62
7
  6
CONTINUOUS
 10
8.8528846754
 20
15.0038654687
 11
8.8524110846
 21
15.0036918282
  0
SPLINE
  5
569
100
AcDbEntity
  8
0
100
AcDbSpline
 62
9
  6
CONTINUOUS
 70
0
 71
3
 72
9
 73
5
 74
0
 42
0.0000001
 43
0.0000001
 44
0.0000000001
 40
0.0
 40
0.0
 40
0.0
 40
0.0
 40
0.5509319636
 40
1.0
 40
1.0
 40
1.0
 40
1.0
 10
7.9640993423
 20
15.7215488297
 30
0.0
 10
7.9627076514
 20
15.7233408683
 30
0.0
 10
7.9602397074
 20
15.7266391831
 30
0.0
 10
7.9579487435
 20
15.7300666562
 30
0.0
 10
7.9569962884
 20
15.7316519913
 30
0.0
  0
LINE
  5
56A
100
AcDbEntity
  8
0
100
AcDbLine
 62
9
  6
CONTINUOUS
 10
7.9569962884
 20
15.7316519913
 11
7.9557720358
 21
15.7338219824
  0
SPLINE
  5
56B
100
AcDbEntity
  8
0
100
AcDbSpline
 62
9
  6
CONTINUOUS
 70
0
 71
3
 72
19
 73
15
 74
0
 42
0.0000001
 43
0.0000001
 44
0.0000000001
 40
0.0
 40
0.0
 40
0.0
 40
0.0
 40
0.1780122186
 40
0.2506782856
 40
0.3128824885
 40
0.3652919126
 40
0.4090938317
 40
0.446391454
 40
0.4806043768
 40
0.5560085846
 40
0.6045890021
 40
0.6625228993
 40
0.8093701418
 40
1.0
 40
1.0
 40
1.0
 40
1.0
 10
7.9557720358
 20
15.7338219824
 30
0.0
 10
7.9553884006
 20
15.7345565988
 30
0.0
 10
7.9548829377
 20
15.735612286
 30
0.0
 10
7.9543980996
 20
15.73698735
 30
0.0
 10
7.9541846471
 20
15.7378344221
 30
0.0
 10
7.9540956443
 20
15.7385692527
 30
0.0
 10
7.9541331587
 20
15.7391944453
 30
0.0
 10
7.9543056259
 20
15.7397118
 30
0.0
 10
7.9547479357
 20
15.7402570795
 30
0.0
 10
7.9555062089
 20
15.7404836742
 30
0.0
 10
7.9563499226
 20
15.740471616
 30
0.0
 10
7.9575205921
 20
15.7402883771
 30
0.0
 10
7.959275488
 20
15.7397071059
 30
0.0
 10
7.9607057232
 20
15.7390530706
 30
0.0
 10
7.9615002306
 20
15.7386575798
 30
0.0
  0
SPLINE
  5
56C
100
AcDbEntity
  8
0
100
AcDbSpline
 62
9
  6
CONTINUOUS
 70
0
 71
3
 72
14
 73
10
 74
0
 42
0.0000001
 43
0.0000001
 44
0.0000000001
 40
0.0
 40
0.0
 40
0.0
 40
0.0
 40
0.0747413276
 40
0.1695282952
 40
0.2821804634
 40
0.409811956
 40
0.549234667
 40
0.6968175422
 40
1.0
 40
1.0
 40
1.0
 40
1.0
 10
7.9626675205
 20
15.7380539167
 30
0.0
 10
7.9646354928
 20
15.7370006334
 30
0.0
 10
7.96895423
 20
15.7343441433
 30
0.0
 10
7.9758581119
 20
15.729508509
 30
0.0
 10
7.9838083287
 20
15.7234272412
 30
0.0
 10
7.9925958545
 20
15.7162579819
 30
0.0
 10
8.0019842694
 20
15.7081816052
 30
0.0
 10
8.0150799856
 20
15.6963832383
 30
0.0
 10
8.0247943933
 20
15.687056613
 30
0.0
 10
8.0312023991
 20
15.6806597857
 30
0.0
  0
SPLINE
  5
56D
100
AcDbEntity
  8
0
100
AcDbSpline
 62
9
  6
CONTINUOUS
 70
0
 71
3
 72
28
 73
24
 74
0
 42
0.0000001
 43
0.0000001
 44
0.0000000001
 40
0.0
 40
0.0
 40
0.0
 40
0.0
 40
0.2282828814
 40
0.3356227417
 40
0.4361306571
 40
0.5286174072
 40
0.6120239941
 40
0.6853556758
 40
0.7478419826
 40
0.7988275432
 40
0.8378887382
 40
0.8530402718
 40
0.8654385995
 40
0.8753857378
 40
0.8834992241
 40
0.8909123791
 40
0.8990725677
 40
0.9090862897
 40
0.9215539294
 40
0.9367699885
 40
0.9548801969
 40
0.9759559371
 40
1.0
 40
1.0
 40
1.0
 40
1.0
 10
8.0312023991
 20
15.6806597857
 30
0.0
 10
8.0354832721
 20
15.6763732737
 30
0.0
 10
8.0416923463
 20
15.6699852064
 30
0.0
 10
8.0495507051
 20
15.6614875249
 30
0.0
 10
8.0548488789
 20
15.6555325589
 30
0.0
 10
8.0596048126
 20
15.6499475287
 30
0.0
 10
8.0637628895
 20
15.6448030448
 30
0.0
 10
8.06727304
 20
15.6401623459
 30
0.0
 10
8.0700973815
 20
15.6360851191
 30
0.0
 10
8.0722018021
 20
15.6326254755
 30
0.0
 10
8.0734367625
 20
15.6301108661
 30
0.0
 10
8.0739935486
 20
15.6284299171
 30
0.0
 10
8.0741843699
 20
15.6274492815
 30
0.0
 10
8.0741853
 20
15.6266340633
 30
0.0
 10
8.0739757391
 20
15.625972575
 30
0.0
 10
8.0735193176
 20
15.625505852
 30
0.0
 10
8.0728618768
 20
15.6252766356
 30
0.0
 10
8.0720424766
 20
15.6252489633
 30
0.0
 10
8.0710502132
 20
15.6254036429
 30
0.0
 10
8.0698801927
 20
15.6257396193
 30
0.0
 10
8.0685312021
 20
15.6262575533
 30
0.0
 10
8.0670056204
 20
15.6269582126
 30
0.0
 10
8.0659426145
 20
15.6275102132
 30
0.0
 10
8.065381648
 20
15.6278142677
 30
0.0
  0
SPLINE
  5
56E
100
AcDbEntity
  8
0
100
AcDbSpline
 62
9
  6
CONTINUOUS
 70
0
 71
3
 72
9
 73
5
 74
0
 42
0.0000001
 43
0.0000001
 44
0.0000000001
 40
0.0
 40
0.0
 40
0.0
 40
0.0
 40
0.4492110412
 40
1.0
 40
1.0
 40
1.0
 40
1.0
 10
8.065381648
 20
15.6278142677
 30
0.0
 10
8.0637813784
 20
15.6286816445
 30
0.0
 10
8.0603124915
 20
15.6307839235
 30
0.0
 10
8.0569635473
 20
15.6330668753
 30
0.0
 10
8.0551424656
 20
15.6343570993
 30
0.0
  0
SPLINE
  5
56F
100
AcDbEntity
  8
0
100
AcDbSpline
 62
9
  6
CONTINUOUS
 70
0
 71
3
 72
14
 73
10
 74
0
 42
0.0000001
 43
0.0000001
 44
0.0000000001
 40
0.0
 40
0.0
 40
0.0
 40
0.0
 40
0.3776535439
 40
0.5369748777
 40
0.6702381836
 40
0.7782091468
 40
0.8714661278
 40
0.9475179779
 40
1.0
 40
1.0
 40
1.0
 40
1.0
 10
8.0217428782
 20
15.6735775757
 30
0.0
 10
8.0228058694
 20
15.6746407381
 30
0.0
 10
8.024363716
 20
15.6761079098
 30
0.0
 10
8.0264029004
 20
15.6778291249
 30
0.0
 10
8.0276620561
 20
15.6788089091
 30
0.0
 10
8.0287499283
 20
15.6795761239
 30
0.0
 10
8.0296933996
 20
15.6801565398
 30
0.0
 10
8.0304835816
 20
15.6805386906
 30
0.0
 10
8.0309952682
 20
15.6806788151
 30
0.0
 10
8.0312034233
 20
15.6806608609
 30
0.0
  0
SPLINE
  5
570
100
AcDbEntity
  8
0
100
AcDbSpline
 62
9
  6
CONTINUOUS
 70
0
 71
3
 72
21
 73
17
 74
0
 42
0.0000001
 43
0.0000001
 44
0.0000000001
 40
0.0
 40
0.0
 40
0.0
 40
0.0
 40
0.1975723448
 40
0.3830881131
 40
0.5510204783
 40
0.6965497353
 40
0.7595361656
 40
0.815484501
 40
0.864113297
 40
0.9051943114
 40
0.9386406853
 40
0.9647479117
 40
0.9753119851
 40
0.9844601753
 40
0.9925256119
 40
1.0
 40
1.0
 40
1.0
 40
1.0
 10
8.0217430095
 20
15.673577715
 30
0.0
 10
8.0245877157
 20
15.6707331897
 30
0.0
 10
8.0300320634
 20
15.6651456363
 30
0.0
 10
8.037632296
 20
15.6568898337
 30
0.0
 10
8.0442599489
 20
15.6491867079
 30
0.0
 10
8.0490200962
 20
15.6431740589
 30
0.0
 10
8.0521647979
 20
15.6388016376
 30
0.0
 10
8.0540539779
 20
15.6359592995
 30
0.0
 10
8.0555788141
 20
15.6334140934
 30
0.0
 10
8.0567311267
 20
15.631183622
 30
0.0
 10
8.0575022858
 20
15.6292825164
 30
0.0
 10
8.0578548402
 20
15.6278882873
 30
0.0
 10
8.0579063199
 20
15.6269536194
 30
0.0
 10
8.0578423251
 20
15.6263880967
 30
0.0
 10
8.0576753441
 20
15.625908538
 30
0.0
 10
8.0574884501
 20
15.6256463753
 30
0.0
 10
8.0573819778
 20
15.6255376294
 30
0.0
  0
SPLINE
  5
571
100
AcDbEntity
  8
0
100
AcDbSpline
 62
9
  6
CONTINUOUS
 70
0
 71
3
 72
9
 73
5
 74
0
 42
0.0000001
 43
0.0000001
 44
0.0000000001
 40
0.0
 40
0.0
 40
0.0
 40
0.0
 40
0.5603772334
 40
1.0
 40
1.0
 40
1.0
 40
1.0
 10
8.3681654543
 20
15.3140183298
 30
0.0
 10
8.366745545
 20
15.3154389817
 30
0.0
 10
8.3642442866
 20
15.318006736
 30
0.0
 10
8.361845835
 20
15.3206737148
 30
0.0
 10
8.3608419954
 20
15.3218883389
 30
0.0
  0
SPLINE
  5
572
100
AcDbEntity
  8
0
100
AcDbSpline
 62
9
  6
CONTINUOUS
 70
0
 71
3
 72
21
 73
17
 74
0
 42
0.0000001
 43
0.0000001
 44
0.0000000001
 40
0.0
 40
0.0
 40
0.0
 40
0.0
 40
0.0992447637
 40
0.1850803751
 40
0.2574562672
 40
0.3165924521
 40
0.3629427496
 40
0.3975151331
 40
0.4228332362
 40
0.4449434934
 40
0.4721846343
 40
0.5096038621
 40
0.5590910227
 40
0.621321207
 40
0.7847130155
 40
1.0
 40
1.0
 40
1.0
 40
1.0
 10
8.3608419954
 20
15.3218883389
 30
0.0
 10
8.3605553049
 20
15.3222352281
 30
0.0
 10
8.3600289738
 20
15.3228891382
 30
0.0
 10
8.3593303829
 20
15.323824859
 30
0.0
 10
8.3587804004
 20
15.3246434878
 30
0.0
 10
8.3583780414
 20
15.3253431787
 30
0.0
 10
8.3581215548
 20
15.3259271782
 30
0.0
 10
8.3580063354
 20
15.3263964955
 30
0.0
 10
8.3580426208
 20
15.3267854527
 30
0.0
 10
8.358297853
 20
15.327044582
 30
0.0
 10
8.3586987934
 20
15.327117776
 30
0.0
 10
8.3592151248
 20
15.327071838
 30
0.0
 10
8.359873952
 20
15.3269085749
 30
0.0
 10
8.3610515964
 20
15.3264950501
 30
0.0
 10
8.3628677659
 20
15.3256500235
 30
0.0
 10
8.364377471
 20
15.3248316376
 30
0.0
 10
8.3652268607
 20
15.3243504477
 30
0.0
  0
SPLINE
  5
573
100
AcDbEntity
  8
0
100
AcDbSpline
 62
9
  6
CONTINUOUS
 70
0
 71
3
 72
9
 73
5
 74
0
 42
0.0000001
 43
0.0000001
 44
0.0000000001
 40
0.0
 40
0.0
 40
0.0
 40
0.0
 40
0.4509465685
 40
1.0
 40
1.0
 40
1.0
 40
1.0
 10
8.367084356
 20
15.3232673523
 30
0.0
 10
8.3688535798
 20
15.3222094481
 30
0.0
 10
8.3727152923
 20
15.3197607272
 30
0.0
 10
8.3765026767
 20
15.317200407
 30
0.0
 10
8.3785676945
 20
15.3157738439
 30
0.0
  0
SPLINE
  5
574
100
AcDbEntity
  8
0
100
AcDbSpline
 62
9
  6
CONTINUOUS
 70
0
 71
3
 72
15
 73
11
 74
0
 42
0.0000001
 43
0.0000001
 44
0.0000000001
 40
0.0
 40
0.0
 40
0.0
 40
0.0
 40
0.1086594901
 40
0.2344574791
 40
0.3715935975
 40
0.5136856717
 40
0.6540989909
 40
0.7861426988
 40
0.9032884512
 40
1.0
 40
1.0
 40
1.0
 40
1.0
 10
8.3785676945
 20
15.3157738439
 30
0.0
 10
8.3823614687
 20
15.313153015
 30
0.0
 10
8.390445973
 20
15.3073512124
 30
0.0
 10
8.4030492222
 20
15.2978729744
 30
0.0
 10
8.4165951191
 20
15.2872923574
 30
0.0
 10
8.4304466481
 20
15.2760996787
 30
0.0
 10
8.44395119
 20
15.2648250593
 30
0.0
 10
8.4564606013
 20
15.254013484
 30
0.0
 10
8.4673611277
 20
15.2441816364
 30
0.0
 10
8.4739345024
 20
15.2379214457
 30
0.0
 10
8.4768395848
 20
15.2350225999
 30
0.0
  0
SPLINE
  5
575
100
AcDbEntity
  8
0
100
AcDbSpline
 62
9
  6
CONTINUOUS
 70
0
 71
3
 72
26
 73
22
 74
0
 42
0.0000001
 43
0.0000001
 44
0.0000000001
 40
0.0
 40
0.0
 40
0.0
 40
0.0
 40
0.1269372376
 40
0.2426758981
 40
0.346610897
 40
0.4381524514
 40
0.516737899
 40
0.581875174
 40
0.6334932092
 40
0.6720190656
 40
0.6866968019
 40
0.6986539638
 40
0.7084306619
 40
0.7169917629
 40
0.7356418746
 40
0.7481779681
 40
0.7634979651
 40
0.8032787779
 40
0.8558553195
 40
0.9214296847
 40
1.0
 40
1.0
 40
1.0
 40
1.0
 10
8.4768395848
 20
15.2350225999
 30
0.0
 10
8.4775335429
 20
15.2343270963
 30
0.0
 10
8.4788519292
 20
15.2329891082
 30
0.0
 10
8.4807050611
 20
15.2310490286
 30
0.0
 10
8.4823355186
 20
15.2292756688
 30
0.0
 10
8.4837332104
 20
15.2276795874
 30
0.0
 10
8.4848882713
 20
15.2262714822
 30
0.0
 10
8.4857937593
 20
15.2250592782
 30
0.0
 10
8.4864448437
 20
15.224048476
 30
0.0
 10
8.48681108
 20
15.2233196246
 30
0.0
 10
8.4869569053
 20
15.2228352821
 30
0.0
 10
8.4869927235
 20
15.2225538792
 30
0.0
 10
8.4869634002
 20
15.2223176047
 30
0.0
 10
8.4868196389
 20
15.2220585073
 30
0.0
 10
8.4865034027
 20
15.2219389815
 30
0.0
 10
8.4861459378
 20
15.2219298803
 30
0.0
 10
8.4856230766
 20
15.2219896745
 30
0.0
 10
8.4848183309
 20
15.2222175134
 30
0.0
 10
8.4836795231
 20
15.222663976
 30
0.0
 10
8.4823006766
 20
15.2233118977
 30
0.0
 10
8.4813124338
 20
15.2238302259
 30
0.0
 10
8.480778171
 20
15.2241207317
 30
0.0
  0
SPLINE
  5
576
100
AcDbEntity
  8
0
100
AcDbSpline
 62
9
  6
CONTINUOUS
 70
0
 71
3
 72
10
 73
6
 74
0
 42
0.0000001
 43
0.0000001
 44
0.0000000001
 40
0.0
 40
0.0
 40
0.0
 40
0.0
 40
0.1948425675
 40
0.4279364789
 40
1.0
 40
1.0
 40
1.0
 40
1.0
 10
8.480778171
 20
15.2241207317
 30
0.0
 10
8.4798119017
 20
15.2246461411
 30
0.0
 10
8.4777202351
 20
15.2258562555
 30
0.0
 10
8.4729257919
 20
15.2288368401
 30
0.0
 10
8.4691534687
 20
15.2313748744
 30
0.0
 10
8.4664959676
 20
15.2332095129
 30
0.0
  0
SPLINE
  5
577
100
AcDbEntity
  8
0
100
AcDbSpline
 62
9
  6
CONTINUOUS
 70
0
 71
3
 72
12
 73
8
 74
0
 42
0.0000001
 43
0.0000001
 44
0.0000000001
 40
0.0
 40
0.0
 40
0.0
 40
0.0
 40
0.2961886374
 40
0.5494315757
 40
0.7673790871
 40
0.8818904783
 40
1.0
 40
1.0
 40
1.0
 40
1.0
 10
8.4627794027
 20
15.2325410518
 30
0.0
 10
8.4638548928
 20
15.2336173789
 30
0.0
 10
8.4661789275
 20
15.2353182546
 30
0.0
 10
8.469973555
 20
15.2365863115
 30
0.0
 10
8.4730441512
 20
15.23658978
 30
0.0
 10
8.4752829658
 20
15.2359491404
 30
0.0
 10
8.4763447271
 20
15.2353735229
 30
0.0
 10
8.4768405201
 20
15.2350237658
 30
0.0
  0
SPLINE
  5
578
100
AcDbEntity
  8
0
100
AcDbSpline
 62
9
  6
CONTINUOUS
 70
0
 71
3
 72
15
 73
11
 74
0
 42
0.0000001
 43
0.0000001
 44
0.0000000001
 40
0.0
 40
0.0
 40
0.0
 40
0.0
 40
0.2211374617
 40
0.4156584918
 40
0.5826495304
 40
0.7212929603
 40
0.831027611
 40
0.8751563468
 40
0.9123316372
 40
1.0
 40
1.0
 40
1.0
 40
1.0
 10
8.4627795277
 20
15.2325411899
 30
0.0
 10
8.4635283675
 20
15.2317924206
 30
0.0
 10
8.4649228249
 20
15.2303718759
 30
0.0
 10
8.4668279137
 20
15.2283324751
 30
0.0
 10
8.4684061775
 20
15.2265313167
 30
0.0
 10
8.4696500362
 20
15.2249747775
 30
0.0
 10
8.470451046
 20
15.2238311468
 30
0.0
 10
8.4709087323
 20
15.2230257518
 30
0.0
 10
8.471242106
 20
15.2223276613
 30
0.0
 10
8.4714424697
 20
15.2215522397
 30
0.0
 10
8.4711471882
 20
15.2212538131
 30
0.0
  0
SPLINE
  5
579
100
AcDbEntity
  8
0
100
AcDbSpline
 62
7
  6
CONTINUOUS
 70
0
 71
3
 72
13
 73
9
 74
0
 42
0.0000001
 43
0.0000001
 44
0.0000000001
 40
0.0
 40
0.0
 40
0.0
 40
0.0
 40
0.132450019
 40
0.224462728
 40
0.337084152
 40
0.4711030602
 40
0.6265254849
 40
1.0
 40
1.0
 40
1.0
 40
1.0
 10
7.2721460615
 20
16.6491351672
 30
0.0
 10
7.2726977827
 20
16.6496895818
 30
0.0
 10
7.2730977532
 20
16.6510870759
 30
0.0
 10
7.2730920392
 20
16.6530574894
 30
0.0
 10
7.2728304046
 20
16.6550522667
 30
0.0
 10
7.2723015507
 20
16.6573665992
 30
0.0
 10
7.2711788356
 20
16.6611200891
 30
0.0
 10
7.2700481885
 20
16.6640364874
 30
0.0
 10
7.2691946981
 20
16.6660701318
 30
0.0
  0
SPLINE
  5
57A
100
AcDbEntity
  8
0
100
AcDbSpline
 62
7
  6
CONTINUOUS
 70
0
 71
3
 72
21
 73
17
 74
0
 42
0.0000001
 43
0.0000001
 44
0.0000000001
 40
0.0
 40
0.0
 40
0.0
 40
0.0
 40
0.1808611217
 40
0.3589073564
 40
0.5254436402
 40
0.6735699768
 40
0.7389116066
 40
0.7975807331
 40
0.8490750863
 40
0.8931337745
 40
0.929637506
 40
0.9587604551
 40
0.9708277118
 40
0.981485211
 40
0.9910575153
 40
1.0
 40
1.0
 40
1.0
 40
1.0
 10
8.1432193793
 20
15.7515158539
 30
0.0
 10
8.1396399756
 20
15.7550952576
 30
0.0
 10
8.1323805714
 20
15.7620436072
 30
0.0
 10
8.1213384073
 20
15.7717637993
 30
0.0
 10
8.1105788908
 20
15.7803972928
 30
0.0
 10
8.1019368957
 20
15.7866102212
 30
0.0
 10
8.0955174674
 20
15.7907129563
 30
0.0
 10
8.0912667392
 20
15.7931786762
 30
0.0
 10
8.0874187214
 20
15.7951396897
 30
0.0
 10
8.0840110412
 20
15.796583282
 30
0.0
 10
8.0810762861
 20
15.7975006083
 30
0.0
 10
8.0789122764
 20
15.7978427456
 30
0.0
 10
8.0774573727
 20
15.7977925364
 30
0.0
 10
8.0765655776
 20
15.7976170576
 30
0.0
 10
8.0758065661
 20
15.7972987113
 30
0.0
 10
8.0753873135
 20
15.7969824003
 30
0.0
 10
8.0752099512
 20
15.7968058038
 30
0.0
  0
SPLINE
  5
57B
100
AcDbEntity
  8
0
100
AcDbSpline
 62
7
  6
CONTINUOUS
 70
0
 71
3
 72
35
 73
31
 74
0
 42
0.0000001
 43
0.0000001
 44
0.0000000001
 40
0.0
 40
0.0
 40
0.0
 40
0.0
 40
0.0007695506
 40
0.0013769606
 40
0.0021648546
 40
0.0031426511
 40
0.004315136
 40
0.0072535248
 40
0.0109917384
 40
0.0155301625
 40
0.020862402
 40
0.0269806201
 40
0.0415404365
 40
0.0591380306
 40
0.079687295
 40
0.1030585881
 40
0.1291118399
 40
0.1577063158
 40
0.1886825095
 40
0.2218501466
 40
0.2939853403
 40
0.3724620126
 40
0.4554529251
 40
0.5410483537
 40
0.627262085
 40
0.7121090873
 40
0.7936193508
 40
0.8699233098
 40
0.939241398
 40
1.0
 40
1.0
 40
1.0
 40
1.0
 10
10.6514733775
 20
17.9968302175
 30
0.0
 10
10.6513521684
 20
17.9967098895
 30
0.0
 10
10.6509934047
 20
17.9966908914
 30
0.0
 10
10.6505411846
 20
17.9968100884
 30
0.0
 10
10.6500445102
 20
17.9970012252
 30
0.0
 10
10.6494597398
 20
17.9972871678
 30
0.0
 10
10.6484721885
 20
17.9978374037
 30
0.0
 10
10.6470057449
 20
17.9987793113
 30
0.0
 10
10.6449713096
 20
18.0002141845
 30
0.0
 10
10.6425556757
 20
18.0020277646
 30
0.0
 10
10.6397620584
 20
18.0042161985
 30
0.0
 10
10.6352729605
 20
18.0078458149
 30
0.0
 10
10.6287648425
 20
18.0133063362
 30
0.0
 10
10.6199128489
 20
18.0209537571
 30
0.0
 10
10.6096732866
 20
18.0299853356
 30
0.0
 10
10.5981025825
 20
18.0403439617
 30
0.0
 10
10.5852664013
 20
18.0519655591
 30
0.0
 10
10.5712347305
 20
18.0647811929
 30
0.0
 10
10.5560851321
 20
18.0787139509
 30
0.0
 10
10.5338789411
 20
18.0992490183
 30
0.0
 10
10.5040256507
 20
18.1270419041
 30
0.0
 10
10.4661781087
 20
18.1624755255
 30
0.0
 10
10.4262153026
 20
18.2000206725
 30
0.0
 10
10.3850370362
 20
18.238779869
 30
0.0
 10
10.3435669735
 20
18.2778300776
 30
0.0
 10
10.3027389579
 20
18.3162395869
 30
0.0
 10
10.2634676834
 20
18.353094021
 30
0.0
 10
10.2266372752
 20
18.3875128906
 30
0.0
 10
10.1930681873
 20
18.4186758789
 30
0.0
 10
10.1718126833
 20
18.4382116506
 30
0.0
 10
10.1618450367
 20
18.447293723
 30
0.0
  0
SPLINE
  5
57C
100
AcDbEntity
  8
0
100
AcDbSpline
 62
9
  6
CONTINUOUS
 70
0
 71
3
 72
10
 73
6
 74
0
 42
0.0000001
 43
0.0000001
 44
0.0000000001
 40
0.0
 40
0.0
 40
0.0
 40
0.0
 40
0.5696873807
 40
0.8035130496
 40
1.0
 40
1.0
 40
1.0
 40
1.0
 10
7.6634719529
 20
16.0261071684
 30
0.0
 10
7.6610661471
 20
16.0293393508
 30
0.0
 10
7.6577555109
 20
16.0339638777
 30
0.0
 10
7.653949803
 20
16.0399269496
 30
0.0
 10
7.6524329367
 20
16.0425679584
 30
0.0
 10
7.6517865941
 20
16.0437982086
 30
0.0
  0
SPLINE
  5
57D
100
AcDbEntity
  8
0
100
AcDbSpline
 62
9
  6
CONTINUOUS
 70
0
 71
3
 72
20
 73
16
 74
0
 42
0.0000001
 43
0.0000001
 44
0.0000000001
 40
0.0
 40
0.0
 40
0.0
 40
0.0
 40
0.1980352679
 40
0.3507660626
 40
0.4105463017
 40
0.4599169476
 40
0.5001909329
 40
0.5338773199
 40
0.5651373227
 40
0.5990582136
 40
0.6397585447
 40
0.6897217783
 40
0.7503010882
 40
0.8221089277
 40
1.0
 40
1.0
 40
1.0
 40
1.0
 10
7.6517865941
 20
16.0437982086
 30
0.0
 10
7.6512972036
 20
16.0447297157
 30
0.0
 10
7.6504776427
 20
16.0464045989
 30
0.0
 10
7.6497049512
 20
16.0484534318
 30
0.0
 10
7.6494033667
 20
16.0498145987
 30
0.0
 10
7.6493359481
 20
16.050609021
 30
0.0
 10
7.649409594
 20
16.0512662478
 30
0.0
 10
7.6496390869
 20
16.0517899977
 30
0.0
 10
7.6500412023
 20
16.0521532676
 30
0.0
 10
7.6505880156
 20
16.0523313422
 30
0.0
 10
7.6512557476
 20
16.0523436531
 30
0.0
 10
7.6520503066
 20
16.052203248
 30
0.0
 10
7.6529760283
 20
16.051910972
 30
0.0
 10
7.654497646
 20
16.051272585
 30
0.0
 10
7.6556646705
 20
16.0506342081
 30
0.0
 10
7.6564792347
 20
16.0501547304
 30
0.0
  0
SPLINE
  5
57E
100
AcDbEntity
  8
0
100
AcDbSpline
 62
9
  6
CONTINUOUS
 70
0
 71
3
 72
13
 73
9
 74
0
 42
0.0000001
 43
0.0000001
 44
0.0000000001
 40
0.0
 40
0.0
 40
0.0
 40
0.0
 40
0.0761562813
 40
0.1684099427
 40
0.2759861656
 40
0.3978651349
 40
0.6798598903
 40
1.0
 40
1.0
 40
1.0
 40
1.0
 10
7.6564792347
 20
16.0501547304
 30
0.0
 10
7.6575861527
 20
16.0495031642
 30
0.0
 10
7.6599678782
 20
16.0479504537
 30
0.0
 10
7.6637266251
 20
16.0452028769
 30
0.0
 10
7.667979682
 20
16.0418316917
 30
0.0
 10
7.6745763611
 20
16.0362720303
 30
0.0
 10
7.6836095651
 20
16.0280493669
 30
0.0
 10
7.6908900405
 20
16.0209671033
 30
0.0
 10
7.6947105587
 20
16.017151626
 30
0.0
  0
SPLINE
  5
57F
100
AcDbEntity
  8
0
100
AcDbSpline
 62
9
  6
CONTINUOUS
 70
0
 71
3
 72
31
 73
27
 74
0
 42
0.0000001
 43
0.0000001
 44
0.0000000001
 40
0.0
 40
0.0
 40
0.0
 40
0.0
 40
0.196904238
 40
0.2971934786
 40
0.395791395
 40
0.4907112732
 40
0.5800358519
 40
0.6619785301
 40
0.7348347349
 40
0.7972767861
 40
0.8242356705
 40
0.8481775555
 40
0.8690289917
 40
0.8867507629
 40
0.901336702
 40
0.9128517018
 40
0.921542936
 40
0.9281358441
 40
0.9311373702
 40
0.9342590832
 40
0.9377320072
 40
0.9417266222
 40
0.9516781887
 40
0.9646307315
 40
0.980732156
 40
1.0
 40
1.0
 40
1.0
 40
1.0
 10
7.6947105587
 20
16.017151626
 30
0.0
 10
7.7002472453
 20
16.0116073125
 30
0.0
 10
7.7084492291
 20
16.0030828961
 30
0.0
 10
7.7190749183
 20
15.9914567589
 30
0.0
 10
7.7268072453
 20
15.9826864057
 30
0.0
 10
7.7340951686
 20
15.9741084617
 30
0.0
 10
7.740789586
 20
15.9658986499
 30
0.0
 10
7.7467554813
 20
15.9582305132
 30
0.0
 10
7.751868304
 20
15.9512583495
 30
0.0
 10
7.7554982449
 20
15.9459156982
 30
0.0
 10
7.7578807012
 20
15.9420852821
 30
0.0
 10
7.7593083377
 20
15.9396118362
 30
0.0
 10
7.7604612677
 20
15.9374063748
 30
0.0
 10
7.7613356538
 20
15.9354786323
 30
0.0
 10
7.7619313431
 20
15.9338368744
 30
0.0
 10
7.7622444022
 20
15.9324832468
 30
0.0
 10
7.7622841173
 20
15.9314073735
 30
0.0
 10
7.7620274485
 20
15.9306903254
 30
0.0
 10
7.7616525611
 20
15.9303377572
 30
0.0
 10
7.7613047649
 20
15.9301685445
 30
0.0
 10
7.760888248
 20
15.9300846187
 30
0.0
 10
7.7601919478
 20
15.9300816115
 30
0.0
 10
7.7591371082
 20
15.9303163376
 30
0.0
 10
7.757689825
 20
15.9308826691
 30
0.0
 10
7.7559734864
 20
15.9317552134
 30
0.0
 10
7.7547632903
 20
15.9324751206
 30
0.0
 10
7.7541132036
 20
15.932881644
 30
0.0
  0
LINE
  5
580
100
AcDbEntity
  8
0
100
AcDbLine
 62
9
  6
CONTINUOUS
 10
7.7541132036
 20
15.932881644
 11
7.7494358493
 21
15.9360949868
  0
SPLINE
  5
581
100
AcDbEntity
  8
0
100
AcDbSpline
 62
9
  6
CONTINUOUS
 70
0
 71
3
 72
13
 73
9
 74
0
 42
0.0000001
 43
0.0000001
 44
0.0000000001
 40
0.0
 40
0.0
 40
0.0
 40
0.0
 40
0.3611351135
 40
0.6445433207
 40
0.751791918
 40
0.8475202276
 40
0.9312490081
 40
1.0
 40
1.0
 40
1.0
 40
1.0
 10
7.6887249101
 20
16.0065955444
 30
0.0
 10
7.6897896785
 20
16.0076599882
 30
0.0
 10
7.6915792721
 20
16.0096739602
 30
0.0
 10
7.6933578716
 20
16.0122708307
 30
0.0
 10
7.6942671904
 20
16.0140862125
 30
0.0
 10
7.6946807485
 20
16.0152119793
 30
0.0
 10
7.6948793679
 20
16.0162319916
 30
0.0
 10
7.6948160905
 20
16.0168857024
 30
0.0
 10
7.6947116543
 20
16.0171526231
 30
0.0
  0
SPLINE
  5
582
100
AcDbEntity
  8
0
100
AcDbSpline
 62
9
  6
CONTINUOUS
 70
0
 71
3
 72
14
 73
10
 74
0
 42
0.0000001
 43
0.0000001
 44
0.0000000001
 40
0.0
 40
0.0
 40
0.0
 40
0.0
 40
0.2863670664
 40
0.4307461526
 40
0.5701072474
 40
0.7002208342
 40
0.8173731956
 40
0.9181643441
 40
1.0
 40
1.0
 40
1.0
 40
1.0
 10
7.6887250247
 20
16.0065956801
 30
0.0
 10
7.6944981044
 20
16.0008229559
 30
0.0
 10
7.702944721
 20
15.9918992649
 30
0.0
 10
7.7136891511
 20
15.9797026841
 30
0.0
 10
7.7212649069
 20
15.9706554089
 30
0.0
 10
7.7281030372
 20
15.9620086625
 30
0.0
 10
7.7340059923
 20
15.9540293687
 30
0.0
 10
7.7387993113
 20
15.9469511555
 30
0.0
 10
7.7414755838
 20
15.9424778446
 30
0.0
 10
7.7425667441
 20
15.9404156595
 30
0.0
  0
SPLINE
  5
583
100
AcDbEntity
  8
0
100
AcDbSpline
 62
9
  6
CONTINUOUS
 70
0
 71
3
 72
14
 73
10
 74
0
 42
0.0000001
 43
0.0000001
 44
0.0000000001
 40
0.0
 40
0.0
 40
0.0
 40
0.0
 40
0.3766853403
 40
0.5314784465
 40
0.6640047604
 40
0.7748140401
 40
0.8652363837
 40
0.9382402429
 40
1.0
 40
1.0
 40
1.0
 40
1.0
 10
7.7425667441
 20
15.9404156595
 30
0.0
 10
7.7431711864
 20
15.9392733234
 30
0.0
 10
7.7439788256
 20
15.9376346157
 30
0.0
 10
7.7448072717
 20
15.9355109379
 30
0.0
 10
7.7452096183
 20
15.9342038783
 30
0.0
 10
7.7454351655
 20
15.933078416
 30
0.0
 10
7.7454822168
 20
15.9321338002
 30
0.0
 10
7.7453445508
 20
15.9313633434
 30
0.0
 10
7.7450986296
 20
15.9309537511
 30
0.0
 10
7.7449501701
 20
15.9308025576
 30
0.0
  0
LINE
  5
584
100
AcDbEntity
  8
0
100
AcDbLine
 62
7
  6
CONTINUOUS
 10
10.6633259104
 20
18.0093986312
 11
10.6618841309
 21
18.0100317815
  0
SPLINE
  5
585
100
AcDbEntity
  8
0
100
AcDbSpline
 62
7
  6
CONTINUOUS
 70
0
 71
3
 72
45
 73
41
 74
0
 42
0.0000001
 43
0.0000001
 44
0.0000000001
 40
0.0
 40
0.0
 40
0.0
 40
0.0
 40
0.0030783596
 40
0.0072487698
 40
0.0125114917
 40
0.018861825
 40
0.0262907479
 40
0.0347801407
 40
0.0548580335
 40
0.0789268442
 40
0.1067725334
 40
0.1381384025
 40
0.1727531338
 40
0.2102961465
 40
0.2504334012
 40
0.3370238783
 40
0.4294113739
 40
0.5242722963
 40
0.618197815
 40
0.6637519264
 40
0.7078148979
 40
0.7499911406
 40
0.7899047887
 40
0.8271896051
 40
0.8615193349
 40
0.8925807158
 40
0.9200950064
 40
0.9438242909
 40
0.963546273
 40
0.9718534394
 40
0.9791016509
 40
0.985274323
 40
0.9903572098
 40
0.9924885117
 40
0.994346647
 40
0.9959324785
 40
0.9972478683
 40
0.998296703
 40
0.9990875873
 40
1.0
 40
1.0
 40
1.0
 40
1.0
 10
10.6618841309
 20
18.0100317815
 30
0.0
 10
10.6612047296
 20
18.010402349
 30
0.0
 10
10.6596633911
 20
18.0113798008
 30
0.0
 10
10.6570998908
 20
18.01320247
 30
0.0
 10
10.6539450645
 20
18.0156102944
 30
0.0
 10
10.6502047227
 20
18.0185982028
 30
0.0
 10
10.6458866166
 20
18.0221614815
 30
0.0
 10
10.6389750785
 20
18.0280030266
 30
0.0
 10
10.628988196
 20
18.0366850439
 30
0.0
 10
10.6154615286
 20
18.048709926
 30
0.0
 10
10.5999228203
 20
18.0627416771
 30
0.0
 10
10.5825049606
 20
18.0786476265
 30
0.0
 10
10.5633607671
 20
18.0962780271
 30
0.0
 10
10.5426549372
 20
18.1154675794
 30
0.0
 10
10.5124338986
 20
18.1436127049
 30
0.0
 10
10.4722283136
 20
18.1812672975
 30
0.0
 10
10.4220741134
 20
18.228424665
 30
0.0
 10
10.3706141397
 20
18.2768851909
 30
0.0
 10
10.3277139862
 20
18.3172616994
 30
0.0
 10
10.2940792874
 20
18.3488496337
 30
0.0
 10
10.2699039049
 20
18.3715059932
 30
0.0
 10
10.2467320455
 20
18.3931594547
 30
0.0
 10
10.224766466
 20
18.4136079651
 30
0.0
 10
10.2041970926
 20
18.4326611607
 30
0.0
 10
10.1852037017
 20
18.4501407307
 30
0.0
 10
10.1679500572
 20
18.4658831919
 30
0.0
 10
10.152584863
 20
18.4797412132
 30
0.0
 10
10.1392415572
 20
18.4915838246
 30
0.0
 10
10.1294109606
 20
18.5001093443
 30
0.0
 10
10.122627038
 20
18.5058219364
 30
0.0
 10
10.1184056199
 20
18.5092888017
 30
0.0
 10
10.1147618345
 20
18.5121809427
 30
0.0
 10
10.1120771406
 20
18.5142111536
 30
0.0
 10
10.1102180747
 20
18.5155330562
 30
0.0
 10
10.1090566356
 20
18.5163170825
 30
0.0
 10
10.1080417523
 20
18.5169541004
 30
0.0
 10
10.1071818086
 20
18.5174431671
 30
0.0
 10
10.1064541541
 20
18.5177889009
 30
0.0
 10
10.1058333561
 20
18.5180144345
 30
0.0
 10
10.1053096928
 20
18.5180678073
 30
0.0
 10
10.1051472383
 20
18.517905873
 30
0.0
  0
SPLINE
  5
586
100
AcDbEntity
  8
0
100
AcDbSpline
 62
7
  6
CONTINUOUS
 70
0
 71
3
 72
15
 73
11
 74
0
 42
0.0000001
 43
0.0000001
 44
0.0000000001
 40
0.0
 40
0.0
 40
0.0
 40
0.0
 40
0.0194201119
 40
0.044366179
 40
0.1113616655
 40
0.2015309861
 40
0.3149915117
 40
0.451741589
 40
0.6116805658
 40
1.0
 40
1.0
 40
1.0
 40
1.0
 10
10.695049864
 20
18.000917012
 30
0.0
 10
10.694884727
 20
18.0009615114
 30
0.0
 10
10.6945174051
 20
18.0010988519
 30
0.0
 10
10.69363499
 20
18.001527989
 30
0.0
 10
10.6922638909
 20
18.0023654745
 30
0.0
 10
10.6903023176
 20
18.0037192139
 30
0.0
 10
10.6878984359
 20
18.0055112259
 30
0.0
 10
10.685054669
 20
18.0077385669
 30
0.0
 10
10.6803704596
 20
18.0115404595
 30
0.0
 10
10.6766824291
 20
18.014657491
 30
0.0
 10
10.6740847675
 20
18.0168817508
 30
0.0
  0
LINE
  5
587
100
AcDbEntity
  8
0
100
AcDbLine
 62
7
  6
CONTINUOUS
 10
10.6740847675
 20
18.0168817508
 11
10.6730038438
 21
18.0178091068
  0
SPLINE
  5
588
100
AcDbEntity
  8
0
100
AcDbSpline
 62
7
  6
CONTINUOUS
 70
0
 71
3
 72
26
 73
22
 74
0
 42
0.0000001
 43
0.0000001
 44
0.0000000001
 40
0.0
 40
0.0
 40
0.0
 40
0.0
 40
0.0166648006
 40
0.036267874
 40
0.0837762274
 40
0.14135267
 40
0.2075666302
 40
0.28078516
 40
0.359187328
 40
0.4408253519
 40
0.5236756943
 40
0.6056785682
 40
0.6848025829
 40
0.7590803237
 40
0.8266685493
 40
0.8858972131
 40
0.9352909914
 40
0.9559136819
 40
0.9736359866
 40
0.9883606451
 40
1.0
 40
1.0
 40
1.0
 40
1.0
 10
10.6730038438
 20
18.0178091068
 30
0.0
 10
10.6697472006
 20
18.0206083978
 30
0.0
 10
10.6627079781
 20
18.026756683
 30
0.0
 10
10.6465894287
 20
18.0411185241
 30
0.0
 10
10.622833497
 20
18.0627544046
 30
0.0
 10
10.5904252281
 20
18.092725409
 30
0.0
 10
10.5533232539
 20
18.1273781604
 30
0.0
 10
10.5124202851
 20
18.1658230133
 30
0.0
 10
10.4687032989
 20
18.207077224
 30
0.0
 10
10.4232292222
 20
18.2500857879
 30
0.0
 10
10.3770984399
 20
18.2937503339
 30
0.0
 10
10.331426123
 20
18.3369568266
 30
0.0
 10
10.2873176645
 20
18.3786019021
 30
0.0
 10
10.2458388838
 20
18.4176213424
 30
0.0
 10
10.2079910181
 20
18.4530179021
 30
0.0
 10
10.1746856908
 20
18.4838831179
 30
0.0
 10
10.1500983682
 20
18.50634997
 30
0.0
 10
10.1332592178
 20
18.5214378392
 30
0.0
 10
10.1229941761
 20
18.530474448
 30
0.0
 10
10.1143736047
 20
18.5378741626
 30
0.0
 10
10.109136053
 20
18.5422028298
 30
0.0
 10
10.1067881822
 20
18.5440693017
 30
0.0
  0
LINE
  5
589
100
AcDbEntity
  8
0
100
AcDbLine
 62
7
  6
CONTINUOUS
 10
10.1067881822
 20
18.5440693017
 11
10.1013320066
 21
18.5482067834
  0
SPLINE
  5
58A
100
AcDbEntity
  8
0
100
AcDbSpline
 62
7
  6
CONTINUOUS
 70
0
 71
3
 72
13
 73
9
 74
0
 42
0.0000001
 43
0.0000001
 44
0.0000000001
 40
0.0
 40
0.0
 40
0.0
 40
0.0
 40
0.4109424934
 40
0.5745269529
 40
0.71044998
 40
0.8191831015
 40
0.9017385014
 40
1.0
 40
1.0
 40
1.0
 40
1.0
 10
10.1013320066
 20
18.5482067834
 30
0.0
 10
10.1006992484
 20
18.5486532187
 30
0.0
 10
10.0998048276
 20
18.549263666
 30
0.0
 10
10.0986574837
 20
18.549956704
 30
0.0
 10
10.0979831358
 20
18.5503220924
 30
0.0
 10
10.0974119219
 20
18.5505758959
 30
0.0
 10
10.0969137882
 20
18.5507404323
 30
0.0
 10
10.096501776
 20
18.5507598287
 30
0.0
 10
10.0963708428
 20
18.5506288955
 30
0.0
  0
SPLINE
  5
58B
100
AcDbEntity
  8
0
100
AcDbSpline
 62
7
  6
CONTINUOUS
 70
0
 71
3
 72
15
 73
11
 74
0
 42
0.0000001
 43
0.0000001
 44
0.0000000001
 40
0.0
 40
0.0
 40
0.0
 40
0.0
 40
0.0199555716
 40
0.0453620438
 40
0.1130486184
 40
0.2036114761
 40
0.3171785727
 40
0.4537566469
 40
0.6132622347
 40
1.0
 40
1.0
 40
1.0
 40
1.0
 10
10.1117326269
 20
18.5653012819
 30
0.0
 10
10.1118973793
 20
18.5652570993
 30
0.0
 10
10.1122625276
 20
18.5651227654
 30
0.0
 10
10.1131348266
 20
18.5647058242
 30
0.0
 10
10.1144827514
 20
18.5638958042
 30
0.0
 10
10.1164033023
 20
18.5625880969
 30
0.0
 10
10.1187483691
 20
18.5608601185
 30
0.0
 10
10.1215156759
 20
18.5587144197
 30
0.0
 10
10.1260635274
 20
18.5550558455
 30
0.0
 10
10.1296409521
 20
18.5520546638
 30
0.0
 10
10.1321592491
 20
18.5499131909
 30
0.0
  0
SPLINE
  5
58C
100
AcDbEntity
  8
0
100
AcDbSpline
 62
7
  6
CONTINUOUS
 70
0
 71
3
 72
23
 73
19
 74
0
 42
0.0000001
 43
0.0000001
 44
0.0000000001
 40
0.0
 40
0.0
 40
0.0
 40
0.0
 40
0.0160639966
 40
0.0349114399
 40
0.0805036741
 40
0.1357247661
 40
0.1992981256
 40
0.2697650358
 40
0.345487614
 40
0.5056190347
 40
0.6649589731
 40
0.7397085978
 40
0.808847154
 40
0.8707692108
 40
0.9240481451
 40
0.9674613329
 40
0.9851399526
 40
1.0
 40
1.0
 40
1.0
 40
1.0
 10
10.133260128
 20
18.5489750456
 30
0.0
 10
10.136367411
 20
18.5463215949
 30
0.0
 10
10.1430738176
 20
18.5405003949
 30
0.0
 10
10.158400822
 20
18.5269209086
 30
0.0
 10
10.1809540936
 20
18.5064802501
 30
0.0
 10
10.2117115767
 20
18.4781539126
 30
0.0
 10
10.2469528348
 20
18.4453572323
 30
0.0
 10
10.2858887047
 20
18.4088765504
 30
0.0
 10
10.342630739
 20
18.3554787271
 30
0.0
 10
10.415702952
 20
18.2864481887
 30
0.0
 10
10.4886054209
 20
18.2175983232
 30
0.0
 10
10.5447980401
 20
18.1647645829
 30
0.0
 10
10.5830253023
 20
18.1289980796
 30
0.0
 10
10.6173836273
 20
18.0970902846
 30
0.0
 10
10.6471055813
 20
18.0698070595
 30
0.0
 10
10.6687110669
 20
18.0503241881
 30
0.0
 10
10.6832260832
 20
18.0375743519
 30
0.0
 10
10.6895091026
 20
18.0321861893
 30
0.0
 10
10.6924023961
 20
18.0297539044
 30
0.0
  0
LINE
  5
58D
100
AcDbEntity
  8
0
100
AcDbLine
 62
7
  6
CONTINUOUS
 10
10.6924023961
 20
18.0297539044
 11
10.7008697876
 21
18.0228283841
  0
SPLINE
  5
58E
100
AcDbEntity
  8
0
100
AcDbSpline
 62
7
  6
CONTINUOUS
 70
0
 71
3
 72
16
 73
12
 74
0
 42
0.0000001
 43
0.0000001
 44
0.0000000001
 40
0.0
 40
0.0
 40
0.0
 40
0.0
 40
0.2250887642
 40
0.4210286912
 40
0.5878061864
 40
0.7254694716
 40
0.834195104
 40
0.9144728743
 40
0.9443670194
 40
0.9679208626
 40
1.0
 40
1.0
 40
1.0
 40
1.0
 10
10.7008697876
 20
18.0228283841
 30
0.0
 10
10.7015997456
 20
18.0222538034
 30
0.0
 10
10.7029723296
 20
18.0211881213
 30
0.0
 10
10.7049156059
 20
18.0197356138
 30
0.0
 10
10.7066000844
 20
18.0185404717
 30
0.0
 10
10.708024053
 20
18.0176014578
 30
0.0
 10
10.7091886837
 20
18.0169204994
 30
0.0
 10
10.7100036016
 20
18.0165272381
 30
0.0
 10
10.7105344012
 20
18.0163621718
 30
0.0
 10
10.7108764356
 20
18.0163014129
 30
0.0
 10
10.7111350926
 20
18.0163446259
 30
0.0
 10
10.7112287096
 20
18.0164382429
 30
0.0
  0
SPLINE
  5
58F
100
AcDbEntity
  8
0
100
AcDbSpline
 62
7
  6
CONTINUOUS
 70
0
 71
3
 72
14
 73
10
 74
0
 42
0.0000001
 43
0.0000001
 44
0.0000000001
 40
0.0
 40
0.0
 40
0.0
 40
0.0
 40
0.0465328017
 40
0.1150622202
 40
0.2060955102
 40
0.31977627
 40
0.4561243108
 40
0.6150908599
 40
1.0
 40
1.0
 40
1.0
 40
1.0
 10
10.1631080015
 20
18.6166717029
 30
0.0
 10
10.1634598898
 20
18.616577284
 30
0.0
 10
10.1642860305
 20
18.6161988868
 30
0.0
 10
10.1656764673
 20
18.6153829942
 30
0.0
 10
10.1674529726
 20
18.6141872767
 30
0.0
 10
10.1696119373
 20
18.6126158616
 30
0.0
 10
10.1721524621
 20
18.6106657155
 30
0.0
 10
10.1763171279
 20
18.6073457502
 30
0.0
 10
10.1795899898
 20
18.6046206087
 30
0.0
 10
10.1818925096
 20
18.6026761788
 30
0.0
  0
SPLINE
  5
590
100
AcDbEntity
  8
0
100
AcDbSpline
 62
7
  6
CONTINUOUS
 70
0
 71
3
 72
23
 73
19
 74
0
 42
0.0000001
 43
0.0000001
 44
0.0000000001
 40
0.0
 40
0.0
 40
0.0
 40
0.0
 40
0.0156053328
 40
0.0340593828
 40
0.079070833
 40
0.1339697791
 40
0.1974615198
 40
0.2680554307
 40
0.3440736571
 40
0.5051129728
 40
0.665430001
 40
0.740560909
 40
0.8099436598
 40
0.8719319015
 40
0.9250636305
 40
0.9680935578
 40
0.9854868606
 40
1.0
 40
1.0
 40
1.0
 40
1.0
 10
10.1829518214
 20
18.6017795242
 30
0.0
 10
10.185993746
 20
18.5991988486
 30
0.0
 10
10.1925826125
 20
18.5935071476
 30
0.0
 10
10.207732494
 20
18.5801266168
 30
0.0
 10
10.2301671919
 20
18.5598231935
 30
0.0
 10
10.2609023208
 20
18.5315373639
 30
0.0
 10
10.2962709176
 20
18.4986301639
 30
0.0
 10
10.3354637323
 20
18.4619084081
 30
0.0
 10
10.3927309548
 20
18.40800736
 30
0.0
 10
10.466560728
 20
18.3382395625
 30
0.0
 10
10.540233872
 20
18.2686362367
 30
0.0
 10
10.5969952233
 20
18.2152497766
 30
0.0
 10
10.6355367343
 20
18.1791795722
 30
0.0
 10
10.6700941892
 20
18.1470824564
 30
0.0
 10
10.6998786169
 20
18.119746313
 30
0.0
 10
10.7214434259
 20
18.1003137089
 30
0.0
 10
10.7358483877
 20
18.087686434
 30
0.0
 10
10.7420491316
 20
18.082387349
 30
0.0
 10
10.7448949982
 20
18.0800072851
 30
0.0
  0
SPLINE
  5
591
100
AcDbEntity
  8
0
100
AcDbSpline
 62
7
  6
CONTINUOUS
 70
0
 71
3
 72
17
 73
13
 74
0
 42
0.0000001
 43
0.0000001
 44
0.0000000001
 40
0.0
 40
0.0
 40
0.0
 40
0.0
 40
0.4261418006
 40
0.5948661438
 40
0.7337977888
 40
0.7920957021
 40
0.8429640504
 40
0.8864363056
 40
0.9225783041
 40
0.9515207509
 40
0.9735425062
 40
1.0
 40
1.0
 40
1.0
 40
1.0
 10
10.7448949982
 20
18.0800072851
 30
0.0
 10
10.747261223
 20
18.0780283566
 30
0.0
 10
10.7505869088
 20
18.0752917656
 30
0.0
 10
10.7547846897
 20
18.0720366274
 30
0.0
 10
10.7569199352
 20
18.0704679973
 30
0.0
 10
10.7584009174
 20
18.0694516765
 30
0.0
 10
10.7593281654
 20
18.0688510973
 30
0.0
 10
10.760140074
 20
18.0683661675
 30
0.0
 10
10.7608310595
 20
18.0679967049
 30
0.0
 10
10.7614166723
 20
18.0677414251
 30
0.0
 10
10.7619307101
 20
18.0675763755
 30
0.0
 10
10.7623534522
 20
18.0675629854
 30
0.0
 10
10.7624888738
 20
18.0676984071
 30
0.0
  0
SPLINE
  5
592
100
AcDbEntity
  8
0
100
AcDbSpline
 62
7
  6
CONTINUOUS
 70
0
 71
3
 72
14
 73
10
 74
0
 42
0.0000001
 43
0.0000001
 44
0.0000000001
 40
0.0
 40
0.0
 40
0.0
 40
0.0
 40
0.0475695243
 40
0.1168222853
 40
0.2082647327
 40
0.3220489655
 40
0.4582034996
 40
0.6166983884
 40
1.0
 40
1.0
 40
1.0
 40
1.0
 10
10.2143465584
 20
18.6679100749
 30
0.0
 10
10.2146794094
 20
18.6678205742
 30
0.0
 10
10.2154576361
 20
18.667470675
 30
0.0
 10
10.2167633142
 20
18.666716345
 30
0.0
 10
10.2184219573
 20
18.6656157759
 30
0.0
 10
10.2204302872
 20
18.6641718568
 30
0.0
 10
10.2227874086
 20
18.6623818297
 30
0.0
 10
10.2266423982
 20
18.6593371116
 30
0.0
 10
10.2296687219
 20
18.6568358228
 30
0.0
 10
10.2317965934
 20
18.6550510329
 30
0.0
  0
SPLINE
  5
593
100
AcDbEntity
  8
0
100
AcDbSpline
 62
7
  6
CONTINUOUS
 70
0
 71
3
 72
25
 73
21
 74
0
 42
0.0000001
 43
0.0000001
 44
0.0000000001
 40
0.0
 40
0.0
 40
0.0
 40
0.0
 40
0.0152204196
 40
0.0333497246
 40
0.0778996649
 40
0.1325728315
 40
0.1960553825
 40
0.2668247704
 40
0.3431643507
 40
0.4232343857
 40
0.5050999536
 40
0.5867830794
 40
0.6663132851
 40
0.7417660274
 40
0.8113250337
 40
0.8733066575
 40
0.9262169927
 40
0.9687914189
 40
0.985865758
 40
1.0
 40
1.0
 40
1.0
 40
1.0
 10
10.2328223617
 20
18.6541884596
 30
0.0
 10
10.2358103461
 20
18.6516696399
 30
0.0
 10
10.2423032481
 20
18.6460864361
 30
0.0
 10
10.2573149492
 20
18.6328682287
 30
0.0
 10
10.2796732974
 20
18.6126674765
 30
0.0
 10
10.3104268631
 20
18.5843920556
 30
0.0
 10
10.3459502239
 20
18.5513588916
 30
0.0
 10
10.3854145776
 20
18.514395257
 30
0.0
 10
10.4278946528
 20
18.4744213906
 30
0.0
 10
10.4723916378
 20
18.432433606
 30
0.0
 10
10.5178598298
 20
18.3894759593
 30
0.0
 10
10.5632299415
 20
18.3466163277
 30
0.0
 10
10.6074344222
 20
18.3049205598
 30
0.0
 10
10.6494350824
 20
18.2654252379
 30
0.0
 10
10.6882452362
 20
18.2291146086
 30
0.0
 10
10.7229545515
 20
18.1968929643
 30
0.0
 10
10.7527543436
 20
18.1695678229
 30
0.0
 10
10.7742406629
 20
18.1502374985
 30
0.0
 10
10.7885073547
 20
18.1377727941
 30
0.0
 10
10.7946125023
 20
18.13258188
 30
0.0
 10
10.7974045625
 20
18.1302634986
 30
0.0
  0
SPLINE
  5
594
100
AcDbEntity
  8
0
100
AcDbSpline
 62
7
  6
CONTINUOUS
 70
0
 71
3
 72
16
 73
12
 74
0
 42
0.0000001
 43
0.0000001
 44
0.0000000001
 40
0.0
 40
0.0
 40
0.0
 40
0.0
 40
0.4250281814
 40
0.5932531136
 40
0.7318421879
 40
0.8408534985
 40
0.8843492975
 40
0.9205965603
 40
0.9497498517
 40
0.9721287921
 40
1.0
 40
1.0
 40
1.0
 40
1.0
 10
10.7986454102
 20
18.1292371647
 30
0.0
 10
10.800669535
 20
18.1275697561
 30
0.0
 10
10.8035157697
 20
18.125266743
 30
0.0
 10
10.8071133099
 20
18.122537034
 30
0.0
 10
10.8092014551
 20
18.1210454108
 30
0.0
 10
10.8107056441
 20
18.1200625608
 30
0.0
 10
10.8117183201
 20
18.11948491
 30
0.0
 10
10.8123170719
 20
18.1191831635
 30
0.0
 10
10.8128253662
 20
18.1189791277
 30
0.0
 10
10.8132827848
 20
18.1188498592
 30
0.0
 10
10.8136502469
 20
18.1188597801
 30
0.0
 10
10.8137718468
 20
18.11898138
 30
0.0
  0
SPLINE
  5
595
100
AcDbEntity
  8
0
100
AcDbSpline
 62
7
  6
CONTINUOUS
 70
0
 71
3
 72
19
 73
15
 74
0
 42
0.0000001
 43
0.0000001
 44
0.0000000001
 40
0.0
 40
0.0
 40
0.0
 40
0.0
 40
0.20247928
 40
0.3885093832
 40
0.5533208898
 40
0.6937254749
 40
0.7541513866
 40
0.8077808011
 40
0.8545703587
 40
0.8946343007
 40
0.9282555741
 40
0.9560374093
 40
0.9792079174
 40
1.0
 40
1.0
 40
1.0
 40
1.0
 10
7.6095937449
 20
16.2851414883
 30
0.0
 10
7.6073886419
 20
16.2873465912
 30
0.0
 10
7.6030906585
 20
16.2915115174
 30
0.0
 10
7.5967588469
 20
16.2972187199
 30
0.0
 10
7.5909152318
 20
16.3020287459
 30
0.0
 10
7.586363384
 20
16.3053536344
 30
0.0
 10
7.583054249
 20
16.3074559
 30
0.0
 10
7.5808947154
 20
16.3086726119
 30
0.0
 10
7.5789407324
 20
16.3096065721
 30
0.0
 10
7.5771995368
 20
16.3102569903
 30
0.0
 10
7.5756749529
 20
16.3106233807
 30
0.0
 10
7.574365173
 20
16.3107029699
 30
0.0
 10
7.5732649194
 20
16.3104770886
 30
0.0
 10
7.5726810472
 20
16.3100946446
 30
0.0
 10
7.5724547851
 20
16.309868034
 30
0.0
  0
SPLINE
  5
596
100
AcDbEntity
  8
0
100
AcDbSpline
 62
7
  6
CONTINUOUS
 70
0
 71
3
 72
42
 73
38
 74
0
 42
0.0000001
 43
0.0000001
 44
0.0000000001
 40
0.0
 40
0.0
 40
0.0
 40
0.0
 40
0.0008981994
 40
0.0016756131
 40
0.0027064085
 40
0.0039991495
 40
0.005557726
 40
0.007384022
 40
0.0094789305
 40
0.0144755222
 40
0.0205447772
 40
0.027672643
 40
0.0358421044
 40
0.0552348968
 40
0.0785731085
 40
0.1056460674
 40
0.1362095345
 40
0.1700083044
 40
0.2067346229
 40
0.2460635131
 40
0.287657186
 40
0.3311405115
 40
0.3761313455
 40
0.4690471639
 40
0.5631302133
 40
0.6550742061
 40
0.7416494846
 40
0.8198086211
 40
0.8548669531
 40
0.8868158531
 40
0.9153888349
 40
0.9403306795
 40
0.9614170019
 40
0.9784826123
 40
0.9913744102
 40
0.9962220689
 40
1.0
 40
1.0
 40
1.0
 40
1.0
 10
10.7033162473
 20
18.0460096233
 30
0.0
 10
10.7031561415
 20
18.0458495175
 30
0.0
 10
10.7026396452
 20
18.0459001366
 30
0.0
 10
10.702026919
 20
18.0461216337
 30
0.0
 10
10.7013093578
 20
18.0464612706
 30
0.0
 10
10.7004613328
 20
18.0469423409
 30
0.0
 10
10.6994605816
 20
18.0475692175
 30
0.0
 10
10.6983153138
 20
18.0483410638
 30
0.0
 10
10.6964820555
 20
18.0496428214
 30
0.0
 10
10.6938344187
 20
18.0516428363
 30
0.0
 10
10.690240724
 20
18.0544928765
 30
0.0
 10
10.6860770251
 20
18.0579100475
 30
0.0
 10
10.679386132
 20
18.0635410429
 30
0.0
 10
10.6696898444
 20
18.0719457712
 30
0.0
 10
10.6565266846
 20
18.0836239239
 30
0.0
 10
10.6413665484
 20
18.0972932993
 30
0.0
 10
10.6243372511
 20
18.1128267957
 30
0.0
 10
10.60558471
 20
18.1300816812
 30
0.0
 10
10.5852673729
 20
18.1488990392
 30
0.0
 10
10.563558884
 20
18.1691059918
 30
0.0
 10
10.5406449561
 20
18.1905178345
 30
0.0
 10
10.5167207337
 20
18.2129389548
 30
0.0
 10
10.4833902473
 20
18.2442429654
 30
0.0
 10
10.4408071179
 20
18.2843273466
 30
0.0
 10
10.3896226139
 20
18.332542739
 30
0.0
 10
10.3395701079
 20
18.3796287885
 30
0.0
 10
10.2923604511
 20
18.4238781685
 30
0.0
 10
10.2554998502
 20
18.4581994832
 30
0.0
 10
10.2286073618
 20
18.4830179043
 30
0.0
 10
10.2108378127
 20
18.4992902686
 30
0.0
 10
10.1948754826
 20
18.5137597162
 30
0.0
 10
10.1808544294
 20
18.5262927739
 30
0.0
 10
10.1688924444
 20
18.5367762003
 30
0.0
 10
10.1590893977
 20
18.5451111792
 30
0.0
 10
10.1522748316
 20
18.5506418784
 30
0.0
 10
10.1479326694
 20
18.5538934461
 30
0.0
 10
10.1461427546
 20
18.5551303604
 30
0.0
 10
10.1453388795
 20
18.5556410303
 30
0.0
  0
LINE
  5
597
100
AcDbEntity
  8
0
100
AcDbLine
 62
7
  6
CONTINUOUS
 10
10.1453388795
 20
18.5556410303
 11
10.1425897718
 21
18.5570520941
  0
LINE
  5
598
100
AcDbEntity
  8
0
100
AcDbLine
 62
9
  6
CONTINUOUS
 10
7.2174134206
 20
16.47790676
 11
7.2270731975
 21
16.4647808646
  0
LINE
  5
599
100
AcDbEntity
  8
0
100
AcDbLine
 62
9
  6
CONTINUOUS
 10
7.2270731975
 20
16.4647808646
 11
7.2319898223
 21
16.4581317567
  0
SPLINE
  5
59A
100
AcDbEntity
  8
0
100
AcDbSpline
 62
7
  6
CONTINUOUS
 70
0
 71
3
 72
45
 73
41
 74
0
 42
0.0000001
 43
0.0000001
 44
0.0000000001
 40
0.0
 40
0.0
 40
0.0
 40
0.0
 40
0.0009035056
 40
0.0016890842
 40
0.0027323333
 40
0.0040422074
 40
0.0056229915
 40
0.0074769697
 40
0.0096054388
 40
0.0146856131
 40
0.0208534653
 40
0.0280939211
 40
0.0363908066
 40
0.0560863747
 40
0.0797905416
 40
0.1072778766
 40
0.1382952443
 40
0.1725829365
 40
0.2098265198
 40
0.2496821017
 40
0.2918032778
 40
0.3358116666
 40
0.3813039133
 40
0.4751115163
 40
0.5698667403
 40
0.6621741809
 40
0.7487225904
 40
0.7888633505
 40
0.8264242702
 40
0.8610640936
 40
0.8924874986
 40
0.9204044837
 40
0.9445586615
 40
0.964755088
 40
0.9733108782
 40
0.9808080409
 40
0.9872315724
 40
0.9925741458
 40
0.996830551
 40
1.0
 40
1.0
 40
1.0
 40
1.0
 10
10.7551201839
 20
18.0952194122
 30
0.0
 10
10.7549580132
 20
18.0950572414
 30
0.0
 10
10.7544330612
 20
18.0951121461
 30
0.0
 10
10.7538116151
 20
18.095339558
 30
0.0
 10
10.7530813109
 20
18.0956883803
 30
0.0
 10
10.7522175745
 20
18.0961818365
 30
0.0
 10
10.7511971558
 20
18.0968249094
 30
0.0
 10
10.7500283415
 20
18.0976168514
 30
0.0
 10
10.7481554416
 20
18.0989532667
 30
0.0
 10
10.7454498861
 20
18.1010056849
 30
0.0
 10
10.7417771457
 20
18.1039277415
 30
0.0
 10
10.737522639
 20
18.1074287364
 30
0.0
 10
10.7306863012
 20
18.1131952444
 30
0.0
 10
10.7207779692
 20
18.1218000012
 30
0.0
 10
10.7073271628
 20
18.1337524314
 30
0.0
 10
10.6918382245
 20
18.1477367934
 30
0.0
 10
10.6744450628
 20
18.1636202407
 30
0.0
 10
10.6552982462
 20
18.1812554925
 30
0.0
 10
10.6345628586
 20
18.2004772771
 30
0.0
 10
10.612419603
 20
18.2211050677
 30
0.0
 10
10.5890610933
 20
18.2429474487
 30
0.0
 10
10.564690024
 20
18.2658017876
 30
0.0
 10
10.5307817105
 20
18.2976659232
 30
0.0
 10
10.4875298735
 20
18.3383976514
 30
0.0
 10
10.4356408389
 20
18.3872912368
 30
0.0
 10
10.3850566568
 20
18.4348826766
 30
0.0
 10
10.3444956185
 20
18.4728961197
 30
0.0
 10
10.3139961544
 20
18.5013229407
 30
0.0
 10
10.2930891633
 20
18.5207160536
 30
0.0
 10
10.273748677
 20
18.538543999
 30
0.0
 10
10.2561422655
 20
18.5546410409
 30
0.0
 10
10.2404221044
 20
18.5688562863
 30
0.0
 10
10.2267219214
 20
18.5810556022
 30
0.0
 10
10.2165964711
 20
18.5898785837
 30
0.0
 10
10.209578026
 20
18.5958292917
 30
0.0
 10
10.2051841591
 20
18.5994690163
 30
0.0
 10
10.201371062
 20
18.6025303023
 30
0.0
 10
10.1981457036
 20
18.6050090595
 30
0.0
 10
10.1955135947
 20
18.6069005187
 30
0.0
 10
10.193927727
 20
18.6079240055
 30
0.0
 10
10.1932266838
 20
18.6083187224
 30
0.0
  0
LINE
  5
59B
100
AcDbEntity
  8
0
100
AcDbLine
 62
7
  6
CONTINUOUS
 10
10.1932266838
 20
18.6083187224
 11
10.1916035251
 21
18.6090536688
  0
SPLINE
  5
59C
100
AcDbEntity
  8
0
100
AcDbSpline
 62
7
  6
CONTINUOUS
 70
0
 71
3
 72
45
 73
41
 74
0
 42
0.0000001
 43
0.0000001
 44
0.0000000001
 40
0.0
 40
0.0
 40
0.0
 40
0.0
 40
0.0009032321
 40
0.0016908479
 40
0.0027371577
 40
0.0040508334
 40
0.0056359135
 40
0.0074944537
 40
0.0096275325
 40
0.0147188463
 40
0.0209045868
 40
0.028168615
 40
0.0364931573
 40
0.0562498933
 40
0.0800214219
 40
0.1075938369
 40
0.1387039256
 40
0.173085188
 40
0.2104324003
 40
0.2503947639
 40
0.2926184578
 40
0.3367298684
 40
0.3823220761
 40
0.4763028127
 40
0.5711878453
 40
0.6635599276
 40
0.7501006011
 40
0.7902015856
 40
0.8277074012
 40
0.8622658781
 40
0.8935778514
 40
0.9213706478
 40
0.9453769263
 40
0.9653911483
 40
0.9738511119
 40
0.9812535014
 40
0.9875793626
 40
0.9928132443
 40
0.9969519924
 40
1.0
 40
1.0
 40
1.0
 40
1.0
 10
10.8069722816
 20
18.144386358
 30
0.0
 10
10.8068093327
 20
18.1442234092
 30
0.0
 10
10.8062805909
 20
18.1442817325
 30
0.0
 10
10.8056559709
 20
18.1445121727
 30
0.0
 10
10.8049205011
 20
18.1448655136
 30
0.0
 10
10.8040508077
 20
18.1453643279
 30
0.0
 10
10.8030233163
 20
18.1460138264
 30
0.0
 10
10.801846592
 20
18.1468130385
 30
0.0
 10
10.7999611395
 20
18.1481609968
 30
0.0
 10
10.797236482
 20
18.1502310936
 30
0.0
 10
10.793536665
 20
18.1531791373
 30
0.0
 10
10.7892491043
 20
18.1567119539
 30
0.0
 10
10.782359278
 20
18.1625302977
 30
0.0
 10
10.7723742134
 20
18.1712095754
 30
0.0
 10
10.7588183205
 20
18.1832640099
 30
0.0
 10
10.7432086625
 20
18.1973668864
 30
0.0
 10
10.7256802214
 20
18.2133830909
 30
0.0
 10
10.7063856604
 20
18.2311631657
 30
0.0
 10
10.6854921325
 20
18.2505406451
 30
0.0
 10
10.6631819231
 20
18.27133288
 30
0.0
 10
10.6396502472
 20
18.2933456461
 30
0.0
 10
10.6151021883
 20
18.3163744092
 30
0.0
 10
10.5809564711
 20
18.3484727351
 30
0.0
 10
10.5374154613
 20
18.3894895072
 30
0.0
 10
10.4852004067
 20
18.4387043047
 30
0.0
 10
10.4343293286
 20
18.4865774883
 30
0.0
 10
10.3935624397
 20
18.5247924673
 30
0.0
 10
10.362928835
 20
18.5533489815
 30
0.0
 10
10.3419495983
 20
18.572812051
 30
0.0
 10
10.322557784
 20
18.5906890264
 30
0.0
 10
10.3049210345
 20
18.6068134319
 30
0.0
 10
10.2891926092
 20
18.6210348874
 30
0.0
 10
10.2755074995
 20
18.633217598
 30
0.0
 10
10.265409057
 20
18.6420104987
 30
0.0
 10
10.2584235283
 20
18.6479255515
 30
0.0
 10
10.2540607846
 20
18.6515332053
 30
0.0
 10
10.2502844704
 20
18.65455742
 30
0.0
 10
10.247103007
 20
18.6569918195
 30
0.0
 10
10.2445225123
 20
18.658831242
 30
0.0
 10
10.2429727739
 20
18.6598165288
 30
0.0
 10
10.2422904225
 20
18.660189534
 30
0.0
  0
LINE
  5
59D
100
AcDbEntity
  8
0
100
AcDbLine
 62
7
  6
CONTINUOUS
 10
10.2422904225
 20
18.660189534
 11
10.2408462251
 21
18.6608249462
  0
LINE
  5
59E
100
AcDbEntity
  8
0
100
AcDbLine
 62
7
  6
CONTINUOUS
 10
10.7151693695
 20
18.0585818773
 11
10.7134845882
 21
18.0593505111
  0
SPLINE
  5
59F
100
AcDbEntity
  8
0
100
AcDbSpline
 62
7
  6
CONTINUOUS
 70
0
 71
3
 72
44
 73
40
 74
0
 42
0.0000001
 43
0.0000001
 44
0.0000000001
 40
0.0
 40
0.0
 40
0.0
 40
0.0
 40
0.0032091396
 40
0.007504836
 40
0.0128890626
 40
0.0193569023
 40
0.0354791982
 40
0.0557285717
 40
0.0799433806
 40
0.1078993531
 40
0.1393496807
 40
0.1740213876
 40
0.2115927341
 40
0.2517339644
 40
0.3382650586
 40
0.4305324864
 40
0.5252338082
 40
0.6189782737
 40
0.6644391344
 40
0.7084103546
 40
0.7504963705
 40
0.7903252162
 40
0.8275313202
 40
0.8617874825
 40
0.8927870292
 40
0.9202443893
 40
0.9439269608
 40
0.9636143779
 40
0.9719046466
 40
0.9791383049
 40
0.9853006445
 40
0.9903780618
 40
0.9925065806
 40
0.9943614843
 40
0.9959439146
 40
0.9972560058
 40
0.9983019017
 40
0.9990904251
 40
1.0
 40
1.0
 40
1.0
 40
1.0
 10
10.7134845882
 20
18.0593505111
 30
0.0
 10
10.7127798467
 20
18.0597504355
 30
0.0
 10
10.7111873084
 20
18.060781839
 30
0.0
 10
10.7085460287
 20
18.0626835073
 30
0.0
 10
10.7053138815
 20
18.0651701203
 30
0.0
 10
10.699807865
 20
18.069595129
 30
0.0
 10
10.6915357734
 20
18.0765669296
 30
0.0
 10
10.6799990625
 20
18.0866139544
 30
0.0
 10
10.6663422274
 20
18.0987747303
 30
0.0
 10
10.6506791107
 20
18.112934087
 30
0.0
 10
10.6331450725
 20
18.1289605958
 30
0.0
 10
10.6138916249
 20
18.1467042257
 30
0.0
 10
10.5930840629
 20
18.1659994348
 30
0.0
 10
10.5627425928
 20
18.194271135
 30
0.0
 10
10.5224006103
 20
18.2320689114
 30
0.0
 10
10.4720965761
 20
18.279382985
 30
0.0
 10
10.4205024459
 20
18.327983845
 30
0.0
 10
10.3774991234
 20
18.3684681071
 30
0.0
 10
10.3437882204
 20
18.4001356789
 30
0.0
 10
10.3195603538
 20
18.4228470414
 30
0.0
 10
10.2963387775
 20
18.4445524861
 30
0.0
 10
10.2743263878
 20
18.4650499703
 30
0.0
 10
10.2537133107
 20
18.4841489596
 30
0.0
 10
10.2346787951
 20
18.5016712863
 30
0.0
 10
10.2173878971
 20
18.5174529372
 30
0.0
 10
10.2019886624
 20
18.5313464093
 30
0.0
 10
10.1886151691
 20
18.5432203777
 30
0.0
 10
10.1787623984
 20
18.5517696483
 30
0.0
 10
10.1719629535
 20
18.557498351
 30
0.0
 10
10.1677322082
 20
18.5609750063
 30
0.0
 10
10.1640794929
 20
18.5638763975
 30
0.0
 10
10.1613879441
 20
18.5659142419
 30
0.0
 10
10.159523925
 20
18.5672414479
 30
0.0
 10
10.1583598545
 20
18.5680283191
 30
0.0
 10
10.1573430663
 20
18.5686674645
 30
0.0
 10
10.1564817703
 20
18.569158045
 30
0.0
 10
10.1557532306
 20
18.5695049458
 30
0.0
 10
10.1551316076
 20
18.5697312231
 30
0.0
 10
10.15460778
 20
18.5697857402
 30
0.0
 10
10.1544445219
 20
18.5696242033
 30
0.0
  0
SPLINE
  5
5A0
100
AcDbEntity
  8
0
100
AcDbSpline
 62
7
  6
CONTINUOUS
 70
0
 71
3
 72
14
 73
10
 74
0
 42
0.0000001
 43
0.0000001
 44
0.0000000001
 40
0.0
 40
0.0
 40
0.0
 40
0.0
 40
0.0450938756
 40
0.1126268132
 40
0.2030915776
 40
0.3166157341
 40
0.4532067233
 40
0.612797779
 40
1.0
 40
1.0
 40
1.0
 40
1.0
 10
10.744801857
 20
18.0506597001
 30
0.0
 10
10.744446562
 20
18.0507552501
 30
0.0
 10
10.7436071175
 20
18.0511496919
 30
0.0
 10
10.7421865916
 20
18.0519988328
 30
0.0
 10
10.740356385
 20
18.0532510781
 30
0.0
 10
10.7381207227
 20
18.0549010044
 30
0.0
 10
10.7354808746
 20
18.0569524339
 30
0.0
 10
10.7311397174
 20
18.060451563
 30
0.0
 10
10.7277243054
 20
18.0633225226
 30
0.0
 10
10.72531956
 20
18.0653713091
 30
0.0
  0
SPLINE
  5
5A1
100
AcDbEntity
  8
0
100
AcDbSpline
 62
7
  6
CONTINUOUS
 70
0
 71
3
 72
23
 73
19
 74
0
 42
0.0000001
 43
0.0000001
 44
0.0000000001
 40
0.0
 40
0.0
 40
0.0
 40
0.0
 40
0.0157414357
 40
0.0342777154
 40
0.0792951554
 40
0.1340102768
 40
0.1971591969
 40
0.2672914535
 40
0.3427752927
 40
0.5027337687
 40
0.6623064325
 40
0.7373162959
 40
0.8068020716
 40
0.8691481737
 40
0.9229187894
 40
0.9668767462
 40
0.984844245
 40
1.0
 40
1.0
 40
1.0
 40
1.0
 10
10.7242798597
 20
18.0662589704
 30
0.0
 10
10.7212367564
 20
18.0688623801
 30
0.0
 10
10.7146569769
 20
18.0745860321
 30
0.0
 10
10.699572574
 20
18.0879814402
 30
0.0
 10
10.6773013407
 20
18.1082143845
 30
0.0
 10
10.6468517954
 20
18.1363212788
 30
0.0
 10
10.6118757637
 20
18.168943667
 30
0.0
 10
10.5731571495
 20
18.2052994499
 30
0.0
 10
10.5165997083
 20
18.2586375118
 30
0.0
 10
10.4436208941
 20
18.3277278476
 30
0.0
 10
10.3707240441
 20
18.3967293803
 30
0.0
 10
10.3144325405
 20
18.4497909024
 30
0.0
 10
10.2760569595
 20
18.4857971982
 30
0.0
 10
10.2415080898
 20
18.5179847129
 30
0.0
 10
10.2115592623
 20
18.5455812536
 30
0.0
 10
10.1897462521
 20
18.5653452955
 30
0.0
 10
10.1750542077
 20
18.5783342342
 30
0.0
 10
10.1686790047
 20
18.5838455659
 30
0.0
 10
10.1657392562
 20
18.5863405316
 30
0.0
  0
LINE
  5
5A2
100
AcDbEntity
  8
0
100
AcDbLine
 62
7
  6
CONTINUOUS
 10
10.1657392562
 20
18.5863405316
 11
10.1564767533
 21
18.593985741
  0
SPLINE
  5
5A3
100
AcDbEntity
  8
0
100
AcDbSpline
 62
7
  6
CONTINUOUS
 70
0
 71
3
 72
16
 73
12
 74
0
 42
0.0000001
 43
0.0000001
 44
0.0000000001
 40
0.0
 40
0.0
 40
0.0
 40
0.0
 40
0.2255117018
 40
0.4217907402
 40
0.5888175068
 40
0.7266305935
 40
0.8353896453
 40
0.91555085
 40
0.9453073287
 40
0.9686493645
 40
1.0
 40
1.0
 40
1.0
 40
1.0
 10
10.1564767533
 20
18.593985741
 30
0.0
 10
10.1557492827
 20
18.594562741
 30
0.0
 10
10.1543816004
 20
18.5956331367
 30
0.0
 10
10.1524459501
 20
18.5970931719
 30
0.0
 10
10.1507690213
 20
18.598295735
 30
0.0
 10
10.1493526828
 20
18.5992420572
 30
0.0
 10
10.1481956284
 20
18.5999302526
 30
0.0
 10
10.1473876899
 20
18.6003301037
 30
0.0
 10
10.1468619594
 20
18.6005010992
 30
0.0
 10
10.1465266508
 20
18.6005661516
 30
0.0
 10
10.1462707777
 20
18.6005288304
 30
0.0
 10
10.1461795028
 20
18.6004375554
 30
0.0
  0
SPLINE
  5
5A4
100
AcDbEntity
  8
0
100
AcDbSpline
 62
7
  6
CONTINUOUS
 70
0
 71
3
 72
10
 73
6
 74
0
 42
0.0000001
 43
0.0000001
 44
0.0000000001
 40
0.0
 40
0.0
 40
0.0
 40
0.0
 40
0.1677028085
 40
0.3893479833
 40
1.0
 40
1.0
 40
1.0
 40
1.0
 10
10.7669783838
 20
18.1077891494
 30
0.0
 10
10.7667676413
 20
18.107845307
 30
0.0
 10
10.7662932629
 20
18.1080288875
 30
0.0
 10
10.7651326748
 20
18.1086166521
 30
0.0
 10
10.7642179443
 20
18.109200223
 30
0.0
 10
10.7635569726
 20
18.1096404384
 30
0.0
  0
SPLINE
  5
5A5
100
AcDbEntity
  8
0
100
AcDbSpline
 62
7
  6
CONTINUOUS
 70
0
 71
3
 72
42
 73
38
 74
0
 42
0.0000001
 43
0.0000001
 44
0.0000000001
 40
0.0
 40
0.0
 40
0.0
 40
0.0
 40
0.004090144
 40
0.0092431899
 40
0.0226981704
 40
0.0402719574
 40
0.0618237513
 40
0.0871581116
 40
0.1160686012
 40
0.1482986992
 40
0.1835660402
 40
0.2619785652
 40
0.348576678
 40
0.4403462075
 40
0.5340943097
 40
0.6265546463
 40
0.6712887235
 40
0.7145030418
 40
0.7558212366
 40
0.794876156
 40
0.8313352307
 40
0.8648750774
 40
0.8952014295
 40
0.9220590232
 40
0.9452023936
 40
0.9644405644
 40
0.9725444064
 40
0.9796115294
 40
0.9856268508
 40
0.9905834963
 40
0.9926635653
 40
0.9944778669
 40
0.9960268546
 40
0.997311964
 40
0.9983366251
 40
0.9991089283
 40
1.0
 40
1.0
 40
1.0
 40
1.0
 10
10.7635569726
 20
18.1096404384
 30
0.0
 10
10.7626952501
 20
18.1102143563
 30
0.0
 10
10.7607893011
 20
18.1115732093
 30
0.0
 10
10.7562227851
 20
18.1150608913
 30
0.0
 10
10.7491368473
 20
18.1208670835
 30
0.0
 10
10.7390225846
 20
18.1295191147
 30
0.0
 10
10.72677249
 20
18.1402984314
 30
0.0
 10
10.7124849439
 20
18.1531045423
 30
0.0
 10
10.6962818894
 20
18.1678226622
 30
0.0
 10
10.6782972465
 20
18.1843184395
 30
0.0
 10
10.6511699861
 20
18.2093839432
 30
0.0
 10
10.6140817124
 20
18.243947717
 30
0.0
 10
10.5666710672
 20
18.2884130255
 30
0.0
 10
10.5165106226
 20
18.3356208331
 30
0.0
 10
10.4652989602
 20
18.3838768231
 30
0.0
 10
10.4227386241
 20
18.4239528093
 30
0.0
 10
10.3894544418
 20
18.4552205235
 30
0.0
 10
10.3655807774
 20
18.4775980016
 30
0.0
 10
10.3427245008
 20
18.4989587401
 30
0.0
 10
10.3210784316
 20
18.5191099952
 30
0.0
 10
10.3008263603
 20
18.5378689003
 30
0.0
 10
10.2821386339
 20
18.5550650832
 30
0.0
 10
10.2651719472
 20
18.570541961
 30
0.0
 10
10.2500706912
 20
18.5841584651
 30
0.0
 10
10.2369593132
 20
18.595789593
 30
0.0
 10
10.2273021692
 20
18.6041603661
 30
0.0
 10
10.2206378886
 20
18.60976889
 30
0.0
 10
10.2164920136
 20
18.6131710808
 30
0.0
 10
10.2129136412
 20
18.6160080861
 30
0.0
 10
10.210276922
 20
18.6179997256
 30
0.0
 10
10.2084500401
 20
18.6192973747
 30
0.0
 10
10.2073078818
 20
18.6200675975
 30
0.0
 10
10.2063095322
 20
18.6206935759
 30
0.0
 10
10.2054634064
 20
18.6211742774
 30
0.0
 10
10.2047475479
 20
18.6215137826
 30
0.0
 10
10.2041366129
 20
18.6217354033
 30
0.0
 10
10.2036219628
 20
18.6217858027
 30
0.0
 10
10.2034622761
 20
18.6216265006
 30
0.0
  0
SPLINE
  5
5A6
100
AcDbEntity
  8
0
100
AcDbSpline
 62
7
  6
CONTINUOUS
 70
0
 71
3
 72
14
 73
10
 74
0
 42
0.0000001
 43
0.0000001
 44
0.0000000001
 40
0.0
 40
0.0
 40
0.0
 40
0.0
 40
0.0462648315
 40
0.1146068538
 40
0.2055259038
 40
0.3191622019
 40
0.4555342931
 40
0.6145998394
 40
1.0
 40
1.0
 40
1.0
 40
1.0
 10
10.7945501286
 20
18.1004169062
 30
0.0
 10
10.7942129612
 20
18.1005078617
 30
0.0
 10
10.7934204061
 20
18.1008729171
 30
0.0
 10
10.7920848006
 20
18.1016591749
 30
0.0
 10
10.7903756283
 20
18.1028124521
 30
0.0
 10
10.7882965189
 20
18.1043287711
 30
0.0
 10
10.7858484596
 20
18.1062113398
 30
0.0
 10
10.7818326218
 20
18.1094183907
 30
0.0
 10
10.7786762724
 20
18.1120512419
 30
0.0
 10
10.7764552523
 20
18.1139300701
 30
0.0
  0
SPLINE
  5
5A7
100
AcDbEntity
  8
0
100
AcDbSpline
 62
7
  6
CONTINUOUS
 70
0
 71
3
 72
23
 73
19
 74
0
 42
0.0000001
 43
0.0000001
 44
0.0000000001
 40
0.0
 40
0.0
 40
0.0
 40
0.0
 40
0.0153574128
 40
0.0335722098
 40
0.0781413195
 40
0.1326508176
 40
0.1958158892
 40
0.2661520408
 40
0.3419865384
 40
0.5028934211
 40
0.6633910913
 40
0.7387231057
 40
0.8083737757
 40
0.8706885499
 40
0.9241982666
 40
0.9676463998
 40
0.9852607428
 40
1.0
 40
1.0
 40
1.0
 40
1.0
 10
10.7754442898
 20
18.1147872412
 30
0.0
 10
10.7724523511
 20
18.1173297046
 30
0.0
 10
10.7659621335
 20
18.1229468975
 30
0.0
 10
10.7510009629
 20
18.1361862771
 30
0.0
 10
10.7287845485
 20
18.1563289687
 30
0.0
 10
10.6982869315
 20
18.1844439504
 30
0.0
 10
10.6631221892
 20
18.2172144389
 30
0.0
 10
10.6240954104
 20
18.2538369286
 30
0.0
 10
10.5669674793
 20
18.3076875996
 30
0.0
 10
10.4932046846
 20
18.377496093
 30
0.0
 10
10.4195305038
 20
18.4472113393
 30
0.0
 10
10.3626887983
 20
18.5007703547
 30
0.0
 10
10.3240303308
 20
18.5370238062
 30
0.0
 10
10.2893241924
 20
18.5693355926
 30
0.0
 10
10.2593639199
 20
18.5969127803
 30
0.0
 10
10.2376394375
 20
18.6165624045
 30
0.0
 10
10.2230996401
 20
18.6293753416
 30
0.0
 10
10.2168289444
 20
18.6347701283
 30
0.0
 10
10.2139478646
 20
18.637198947
 30
0.0
  0
LINE
  5
5A8
100
AcDbEntity
  8
0
100
AcDbLine
 62
7
  6
CONTINUOUS
 10
10.2139478646
 20
18.637198947
 11
10.206120953
 21
18.6436298366
  0
SPLINE
  5
5A9
100
AcDbEntity
  8
0
100
AcDbSpline
 62
7
  6
CONTINUOUS
 70
0
 71
3
 72
16
 73
12
 74
0
 42
0.0000001
 43
0.0000001
 44
0.0000000001
 40
0.0
 40
0.0
 40
0.0
 40
0.0
 40
0.2255578927
 40
0.4218767037
 40
0.5889357963
 40
0.7267721194
 40
0.8355424159
 40
0.9156969982
 40
0.945439284
 40
0.9687557179
 40
1.0
 40
1.0
 40
1.0
 40
1.0
 10
10.206120953
 20
18.6436298366
 30
0.0
 10
10.2053934823
 20
18.6442068426
 30
0.0
 10
10.2040257977
 20
18.6452772448
 30
0.0
 10
10.2020901751
 20
18.6467373154
 30
0.0
 10
10.200413344
 20
18.6479399805
 30
0.0
 10
10.1989972316
 20
18.6488865014
 30
0.0
 10
10.1978405462
 20
18.6495750403
 30
0.0
 10
10.1970331434
 20
18.6499753474
 30
0.0
 10
10.1965078875
 20
18.6501469358
 30
0.0
 10
10.1961734486
 20
18.6502124316
 30
0.0
 10
10.1959179407
 20
18.6501759934
 30
0.0
 10
10.1958269937
 20
18.6500850463
 30
0.0
  0
SPLINE
  5
5AA
100
AcDbEntity
  8
0
100
AcDbSpline
 62
7
  6
CONTINUOUS
 70
0
 71
3
 72
16
 73
12
 74
0
 42
0.0000001
 43
0.0000001
 44
0.0000000001
 40
0.0
 40
0.0
 40
0.0
 40
0.0
 40
0.0386398348
 40
0.0660231314
 40
0.0997842006
 40
0.1871948655
 40
0.30117464
 40
0.4409699057
 40
0.6052735485
 40
0.7922602806
 40
1.0
 40
1.0
 40
1.0
 40
1.0
 10
7.0886032183
 20
16.8283642754
 30
0.0
 10
7.088891723
 20
16.8286530499
 30
0.0
 10
7.0890952622
 20
16.829390398
 30
0.0
 10
7.0891025501
 20
16.8304324767
 30
0.0
 10
7.0889215841
 20
16.8320003096
 30
0.0
 10
7.0883079531
 20
16.8344116608
 30
0.0
 10
7.0871314987
 20
16.8378215597
 30
0.0
 10
7.0854533973
 20
16.8419087327
 30
0.0
 10
7.0832952244
 20
16.8466274915
 30
0.0
 10
7.0806805804
 20
16.8519235844
 30
0.0
 10
7.0787469413
 20
16.8556185373
 30
0.0
 10
7.0777111673
 20
16.857553334
 30
0.0
  0
SPLINE
  5
5AB
100
AcDbEntity
  8
0
100
AcDbSpline
 62
9
  6
CONTINUOUS
 70
0
 71
3
 72
26
 73
22
 74
0
 42
0.0000001
 43
0.0000001
 44
0.0000000001
 40
0.0
 40
0.0
 40
0.0
 40
0.0
 40
0.2631357673
 40
0.3756916843
 40
0.4752520237
 40
0.5615828919
 40
0.6344602284
 40
0.6936793226
 40
0.7390793264
 40
0.7565885734
 40
0.77070197
 40
0.7815432164
 40
0.7893623957
 40
0.7947977884
 40
0.7995181771
 40
0.8057548357
 40
0.8146390122
 40
0.8416074475
 40
0.881448952
 40
0.9342678174
 40
1.0
 40
1.0
 40
1.0
 40
1.0
 10
7.2405734908
 20
16.4677877269
 30
0.0
 10
7.2400039561
 20
16.4686122552
 30
0.0
 10
7.2391970613
 20
16.469793864
 30
0.0
 10
7.2381972845
 20
16.4713026134
 30
0.0
 10
7.2375801822
 20
16.4722571206
 30
0.0
 10
7.2370573089
 20
16.4730924856
 30
0.0
 10
7.2366299115
 20
16.4738062498
 30
0.0
 10
7.2362995992
 20
16.4743960924
 30
0.0
 10
7.2360898922
 20
16.4748116391
 30
0.0
 10
7.2359758034
 20
16.4750820711
 30
0.0
 10
7.235922445
 20
16.4752347674
 30
0.0
 10
7.235893301
 20
16.4753568058
 30
0.0
 10
7.2358867149
 20
16.4754481653
 30
0.0
 10
7.2359067195
 20
16.4755186306
 30
0.0
 10
7.2359670405
 20
16.4755503982
 30
0.0
 10
7.236044239
 20
16.4755382944
 30
0.0
 10
7.2361927112
 20
16.4754782999
 30
0.0
 10
7.2364331817
 20
16.475314452
 30
0.0
 10
7.2367860139
 20
16.4750274627
 30
0.0
 10
7.2372321424
 20
16.4746205007
 30
0.0
 10
7.2375555873
 20
16.4743056271
 30
0.0
 10
7.2377330814
 20
16.4741291033
 30
0.0
  0
LINE
  5
5AC
100
AcDbEntity
  8
0
100
AcDbLine
 62
9
  6
CONTINUOUS
 10
7.2377330814
 20
16.4741291033
 11
7.245131996
 21
16.4658740053
  0
SPLINE
  5
5AD
100
AcDbEntity
  8
0
100
AcDbSpline
 62
9
  6
CONTINUOUS
 70
0
 71
3
 72
11
 73
7
 74
0
 42
0.0000001
 43
0.0000001
 44
0.0000000001
 40
0.0
 40
0.0
 40
0.0
 40
0.0
 40
0.1906693338
 40
0.4321265586
 40
0.7079215743
 40
1.0
 40
1.0
 40
1.0
 40
1.0
 10
7.245131996
 20
16.4658740053
 30
0.0
 10
7.2481374141
 20
16.462360953
 30
0.0
 10
7.2548391323
 20
16.4543055835
 30
0.0
 10
7.2656560004
 20
16.4409773382
 30
0.0
 10
7.2778816158
 20
16.4256264769
 30
0.0
 10
7.2863774358
 20
16.4147904028
 30
0.0
 10
7.2907266487
 20
16.4092010789
 30
0.0
  0
SPLINE
  5
5AE
100
AcDbEntity
  8
0
100
AcDbSpline
 62
9
  6
CONTINUOUS
 70
0
 71
3
 72
11
 73
7
 74
0
 42
0.0000001
 43
0.0000001
 44
0.0000000001
 40
0.0
 40
0.0
 40
0.0
 40
0.0
 40
0.2795888005
 40
0.5415029618
 40
0.7795197609
 40
1.0
 40
1.0
 40
1.0
 40
1.0
 10
7.2364654398
 20
16.4588550144
 30
0.0
 10
7.2372140201
 20
16.4596029057
 30
0.0
 10
7.2384783654
 20
16.461251472
 30
0.0
 10
7.2396371938
 20
16.4639963059
 30
0.0
 10
7.2400767847
 20
16.4667109223
 30
0.0
 10
7.2399666787
 20
16.468458635
 30
0.0
 10
7.2398235265
 20
16.4692807202
 30
0.0
  0
LINE
  5
5AF
100
AcDbEntity
  8
0
100
AcDbLine
 62
9
  6
CONTINUOUS
 10
7.236465379
 20
16.4588549512
 11
7.2428938284
 21
16.4515414024
  0
SPLINE
  5
5B0
100
AcDbEntity
  8
0
100
AcDbSpline
 62
9
  6
CONTINUOUS
 70
0
 71
3
 72
11
 73
7
 74
0
 42
0.0000001
 43
0.0000001
 44
0.0000000001
 40
0.0
 40
0.0
 40
0.0
 40
0.0
 40
0.1909956165
 40
0.4331373784
 40
0.7092437866
 40
1.0
 40
1.0
 40
1.0
 40
1.0
 10
7.2428938284
 20
16.4515414024
 30
0.0
 10
7.2455399278
 20
16.4483607275
 30
0.0
 10
7.2514265339
 20
16.4410529878
 30
0.0
 10
7.2608926886
 20
16.4289513167
 30
0.0
 10
7.2715406151
 20
16.4150314376
 30
0.0
 10
7.2789137591
 20
16.4052114623
 30
0.0
 10
7.2826732047
 20
16.4001579492
 30
0.0
  0
SPLINE
  5
5B1
100
AcDbEntity
  8
0
100
AcDbSpline
 62
9
  6
CONTINUOUS
 70
0
 71
3
 72
21
 73
17
 74
0
 42
0.0000001
 43
0.0000001
 44
0.0000000001
 40
0.0
 40
0.0
 40
0.0
 40
0.0
 40
0.1847733999
 40
0.259955225
 40
0.3237907154
 40
0.3768188859
 40
0.4200888279
 40
0.4555875628
 40
0.4868918137
 40
0.519080216
 40
0.556932571
 40
0.6034792988
 40
0.6602591621
 40
0.7280293524
 40
0.8071583945
 40
1.0
 40
1.0
 40
1.0
 40
1.0
 10
7.8026995532
 20
15.8893559238
 30
0.0
 10
7.8021653457
 20
15.8903356705
 30
0.0
 10
7.8014537805
 20
15.8917390473
 30
0.0
 10
7.8007378518
 20
15.8935603784
 30
0.0
 10
7.8004039531
 20
15.89467296
 30
0.0
 10
7.800233902
 20
15.8956281287
 30
0.0
 10
7.8002282923
 20
15.8964293128
 30
0.0
 10
7.800396076
 20
15.8970845344
 30
0.0
 10
7.800765166
 20
15.8975785821
 30
0.0
 10
7.8013240177
 20
15.8978682118
 30
0.0
 10
7.8020312481
 20
15.8979598519
 30
0.0
 10
7.8028843591
 20
15.8978791833
 30
0.0
 10
7.8038901234
 20
15.8976315013
 30
0.0
 10
7.8050500476
 20
15.8972175557
 30
0.0
 10
7.8069274899
 20
15.8963866624
 30
0.0
 10
7.8083690746
 20
15.8955928695
 30
0.0
 10
7.809372648
 20
15.895001898
 30
0.0
  0
SPLINE
  5
5B2
100
AcDbEntity
  8
0
100
AcDbSpline
 62
9
  6
CONTINUOUS
 70
0
 71
3
 72
13
 73
9
 74
0
 42
0.0000001
 43
0.0000001
 44
0.0000000001
 40
0.0
 40
0.0
 40
0.0
 40
0.0
 40
0.0801502095
 40
0.1765223394
 40
0.2877108873
 40
0.4120870599
 40
0.6928573391
 40
1.0
 40
1.0
 40
1.0
 40
1.0
 10
7.8099868358
 20
15.8946350125
 30
0.0
 10
7.8115362622
 20
15.8936967239
 30
0.0
 10
7.8148626267
 20
15.8914885953
 30
0.0
 10
7.8201018923
 20
15.8876355956
 30
0.0
 10
7.8259834583
 20
15.8829768246
 30
0.0
 10
7.8349237053
 20
15.8754757307
 30
0.0
 10
7.8468758748
 20
15.8646847291
 30
0.0
 10
7.8564192732
 20
15.8554367261
 30
0.0
 10
7.8613306605
 20
15.8505315242
 30
0.0
  0
SPLINE
  5
5B3
100
AcDbEntity
  8
0
100
AcDbSpline
 62
9
  6
CONTINUOUS
 70
0
 71
3
 72
12
 73
8
 74
0
 42
0.0000001
 43
0.0000001
 44
0.0000000001
 40
0.0
 40
0.0
 40
0.0
 40
0.0
 40
0.2875732312
 40
0.5619835843
 40
0.8044987078
 40
0.9089667266
 40
1.0
 40
1.0
 40
1.0
 40
1.0
 10
7.8613306605
 20
15.8505315242
 30
0.0
 10
7.8663690549
 20
15.8454864831
 30
0.0
 10
7.8760639103
 20
15.8354743801
 30
0.0
 10
7.8894578179
 20
15.8206890254
 30
0.0
 10
7.899359334
 20
15.8088768196
 30
0.0
 10
7.9059845587
 20
15.8002700154
 30
0.0
 10
7.9088094898
 20
15.7963289955
 30
0.0
 10
7.9100772086
 20
15.7944615745
 30
0.0
  0
SPLINE
  5
5B4
100
AcDbEntity
  8
0
100
AcDbSpline
 62
9
  6
CONTINUOUS
 70
0
 71
3
 72
21
 73
17
 74
0
 42
0.0000001
 43
0.0000001
 44
0.0000000001
 40
0.0
 40
0.0
 40
0.0
 40
0.0
 40
0.2176936739
 40
0.3091021089
 40
0.3885867397
 40
0.4560336648
 40
0.511524838
 40
0.5556512507
 40
0.5898463681
 40
0.6172822799
 40
0.6438238642
 40
0.6759396009
 40
0.7175389468
 40
0.7702799481
 40
0.8348223386
 40
1.0
 40
1.0
 40
1.0
 40
1.0
 10
7.9100772086
 20
15.7944615745
 30
0.0
 10
7.9111730381
 20
15.7928473561
 30
0.0
 10
7.9126813472
 20
15.7905207462
 30
0.0
 10
7.9144040674
 20
15.7874930015
 30
0.0
 10
7.9153705633
 20
15.7855868573
 30
0.0
 10
7.9160860663
 20
15.783917973
 30
0.0
 10
7.9165491977
 20
15.7824908336
 30
0.0
 10
7.9167590517
 20
15.7813046557
 30
0.0
 10
7.9167187765
 20
15.7803454893
 30
0.0
 10
7.9163715266
 20
15.7795978788
 30
0.0
 10
7.9156846208
 20
15.7791699811
 30
0.0
 10
7.9147719819
 20
15.7790821509
 30
0.0
 10
7.9136467338
 20
15.7792562496
 30
0.0
 10
7.9122853836
 20
15.7796870631
 30
0.0
 10
7.9099580477
 20
15.7806889961
 30
0.0
 10
7.9081618834
 20
15.7817073603
 30
0.0
 10
7.9068968603
 20
15.7824762673
 30
0.0
  0
LINE
  5
5B5
100
AcDbEntity
  8
0
100
AcDbLine
 62
9
  6
CONTINUOUS
 10
7.9068968603
 20
15.7824762673
 11
7.9040249343
 21
15.7843151759
  0
SPLINE
  5
5B6
100
AcDbEntity
  8
0
100
AcDbSpline
 62
9
  6
CONTINUOUS
 70
0
 71
3
 72
15
 73
11
 74
0
 42
0.0000001
 43
0.0000001
 44
0.0000000001
 40
0.0
 40
0.0
 40
0.0
 40
0.0
 40
0.3834594409
 40
0.5448321606
 40
0.6793603474
 40
0.7877363871
 40
0.8803260617
 40
0.9538364764
 40
0.9807339983
 40
1.0
 40
1.0
 40
1.0
 40
1.0
 10
7.8536248611
 20
15.8416955934
 30
0.0
 10
7.8546875382
 20
15.8427581917
 30
0.0
 10
7.8561760826
 20
15.8442897003
 30
0.0
 10
7.8579817581
 20
15.8462464585
 30
0.0
 10
7.8590337805
 20
15.8474312237
 30
0.0
 10
7.8598847786
 20
15.8484339129
 30
0.0
 10
7.8605542057
 20
15.8492755938
 30
0.0
 10
7.8609984089
 20
15.8498897058
 30
0.0
 10
7.8612360513
 20
15.8502938127
 30
0.0
 10
7.8613115123
 20
15.8504598117
 30
0.0
 10
7.8613317258
 20
15.8505325602
 30
0.0
  0
SPLINE
  5
5B7
100
AcDbEntity
  8
0
100
AcDbSpline
 62
9
  6
CONTINUOUS
 70
0
 71
3
 72
19
 73
15
 74
0
 42
0.0000001
 43
0.0000001
 44
0.0000000001
 40
0.0
 40
0.0
 40
0.0
 40
0.0
 40
0.1861613278
 40
0.3673707188
 40
0.5361614592
 40
0.6855372513
 40
0.7510778216
 40
0.8096900453
 40
0.8608055
 40
0.9040702543
 40
0.9393046233
 40
0.9539105126
 40
0.9665456742
 40
1.0
 40
1.0
 40
1.0
 40
1.0
 10
7.8536249815
 20
15.8416957361
 30
0.0
 10
7.8570736821
 20
15.8382472292
 30
0.0
 10
7.8637752639
 20
15.8313370145
 30
0.0
 10
7.8732440702
 20
15.8209587537
 30
0.0
 10
7.8817352609
 20
15.8110028363
 30
0.0
 10
7.8879541055
 20
15.8030995345
 30
0.0
 10
7.8921456696
 20
15.797286231
 30
0.0
 10
7.8947070175
 20
15.7934738245
 30
0.0
 10
7.8968005389
 20
15.7900548121
 30
0.0
 10
7.898407632
 20
15.7870587106
 30
0.0
 10
7.8993907828
 20
15.7848277105
 30
0.0
 10
7.899896639
 20
15.7832584869
 30
0.0
 10
7.9002521363
 20
15.7817468253
 30
0.0
 10
7.9002701257
 20
15.7802806096
 30
0.0
 10
7.8996603695
 20
15.7796510537
 30
0.0
  0
LINE
  5
5B8
100
AcDbEntity
  8
0
100
AcDbLine
 62
9
  6
CONTINUOUS
 10
7.2187251158
 20
16.493051035
 11
7.2248848816
 21
16.4850367172
  0
LINE
  5
5B9
100
AcDbEntity
  8
0
100
AcDbLine
 62
9
  6
CONTINUOUS
 10
7.2248848816
 20
16.4850367172
 11
7.2298350692
 21
16.4786212175
  0
LINE
  5
5BA
100
AcDbEntity
  8
0
100
AcDbLine
 62
9
  6
CONTINUOUS
 10
7.2298350692
 20
16.4786212175
 11
7.2376632498
 21
16.4684877237
  0
LINE
  5
5BB
100
AcDbEntity
  8
0
100
AcDbLine
 62
7
  6
CONTINUOUS
 10
6.9725222904
 20
16.9445465598
 11
6.9707327664
 21
16.9486425389
  0
SPLINE
  5
5BC
100
AcDbEntity
  8
0
100
AcDbSpline
 62
7
  6
CONTINUOUS
 70
0
 71
3
 72
11
 73
7
 74
0
 42
0.0000001
 43
0.0000001
 44
0.0000000001
 40
0.0
 40
0.0
 40
0.0
 40
0.0
 40
0.1815411001
 40
0.4137394227
 40
0.6893445641
 40
1.0
 40
1.0
 40
1.0
 40
1.0
 10
6.9707327664
 20
16.9486425389
 30
0.0
 10
6.9696805407
 20
16.9508740754
 30
0.0
 10
6.9671315467
 20
16.9558880539
 30
0.0
 10
6.9626612072
 20
16.9641213333
 30
0.0
 10
6.9571654137
 20
16.9737924982
 30
0.0
 10
6.9531310466
 20
16.9806631726
 30
0.0
 10
6.9509725795
 20
16.9842915438
 30
0.0
  0
SPLINE
  5
5BD
100
AcDbEntity
  8
0
100
AcDbSpline
 62
9
  6
CONTINUOUS
 70
0
 71
3
 72
14
 73
10
 74
0
 42
0.0000001
 43
0.0000001
 44
0.0000000001
 40
0.0
 40
0.0
 40
0.0
 40
0.0
 40
0.3665929008
 40
0.5269262797
 40
0.6683094095
 40
0.7881641112
 40
0.884425544
 40
0.9555143215
 40
1.0
 40
1.0
 40
1.0
 40
1.0
 10
8.5561665226
 20
15.1318271675
 30
0.0
 10
8.5604372661
 20
15.1285916956
 30
0.0
 10
8.566562815
 20
15.1239238
 30
0.0
 10
8.574292478
 20
15.1179522028
 30
0.0
 10
8.5791486963
 20
15.1141598221
 30
0.0
 10
8.5832434523
 20
15.1109144066
 30
0.0
 10
8.5865086683
 20
15.108275612
 30
0.0
 10
8.5888808485
 20
15.1062872218
 30
0.0
 10
8.5901502326
 20
15.1051699611
 30
0.0
 10
8.5906096344
 20
15.1047098688
 30
0.0
  0
SPLINE
  5
5BE
100
AcDbEntity
  8
0
100
AcDbSpline
 62
7
  6
CONTINUOUS
 70
0
 71
3
 72
16
 73
12
 74
0
 42
0.0000001
 43
0.0000001
 44
0.0000000001
 40
0.0
 40
0.0
 40
0.0
 40
0.0
 40
0.0412819408
 40
0.0692493644
 40
0.1031624895
 40
0.1900111147
 40
0.3029633979
 40
0.4416965443
 40
0.6050578806
 40
0.7916749705
 40
1.0
 40
1.0
 40
1.0
 40
1.0
 10
7.2544439909
 20
16.6042752925
 30
0.0
 10
7.2546775299
 20
16.6045090409
 30
0.0
 10
7.25486602
 20
16.6050810735
 30
0.0
 10
7.2548946837
 20
16.6058998698
 30
0.0
 10
7.2547821644
 20
16.607090997
 30
0.0
 10
7.2543329114
 20
16.6089122743
 30
0.0
 10
7.2534371385
 20
16.611471841
 30
0.0
 10
7.2521392153
 20
16.6145316872
 30
0.0
 10
7.2504552096
 20
16.6180632213
 30
0.0
 10
7.2483982919
 20
16.6220310989
 30
0.0
 10
7.2468697797
 20
16.624798502
 30
0.0
 10
7.246048719
 20
16.6262497838
 30
0.0
  0
LINE
  5
5BF
100
AcDbEntity
  8
0
100
AcDbLine
 62
9
  6
CONTINUOUS
 10
9.4648067213
 20
14.4525114604
 11
9.4091884042
 21
14.4142633115
  0
SPLINE
  5
5C0
100
AcDbEntity
  8
0
100
AcDbSpline
 62
9
  6
CONTINUOUS
 70
0
 71
3
 72
30
 73
26
 74
0
 42
0.0000001
 43
0.0000001
 44
0.0000000001
 40
0.0
 40
0.0
 40
0.0
 40
0.0
 40
0.0003155564
 40
0.0012263405
 40
0.0027368051
 40
0.0048456346
 40
0.0075508512
 40
0.010850295
 40
0.0147417367
 40
0.0192229139
 40
0.0299453425
 40
0.0429992528
 40
0.0583649996
 40
0.0760043921
 40
0.0958649699
 40
0.1178938954
 40
0.1682454048
 40
0.2266269967
 40
0.2924701068
 40
0.3651009957
 40
0.4438419698
 40
0.5279671747
 40
0.6166881986
 40
0.8046587994
 40
1.0
 40
1.0
 40
1.0
 40
1.0
 10
9.3032743876
 20
14.2454013346
 30
0.0
 10
9.3032678384
 20
14.2454037614
 30
0.0
 10
9.3032852918
 20
14.2454418194
 30
0.0
 10
9.3032900683
 20
14.2454894193
 30
0.0
 10
9.3033261242
 20
14.2455913179
 30
0.0
 10
9.3033665161
 20
14.2457217744
 30
0.0
 10
9.303424561
 20
14.2458931333
 30
0.0
 10
9.3034947846
 20
14.2461000953
 30
0.0
 10
9.3035791955
 20
14.2463444347
 30
0.0
 10
9.3037182056
 20
14.2467434845
 30
0.0
 10
9.3039261505
 20
14.2473333879
 30
0.0
 10
9.3042164817
 20
14.248149623
 30
0.0
 10
9.3045601532
 20
14.2491094008
 30
0.0
 10
9.3049563167
 20
14.2502103944
 30
0.0
 10
9.3054039077
 20
14.2514496208
 30
0.0
 10
9.306099319
 20
14.2533691477
 30
0.0
 10
9.3070884837
 20
14.2560890821
 30
0.0
 10
9.3084131788
 20
14.2597188874
 30
0.0
 10
9.3099105044
 20
14.2638106219
 30
0.0
 10
9.311565848
 20
14.2683243776
 30
0.0
 10
9.313363421
 20
14.2732169709
 30
0.0
 10
9.3152865059
 20
14.2784428557
 30
0.0
 10
9.3180479356
 20
14.2859363642
 30
0.0
 10
9.321666767
 20
14.2957373273
 30
0.0
 10
9.3246111549
 20
14.3036940284
 30
0.0
 10
9.3261130859
 20
14.3077483483
 30
0.0
  0
SPLINE
  5
5C1
100
AcDbEntity
  8
0
100
AcDbSpline
 62
9
  6
CONTINUOUS
 70
0
 71
3
 72
20
 73
16
 74
0
 42
0.0000001
 43
0.0000001
 44
0.0000000001
 40
0.0
 40
0.0
 40
0.0
 40
0.0
 40
0.062533726
 40
0.1250987086
 40
0.1876077668
 40
0.2502452758
 40
0.3128281292
 40
0.3440972119
 40
0.3753784494
 40
0.4380128227
 40
0.5007482264
 40
0.6256479958
 40
0.7504535684
 40
0.8752278358
 40
1.0
 40
1.0
 40
1.0
 40
1.0
 10
9.3260832075
 20
14.3077547468
 30
0.0
 10
9.3295734178
 20
14.3064617162
 30
0.0
 10
9.3367623707
 20
14.3043948224
 30
0.0
 10
9.3479017459
 20
14.3030593831
 30
0.0
 10
9.3591089692
 20
14.3036692321
 30
0.0
 10
9.3700868826
 20
14.3059291786
 30
0.0
 10
9.3788933705
 20
14.309076594
 30
0.0
 10
9.3855645933
 20
14.312406173
 30
0.0
 10
9.3919328231
 20
14.3162890192
 30
0.0
 10
9.399260301
 20
14.3221307383
 30
0.0
 10
9.4093319494
 20
14.3331682236
 30
0.0
 10
9.4185346253
 20
14.3497250637
 30
0.0
 10
9.4226699199
 20
14.3719977748
 30
0.0
 10
9.4199228879
 20
14.3944655317
 30
0.0
 10
9.413385862
 20
14.4081382619
 30
0.0
 10
9.4091876554
 20
14.4142642463
 30
0.0
  0
LINE
  5
5C2
100
AcDbEntity
  8
0
100
AcDbLine
 62
9
  6
CONTINUOUS
 10
9.0404303061
 20
14.830333782
 11
9.0421374255
 21
14.8289996904
  0
SPLINE
  5
5C3
100
AcDbEntity
  8
0
100
AcDbSpline
 62
7
  6
CONTINUOUS
 70
0
 71
3
 72
11
 73
7
 74
0
 42
0.0000001
 43
0.0000001
 44
0.0000000001
 40
0.0
 40
0.0
 40
0.0
 40
0.0
 40
0.2483942414
 40
0.503286497
 40
0.756861957
 40
1.0
 40
1.0
 40
1.0
 40
1.0
 10
7.6420835495
 20
16.247756202
 30
0.0
 10
7.6396064508
 20
16.2510281629
 30
0.0
 10
7.6344662889
 20
16.2575665995
 30
0.0
 10
7.6264199631
 20
16.2671412692
 30
0.0
 10
7.6181208909
 20
16.2763812906
 30
0.0
 10
7.6124342132
 20
16.28230102
 30
0.0
 10
7.6095937449
 20
16.2851414883
 30
0.0
  0
LINE
  5
5C4
100
AcDbEntity
  8
0
100
AcDbLine
 62
9
  6
CONTINUOUS
 10
9.1819091305
 20
14.7396993739
 11
9.1880322311
 21
14.7359201408
  0
LINE
  5
5C5
100
AcDbEntity
  8
0
100
AcDbLine
 62
9
  6
CONTINUOUS
 10
9.1880322311
 20
14.7359201408
 11
9.1913703436
 21
14.7338634087
  0
SPLINE
  5
5C6
100
AcDbEntity
  8
0
100
AcDbSpline
 62
9
  6
CONTINUOUS
 70
0
 71
3
 72
13
 73
9
 74
0
 42
0.0000001
 43
0.0000001
 44
0.0000000001
 40
0.0
 40
0.0
 40
0.0
 40
0.0
 40
0.2499202028
 40
0.3749826234
 40
0.5000074364
 40
0.6250185193
 40
0.7500544629
 40
1.0
 40
1.0
 40
1.0
 40
1.0
 10
9.2838760941
 20
14.5323520566
 30
0.0
 10
9.296287539
 20
14.5249512385
 30
0.0
 10
9.3142813544
 20
14.5127489238
 30
0.0
 10
9.336835466
 20
14.4946491677
 30
0.0
 10
9.3530210954
 20
14.4801963163
 30
0.0
 10
9.3684081837
 20
14.4648979467
 30
0.0
 10
9.3877728911
 20
14.4434183094
 30
0.0
 10
9.4009870914
 20
14.4261642109
 30
0.0
 10
9.4091876554
 20
14.4142642463
 30
0.0
  0
LINE
  5
5C7
100
AcDbEntity
  8
0
100
AcDbLine
 62
9
  6
CONTINUOUS
 10
9.2764608335
 20
14.6591663478
 11
9.2714649493
 21
14.6506916796
  0
LINE
  5
5C8
100
AcDbEntity
  8
0
100
AcDbLine
 62
9
  6
CONTINUOUS
 10
9.2714649493
 20
14.6506916796
 11
9.2665245907
 21
14.6423695327
  0
ELLIPSE
  5
5C9
100
AcDbEntity
  8
0
100
AcDbEllipse
 62
7
  6
CONTINUOUS
 10
12.7713940092
 20
5.7397528383
 30
0.0
 11
1.1162095399
 21
-1.1492470711
 31
0.0
 40
0.2678505055
 41
-0.2545090966
 42
0.7926884546
  0
ELLIPSE
  5
5CA
100
AcDbEntity
  8
0
100
AcDbEllipse
 62
7
  6
CONTINUOUS
 10
12.7713940092
 20
5.7397528383
 30
0.0
 11
-0.0
 21
1.1875
 31
0.0
 40
0.9750549296
 41
-2.0943951024
 42
-1.0471975512
  0
ELLIPSE
  5
5CB
100
AcDbEntity
  8
0
100
AcDbEllipse
 62
7
  6
CONTINUOUS
 10
12.7713940092
 20
5.7397528383
 30
0.0
 11
1.1162095399
 21
1.1492470711
 31
0.0
 40
0.2678505055
 41
-0.7926884546
 42
0.2545090966
  0
ELLIPSE
  5
5CC
100
AcDbEntity
  8
0
100
AcDbEllipse
 62
7
  6
CONTINUOUS
 10
9.968722686
 20
17.8484564789
 30
0.0
 11
0.0
 21
0.6181264952
 31
0.0
 40
0.2679491924
 41
-0.5408188012
 42
0.0172200256
  0
ENDSEC
  0
SECTION
  2
OBJECTS
  0
DICTIONARY
  5
C
100
AcDbDictionary
280
0
281
1
  3
ACAD_GROUP
350
D
  3
ACAD_MLINESTYLE
350
17
  3
ACAD_LAYOUT
350
1A
  3
ACAD_PLOTSETTINGS
350
19
  3
ACAD_PLOTSTYLENAME
350
E
  0
DICTIONARY
  5
D
102
{ACAD_REACTORS
330
C
102
}
100
AcDbDictionary
280
0
281
1
  0
ACDBDICTIONARYWDFLT
  5
E
102
{ACAD_REACTORS
330
C
102
}
100
AcDbDictionary
281
1
  3
Normal
350
F
100
AcDbDictionaryWithDefault
340
F
  0
DICTIONARY
  5
17
102
{ACAD_REACTORS
330
C
102
}
100
AcDbDictionary
280
0
281
1
  3
Standard
350
18
  0
DICTIONARY
  5
19
102
{ACAD_REACTORS
330
C
102
}
100
AcDbDictionary
281
1
  0
DICTIONARY
  5
1A
102
{ACAD_REACTORS
330
C
102
}
100
AcDbDictionary
281
1
  3
Model
350
5CD
  3
Layout1
350
5CE
  0
ACDBPLACEHOLDER
  5
F
102
{ACAD_REACTORS
330
E
102
}
  0
MLINESTYLE
  5
18
102
{ACAD_REACTORS
330
17
102
}
100
AcDbMlineStyle
  2
STANDARD
 70
0
  3

 62
256
 51
90.0
 52
90.0
 71
2
 49
0.5
 62
256
  6
BYLAYER
 49
-0.5
 62
256
  6
BYLAYER
  0
LAYOUT
  5
5CD
102
{ACAD_REACTORS
330
1A
102
}
100
AcDbPlotSettings
  1

  2
none_device
  4
ANSI_C_(22.00_x_17.00_Inches)
  6

 40
0.0
 41
0.0
 42
0.0
 43
0.0
 44
558.8
 45
431.8
 46
0.0
 47
0.0
 48
0.0
 49
0.0
140
0.0
141
0.0
142
1.0
143
1.0
 70
1024
 72
0
 73
0
 74
0
  7

 75
0
147
1.0
148
0.0
149
0.0
100
AcDbLayout
  1
Model
 70
0
 71
0
 10
0.0
 20
0.0
 11
22.0
 21
17.0
 12
0.0
 22
0.0
 32
0.0
 14
0.0
 24
0.0
 34
0.0
 15
0.0
 25
0.0
 35
0.0
146
0.0
 13
0.0
 23
0.0
 33
0.0
 16
1.0
 26
0.0
 36
0.0
 17
0.0
 27
1.0
 37
0.0
 76
0
330
202
345
0
346
0
  0
LAYOUT
  5
5CE
102
{ACAD_REACTORS
330
1A
102
}
100
AcDbPlotSettings
  1

  2
none_device
  4
ANSI_C_(22.00_x_17.00_Inches)
  6

 40
0.0
 41
0.0
 42
0.0
 43
0.0
 44
558.8
 45
431.8
 46
0.0
 47
0.0
 48
0.0
 49
0.0
140
0.0
141
0.0
142
1.0
143
1.0
 70
0
 72
0
 73
0
 74
0
  7

 75
0
147
1.0
148
0.0
149
0.0
100
AcDbLayout
  1
Layout1
 70
0
 71
1
 10
0.0
 20
0.0
 11
22.0
 21
17.0
 12
0.0
 22
0.0
 32
0.0
 14
0.0
 24
0.0
 34
0.0
 15
0.0
 25
0.0
 35
0.0
146
0.0
 13
0.0
 23
0.0
 33
0.0
 16
1.0
 26
0.0
 36
0.0
 17
0.0
 27
1.0
 37
0.0
 76
0
330
203
345
0
346
0
  0
ENDSEC
  0
EOF
