999
DXF file: 3-1203TR_FRONT.dxf
999
Pro/ENGINEER 2014000 by Parametric Technology Corporation
  0
SECTION
  2
HEADER
  9
$ACADVER
  1
AC1015
  9
$DWGCODEPAGE
  3
ANSI_1252
  9
$EXTMAX
 10
11.6929133858
 20
8.2677165354
 30
0.0
  9
$EXTMIN
 10
0.0
 20
-0.0
 30
0.0
  9
$LIMMIN
 10
0.0
 20
-0.0
  9
$LIMMAX
 10
11.6929133858
 20
8.2677165354
  9
$VIEWCTR
 10
5.8464566929
 20
4.1338582677
  9
$VIEWSIZE
 40
8.2677165354
  9
$CLAYER
  8
0
  9
$LTSCALE
 40
0.6431102362
  9
$CELTYPE
  6
BYLAYER
  9
$DIMSCALE
 40
1.0
  9
$DIMASZ
 40
0.1
  9
$DIMEXO
 40
0.0625
  9
$DIMDLI
 40
0.4443307087
  9
$DIMEXE
 40
0.125
  9
$DIMCEN
 40
0.1052362205
  9
$DIMLFAC
 40
1.0
  9
$DIMBLK
  1
_FILLED
  9
$DIMTXT
 40
0.08
  9
$DIMTOL
 70
1
  9
$DIMLIM
 70
0
  9
$DIMTFAC
 40
1.0
  9
$DIMTP
 40
0.001
  9
$DIMTM
 40
0.001
  9
$DIMGAP
 40
0.09
  9
$DIMDSEP
 70
46
  9
$PDMODE
 70
3
  9
$PDSIZE
 40
0.06
  9
$HANDSEED
  5
34E
  9
$TILEMODE
 70
1
  9
$MEASUREMENT
 70
0
  9
$INSUNITS
 70
1
  0
ENDSEC
  0
SECTION
  2
CLASSES
  0
CLASS
  1
ACDBDICTIONARYWDFLT
  2
AcDbDictionaryWithDefault
  3
AutoCAD 2000
 90
0
280
0
281
0
  0
CLASS
  1
ACDBPLACEHOLDER
  2
AcDbPlaceHolder
  3
AutoCAD 2000
 90
0
280
0
281
0
  0
CLASS
  1
LAYOUT
  2
AcDbLayout
  3
AutoCAD 2000
 90
0
280
0
281
0
  0
ENDSEC
  0
SECTION
  2
TABLES
  0
TABLE
  2
VPORT
  5
8
100
AcDbSymbolTable
 70
2
  0
VPORT
  5
1F4
100
AcDbSymbolTableRecord
100
AcDbViewportTableRecord
  2
*ACTIVE
 70
0
 10
0.0
 20
0.0
 11
1.0
 21
1.0
 12
5.8464566929
 22
4.1338582677
 13
0.0
 23
0.0
 14
1.0
 24
1.0
 15
0.0
 25
0.0
 16
0.0
 26
0.0
 36
1.0
 17
0.0
 27
0.0
 37
0.0
 40
8.2677165354
 41
1.4142857143
 42
50.0
 43
0.0
 44
0.0
 50
0.0
 51
0.0
 71
0
 72
100
 73
1
 74
1
 75
0
 76
0
 77
0
 78
0
  0
ENDTAB
  0
TABLE
  2
LTYPE
  5
5
100
AcDbSymbolTable
 70
6
  0
LTYPE
  5
14
100
AcDbSymbolTableRecord
100
AcDbLinetypeTableRecord
  2
BYBLOCK
 70
0
  3

 72
65
 73
0
 40
0.0
  0
LTYPE
  5
15
100
AcDbSymbolTableRecord
100
AcDbLinetypeTableRecord
  2
BYLAYER
 70
0
  3

 72
65
 73
0
 40
0.0
  0
LTYPE
  5
16
100
AcDbSymbolTableRecord
100
AcDbLinetypeTableRecord
  2
CONTINUOUS
 70
64
  3
Solid line
 72
65
 73
0
 40
0.0
  0
LTYPE
  5
1F5
100
AcDbSymbolTableRecord
100
AcDbLinetypeTableRecord
  2
CENTER
 70
64
  3
____ _ ____ _ ____ _ ____ _ ____ _ ____ _ ____
 72
65
 73
4
 40
0.6
 49
0.375
 74
0
 49
-0.075
 74
0
 49
0.075
 74
0
 49
-0.075
 74
0
  0
LTYPE
  5
1F6
100
AcDbSymbolTableRecord
100
AcDbLinetypeTableRecord
  2
HIDDEN
 70
64
  3
- - - - - - - - - - - - - - - - - - - -
 72
65
 73
2
 40
0.2
 49
0.1
 74
0
 49
-0.1
 74
0
  0
LTYPE
  5
1F7
100
AcDbSymbolTableRecord
100
AcDbLinetypeTableRecord
  2
PHANTOM
 70
64
  3
_____ _ _ _____ _ _ _____ _ _ _____
 72
65
 73
6
 40
0.8
 49
0.45
 74
0
 49
-0.05
 74
0
 49
0.1
 74
0
 49
-0.05
 74
0
 49
0.1
 74
0
 49
-0.05
 74
0
  0
LTYPE
  5
1F8
100
AcDbSymbolTableRecord
100
AcDbLinetypeTableRecord
  2
DOT
 70
64
  3
. . . . . . . . . . . . . . . . . . . .
 72
65
 73
2
 40
0.2
 49
0.1
 74
0
 49
-0.1
 74
0
  0
LTYPE
  5
1F9
100
AcDbSymbolTableRecord
100
AcDbLinetypeTableRecord
  2
DASHED
 70
64
  3
- - - - - - - - - - - - - - - - - - - -
 72
65
 73
2
 40
0.2
 49
0.1
 74
0
 49
-0.1
 74
0
  0
ENDTAB
  0
TABLE
  2
LAYER
  5
2
100
AcDbSymbolTable
 70
36
  0
LAYER
  5
10
100
AcDbSymbolTableRecord
100
AcDbLayerTableRecord
  2
0
 70
0
 62
7
  6
CONTINUOUS
370
-3
390
F
  0
LAYER
  5
1FA
100
AcDbSymbolTableRecord
100
AcDbLayerTableRecord
  2
DEFAULT_1
 70
0
 62
7
  6
CENTER
370
-3
390
F
  0
LAYER
  5
1FB
100
AcDbSymbolTableRecord
100
AcDbLayerTableRecord
  2
DEFAULT_2
 70
0
 62
8
  6
HIDDEN
370
-3
390
F
  0
LAYER
  5
1FC
100
AcDbSymbolTableRecord
100
AcDbLayerTableRecord
  2
DEFAULT_3
 70
0
 62
7
  6
PHANTOM
370
-3
390
F
  0
LAYER
  5
1FD
100
AcDbSymbolTableRecord
100
AcDbLayerTableRecord
  2
DEFAULT_COORDINATE_SYSTEM
 70
0
 62
7
  6
CONTINUOUS
370
-3
390
F
  0
LAYER
  5
1FE
100
AcDbSymbolTableRecord
100
AcDbLayerTableRecord
  2
DEFAULT_DATUM_AXES
 70
0
 62
7
  6
CONTINUOUS
370
-3
390
F
  0
LAYER
  5
1FF
100
AcDbSymbolTableRecord
100
AcDbLayerTableRecord
  2
DEFAULT_DATUM_PLANES
 70
0
 62
7
  6
CONTINUOUS
370
-3
390
F
  0
ENDTAB
  0
TABLE
  2
STYLE
  5
3
100
AcDbSymbolTable
 70
1
  0
STYLE
  5
11
100
AcDbSymbolTableRecord
100
AcDbTextStyleTableRecord
  2
STANDARD
 70
0
 40
0.0
 41
0.8
 50
0.0
 71
0
 42
0.2
  3
txt
  4

  0
STYLE
  5
200
100
AcDbSymbolTableRecord
100
AcDbTextStyleTableRecord
  2
TEXTSTYLE_1
 70
0
 40
0.0
 41
0.8
 50
0.0
 71
0
 42
0.2
  3
gdt
  4

  0
ENDTAB
  0
TABLE
  2
VIEW
  5
6
100
AcDbSymbolTable
 70
0
  0
ENDTAB
  0
TABLE
  2
UCS
  5
7
100
AcDbSymbolTable
 70
0
  0
ENDTAB
  0
TABLE
  2
APPID
  5
9
100
AcDbSymbolTable
 70
1
  0
APPID
  5
201
100
AcDbSymbolTableRecord
100
AcDbRegAppTableRecord
  2
ACAD
 70
0
  0
ENDTAB
  0
TABLE
  2
BLOCK_RECORD
  5
1
100
AcDbSymbolTable
 70
0
  0
BLOCK_RECORD
  5
202
100
AcDbSymbolTableRecord
100
AcDbBlockTableRecord
  2
*Model_Space
  0
BLOCK_RECORD
  5
203
100
AcDbSymbolTableRecord
100
AcDbBlockTableRecord
  2
*Paper_Space
  0
ENDTAB
  0
TABLE
  2
DIMSTYLE
  5
A
100
AcDbSymbolTable
 70
1
100
AcDbDimStyleTable
 71
0
  0
DIMSTYLE
105
204
100
AcDbSymbolTableRecord
100
AcDbDimStyleTableRecord
  2
STANDARD
 70
0
  3

  4

 40
1.0
 41
0.1
 42
0.0625
 43
0.38
 44
0.125
 45
0.0
 46
0.0
 47
0.001
 48
0.001
140
0.08
141
0.09
142
0.0
143
25.4
144
1.0
145
0.0
146
1.0
147
0.09
 71
1.0
 72
0.0
 73
1
 74
1
 75
0
 76
0
 77
0
 78
4
170
0
171
2
172
0
173
0
174
0
175
0
176
0
177
0
178
0
270
2
271
3
272
3
273
2
274
2
275
0
280
0
281
0
282
0
283
1
284
4
285
0
286
0
287
3
288
0
340
11
278
46
  0
ENDTAB
  0
ENDSEC
  0
SECTION
  2
BLOCKS
  0
BLOCK
  5
20
100
AcDbEntity
  8
0
100
AcDbBlockBegin
  2
*Model_Space
 70
0
 10
0.0
 20
0.0
 30
0.0
  3
*Model_Space
  1

  0
ENDBLK
  5
21
100
AcDbEntity
  8
0
100
AcDbBlockEnd
  0
BLOCK
  5
1C
100
AcDbEntity
  8
0
100
AcDbBlockBegin
  2
*Paper_Space
 70
0
 10
0.0
 20
0.0
 30
0.0
  3
*Paper_Space
  1

  0
ENDBLK
  5
1D
100
AcDbEntity
  8
0
100
AcDbBlockEnd
  0
ENDSEC
  0
SECTION
  2
ENTITIES
  0
LINE
  5
205
100
AcDbEntity
  8
0
100
AcDbLine
 62
9
  6
CONTINUOUS
 10
5.6790246066
 20
1.391571153
 11
6.1195193538
 21
1.391571153
  0
LINE
  5
206
100
AcDbEntity
  8
0
100
AcDbLine
 62
9
  6
CONTINUOUS
 10
6.2120636421
 20
1.415001613
 11
5.5864803183
 21
1.415001613
  0
LINE
  5
207
100
AcDbEntity
  8
0
100
AcDbLine
 62
9
  6
CONTINUOUS
 10
6.2592719802
 20
1.4649236185
 11
5.5392719802
 21
1.4649236185
  0
LINE
  5
208
100
AcDbEntity
  8
0
100
AcDbLine
 62
9
  6
CONTINUOUS
 10
6.2592719802
 20
1.4798925949
 11
5.5392719802
 21
1.4798925949
  0
LINE
  5
209
100
AcDbEntity
  8
0
100
AcDbLine
 62
9
  6
CONTINUOUS
 10
6.2293589003
 20
1.5256803186
 11
5.5691850602
 21
1.5256803186
  0
LINE
  5
20A
100
AcDbEntity
  8
0
100
AcDbLine
 62
9
  6
CONTINUOUS
 10
5.5928924485
 20
1.5580919324
 11
6.205651512
 21
1.5580919324
  0
LINE
  5
20B
100
AcDbEntity
  8
0
100
AcDbLine
 62
9
  6
CONTINUOUS
 10
6.1169315828
 20
2.0619493543
 11
5.6816123776
 21
2.0619493543
  0
LINE
  5
20C
100
AcDbEntity
  8
0
100
AcDbLine
 62
6
  6
CONTINUOUS
 10
6.0792719802
 20
2.0923104976
 11
5.7192719802
 21
2.0923104976
  0
LINE
  5
20D
100
AcDbEntity
  8
0
100
AcDbLine
 62
7
  6
CONTINUOUS
 10
5.0566973818
 20
1.8187758139
 11
5.065633017
 21
1.8081793873
  0
LINE
  5
20E
100
AcDbEntity
  8
0
100
AcDbLine
 62
6
  6
CONTINUOUS
 10
5.0669777015
 20
2.0537077955
 11
5.1243538019
 21
1.9856676821
  0
LINE
  5
20F
100
AcDbEntity
  8
0
100
AcDbLine
 62
7
  6
CONTINUOUS
 10
5.2092440005
 20
1.9188601298
 11
5.1951722191
 21
1.9355473149
  0
LINE
  5
210
100
AcDbEntity
  8
0
100
AcDbLine
 62
6
  6
CONTINUOUS
 10
5.1605421356
 20
1.9766138006
 11
5.0836648866
 21
2.0677795769
  0
LINE
  5
211
100
AcDbEntity
  8
0
100
AcDbLine
 62
7
  6
CONTINUOUS
 10
5.058872605
 20
1.8973960873
 11
5.0465003886
 21
1.9153795641
  0
LINE
  5
212
100
AcDbEntity
  8
0
100
AcDbLine
 62
7
  6
CONTINUOUS
 10
7.0376497803
 20
2.7802487911
 11
7.0580488728
 21
2.7857147115
  0
LINE
  5
213
100
AcDbEntity
  8
0
100
AcDbLine
 62
7
  6
CONTINUOUS
 10
4.7720631131
 20
2.7750524751
 11
4.7923817281
 21
2.7684505569
  0
LINE
  5
214
100
AcDbEntity
  8
0
100
AcDbLine
 62
6
  6
CONTINUOUS
 10
4.7807009886
 20
2.8187224964
 11
4.9146403657
 21
2.7752029548
  0
LINE
  5
215
100
AcDbEntity
  8
0
100
AcDbLine
 62
6
  6
CONTINUOUS
 10
4.8027836369
 20
2.3960100239
 11
4.9258846061
 21
2.4177160461
  0
LINE
  5
216
100
AcDbEntity
  8
0
100
AcDbLine
 62
6
  6
CONTINUOUS
 10
4.9219775221
 20
2.4398742205
 11
4.7988765529
 21
2.4181681983
  0
LINE
  5
217
100
AcDbEntity
  8
0
100
AcDbLine
 62
7
  6
CONTINUOUS
 10
7.0348822763
 20
2.8721736265
 11
6.941064399
 21
2.8650854557
  0
LINE
  5
218
100
AcDbEntity
  8
0
100
AcDbLine
 62
7
  6
CONTINUOUS
 10
6.9698206447
 20
2.846477988
 11
7.0190593005
 21
2.8496294063
  0
LINE
  5
219
100
AcDbEntity
  8
0
100
AcDbLine
 62
7
  6
CONTINUOUS
 10
6.8841429885
 20
2.5032154535
 11
7.0086673258
 21
2.4923209857
  0
LINE
  5
21A
100
AcDbEntity
  8
0
100
AcDbLine
 62
7
  6
CONTINUOUS
 10
7.01062833
 20
2.5147353664
 11
6.8861039928
 21
2.5256298342
  0
LINE
  5
21B
100
AcDbEntity
  8
0
100
AcDbLine
 62
6
  6
CONTINUOUS
 10
4.8241534387
 20
2.9512307404
 11
4.9580044604
 21
2.9086639153
  0
LINE
  5
21C
100
AcDbEntity
  8
0
100
AcDbLine
 62
6
  6
CONTINUOUS
 10
4.9214699353
 20
2.7962222089
 11
4.7495791131
 21
2.8520729226
  0
LINE
  5
21D
100
AcDbEntity
  8
0
100
AcDbLine
 62
7
  6
CONTINUOUS
 10
4.815279119
 20
2.908057665
 11
4.835597734
 21
2.9014557468
  0
LINE
  5
21E
100
AcDbEntity
  8
0
100
AcDbLine
 62
6
  6
CONTINUOUS
 10
4.9646859395
 20
2.9292273936
 11
4.7927951173
 21
2.9850781074
  0
LINE
  5
21F
100
AcDbEntity
  8
0
100
AcDbLine
 62
7
  6
CONTINUOUS
 10
4.8676692837
 20
3.1368448547
 11
4.8475842116
 21
3.1433708902
  0
LINE
  5
220
100
AcDbEntity
  8
0
100
AcDbLine
 62
7
  6
CONTINUOUS
 10
4.8199244475
 20
3.0582428897
 11
4.9024672378
 21
3.0130906619
  0
LINE
  5
221
100
AcDbEntity
  8
0
100
AcDbLine
 62
7
  6
CONTINUOUS
 10
4.8884845742
 20
3.0443579713
 11
4.845473174
 21
3.0685322533
  0
LINE
  5
222
100
AcDbEntity
  8
0
100
AcDbLine
 62
7
  6
CONTINUOUS
 10
6.7684080636
 20
1.8437741425
 11
6.7857074854
 21
1.8316609569
  0
LINE
  5
223
100
AcDbEntity
  8
0
100
AcDbLine
 62
7
  6
CONTINUOUS
 10
4.7988765529
 20
2.4181681983
 11
4.8027836369
 21
2.3960100239
  0
LINE
  5
224
100
AcDbEntity
  8
0
100
AcDbLine
 62
6
  6
CONTINUOUS
 10
6.8478570788
 20
1.9501749251
 11
6.8619380025
 21
1.9403153561
  0
LINE
  5
225
100
AcDbEntity
  8
0
100
AcDbLine
 62
7
  6
CONTINUOUS
 10
6.9287717886
 20
2.0357638946
 11
6.9113717907
 21
2.0479475044
  0
LINE
  5
226
100
AcDbEntity
  8
0
100
AcDbLine
 62
7
  6
CONTINUOUS
 10
5.2186267474
 20
3.4847541857
 11
5.2938168194
 21
3.3849735901
  0
LINE
  5
227
100
AcDbEntity
  8
0
100
AcDbLine
 62
7
  6
CONTINUOUS
 10
4.9258846061
 20
2.4177160461
 11
4.9219775221
 21
2.4398742205
  0
LINE
  5
228
100
AcDbEntity
  8
0
100
AcDbLine
 62
6
  6
CONTINUOUS
 10
4.9426388244
 20
3.0203071073
 11
4.9373361487
 21
2.9976297958
  0
LINE
  5
229
100
AcDbEntity
  8
0
100
AcDbLine
 62
7
  6
CONTINUOUS
 10
4.7927951173
 20
2.9850781074
 11
4.7883938407
 21
2.9715323708
  0
LINE
  5
22A
100
AcDbEntity
  8
0
100
AcDbLine
 62
6
  6
CONTINUOUS
 10
4.7495791131
 20
2.8520729226
 11
4.7451778348
 21
2.8385271809
  0
LINE
  5
22B
100
AcDbEntity
  8
0
100
AcDbLine
 62
7
  6
CONTINUOUS
 10
4.8475842116
 20
3.1433708902
 11
4.8199244475
 21
3.0582428897
  0
LINE
  5
22C
100
AcDbEntity
  8
0
100
AcDbLine
 62
7
  6
CONTINUOUS
 10
4.845473174
 20
3.0685322533
 11
4.8676692837
 21
3.1368448547
  0
LINE
  5
22D
100
AcDbEntity
  8
0
100
AcDbLine
 62
7
  6
CONTINUOUS
 10
6.8370476557
 20
1.9049823188
 11
6.7713128327
 21
1.972294794
  0
LINE
  5
22E
100
AcDbEntity
  8
0
100
AcDbLine
 62
7
  6
CONTINUOUS
 10
6.7755185718
 20
1.9406853806
 11
6.8087075778
 21
1.9013278134
  0
LINE
  5
22F
100
AcDbEntity
  8
0
100
AcDbLine
 62
7
  6
CONTINUOUS
 10
5.3127814285
 20
3.3980208028
 11
5.2365462723
 21
3.4970824046
  0
LINE
  5
230
100
AcDbEntity
  8
0
100
AcDbLine
 62
6
  6
CONTINUOUS
 10
5.5392719802
 20
1.4649236185
 11
5.5392719802
 21
1.4798925949
  0
LINE
  5
231
100
AcDbEntity
  8
0
100
AcDbLine
 62
6
  6
CONTINUOUS
 10
5.5392719802
 20
4.6149236185
 11
5.5392719802
 21
4.6298925949
  0
LINE
  5
232
100
AcDbEntity
  8
0
100
AcDbLine
 62
7
  6
CONTINUOUS
 10
4.9146403657
 20
2.7752029548
 11
4.9214699353
 21
2.7962222089
  0
LINE
  5
233
100
AcDbEntity
  8
0
100
AcDbLine
 62
7
  6
CONTINUOUS
 10
4.9580044604
 20
2.9086639153
 11
4.9646859395
 21
2.9292273936
  0
LINE
  5
234
100
AcDbEntity
  8
0
100
AcDbLine
 62
7
  6
CONTINUOUS
 10
4.9024672378
 20
3.0130906619
 11
4.9114484644
 21
3.0319906846
  0
LINE
  5
235
100
AcDbEntity
  8
0
100
AcDbLine
 62
9
  6
CONTINUOUS
 10
5.7067719802
 20
3.5573104976
 11
6.0917719802
 21
3.5573104976
  0
LINE
  5
236
100
AcDbEntity
  8
0
100
AcDbLine
 62
6
  6
CONTINUOUS
 10
5.7167719802
 20
3.5673104976
 11
6.0817719802
 21
3.5673104976
  0
LINE
  5
237
100
AcDbEntity
  8
0
100
AcDbLine
 62
6
  6
CONTINUOUS
 10
5.7606963246
 20
3.5907068292
 11
5.7827972762
 21
3.5907068292
  0
LINE
  5
238
100
AcDbEntity
  8
0
100
AcDbLine
 62
7
  6
CONTINUOUS
 10
5.7827972762
 20
3.7714435355
 11
5.7685544406
 21
3.7714435355
  0
LINE
  5
239
100
AcDbEntity
  8
0
100
AcDbLine
 62
6
  6
CONTINUOUS
 10
5.7067719802
 20
3.4026198618
 11
5.7067719802
 21
3.5573104976
  0
LINE
  5
23A
100
AcDbEntity
  8
0
100
AcDbLine
 62
7
  6
CONTINUOUS
 10
5.7164944159
 20
3.7262593535
 11
5.7164944159
 21
3.7048950974
  0
LINE
  5
23B
100
AcDbEntity
  8
0
100
AcDbLine
 62
6
  6
CONTINUOUS
 10
5.7192719802
 20
2.0923104976
 11
5.7192719802
 21
2.1445735851
  0
LINE
  5
23C
100
AcDbEntity
  8
0
100
AcDbLine
 62
6
  6
CONTINUOUS
 10
5.7192719802
 20
5.2423104976
 11
5.7192719802
 21
5.2945735851
  0
LINE
  5
23D
100
AcDbEntity
  8
0
100
AcDbLine
 62
6
  6
CONTINUOUS
 10
5.7606963246
 20
3.7315390245
 11
5.7606963246
 21
3.5907068292
  0
LINE
  5
23E
100
AcDbEntity
  8
0
100
AcDbLine
 62
6
  6
CONTINUOUS
 10
5.7827972762
 20
3.5907068292
 11
5.7827972762
 21
3.7714435355
  0
LINE
  5
23F
100
AcDbEntity
  8
0
100
AcDbLine
 62
7
  6
CONTINUOUS
 10
6.5266324731
 20
3.3663221885
 11
6.5438684731
 21
3.3518594673
  0
LINE
  5
240
100
AcDbEntity
  8
0
100
AcDbLine
 62
7
  6
CONTINUOUS
 10
6.6242169243
 20
3.4476150227
 11
6.6069809244
 21
3.4620777439
  0
LINE
  5
241
100
AcDbEntity
  8
0
100
AcDbLine
 62
6
  6
CONTINUOUS
 10
6.0792719802
 20
2.0923104976
 11
6.0792719802
 21
2.1445735852
  0
LINE
  5
242
100
AcDbEntity
  8
0
100
AcDbLine
 62
6
  6
CONTINUOUS
 10
6.0792719802
 20
5.2423104976
 11
6.0792719802
 21
5.2945735852
  0
LINE
  5
243
100
AcDbEntity
  8
0
100
AcDbLine
 62
6
  6
CONTINUOUS
 10
6.0917719802
 20
3.4026200616
 11
6.0917719802
 21
3.5573104976
  0
LINE
  5
244
100
AcDbEntity
  8
0
100
AcDbLine
 62
6
  6
CONTINUOUS
 10
6.2592719802
 20
1.4649236185
 11
6.2592719802
 21
1.4798925949
  0
LINE
  5
245
100
AcDbEntity
  8
0
100
AcDbLine
 62
6
  6
CONTINUOUS
 10
6.2592719802
 20
4.6149236185
 11
6.2592719802
 21
4.6298925949
  0
LINE
  5
246
100
AcDbEntity
  8
0
100
AcDbLine
 62
7
  6
CONTINUOUS
 10
5.2365462723
 20
3.4970824046
 11
5.2186267474
 21
3.4847541857
  0
LINE
  5
247
100
AcDbEntity
  8
0
100
AcDbLine
 62
7
  6
CONTINUOUS
 10
5.2938168194
 20
3.3849735901
 11
5.3127814285
 21
3.3980208028
  0
LINE
  5
248
100
AcDbEntity
  8
0
100
AcDbLine
 62
9
  6
CONTINUOUS
 10
5.6790246066
 20
4.541571153
 11
6.1195193538
 21
4.541571153
  0
LINE
  5
249
100
AcDbEntity
  8
0
100
AcDbLine
 62
9
  6
CONTINUOUS
 10
6.2120636421
 20
4.565001613
 11
5.5864803183
 21
4.565001613
  0
LINE
  5
24A
100
AcDbEntity
  8
0
100
AcDbLine
 62
9
  6
CONTINUOUS
 10
6.2592719802
 20
4.6149236185
 11
5.5392719802
 21
4.6149236185
  0
LINE
  5
24B
100
AcDbEntity
  8
0
100
AcDbLine
 62
9
  6
CONTINUOUS
 10
6.2592719802
 20
4.6298925949
 11
5.5392719802
 21
4.6298925949
  0
LINE
  5
24C
100
AcDbEntity
  8
0
100
AcDbLine
 62
9
  6
CONTINUOUS
 10
6.2293589003
 20
4.6756803186
 11
5.5691850602
 21
4.6756803186
  0
LINE
  5
24D
100
AcDbEntity
  8
0
100
AcDbLine
 62
9
  6
CONTINUOUS
 10
5.5928924485
 20
4.7080919324
 11
6.205651512
 21
4.7080919324
  0
LINE
  5
24E
100
AcDbEntity
  8
0
100
AcDbLine
 62
7
  6
CONTINUOUS
 10
6.9117177073
 20
2.8373339434
 11
6.9029783815
 21
2.8589016177
  0
LINE
  5
24F
100
AcDbEntity
  8
0
100
AcDbLine
 62
7
  6
CONTINUOUS
 10
6.6069809244
 20
3.4620777439
 11
6.5266324731
 21
3.3663221885
  0
LINE
  5
250
100
AcDbEntity
  8
0
100
AcDbLine
 62
7
  6
CONTINUOUS
 10
6.5438684731
 20
3.3518594673
 11
6.6242169243
 21
3.4476150227
  0
LINE
  5
251
100
AcDbEntity
  8
0
100
AcDbLine
 62
9
  6
CONTINUOUS
 10
6.1169315828
 20
5.2119493543
 11
5.6816123776
 21
5.2119493543
  0
LINE
  5
252
100
AcDbEntity
  8
0
100
AcDbLine
 62
7
  6
CONTINUOUS
 10
7.0190593005
 20
2.8496294063
 11
7.0376497803
 21
2.7802487911
  0
LINE
  5
253
100
AcDbEntity
  8
0
100
AcDbLine
 62
7
  6
CONTINUOUS
 10
7.0580488728
 20
2.7857147115
 11
7.0348822763
 21
2.8721736265
  0
LINE
  5
254
100
AcDbEntity
  8
0
100
AcDbLine
 62
7
  6
CONTINUOUS
 10
6.941064399
 20
2.8650854557
 11
6.9438257987
 21
2.8443430363
  0
LINE
  5
255
100
AcDbEntity
  8
0
100
AcDbLine
 62
7
  6
CONTINUOUS
 10
6.8861039928
 20
2.5256298342
 11
6.8841429885
 21
2.5032154535
  0
LINE
  5
256
100
AcDbEntity
  8
0
100
AcDbLine
 62
7
  6
CONTINUOUS
 10
7.0086673258
 20
2.4923209857
 11
7.01062833
 21
2.5147353664
  0
LINE
  5
257
100
AcDbEntity
  8
0
100
AcDbLine
 62
7
  6
CONTINUOUS
 10
5.0836648866
 20
2.0677795769
 11
5.0669777015
 21
2.0537077955
  0
LINE
  5
258
100
AcDbEntity
  8
0
100
AcDbLine
 62
7
  6
CONTINUOUS
 10
5.1951722191
 20
1.9355473149
 11
5.0566973818
 21
1.8187758139
  0
LINE
  5
259
100
AcDbEntity
  8
0
100
AcDbLine
 62
7
  6
CONTINUOUS
 10
5.1012473694
 20
1.8277899473
 11
5.2092440005
 21
1.9188601298
  0
LINE
  5
25A
100
AcDbEntity
  8
0
100
AcDbLine
 62
7
  6
CONTINUOUS
 10
5.1335360797
 20
1.7971625027
 11
5.1502232647
 21
1.8112342842
  0
LINE
  5
25B
100
AcDbEntity
  8
0
100
AcDbLine
 62
6
  6
CONTINUOUS
 10
6.0792719802
 20
5.2423104976
 11
5.7192719802
 21
5.2423104976
  0
LINE
  5
25C
100
AcDbEntity
  8
0
100
AcDbLine
 62
7
  6
CONTINUOUS
 10
6.730786669
 20
1.9771387082
 11
6.742487841
 21
1.9972747679
  0
LINE
  5
25D
100
AcDbEntity
  8
0
100
AcDbLine
 62
7
  6
CONTINUOUS
 10
6.7687981785
 20
2.1170510765
 11
6.7557694648
 21
2.0984441451
  0
LINE
  5
25E
100
AcDbEntity
  8
0
100
AcDbLine
 62
6
  6
CONTINUOUS
 10
6.9113717907
 20
2.0479475044
 11
6.8608062963
 21
1.9757324944
  0
LINE
  5
25F
100
AcDbEntity
  8
0
100
AcDbLine
 62
7
  6
CONTINUOUS
 10
6.8087075778
 20
1.9013278134
 11
6.7684080636
 21
1.8437741425
  0
LINE
  5
260
100
AcDbEntity
  8
0
100
AcDbLine
 62
7
  6
CONTINUOUS
 10
6.7857074854
 20
1.8316609569
 11
6.8370476557
 21
1.9049823188
  0
LINE
  5
261
100
AcDbEntity
  8
0
100
AcDbLine
 62
6
  6
CONTINUOUS
 10
6.8619380025
 20
1.9403153561
 11
6.9287717886
 21
2.0357638946
  0
LINE
  5
262
100
AcDbEntity
  8
0
100
AcDbLine
 62
7
  6
CONTINUOUS
 10
6.7713128327
 20
1.972294794
 11
6.7571982111
 21
1.9568464689
  0
ARC
  5
263
100
AcDbEntity
  8
0
100
AcDbCircle
 62
6
  6
CONTINUOUS
 10
2.4964533194
 20
1.1647107325
 40
3.73
100
AcDbArc
 50
6.0539076486
 51
13.9188002726
  0
ARC
  5
264
100
AcDbEntity
  8
0
100
AcDbCircle
 62
6
  6
CONTINUOUS
 10
5.5725220082
 20
1.165391586
 40
0.25
100
AcDbArc
 50
64.7853651812
 51
86.7993265714
  0
ARC
  5
265
100
AcDbEntity
  8
0
100
AcDbCircle
 62
6
  6
CONTINUOUS
 10
5.5892719802
 20
1.4649236185
 40
0.05
100
AcDbArc
 50
180.0
 51
266.7993265714
  0
ARC
  5
266
100
AcDbEntity
  8
0
100
AcDbCircle
 62
6
  6
CONTINUOUS
 10
5.5892719802
 20
1.4798925949
 40
0.05
100
AcDbArc
 50
113.6868993629
 51
180.0
  0
ARC
  5
267
100
AcDbEntity
  8
0
100
AcDbCircle
 62
6
  6
CONTINUOUS
 10
5.7204378819
 20
2.0523274928
 40
0.04
100
AcDbArc
 50
91.6702677144
 51
166.0811997271
  0
ARC
  5
268
100
AcDbEntity
  8
0
100
AcDbCircle
 62
6
  6
CONTINUOUS
 10
5.5531155242
 20
1.5623104976
 40
0.04
100
AcDbArc
 50
293.6868993629
 51
353.9460923514
  0
ARC
  5
269
100
AcDbEntity
  8
0
100
AcDbCircle
 62
6
  6
CONTINUOUS
 10
2.4964533194
 20
4.3147107325
 40
3.73
100
AcDbArc
 50
6.0539076486
 51
13.9188002726
  0
ARC
  5
26A
100
AcDbEntity
  8
0
100
AcDbCircle
 62
6
  6
CONTINUOUS
 10
5.5725220082
 20
4.315391586
 40
0.25
100
AcDbArc
 50
64.7853651812
 51
86.7993265714
  0
ARC
  5
26B
100
AcDbEntity
  8
0
100
AcDbCircle
 62
6
  6
CONTINUOUS
 10
5.5892719802
 20
4.6149236185
 40
0.05
100
AcDbArc
 50
180.0
 51
266.7993265714
  0
ARC
  5
26C
100
AcDbEntity
  8
0
100
AcDbCircle
 62
6
  6
CONTINUOUS
 10
5.5892719802
 20
4.6298925949
 40
0.05
100
AcDbArc
 50
113.6868993629
 51
180.0
  0
ARC
  5
26D
100
AcDbEntity
  8
0
100
AcDbCircle
 62
6
  6
CONTINUOUS
 10
5.7204378819
 20
5.2023274928
 40
0.04
100
AcDbArc
 50
91.6702677144
 51
166.0811997271
  0
ARC
  5
26E
100
AcDbEntity
  8
0
100
AcDbCircle
 62
6
  6
CONTINUOUS
 10
5.5531155242
 20
4.7123104976
 40
0.04
100
AcDbArc
 50
293.6868993629
 51
353.9460923514
  0
ARC
  5
26F
100
AcDbEntity
  8
0
100
AcDbCircle
 62
6
  6
CONTINUOUS
 10
5.7167719802
 20
3.5573104976
 40
0.01
100
AcDbArc
 50
90.0
 51
180.0
  0
ARC
  5
270
100
AcDbEntity
  8
0
100
AcDbCircle
 62
6
  6
CONTINUOUS
 10
5.8992719802
 20
1.8593104976
 40
0.517
100
AcDbArc
 50
244.7853651812
 51
295.2146348188
  0
ARC
  5
271
100
AcDbEntity
  8
0
100
AcDbCircle
 62
6
  6
CONTINUOUS
 10
6.2260219523
 20
1.165391586
 40
0.25
100
AcDbArc
 50
93.2006734286
 51
115.2146348188
  0
ARC
  5
272
100
AcDbEntity
  8
0
100
AcDbCircle
 62
6
  6
CONTINUOUS
 10
6.2092719802
 20
1.4649236185
 40
0.05
100
AcDbArc
 50
273.2006734286
 51
360.0
  0
ARC
  5
273
100
AcDbEntity
  8
0
100
AcDbCircle
 62
6
  6
CONTINUOUS
 10
6.2092719802
 20
1.4798925949
 40
0.05
100
AcDbArc
 50
0.0
 51
66.3131006371
  0
ARC
  5
274
100
AcDbEntity
  8
0
100
AcDbCircle
 62
6
  6
CONTINUOUS
 10
6.2454284363
 20
1.5623104976
 40
0.04
100
AcDbArc
 50
186.0539076486
 51
246.3131006371
  0
CIRCLE
  5
275
100
AcDbEntity
  8
0
100
AcDbCircle
 62
9
  6
CONTINUOUS
 10
5.8992719802
 20
2.6003104976
 40
1.3694831374
  0
CIRCLE
  5
276
100
AcDbEntity
  8
0
100
AcDbCircle
 62
9
  6
CONTINUOUS
 10
5.8992719802
 20
2.6003104976
 40
1.3494899909
  0
CIRCLE
  5
277
100
AcDbEntity
  8
0
100
AcDbCircle
 62
9
  6
CONTINUOUS
 10
5.8992719802
 20
2.6003104976
 40
1.3481532761
  0
CIRCLE
  5
278
100
AcDbEntity
  8
0
100
AcDbCircle
 62
9
  6
CONTINUOUS
 10
5.8992719802
 20
2.6003104976
 40
1.3281601296
  0
ARC
  5
279
100
AcDbEntity
  8
0
100
AcDbCircle
 62
6
  6
CONTINUOUS
 10
5.8992719802
 20
2.6003104976
 40
0.8366
100
AcDbArc
 50
103.3041891793
 51
251.0880591976
  0
ARC
  5
27A
100
AcDbEntity
  8
0
100
AcDbCircle
 62
6
  6
CONTINUOUS
 10
5.8992719802
 20
2.6003104976
 40
0.8366
100
AcDbArc
 50
288.9119408024
 51
76.6958108207
  0
ARC
  5
27B
100
AcDbEntity
  8
0
100
AcDbCircle
 62
7
  6
CONTINUOUS
 10
5.8992719802
 20
2.6003104976
 40
0.8365
100
AcDbArc
 50
288.9139377041
 51
73.3525400932
  0
ARC
  5
27C
100
AcDbEntity
  8
0
100
AcDbCircle
 62
7
  6
CONTINUOUS
 10
5.8992719802
 20
2.6003104976
 40
0.8365
100
AcDbArc
 50
106.6474599068
 51
251.0860622959
  0
ARC
  5
27D
100
AcDbEntity
  8
0
100
AcDbCircle
 62
6
  6
CONTINUOUS
 10
5.8992719802
 20
2.6003104976
 40
0.827
100
AcDbArc
 50
289.032542059
 51
250.967435469
  0
ARC
  5
27E
100
AcDbEntity
  8
0
100
AcDbCircle
 62
9
  6
CONTINUOUS
 10
5.8992719802
 20
2.6003104976
 40
0.7893528204
100
AcDbArc
 50
289.4446066591
 51
250.5553890286
  0
ARC
  5
27F
100
AcDbEntity
  8
0
100
AcDbCircle
 62
9
  6
CONTINUOUS
 10
5.8992719802
 20
2.6003104976
 40
0.7786679655
100
AcDbArc
 50
289.5671420898
 51
250.4337293564
  0
ARC
  5
280
100
AcDbEntity
  8
0
100
AcDbCircle
 62
9
  6
CONTINUOUS
 10
5.8992719802
 20
2.6003104976
 40
0.7574115232
100
AcDbArc
 50
289.8036082278
 51
250.1944822174
  0
ARC
  5
281
100
AcDbEntity
  8
0
100
AcDbCircle
 62
9
  6
CONTINUOUS
 10
5.8992719802
 20
2.6003104976
 40
0.7544264928
100
AcDbArc
 50
289.8368805621
 51
250.1668903836
  0
ARC
  5
282
100
AcDbEntity
  8
0
100
AcDbCircle
 62
9
  6
CONTINUOUS
 10
5.8992719802
 20
2.6003104976
 40
0.7165197589
100
AcDbArc
 50
290.2815990303
 51
249.7175430291
  0
CIRCLE
  5
283
100
AcDbEntity
  8
0
100
AcDbCircle
 62
6
  6
CONTINUOUS
 10
5.8992719802
 20
2.6003104976
 40
0.49
  0
ARC
  5
284
100
AcDbEntity
  8
0
100
AcDbCircle
 62
6
  6
CONTINUOUS
 10
6.0781060785
 20
2.0523274928
 40
0.04
100
AcDbArc
 50
13.9188002729
 51
88.3297322854
  0
ARC
  5
285
100
AcDbEntity
  8
0
100
AcDbCircle
 62
6
  6
CONTINUOUS
 10
9.302090641
 20
1.1647107325
 40
3.73
100
AcDbArc
 50
166.0811997274
 51
173.9460923514
  0
ARC
  5
286
100
AcDbEntity
  8
0
100
AcDbCircle
 62
6
  6
CONTINUOUS
 10
9.302090641
 20
4.3147107325
 40
3.73
100
AcDbArc
 50
166.0811997274
 51
173.9460923514
  0
CIRCLE
  5
287
100
AcDbEntity
  8
0
100
AcDbCircle
 62
6
  6
CONTINUOUS
 10
5.8992719802
 20
4.1761104976
 40
3.5433
  0
CIRCLE
  5
288
100
AcDbEntity
  8
0
100
AcDbCircle
 62
9
  6
CONTINUOUS
 10
5.8992719802
 20
4.1761104976
 40
3.4742910775
  0
CIRCLE
  5
289
100
AcDbEntity
  8
0
100
AcDbCircle
 62
9
  6
CONTINUOUS
 10
5.8992719802
 20
4.1761104976
 40
3.2801165677
  0
CIRCLE
  5
28A
100
AcDbEntity
  8
0
100
AcDbCircle
 62
9
  6
CONTINUOUS
 10
5.8992719802
 20
4.1761104976
 40
3.233
  0
ARC
  5
28B
100
AcDbEntity
  8
0
100
AcDbCircle
 62
6
  6
CONTINUOUS
 10
5.8992719802
 20
5.7503104976
 40
0.82677
100
AcDbArc
 50
289.0349679953
 51
250.9650320047
  0
ARC
  5
28C
100
AcDbEntity
  8
0
100
AcDbCircle
 62
9
  6
CONTINUOUS
 10
5.8992719802
 20
5.7503104976
 40
0.67677
100
AcDbArc
 50
290.7457838222
 51
249.2542161796
  0
ARC
  5
28D
100
AcDbEntity
  8
0
100
AcDbCircle
 62
6
  6
CONTINUOUS
 10
5.8992719802
 20
5.7503104976
 40
0.671
100
AcDbArc
 50
290.8212800388
 51
249.1787199612
  0
ARC
  5
28E
100
AcDbEntity
  8
0
100
AcDbCircle
 62
7
  6
CONTINUOUS
 10
5.8992719802
 20
5.7503104976
 40
0.6515985251
100
AcDbArc
 50
291.0766120584
 51
248.9233879416
  0
ARC
  5
28F
100
AcDbEntity
  8
0
100
AcDbCircle
 62
6
  6
CONTINUOUS
 10
5.8992719802
 20
5.7503104976
 40
0.6475
100
AcDbArc
 50
291.1371891299
 51
248.8628108402
  0
ARC
  5
290
100
AcDbEntity
  8
0
100
AcDbCircle
 62
9
  6
CONTINUOUS
 10
5.8992719802
 20
5.7503104976
 40
0.6065496055
100
AcDbArc
 50
291.6624012435
 51
248.3376453104
  0
ARC
  5
291
100
AcDbEntity
  8
0
100
AcDbCircle
 62
6
  6
CONTINUOUS
 10
5.8992719802
 20
5.0093104976
 40
0.517
100
AcDbArc
 50
244.7853651812
 51
295.2146348188
  0
CIRCLE
  5
292
100
AcDbEntity
  8
0
100
AcDbCircle
 62
6
  6
CONTINUOUS
 10
5.8992719802
 20
5.7503104976
 40
0.49
  0
ARC
  5
293
100
AcDbEntity
  8
0
100
AcDbCircle
 62
6
  6
CONTINUOUS
 10
6.2260219523
 20
4.315391586
 40
0.25
100
AcDbArc
 50
93.2006734286
 51
115.2146348188
  0
ARC
  5
294
100
AcDbEntity
  8
0
100
AcDbCircle
 62
6
  6
CONTINUOUS
 10
6.2092719802
 20
4.6149236185
 40
0.05
100
AcDbArc
 50
273.2006734286
 51
360.0
  0
ARC
  5
295
100
AcDbEntity
  8
0
100
AcDbCircle
 62
6
  6
CONTINUOUS
 10
6.2092719802
 20
4.6298925949
 40
0.05
100
AcDbArc
 50
0.0
 51
66.3131006371
  0
ARC
  5
296
100
AcDbEntity
  8
0
100
AcDbCircle
 62
6
  6
CONTINUOUS
 10
6.0781060785
 20
5.2023274928
 40
0.04
100
AcDbArc
 50
13.9188002729
 51
88.3297322854
  0
ARC
  5
297
100
AcDbEntity
  8
0
100
AcDbCircle
 62
6
  6
CONTINUOUS
 10
6.2454284363
 20
4.7123104976
 40
0.04
100
AcDbArc
 50
186.0539076486
 51
246.3131006371
  0
ARC
  5
298
100
AcDbEntity
  8
0
100
AcDbCircle
 62
6
  6
CONTINUOUS
 10
6.0817719802
 20
3.5573104976
 40
0.01
100
AcDbArc
 50
0.0
 51
90.0
  0
SPLINE
  5
299
100
AcDbEntity
  8
0
100
AcDbSpline
 62
7
  6
CONTINUOUS
 70
0
 71
3
 72
23
 73
19
 74
0
 42
0.0000001
 43
0.0000001
 44
0.0000000001
 40
0.0
 40
0.0
 40
0.0
 40
0.0
 40
0.1249951308
 40
0.2499896528
 40
0.3124887944
 40
0.3749878686
 40
0.4374873885
 40
0.4999865331
 40
0.5624860698
 40
0.5937365934
 40
0.62498732
 40
0.6874873481
 40
0.7499886887
 40
0.8124893155
 40
0.8749908549
 40
0.9062445284
 40
0.9374994037
 40
1.0
 40
1.0
 40
1.0
 40
1.0
 10
5.0966837321
 20
1.8085931479
 30
0.0
 10
5.0953953592
 20
1.8087756414
 30
0.0
 10
5.0928135173
 20
1.8091056582
 30
0.0
 10
5.0895753199
 20
1.8094225215
 30
0.0
 10
5.0869795778
 20
1.8096114432
 30
0.0
 10
5.0850304753
 20
1.8097181067
 30
0.0
 10
5.0830796479
 20
1.8097868115
 30
0.0
 10
5.0811277809
 20
1.8098142831
 30
0.0
 10
5.0795010855
 20
1.8098004164
 30
0.0
 10
5.0782002091
 20
1.8097664592
 30
0.0
 10
5.0768998306
 20
1.8097168595
 30
0.0
 10
5.0752756472
 20
1.8096241526
 30
0.0
 10
5.0733303834
 20
1.8094596401
 30
0.0
 10
5.0713907727
 20
1.8092377601
 30
0.0
 10
5.069780985
 20
1.8090018794
 30
0.0
 10
5.0684984026
 20
1.8087810864
 30
0.0
 10
5.0672198314
 20
1.8085382839
 30
0.0
 10
5.0662659119
 20
1.8083303421
 30
0.0
 10
5.065633017
 20
1.8081793873
 30
0.0
  0
SPLINE
  5
29A
100
AcDbEntity
  8
0
100
AcDbSpline
 62
7
  6
CONTINUOUS
 70
0
 71
3
 72
14
 73
10
 74
0
 42
0.0000001
 43
0.0000001
 44
0.0000000001
 40
0.0
 40
0.0
 40
0.0
 40
0.0
 40
0.2499737294
 40
0.3749833326
 40
0.4999856149
 40
0.6249874323
 40
0.7499922554
 40
0.8750057801
 40
1.0
 40
1.0
 40
1.0
 40
1.0
 10
5.1335360797
 20
1.7971625027
 30
0.0
 10
5.1306149213
 20
1.7985331599
 30
0.0
 10
5.1261716004
 20
1.8004635341
 30
0.0
 10
5.1201310546
 20
1.8027390386
 30
0.0
 10
5.1155427144
 20
1.8042854418
 30
0.0
 10
5.1108997683
 20
1.8056591671
 30
0.0
 10
5.1062059142
 20
1.8068486925
 30
0.0
 10
5.1014667491
 20
1.8078420857
 30
0.0
 10
5.0982812518
 20
1.8083668649
 30
0.0
 10
5.0966837321
 20
1.8085931479
 30
0.0
  0
SPLINE
  5
29B
100
AcDbEntity
  8
0
100
AcDbSpline
 62
7
  6
CONTINUOUS
 70
0
 71
3
 72
18
 73
14
 74
0
 42
0.0000001
 43
0.0000001
 44
0.0000000001
 40
0.0
 40
0.0
 40
0.0
 40
0.0
 40
0.1249993434
 40
0.2499985584
 40
0.374997547
 40
0.4999962741
 40
0.6249946801
 40
0.6874950857
 40
0.7499957632
 40
0.8124962823
 40
0.8749970287
 40
0.9374994101
 40
1.0
 40
1.0
 40
1.0
 40
1.0
 10
5.1264164178
 20
1.8215514656
 30
0.0
 10
5.1274387897
 20
1.8211954759
 30
0.0
 10
5.1294791667
 20
1.8204708682
 30
0.0
 10
5.1325245406
 20
1.8193420919
 30
0.0
 10
5.1355520451
 20
1.8181661178
 30
0.0
 10
5.1385576934
 20
1.8169352506
 30
0.0
 10
5.1410397155
 20
1.8158554918
 30
0.0
 10
5.1430083117
 20
1.8149539402
 30
0.0
 10
5.1444753263
 20
1.8142574751
 30
0.0
 10
5.1459319315
 20
1.8135394741
 30
0.0
 10
5.1473769815
 20
1.8127984318
 30
0.0
 10
5.1488090724
 20
1.8120326284
 30
0.0
 10
5.149753829
 20
1.8115037874
 30
0.0
 10
5.1502232647
 20
1.8112342842
 30
0.0
  0
SPLINE
  5
29C
100
AcDbEntity
  8
0
100
AcDbSpline
 62
7
  6
CONTINUOUS
 70
0
 71
3
 72
18
 73
14
 74
0
 42
0.0000001
 43
0.0000001
 44
0.0000000001
 40
0.0
 40
0.0
 40
0.0
 40
0.0
 40
0.0625007901
 40
0.1250038821
 40
0.1875049934
 40
0.2500058221
 40
0.3125068266
 40
0.3750074991
 40
0.500005199
 40
0.625003338
 40
0.7500018883
 40
0.8750008235
 40
1.0
 40
1.0
 40
1.0
 40
1.0
 10
5.1012473694
 20
1.8277899473
 30
0.0
 10
5.1017854101
 20
1.8277303864
 30
0.0
 10
5.1028601012
 20
1.8275982048
 30
0.0
 10
5.104467349
 20
1.8273647583
 30
0.0
 10
5.1060696424
 20
1.8270994749
 30
0.0
 10
5.1076667174
 20
1.8268045803
 30
0.0
 10
5.1092584097
 20
1.8264819406
 30
0.0
 10
5.111373212
 20
1.8260167675
 30
0.0
 10
5.1140027725
 20
1.8253739399
 30
0.0
 10
5.1171362213
 20
1.8245182391
 30
0.0
 10
5.1202492848
 20
1.8235913137
 30
0.0
 10
5.1233433212
 20
1.8226029208
 30
0.0
 10
5.1253939923
 20
1.821907474
 30
0.0
 10
5.1264164178
 20
1.8215514656
 30
0.0
  0
SPLINE
  5
29D
100
AcDbEntity
  8
0
100
AcDbSpline
 62
6
  6
CONTINUOUS
 70
0
 71
3
 72
19
 73
15
 74
0
 42
0.0000001
 43
0.0000001
 44
0.0000000001
 40
0.0
 40
0.0
 40
0.0
 40
0.0
 40
0.0625006399
 40
0.0937531204
 40
0.1250048699
 40
0.1875055807
 40
0.25000597
 40
0.3750039371
 40
0.4375040995
 40
0.5000041382
 40
0.6250027598
 40
0.7500016446
 40
0.8750007764
 40
1.0
 40
1.0
 40
1.0
 40
1.0
 10
5.1192801246
 20
1.9642700402
 30
0.0
 10
5.1184502182
 20
1.9642702736
 30
0.0
 10
5.1172052808
 20
1.9642873
 30
0.0
 10
5.1155461777
 20
1.9643379521
 30
0.0
 10
5.113887658
 20
1.9644053295
 30
0.0
 10
5.1118158622
 20
1.9645189019
 30
0.0
 10
5.1085046694
 20
1.9647563642
 30
0.0
 10
5.1051993727
 20
1.9650693315
 30
0.0
 10
5.1019009331
 20
1.9654436383
 30
0.0
 10
5.0986068244
 20
1.9658545633
 30
0.0
 10
5.0944971732
 20
1.9664297153
 30
0.0
 10
5.0895774236
 20
1.9671988537
 30
0.0
 10
5.0846684558
 20
1.9680338522
 30
0.0
 10
5.0814025214
 20
1.9686286017
 30
0.0
 10
5.0797711561
 20
1.9689344372
 30
0.0
  0
SPLINE
  5
29E
100
AcDbEntity
  8
0
100
AcDbSpline
 62
6
  6
CONTINUOUS
 70
0
 71
3
 72
18
 73
14
 74
0
 42
0.0000001
 43
0.0000001
 44
0.0000000001
 40
0.0
 40
0.0
 40
0.0
 40
0.0
 40
0.1249953221
 40
0.2499904321
 40
0.3124933081
 40
0.3749955708
 40
0.4374978715
 40
0.4999997823
 40
0.5625014884
 40
0.6250032752
 40
0.7500013336
 40
0.8750002857
 40
1.0
 40
1.0
 40
1.0
 40
1.0
 10
5.1469677264
 20
1.9684628336
 30
0.0
 10
5.1458624293
 20
1.9680721677
 30
0.0
 10
5.1436285626
 20
1.9673553744
 30
0.0
 10
5.1407926422
 20
1.9666104439
 30
0.0
 10
5.138504
 20
1.9660999003
 30
0.0
 10
5.1367787525
 20
1.9657581878
 30
0.0
 10
5.1350462224
 20
1.9654557677
 30
0.0
 10
5.1333075897
 20
1.9651907686
 30
0.0
 10
5.1315637823
 20
1.9649623429
 30
0.0
 10
5.1292331178
 20
1.9647048415
 30
0.0
 10
5.1263111613
 20
1.9644673196
 30
0.0
 10
5.1227973474
 20
1.9643039657
 30
0.0
 10
5.1204524718
 20
1.9642697106
 30
0.0
 10
5.1192801246
 20
1.9642700402
 30
0.0
  0
SPLINE
  5
29F
100
AcDbEntity
  8
0
100
AcDbSpline
 62
7
  6
CONTINUOUS
 70
0
 71
3
 72
11
 73
7
 74
0
 42
0.0000001
 43
0.0000001
 44
0.0000000001
 40
0.0
 40
0.0
 40
0.0
 40
0.0
 40
0.2499962272
 40
0.4999940757
 40
0.7499966081
 40
1.0
 40
1.0
 40
1.0
 40
1.0
 10
5.1605421356
 20
1.9766138006
 30
0.0
 10
5.1595677666
 20
1.9757112566
 30
0.0
 10
5.1575244048
 20
1.9740052075
 30
0.0
 10
5.1542102467
 20
1.9717807365
 30
0.0
 10
5.1506841683
 20
1.9699106977
 30
0.0
 10
5.1482199946
 20
1.9689054461
 30
0.0
 10
5.1469677264
 20
1.9684628336
 30
0.0
  0
SPLINE
  5
2A0
100
AcDbEntity
  8
0
100
AcDbSpline
 62
6
  6
CONTINUOUS
 70
0
 71
3
 72
16
 73
12
 74
0
 42
0.0000001
 43
0.0000001
 44
0.0000000001
 40
0.0
 40
0.0
 40
0.0
 40
0.0
 40
0.1249993282
 40
0.2499988276
 40
0.3749983716
 40
0.4999978748
 40
0.5624983676
 40
0.6249994409
 40
0.7499989224
 40
0.8749997085
 40
1.0
 40
1.0
 40
1.0
 40
1.0
 10
5.1092216833
 20
1.9857605622
 30
0.0
 10
5.1098516698
 20
1.9857221949
 30
0.0
 10
5.1111118208
 20
1.9856483034
 30
0.0
 10
5.1130027831
 20
1.9855505791
 30
0.0
 10
5.1148946705
 20
1.9854722793
 30
0.0
 10
5.1164720551
 20
1.9854293622
 30
0.0
 10
5.1177342807
 20
1.9854123677
 30
0.0
 10
5.1189966094
 20
1.9854082415
 30
0.0
 10
5.1205745458
 20
1.9854302535
 30
0.0
 10
5.1224665846
 20
1.9855105569
 30
0.0
 10
5.1237256065
 20
1.9856065937
 30
0.0
 10
5.1243538019
 20
1.9856676821
 30
0.0
  0
SPLINE
  5
2A1
100
AcDbEntity
  8
0
100
AcDbSpline
 62
7
  6
CONTINUOUS
 70
0
 71
3
 72
23
 73
19
 74
0
 42
0.0000001
 43
0.0000001
 44
0.0000000001
 40
0.0
 40
0.0
 40
0.0
 40
0.0
 40
0.1249997588
 40
0.2499995096
 40
0.3749992422
 40
0.4999989272
 40
0.562498817
 40
0.6249987019
 40
0.6874985756
 40
0.7499984296
 40
0.8124982408
 40
0.8437482414
 40
0.8749983615
 40
0.9062483299
 40
0.9374983536
 40
0.953123918
 40
0.9687498623
 40
1.0
 40
1.0
 40
1.0
 40
1.0
 10
5.0754053901
 20
1.9907551286
 30
0.0
 10
5.0768097339
 20
1.9905150769
 30
0.0
 10
5.0796188557
 20
1.9900375085
 30
0.0
 10
5.0838342003
 20
1.9893309904
 30
0.0
 10
5.0880517016
 20
1.9886374519
 30
0.0
 10
5.0915686696
 20
1.9880741238
 30
0.0
 10
5.0943841976
 20
1.9876358882
 30
0.0
 10
5.0964970154
 20
1.9873148132
 30
0.0
 10
5.0986112405
 20
1.9870031176
 30
0.0
 10
5.100727191
 20
1.9867033381
 30
0.0
 10
5.1024922855
 20
1.9864664763
 30
0.0
 10
5.1039057522
 20
1.98628775
 30
0.0
 10
5.1049666528
 20
1.9861601556
 30
0.0
 10
5.1060284883
 20
1.9860405593
 30
0.0
 10
5.1069142667
 20
1.9859492462
 30
0.0
 10
5.1076235379
 20
1.9858827524
 30
0.0
 10
5.1083332566
 20
1.9858212558
 30
0.0
 10
5.1088661616
 20
1.9857822141
 30
0.0
 10
5.1092216833
 20
1.9857605622
 30
0.0
  0
SPLINE
  5
2A2
100
AcDbEntity
  8
0
100
AcDbSpline
 62
7
  6
CONTINUOUS
 70
0
 71
3
 72
23
 73
19
 74
0
 42
0.0000001
 43
0.0000001
 44
0.0000000001
 40
0.0
 40
0.0
 40
0.0
 40
0.0
 40
0.0625003167
 40
0.0937525783
 40
0.1250040985
 40
0.1562545995
 40
0.1875047891
 40
0.2187549026
 40
0.2500049658
 40
0.3125050892
 40
0.375004907
 40
0.437504623
 40
0.5000042683
 40
0.5625038862
 40
0.6250034774
 40
0.7500022524
 40
0.8750011068
 40
1.0
 40
1.0
 40
1.0
 40
1.0
 10
5.0292804644
 20
1.9965005687
 30
0.0
 10
5.0302490522
 20
1.9964714814
 30
0.0
 10
5.0317014488
 20
1.9964088505
 30
0.0
 10
5.0336362126
 20
1.9962949266
 30
0.0
 10
5.0350864768
 20
1.9961962509
 30
0.0
 10
5.0365358426
 20
1.9960856767
 30
0.0
 10
5.0379843102
 20
1.9959641782
 30
0.0
 10
5.0394319096
 20
1.9958328407
 30
0.0
 10
5.0413609226
 20
1.9956458604
 30
0.0
 10
5.0437701225
 20
1.9953914149
 30
0.0
 10
5.0466580475
 20
1.995058153
 30
0.0
 10
5.049543047
 20
1.9947005642
 30
0.0
 10
5.0524253376
 20
1.9943218423
 30
0.0
 10
5.0553050999
 20
1.9939243958
 30
0.0
 10
5.0591416343
 20
1.9933722389
 30
0.0
 10
5.0639318536
 20
1.9926448238
 30
0.0
 10
5.0696724638
 20
1.99172323
 30
0.0
 10
5.0734950758
 20
1.9910816685
 30
0.0
 10
5.0754053901
 20
1.9907551286
 30
0.0
  0
SPLINE
  5
2A3
100
AcDbEntity
  8
0
100
AcDbSpline
 62
7
  6
CONTINUOUS
 70
0
 71
3
 72
21
 73
17
 74
0
 42
0.0000001
 43
0.0000001
 44
0.0000000001
 40
0.0
 40
0.0
 40
0.0
 40
0.0
 40
0.0625005653
 40
0.1250053031
 40
0.187506644
 40
0.2500073291
 40
0.3125084615
 40
0.3750087167
 40
0.4375089727
 40
0.50000881
 40
0.5625084115
 40
0.6250081983
 40
0.6875077552
 40
0.750007363
 40
0.8750033945
 40
1.0
 40
1.0
 40
1.0
 40
1.0
 10
5.0029650046
 20
1.9936421647
 30
0.0
 10
5.0034943332
 20
1.9938052591
 30
0.0
 10
5.0045584915
 20
1.9941139626
 30
0.0
 10
5.0061679844
 20
1.9945281054
 30
0.0
 10
5.0077885443
 20
1.9948965382
 30
0.0
 10
5.0094183588
 20
1.9952212955
 30
0.0
 10
5.0110558182
 20
1.9955048183
 30
0.0
 10
5.0126994947
 20
1.9957495627
 30
0.0
 10
5.0143481043
 20
1.9959582528
 30
0.0
 10
5.0160006176
 20
1.9961332033
 30
0.0
 10
5.0176562476
 20
1.9962755241
 30
0.0
 10
5.019314227
 20
1.9963869587
 30
0.0
 10
5.02097389
 20
1.9964694469
 30
0.0
 10
5.0231882195
 20
1.9965432463
 30
0.0
 10
5.0259578171
 20
1.9965720294
 30
0.0
 10
5.0281732337
 20
1.9965338196
 30
0.0
 10
5.0292804644
 20
1.9965005687
 30
0.0
  0
SPLINE
  5
2A4
100
AcDbEntity
  8
0
100
AcDbSpline
 62
7
  6
CONTINUOUS
 70
0
 71
3
 72
16
 73
12
 74
0
 42
0.0000001
 43
0.0000001
 44
0.0000000001
 40
0.0
 40
0.0
 40
0.0
 40
0.0
 40
0.1249909924
 40
0.1875015617
 40
0.250008459
 40
0.3750054665
 40
0.5000042658
 40
0.625002784
 40
0.7500013557
 40
0.8750083121
 40
1.0
 40
1.0
 40
1.0
 40
1.0
 10
4.983858816
 20
1.9833515165
 30
0.0
 10
4.9845521955
 20
1.9839414425
 30
0.0
 10
4.985617111
 20
1.9847978892
 30
0.0
 10
4.9870817973
 20
1.9858800748
 30
0.0
 10
4.9885754735
 20
1.9869220368
 30
0.0
 10
4.9904943719
 20
1.9881483938
 30
0.0
 10
4.9928714345
 20
1.9894960372
 30
0.0
 10
4.9953146345
 20
1.9907196359
 30
0.0
 10
4.997815731
 20
1.9918200122
 30
0.0
 10
5.0003663531
 20
1.9927995998
 30
0.0
 10
5.0020949833
 20
1.9933740974
 30
0.0
 10
5.0029650046
 20
1.9936421647
 30
0.0
  0
SPLINE
  5
2A5
100
AcDbEntity
  8
0
100
AcDbSpline
 62
7
  6
CONTINUOUS
 70
0
 71
3
 72
25
 73
21
 74
0
 42
0.0000001
 43
0.0000001
 44
0.0000000001
 40
0.0
 40
0.0
 40
0.0
 40
0.0
 40
0.1249835385
 40
0.1874954977
 40
0.2499996293
 40
0.3125045376
 40
0.3750086142
 40
0.4375104876
 40
0.5000106829
 40
0.5625100608
 40
0.593762009
 40
0.6250139552
 40
0.6875115171
 40
0.7500088387
 40
0.7812596051
 40
0.8125101811
 40
0.8750052289
 40
0.9062556512
 40
0.9375064792
 40
1.0
 40
1.0
 40
1.0
 40
1.0
 10
4.9662897912
 20
1.9488946761
 30
0.0
 10
4.96638174
 20
1.9505512695
 30
0.0
 10
4.9666358757
 20
1.9530324749
 30
0.0
 10
4.9672234531
 20
1.9562998481
 30
0.0
 10
4.9677920393
 20
1.958724663
 30
0.0
 10
4.9684911312
 20
1.9611149628
 30
0.0
 10
4.9693200185
 20
1.9634634228
 30
0.0
 10
4.9702773913
 20
1.9657624627
 30
0.0
 10
4.9713610394
 20
1.9680046398
 30
0.0
 10
4.9723656337
 20
1.9698206342
 30
0.0
 10
4.9732272596
 20
1.9712390087
 30
0.0
 10
4.9741263436
 20
1.9726339167
 30
0.0
 10
4.975318476
 20
1.9743324713
 30
0.0
 10
4.976595649
 20
1.9759679244
 30
0.0
 10
4.9776646884
 20
1.9772371955
 30
0.0
 10
4.9787639096
 20
1.9784803653
 30
0.0
 10
4.9799067396
 20
1.9796843309
 30
0.0
 10
4.9810886034
 20
1.9808491716
 30
0.0
 10
4.9822952274
 20
1.9819883084
 30
0.0
 10
4.9832269639
 20
1.982813938
 30
0.0
 10
4.983858816
 20
1.9833515165
 30
0.0
  0
SPLINE
  5
2A6
100
AcDbEntity
  8
0
100
AcDbSpline
 62
7
  6
CONTINUOUS
 70
0
 71
3
 72
24
 73
20
 74
0
 42
0.0000001
 43
0.0000001
 44
0.0000000001
 40
0.0
 40
0.0
 40
0.0
 40
0.0
 40
0.062492534
 40
0.124990171
 40
0.1874862632
 40
0.2499824552
 40
0.3124802574
 40
0.3749793131
 40
0.4374782863
 40
0.4999792987
 40
0.5312319795
 40
0.5624854617
 40
0.5937395572
 40
0.6249938294
 40
0.6874991826
 40
0.7500049194
 40
0.8125103754
 40
0.8750227657
 40
1.0
 40
1.0
 40
1.0
 40
1.0
 10
4.9816455116
 20
1.9082454804
 30
0.0
 10
4.9810440866
 20
1.9089523755
 30
0.0
 10
4.9798638373
 20
1.9103856961
 30
0.0
 10
4.9781669764
 20
1.9125940978
 30
0.0
 10
4.9765496249
 20
1.9148615762
 30
0.0
 10
4.9750202625
 20
1.9171894152
 30
0.0
 10
4.9735866183
 20
1.9195775376
 30
0.0
 10
4.9722561334
 20
1.9220247869
 30
0.0
 10
4.9710368761
 20
1.9245294286
 30
0.0
 10
4.9701204585
 20
1.9266625255
 30
0.0
 10
4.9694513754
 20
1.9283945205
 30
0.0
 10
4.9689826334
 20
1.9297059251
 30
0.0
 10
4.9685478678
 20
1.9310290148
 30
0.0
 10
4.9680145646
 20
1.9328076272
 30
0.0
 10
4.9674370533
 20
1.9350567075
 30
0.0
 10
4.9668922679
 20
1.9377892332
 30
0.0
 10
4.9665008908
 20
1.9405482619
 30
0.0
 10
4.9661866835
 20
1.9442491526
 30
0.0
 10
4.9661869256
 20
1.9470413986
 30
0.0
 10
4.9662897912
 20
1.9488946761
 30
0.0
  0
SPLINE
  5
2A7
100
AcDbEntity
  8
0
100
AcDbSpline
 62
7
  6
CONTINUOUS
 70
0
 71
3
 72
27
 73
23
 74
0
 42
0.0000001
 43
0.0000001
 44
0.0000000001
 40
0.0
 40
0.0
 40
0.0
 40
0.0
 40
0.0624977197
 40
0.0937568828
 40
0.1250139433
 40
0.1562683704
 40
0.1875215702
 40
0.2187742631
 40
0.250027251
 40
0.3125286633
 40
0.3750280124
 40
0.4062801483
 40
0.4375313593
 40
0.500029754
 40
0.562526631
 40
0.6250243907
 40
0.6875211216
 40
0.7500172109
 40
0.8125117244
 40
0.8750098642
 40
0.9375078429
 40
1.0
 40
1.0
 40
1.0
 40
1.0
 10
5.0181729759
 20
1.8854871911
 30
0.0
 10
5.0172664691
 20
1.8856226198
 30
0.0
 10
5.0159121701
 20
1.8858664239
 30
0.0
 10
5.0141237582
 20
1.8862709039
 30
0.0
 10
5.0127917544
 20
1.8866137553
 30
0.0
 10
5.0114704659
 20
1.8869954148
 30
0.0
 10
5.0101608434
 20
1.8874151539
 30
0.0
 10
5.008863838
 20
1.8878723426
 30
0.0
 10
5.0071525723
 20
1.8885306178
 30
0.0
 10
5.0050487227
 20
1.8894420072
 30
0.0
 10
5.0029964982
 20
1.8904640268
 30
0.0
 10
5.0013876956
 20
1.8913433044
 30
0.0
 10
4.999801266
 20
1.8922623065
 30
0.0
 10
4.9978605832
 20
1.8934824357
 30
0.0
 10
4.9956009173
 20
1.895050713
 30
0.0
 10
4.9934100786
 20
1.8967136082
 30
0.0
 10
4.9912870036
 20
1.898462016
 30
0.0
 10
4.9892311161
 20
1.9002887844
 30
0.0
 10
4.9872410961
 20
1.9021869995
 30
0.0
 10
4.985313766
 20
1.9041487585
 30
0.0
 10
4.9834459598
 20
1.9061671235
 30
0.0
 10
4.9822393954
 20
1.9075474489
 30
0.0
 10
4.9816455116
 20
1.9082454804
 30
0.0
  0
SPLINE
  5
2A8
100
AcDbEntity
  8
0
100
AcDbSpline
 62
7
  6
CONTINUOUS
 70
0
 71
3
 72
27
 73
23
 74
0
 42
0.0000001
 43
0.0000001
 44
0.0000000001
 40
0.0
 40
0.0
 40
0.0
 40
0.0
 40
0.0624882017
 40
0.1249815191
 40
0.1874739736
 40
0.2499659569
 40
0.312460162
 40
0.3749555454
 40
0.4374509088
 40
0.4999485724
 40
0.5624457496
 40
0.6249451977
 40
0.6561980973
 40
0.6874522904
 40
0.7187070064
 40
0.7499611675
 40
0.7812149362
 40
0.8124692254
 40
0.8437248352
 40
0.8749829515
 40
0.9375004797
 40
1.0
 40
1.0
 40
1.0
 40
1.0
 10
5.058872605
 20
1.8973960873
 30
0.0
 10
5.0581366056
 20
1.8968670811
 30
0.0
 10
5.0566485794
 20
1.8958310144
 30
0.0
 10
5.0543686702
 20
1.8943480789
 30
0.0
 10
5.0520403967
 20
1.8929419929
 30
0.0
 10
5.0496623643
 20
1.8916215836
 30
0.0
 10
5.0472343869
 20
1.890395145
 30
0.0
 10
5.0447574946
 20
1.8892704217
 30
0.0
 10
5.0422332682
 20
1.8882559628
 30
0.0
 10
5.0396641335
 20
1.8873608401
 30
0.0
 10
5.037053507
 20
1.8865945775
 30
0.0
 10
5.0348470779
 20
1.8860714396
 30
0.0
 10
5.033066888
 20
1.8857259238
 30
0.0
 10
5.0317248745
 20
1.8855042324
 30
0.0
 10
5.0303770847
 20
1.8853207981
 30
0.0
 10
5.0290245572
 20
1.8851763624
 30
0.0
 10
5.0276683693
 20
1.8850717314
 30
0.0
 10
5.0263096457
 20
1.885007525
 30
0.0
 10
5.0249495357
 20
1.8849839569
 30
0.0
 10
5.0231358717
 20
1.8850070509
 30
0.0
 10
5.0208715071
 20
1.8851389756
 30
0.0
 10
5.0190695794
 20
1.885353242
 30
0.0
 10
5.0181729759
 20
1.8854871911
 30
0.0
  0
SPLINE
  5
2A9
100
AcDbEntity
  8
0
100
AcDbSpline
 62
7
  6
CONTINUOUS
 70
0
 71
3
 72
24
 73
20
 74
0
 42
0.0000001
 43
0.0000001
 44
0.0000000001
 40
0.0
 40
0.0
 40
0.0
 40
0.0
 40
0.0624948152
 40
0.1250044708
 40
0.1875086172
 40
0.2500088575
 40
0.3125115546
 40
0.3750151436
 40
0.4062691441
 40
0.4375231693
 40
0.4687768818
 40
0.5000295864
 40
0.562530774
 40
0.6250325315
 40
0.687532646
 40
0.750030507
 40
0.8125271322
 40
0.8750282499
 40
1.0
 40
1.0
 40
1.0
 40
1.0
 10
5.0197282859
 20
1.9062209614
 30
0.0
 10
5.020330931
 20
1.9061723792
 30
0.0
 10
5.0215391149
 20
1.9061063021
 30
0.0
 10
5.0233539688
 20
1.9061028051
 30
0.0
 10
5.0251665014
 20
1.9061971381
 30
0.0
 10
5.026971157
 20
1.9063899723
 30
0.0
 10
5.028762501
 20
1.9066813951
 30
0.0
 10
5.0302400861
 20
1.9070045776
 30
0.0
 10
5.0314103899
 20
1.9073101068
 30
0.0
 10
5.0322818316
 20
1.9075622877
 30
0.0
 10
5.0331463965
 20
1.9078370694
 30
0.0
 10
5.0342892329
 20
1.9082330235
 30
0.0
 10
5.0356984617
 20
1.9087819307
 30
0.0
 10
5.0373555687
 20
1.9095214552
 30
0.0
 10
5.0389766754
 20
1.9103367435
 30
0.0
 10
5.0405599832
 20
1.9112229651
 30
0.0
 10
5.0421045403
 20
1.9121750888
 30
0.0
 10
5.0441119631
 20
1.9135243731
 30
0.0
 10
5.0455604673
 20
1.914619107
 30
0.0
 10
5.0465003886
 20
1.9153795641
 30
0.0
  0
SPLINE
  5
2AA
100
AcDbEntity
  8
0
100
AcDbSpline
 62
7
  6
CONTINUOUS
 70
0
 71
3
 72
26
 73
22
 74
0
 42
0.0000001
 43
0.0000001
 44
0.0000000001
 40
0.0
 40
0.0
 40
0.0
 40
0.0
 40
0.0624876732
 40
0.1249845214
 40
0.1874832453
 40
0.2499773848
 40
0.3124717577
 40
0.3749692959
 40
0.4374686898
 40
0.4999679123
 40
0.531219431
 40
0.5624724354
 40
0.6249736518
 40
0.6562276818
 40
0.6874826574
 40
0.7499846959
 40
0.7812377835
 40
0.8124910209
 40
0.8749950541
 40
0.9375059705
 40
1.0
 40
1.0
 40
1.0
 40
1.0
 10
4.9959757394
 20
1.9196288534
 30
0.0
 10
4.9963540323
 20
1.9191842204
 30
0.0
 10
4.9971245866
 20
1.9183066017
 30
0.0
 10
4.9983235373
 20
1.9170292761
 30
0.0
 10
4.999566838
 20
1.915794899
 30
0.0
 10
5.0008562384
 20
1.9146086918
 30
0.0
 10
5.0021936836
 20
1.9134768315
 30
0.0
 10
5.0035798464
 20
1.9124049986
 30
0.0
 10
5.0050142813
 20
1.9113985345
 30
0.0
 10
5.0062494699
 20
1.9106193268
 30
0.0
 10
5.0072608664
 20
1.9100351996
 30
0.0
 10
5.008287544
 20
1.909478364
 30
0.0
 10
5.009336633
 20
1.908963583
 30
0.0
 10
5.0104059767
 20
1.9084937016
 30
0.0
 10
5.0114882976
 20
1.9080545303
 30
0.0
 10
5.0125891726
 20
1.9076622539
 30
0.0
 10
5.0137056482
 20
1.9073191186
 30
0.0
 10
5.0148318001
 20
1.9070091117
 30
0.0
 10
5.016255976
 20
1.9066838589
 30
0.0
 10
5.017984618
 20
1.9063944594
 30
0.0
 10
5.0191463302
 20
1.9062678757
 30
0.0
 10
5.0197282859
 20
1.9062209614
 30
0.0
  0
SPLINE
  5
2AB
100
AcDbEntity
  8
0
100
AcDbSpline
 62
7
  6
CONTINUOUS
 70
0
 71
3
 72
22
 73
18
 74
0
 42
0.0000001
 43
0.0000001
 44
0.0000000001
 40
0.0
 40
0.0
 40
0.0
 40
0.0
 40
0.1249678359
 40
0.1874736154
 40
0.2499756347
 40
0.3124805371
 40
0.3749866532
 40
0.4374924584
 40
0.4687478169
 40
0.5000025111
 40
0.56250734
 40
0.6250131131
 40
0.6875172827
 40
0.7500195314
 40
0.812519633
 40
0.8750242458
 40
1.0
 40
1.0
 40
1.0
 40
1.0
 10
4.9872302298
 20
1.9441865888
 30
0.0
 10
4.9871629238
 20
1.9430743369
 30
0.0
 10
4.9871421709
 20
1.9413992149
 30
0.0
 10
4.9872850016
 20
1.9391741613
 30
0.0
 10
4.9874789406
 20
1.9375126375
 30
0.0
 10
4.9877608034
 20
1.9358638032
 30
0.0
 10
4.9881295597
 20
1.9342321761
 30
0.0
 10
4.9885083648
 20
1.9328905606
 30
0.0
 10
4.9888530685
 20
1.931830368
 30
0.0
 10
4.9892252642
 20
1.9307795181
 30
0.0
 10
4.9897409895
 20
1.9294844237
 30
0.0
 10
4.9904362644
 20
1.9279631358
 30
0.0
 10
4.9912038309
 20
1.9264770594
 30
0.0
 10
4.9920394062
 20
1.9250282579
 30
0.0
 10
4.9929386864
 20
1.9236181246
 30
0.0
 10
4.9942152886
 20
1.9217903804
 30
0.0
 10
4.9952536345
 20
1.9204775917
 30
0.0
 10
4.9959757394
 20
1.9196288534
 30
0.0
  0
SPLINE
  5
2AC
100
AcDbEntity
  8
0
100
AcDbSpline
 62
7
  6
CONTINUOUS
 70
0
 71
3
 72
21
 73
17
 74
0
 42
0.0000001
 43
0.0000001
 44
0.0000000001
 40
0.0
 40
0.0
 40
0.0
 40
0.0
 40
0.1249686952
 40
0.2499471422
 40
0.3124513803
 40
0.374961105
 40
0.4374704013
 40
0.4999808399
 40
0.5624910821
 40
0.6250004471
 40
0.6875099388
 40
0.718766122
 40
0.7500204186
 40
0.8125245027
 40
0.875033773
 40
1.0
 40
1.0
 40
1.0
 40
1.0
 10
4.9980834271
 20
1.9656352163
 30
0.0
 10
4.9972984844
 20
1.9649673886
 30
0.0
 10
4.9957828502
 20
1.9635660394
 30
0.0
 10
4.9940561573
 20
1.9616477281
 30
0.0
 10
4.9927951182
 20
1.9600157312
 30
0.0
 10
4.9919138146
 20
1.9587440626
 30
0.0
 10
4.9911010453
 20
1.9574274627
 30
0.0
 10
4.9903610241
 20
1.9560686056
 30
0.0
 10
4.9896961153
 20
1.9546714457
 30
0.0
 10
4.9891090146
 20
1.9532398763
 30
0.0
 10
4.9886853124
 20
1.952022025
 30
0.0
 10
4.9883858485
 20
1.9510353438
 30
0.0
 10
4.9881127659
 20
1.9500410893
 30
0.0
 10
4.9878203137
 20
1.9487853175
 30
0.0
 10
4.9874547949
 20
1.9467558271
 30
0.0
 10
4.9872924793
 20
1.9452152831
 30
0.0
 10
4.9872302298
 20
1.9441865888
 30
0.0
  0
SPLINE
  5
2AD
100
AcDbEntity
  8
0
100
AcDbSpline
 62
7
  6
CONTINUOUS
 70
0
 71
3
 72
23
 73
19
 74
0
 42
0.0000001
 43
0.0000001
 44
0.0000000001
 40
0.0
 40
0.0
 40
0.0
 40
0.0
 40
0.0624943302
 40
0.1249925001
 40
0.1874903422
 40
0.2499858491
 40
0.3124826627
 40
0.3749791225
 40
0.4374762025
 40
0.4999738065
 40
0.5624718494
 40
0.6249711416
 40
0.68747168
 40
0.7499754052
 40
0.8124776824
 40
0.8749826605
 40
0.937498341
 40
1.0
 40
1.0
 40
1.0
 40
1.0
 10
5.025123438
 20
1.9748607922
 30
0.0
 10
5.0245197663
 20
1.9748185044
 30
0.0
 10
5.0233132545
 20
1.9747208586
 30
0.0
 10
5.0215073071
 20
1.9745330998
 30
0.0
 10
5.019706329
 20
1.9743021628
 30
0.0
 10
5.0179119346
 20
1.9740245408
 30
0.0
 10
5.0161260552
 20
1.973696434
 30
0.0
 10
5.0143509836
 20
1.9733138567
 30
0.0
 10
5.0125894824
 20
1.97287278
 30
0.0
 10
5.0108444865
 20
1.9723701499
 30
0.0
 10
5.0091195119
 20
1.9718023095
 30
0.0
 10
5.0074191645
 20
1.971164179
 30
0.0
 10
5.0057485492
 20
1.9704514819
 30
0.0
 10
5.0041134803
 20
1.9696603407
 30
0.0
 10
5.0025206452
 20
1.9687869818
 30
0.0
 10
5.0009773024
 20
1.9678284131
 30
0.0
 10
4.9994914396
 20
1.9667829217
 30
0.0
 10
4.998544388
 20
1.9660274009
 30
0.0
 10
4.9980834271
 20
1.9656352163
 30
0.0
  0
SPLINE
  5
2AE
100
AcDbEntity
  8
0
100
AcDbSpline
 62
7
  6
CONTINUOUS
 70
0
 71
3
 72
27
 73
23
 74
0
 42
0.0000001
 43
0.0000001
 44
0.0000000001
 40
0.0
 40
0.0
 40
0.0
 40
0.0
 40
0.1249993305
 40
0.1874992132
 40
0.2499991165
 40
0.3124990286
 40
0.3749989284
 40
0.4374988151
 40
0.4999986846
 40
0.5624985092
 40
0.6249982784
 40
0.6874979217
 40
0.7187479964
 40
0.7499980948
 40
0.7812482041
 40
0.8124983281
 40
0.874997178
 40
0.90624748
 40
0.9374977364
 40
0.9531233856
 40
0.9687495783
 40
1.0
 40
1.0
 40
1.0
 40
1.0
 10
5.0797711561
 20
1.9689344372
 30
0.0
 10
5.0775151443
 20
1.9693573764
 30
0.0
 10
5.0741281365
 20
1.9699761
 30
0.0
 10
5.0696053408
 20
1.9707625238
 30
0.0
 10
5.0662095714
 20
1.9713309195
 30
0.0
 10
5.0628098626
 20
1.9718752876
 30
0.0
 10
5.0594060368
 20
1.9723933286
 30
0.0
 10
5.055997966
 20
1.9728827085
 30
0.0
 10
5.0525854861
 20
1.9733404072
 30
0.0
 10
5.0491682649
 20
1.9737614305
 30
0.0
 10
5.045745903
 20
1.9741385788
 30
0.0
 10
5.0428895062
 20
1.9744102588
 30
0.0
 10
5.0406018253
 20
1.9745977468
 30
0.0
 10
5.0388848171
 20
1.9747223873
 30
0.0
 10
5.0371666121
 20
1.9748294832
 30
0.0
 10
5.0348742482
 20
1.9749462667
 30
0.0
 10
5.0325797037
 20
1.97501915
 30
0.0
 10
5.0302843569
 20
1.975036185
 30
0.0
 10
5.0288497375
 20
1.975020861
 30
0.0
 10
5.0277024054
 20
1.9749908934
 30
0.0
 10
5.0265554747
 20
1.9749484185
 30
0.0
 10
5.0256958746
 20
1.9749008918
 30
0.0
 10
5.025123438
 20
1.9748607922
 30
0.0
  0
SPLINE
  5
2AF
100
AcDbEntity
  8
0
100
AcDbSpline
 62
7
  6
CONTINUOUS
 70
0
 71
3
 72
29
 73
25
 74
0
 42
0.0000001
 43
0.0000001
 44
0.0000000001
 40
0.0
 40
0.0
 40
0.0
 40
0.0
 40
0.0312526569
 40
0.0625161976
 40
0.0937723848
 40
0.125026374
 40
0.1875244568
 40
0.2500226698
 40
0.3125206895
 40
0.3437714517
 40
0.3750216891
 40
0.4062719952
 40
0.437521747
 40
0.4687715804
 40
0.5000211838
 40
0.5625188593
 40
0.6250163905
 40
0.6875137503
 40
0.7187628446
 40
0.7500118206
 40
0.8125090091
 40
0.8750060155
 40
0.9375031906
 40
1.0
 40
1.0
 40
1.0
 40
1.0
 10
4.9321333244
 20
2.015809284
 30
0.0
 10
4.9327827413
 20
2.0158705449
 30
0.0
 10
4.9340783672
 20
2.0160321864
 30
0.0
 10
4.9360055774
 20
2.0163777763
 30
0.0
 10
4.9379143753
 20
2.0168135263
 30
0.0
 10
4.9404316979
 20
2.0175020714
 30
0.0
 10
4.9435258493
 20
2.0185415247
 30
0.0
 10
4.9471546804
 20
2.0200112253
 30
0.0
 10
4.9501128946
 20
2.021386866
 30
0.0
 10
4.9524423538
 20
2.0225619978
 30
0.0
 10
4.9541719114
 20
2.0234774427
 30
0.0
 10
4.9558845885
 20
2.0244239825
 30
0.0
 10
4.9575813249
 20
2.0253987697
 30
0.0
 10
4.9592627613
 20
2.0263996697
 30
0.0
 10
4.9614853422
 20
2.0277660383
 30
0.0
 10
4.96422892
 20
2.0295296033
 30
0.0
 10
4.967469888
 20
2.0317233653
 30
0.0
 10
4.9701306933
 20
2.0336092235
 30
0.0
 10
4.9722373187
 20
2.0351482317
 30
0.0
 10
4.9743301111
 20
2.0367059968
 30
0.0
 10
4.9769213177
 20
2.0386862202
 30
0.0
 10
4.9799944738
 20
2.041109144
 30
0.0
 10
4.9830336399
 20
2.0435745265
 30
0.0
 10
4.9850383155
 20
2.0452441986
 30
0.0
 10
4.9860355109
 20
2.0460851023
 30
0.0
  0
SPLINE
  5
2B0
100
AcDbEntity
  8
0
100
AcDbSpline
 62
6
  6
CONTINUOUS
 70
0
 71
3
 72
27
 73
23
 74
0
 42
0.0000001
 43
0.0000001
 44
0.0000000001
 40
0.0
 40
0.0
 40
0.0
 40
0.0
 40
0.0624915522
 40
0.1249939916
 40
0.1874926344
 40
0.2187447048
 40
0.2499985285
 40
0.312498441
 40
0.3749973525
 40
0.4062499742
 40
0.4375028998
 40
0.5000001216
 40
0.5624975708
 40
0.5937505906
 40
0.6250034949
 40
0.6875039304
 40
0.7500044964
 40
0.7812581352
 40
0.8125097289
 40
0.8750081815
 40
0.9375093089
 40
1.0
 40
1.0
 40
1.0
 40
1.0
 10
4.9066344064
 20
2.0261017079
 30
0.0
 10
4.9070187826
 20
2.0256436263
 30
0.0
 10
4.9078105444
 20
2.0247463093
 30
0.0
 10
4.909067405
 20
2.0234648614
 30
0.0
 10
4.9101733212
 20
2.0224572193
 30
0.0
 10
4.9110931449
 20
2.0216922682
 30
0.0
 10
4.9120362436
 20
2.0209561852
 30
0.0
 10
4.9132579103
 20
2.0200922759
 30
0.0
 10
4.9145334065
 20
2.0193098661
 30
0.0
 10
4.915583446
 20
2.018736517
 30
0.0
 10
4.9166524289
 20
2.0181993529
 30
0.0
 10
4.9180221093
 20
2.0175967585
 30
0.0
 10
4.9194297518
 20
2.0170891748
 30
0.0
 10
4.9205742737
 20
2.0167408413
 30
0.0
 10
4.9217298585
 20
2.0164310646
 30
0.0
 10
4.9231924349
 20
2.0161151561
 30
0.0
 10
4.924671914
 20
2.0158920817
 30
0.0
 10
4.9258617396
 20
2.0157674495
 30
0.0
 10
4.9270547146
 20
2.0156781054
 30
0.0
 10
4.9285499693
 20
2.0156305579
 30
0.0
 10
4.9303443894
 20
2.0156685578
 30
0.0
 10
4.9315379924
 20
2.015753125
 30
0.0
 10
4.9321333244
 20
2.015809284
 30
0.0
  0
SPLINE
  5
2B1
100
AcDbEntity
  8
0
100
AcDbSpline
 62
7
  6
CONTINUOUS
 70
0
 71
3
 72
29
 73
25
 74
0
 42
0.0000001
 43
0.0000001
 44
0.0000000001
 40
0.0
 40
0.0
 40
0.0
 40
0.0
 40
0.0624826585
 40
0.1249743315
 40
0.1874657226
 40
0.2187119399
 40
0.2499598955
 40
0.3124535975
 40
0.3749493587
 40
0.4374440973
 40
0.4999407005
 40
0.5624377388
 40
0.5936917583
 40
0.6249459117
 40
0.6562000256
 40
0.6874548911
 40
0.7187104736
 40
0.7499658915
 40
0.7812200571
 40
0.8124740584
 40
0.8437302473
 40
0.8749894241
 40
0.937504398
 40
1.0
 40
1.0
 40
1.0
 40
1.0
 10
4.9012874727
 20
2.055236525
 30
0.0
 10
4.9011242875
 20
2.0546144604
 30
0.0
 10
4.9008216124
 20
2.0533638525
 30
0.0
 10
4.9004444836
 20
2.0514710097
 30
0.0
 10
4.9001994705
 20
2.0498811362
 30
0.0
 10
4.9000496325
 20
2.0486033378
 30
0.0
 10
4.8999320869
 20
2.0473221456
 30
0.0
 10
4.8998479856
 20
2.0457154096
 30
0.0
 10
4.8998540657
 20
2.0437846832
 30
0.0
 10
4.8999740376
 20
2.0418574527
 30
0.0
 10
4.9002155675
 20
2.0399415529
 30
0.0
 10
4.9005217536
 20
2.0383614081
 30
0.0
 10
4.9008311241
 20
2.0371123012
 30
0.0
 10
4.9010953884
 20
2.0361839152
 30
0.0
 10
4.9013918827
 20
2.0352653107
 30
0.0
 10
4.9017206397
 20
2.0343577318
 30
0.0
 10
4.9020811484
 20
2.0334622801
 30
0.0
 10
4.9024728257
 20
2.0325800247
 30
0.0
 10
4.9028951741
 20
2.031712053
 30
0.0
 10
4.9033474319
 20
2.030859283
 30
0.0
 10
4.9038285807
 20
2.0300224128
 30
0.0
 10
4.9045072984
 20
2.0289288051
 30
0.0
 10
4.9054231412
 20
2.0276051344
 30
0.0
 10
4.906220936
 20
2.0265944628
 30
0.0
 10
4.9066344064
 20
2.0261017079
 30
0.0
  0
SPLINE
  5
2B2
100
AcDbEntity
  8
0
100
AcDbSpline
 62
7
  6
CONTINUOUS
 70
0
 71
3
 72
38
 73
34
 74
0
 42
0.0000001
 43
0.0000001
 44
0.0000000001
 40
0.0
 40
0.0
 40
0.0
 40
0.0
 40
0.0624978258
 40
0.12499609
 40
0.1562453162
 40
0.1874944985
 40
0.2187437849
 40
0.2499931699
 40
0.3124914369
 40
0.3749897832
 40
0.4374879713
 40
0.4687374559
 40
0.499987062
 40
0.5312365633
 40
0.5624862249
 40
0.5937358321
 40
0.6249855378
 40
0.6562351999
 40
0.6874850137
 40
0.7187345974
 40
0.7499842377
 40
0.7812338476
 40
0.8124833489
 40
0.8437328841
 40
0.874982631
 40
0.8906088896
 40
0.90623534
 40
0.9218613277
 40
0.9374876115
 40
0.9531146976
 40
0.9687443447
 40
0.9843742462
 40
1.0
 40
1.0
 40
1.0
 40
1.0
 10
4.9397863636
 20
2.1012026899
 30
0.0
 10
4.9388197849
 20
2.1003876043
 30
0.0
 10
4.9368948937
 20
2.0987475862
 30
0.0
 10
4.9345111514
 20
2.0966715782
 30
0.0
 10
4.9326187974
 20
2.0949941624
 30
0.0
 10
4.9312072792
 20
2.0937274049
 30
0.0
 10
4.9298038785
 20
2.0924516524
 30
0.0
 10
4.9279441979
 20
2.0907380737
 30
0.0
 10
4.9256428579
 20
2.0885709657
 30
0.0
 10
4.9229242068
 20
2.0859255372
 30
0.0
 10
4.9207007438
 20
2.0836784502
 30
0.0
 10
4.9189509582
 20
2.0818527476
 30
0.0
 10
4.9176539933
 20
2.0804688661
 30
0.0
 10
4.9163738028
 20
2.0790694412
 30
0.0
 10
4.9151117615
 20
2.0776536158
 30
0.0
 10
4.9138697249
 20
2.0762201895
 30
0.0
 10
4.9126497565
 20
2.0747679177
 30
0.0
 10
4.9114543097
 20
2.0732953692
 30
0.0
 10
4.9102860684
 20
2.0718011224
 30
0.0
 10
4.9091485438
 20
2.0702833252
 30
0.0
 10
4.9080457489
 20
2.0687400759
 30
0.0
 10
4.9069817285
 20
2.067169798
 30
0.0
 10
4.9059618107
 20
2.0655704506
 30
0.0
 10
4.9049925975
 20
2.0639398097
 30
0.0
 10
4.9042335788
 20
2.0625529726
 30
0.0
 10
4.9036606506
 20
2.0614256579
 30
0.0
 10
4.9032496371
 20
2.0605708661
 30
0.0
 10
4.9028592364
 20
2.0597064516
 30
0.0
 10
4.9024913188
 20
2.0588321999
 30
0.0
 10
4.902147569
 20
2.0579480747
 30
0.0
 10
4.9018295629
 20
2.0570542678
 30
0.0
 10
4.9015397931
 20
2.056150923
 30
0.0
 10
4.9013676858
 20
2.0555422984
 30
0.0
 10
4.9012874727
 20
2.055236525
 30
0.0
  0
SPLINE
  5
2B3
100
AcDbEntity
  8
0
100
AcDbSpline
 62
7
  6
CONTINUOUS
 70
0
 71
3
 72
37
 73
33
 74
0
 42
0.0000001
 43
0.0000001
 44
0.0000000001
 40
0.0
 40
0.0
 40
0.0
 40
0.0
 40
0.0156256859
 40
0.03125483
 40
0.0468832373
 40
0.0625097325
 40
0.0781357271
 40
0.0937617185
 40
0.1093880224
 40
0.1250137681
 40
0.1406393316
 40
0.1562647837
 40
0.1875143315
 40
0.2187638598
 40
0.2500134627
 40
0.2812631159
 40
0.3125129388
 40
0.3437626621
 40
0.375012515
 40
0.4062622693
 40
0.4375119988
 40
0.4687616948
 40
0.5000114225
 40
0.5625096724
 40
0.6250081621
 40
0.6875067297
 40
0.7187564281
 40
0.7500059685
 40
0.8125046495
 40
0.8750031325
 40
0.9375017675
 40
1.0
 40
1.0
 40
1.0
 40
1.0
 10
4.9916423736
 20
2.1310910578
 30
0.0
 10
4.991328082
 20
2.1310627433
 30
0.0
 10
4.9907004179
 20
2.1309945834
 30
0.0
 10
4.9897629335
 20
2.1308609124
 30
0.0
 10
4.9888298964
 20
2.1306990759
 30
0.0
 10
4.9879018357
 20
2.130511195
 30
0.0
 10
4.9869791508
 20
2.1302987468
 30
0.0
 10
4.9860620632
 20
2.130063378
 30
0.0
 10
4.985150687
 20
2.1298068491
 30
0.0
 10
4.9842450234
 20
2.1295308974
 30
0.0
 10
4.9833450623
 20
2.1292369582
 30
0.0
 10
4.9821526012
 20
2.1288229945
 30
0.0
 10
4.9806757407
 20
2.1282669804
 30
0.0
 10
4.9789251584
 20
2.1275452292
 30
0.0
 10
4.9771949375
 20
2.1267760421
 30
0.0
 10
4.9754843283
 20
2.1259642473
 30
0.0
 10
4.9737924852
 20
2.1251140984
 30
0.0
 10
4.9721183277
 20
2.124229679
 30
0.0
 10
4.9704608295
 20
2.1233144647
 30
0.0
 10
4.9688189776
 20
2.1223714999
 30
0.0
 10
4.9671920253
 20
2.1214030846
 30
0.0
 10
4.9655791501
 20
2.1204114193
 30
0.0
 10
4.9634463039
 20
2.119060995
 30
0.0
 10
4.9608115593
 20
2.1173240771
 30
0.0
 10
4.9576965033
 20
2.1151709256
 30
0.0
 10
4.9551364769
 20
2.1133258515
 30
0.0
 10
4.9531079009
 20
2.1118233909
 30
0.0
 10
4.9510915263
 20
2.1103045867
 30
0.0
 10
4.9485929663
 20
2.1083772159
 30
0.0
 10
4.9456265583
 20
2.1060237147
 30
0.0
 10
4.9426900746
 20
2.1036330176
 30
0.0
 10
4.9407512557
 20
2.1020163533
 30
0.0
 10
4.9397863636
 20
2.1012026899
 30
0.0
  0
SPLINE
  5
2B4
100
AcDbEntity
  8
0
100
AcDbSpline
 62
7
  6
CONTINUOUS
 70
0
 71
3
 72
28
 73
24
 74
0
 42
0.0000001
 43
0.0000001
 44
0.0000000001
 40
0.0
 40
0.0
 40
0.0
 40
0.0
 40
0.062496157
 40
0.1250126132
 40
0.1562722262
 40
0.1875287156
 40
0.2187830442
 40
0.2500374941
 40
0.2812931305
 40
0.3125489997
 40
0.3438041623
 40
0.3750584646
 40
0.4063127991
 40
0.437567019
 40
0.5000642814
 40
0.5625612855
 40
0.6250561986
 40
0.6875521249
 40
0.7500457877
 40
0.8125351528
 40
0.8750260311
 40
0.9375174697
 40
1.0
 40
1.0
 40
1.0
 40
1.0
 10
5.0193453248
 20
2.1209979559
 30
0.0
 10
5.0189324818
 20
2.1214875306
 30
0.0
 10
5.0180763036
 20
2.1224417033
 30
0.0
 10
5.0169315025
 20
2.1235631653
 30
0.0
 10
5.0159718377
 20
2.1244123655
 30
0.0
 10
5.0152307655
 20
2.1250243126
 30
0.0
 10
5.0144690219
 20
2.1256102373
 30
0.0
 10
5.0136871882
 20
2.1261690693
 30
0.0
 10
5.0128861011
 20
2.1266999615
 30
0.0
 10
5.0120667915
 20
2.1272022882
 30
0.0
 10
5.0112302549
 20
2.1276753479
 30
0.0
 10
5.0103775255
 20
2.1281185081
 30
0.0
 10
5.0095098508
 20
2.1285316295
 30
0.0
 10
5.0083347962
 20
2.1290421519
 30
0.0
 10
5.0068342858
 20
2.1296044956
 30
0.0
 10
5.0049935735
 20
2.1301593756
 30
0.0
 10
5.0031216814
 20
2.1305972414
 30
0.0
 10
5.0012274506
 20
2.1309240777
 30
0.0
 10
4.9993181973
 20
2.1311455642
 30
0.0
 10
4.9974001404
 20
2.1312669144
 30
0.0
 10
4.9954786079
 20
2.1312951918
 30
0.0
 10
4.993557901
 20
2.1312387898
 30
0.0
 10
4.9922800597
 20
2.1311485071
 30
0.0
 10
4.9916423736
 20
2.1310910578
 30
0.0
  0
SPLINE
  5
2B5
100
AcDbEntity
  8
0
100
AcDbSpline
 62
7
  6
CONTINUOUS
 70
0
 71
3
 72
29
 73
25
 74
0
 42
0.0000001
 43
0.0000001
 44
0.0000000001
 40
0.0
 40
0.0
 40
0.0
 40
0.0
 40
0.0624824911
 40
0.1249741154
 40
0.1874656005
 40
0.2187118101
 40
0.2499597294
 40
0.3124535206
 40
0.3749493431
 40
0.4374442435
 40
0.499940828
 40
0.5624378999
 40
0.5936919751
 40
0.6249462065
 40
0.6562003642
 40
0.6874552353
 40
0.7187108464
 40
0.7499663176
 40
0.781220524
 40
0.8124744801
 40
0.8437306072
 40
0.8749897396
 40
0.937504549
 40
1.0
 40
1.0
 40
1.0
 40
1.0
 10
5.0246475025
 20
2.0919480942
 30
0.0
 10
5.0248120952
 20
2.0925680674
 30
0.0
 10
5.0251176556
 20
2.0938145499
 30
0.0
 10
5.0254992823
 20
2.0957014046
 30
0.0
 10
5.0257481648
 20
2.0972864736
 30
0.0
 10
5.0259011248
 20
2.0985605561
 30
0.0
 10
5.0260217923
 20
2.099838121
 30
0.0
 10
5.0261097438
 20
2.1014404963
 30
0.0
 10
5.0261081109
 20
2.1033662565
 30
0.0
 10
5.0259923315
 20
2.1052887613
 30
0.0
 10
5.0257545843
 20
2.107200126
 30
0.0
 10
5.0254510974
 20
2.1087765773
 30
0.0
 10
5.0251435772
 20
2.1100227226
 30
0.0
 10
5.024880537
 20
2.1109488693
 30
0.0
 10
5.0245851105
 20
2.1118652027
 30
0.0
 10
5.0242572578
 20
2.1127704614
 30
0.0
 10
5.0238974824
 20
2.1136635247
 30
0.0
 10
5.0235063838
 20
2.1145433133
 30
0.0
 10
5.0230844712
 20
2.1154087278
 30
0.0
 10
5.0226325061
 20
2.1162588326
 30
0.0
 10
5.0221515284
 20
2.1170929252
 30
0.0
 10
5.0214729028
 20
2.1181826755
 30
0.0
 10
5.0205569522
 20
2.1195012272
 30
0.0
 10
5.0197589249
 20
2.1205074834
 30
0.0
 10
5.0193453248
 20
2.1209979559
 30
0.0
  0
SPLINE
  5
2B6
100
AcDbEntity
  8
0
100
AcDbSpline
 62
7
  6
CONTINUOUS
 70
0
 71
3
 72
38
 73
34
 74
0
 42
0.0000001
 43
0.0000001
 44
0.0000000001
 40
0.0
 40
0.0
 40
0.0
 40
0.0
 40
0.0624978192
 40
0.1249960493
 40
0.1562452548
 40
0.1874944192
 40
0.2187436852
 40
0.2499930472
 40
0.3124912909
 40
0.3749896175
 40
0.4374877994
 40
0.4687372657
 40
0.4999868548
 40
0.5312363436
 40
0.5624859915
 40
0.593735587
 40
0.6249852847
 40
0.6562349396
 40
0.6874847466
 40
0.7187343307
 40
0.7499839734
 40
0.7812335862
 40
0.8124830949
 40
0.8437326377
 40
0.8749823956
 40
0.8906086696
 40
0.9062351387
 40
0.9218611417
 40
0.9374874476
 40
0.9531145619
 40
0.9687442638
 40
0.9843742273
 40
1.0
 40
1.0
 40
1.0
 40
1.0
 10
4.9860355109
 20
2.0460851023
 30
0.0
 10
4.9870018421
 20
2.0468999792
 30
0.0
 10
4.9889265313
 20
2.0485392296
 30
0.0
 10
4.9913107824
 20
2.050613412
 30
0.0
 10
4.993204016
 20
2.052288855
 30
0.0
 10
4.9946164331
 20
2.0535538798
 30
0.0
 10
4.9960209756
 20
2.0548276496
 30
0.0
 10
4.9978825087
 20
2.0565382558
 30
0.0
 10
5.0001867932
 20
2.0587010394
 30
0.0
 10
5.0029100283
 20
2.0613403413
 30
0.0
 10
5.0051382552
 20
2.0635815502
 30
0.0
 10
5.0068924176
 20
2.0654021462
 30
0.0
 10
5.0081929407
 20
2.0667820142
 30
0.0
 10
5.0094769724
 20
2.0681772529
 30
0.0
 10
5.0107431446
 20
2.0695887302
 30
0.0
 10
5.011989606
 20
2.0710176635
 30
0.0
 10
5.013214296
 20
2.0724653172
 30
0.0
 10
5.0144147537
 20
2.073933154
 30
0.0
 10
5.0155882745
 20
2.0754226379
 30
0.0
 10
5.0167313452
 20
2.0769356522
 30
0.0
 10
5.0178399517
 20
2.0784741322
 30
0.0
 10
5.0189100036
 20
2.0800397175
 30
0.0
 10
5.0199361399
 20
2.0816345049
 30
0.0
 10
5.0209117172
 20
2.083260781
 30
0.0
 10
5.0216761022
 20
2.0846442082
 30
0.0
 10
5.0222533149
 20
2.0857689729
 30
0.0
 10
5.0226675244
 20
2.0866219525
 30
0.0
 10
5.0230610879
 20
2.0874846668
 30
0.0
 10
5.023432118
 20
2.0883573408
 30
0.0
 10
5.0237789118
 20
2.0892400192
 30
0.0
 10
5.0240998728
 20
2.090132516
 30
0.0
 10
5.0243924887
 20
2.0910346922
 30
0.0
 10
5.0245664085
 20
2.0916426365
 30
0.0
 10
5.0246475025
 20
2.0919480942
 30
0.0
  0
SPLINE
  5
2B7
100
AcDbEntity
  8
0
100
AcDbSpline
 62
7
  6
CONTINUOUS
 70
0
 71
3
 72
31
 73
27
 74
0
 42
0.0000001
 43
0.0000001
 44
0.0000000001
 40
0.0
 40
0.0
 40
0.0
 40
0.0
 40
0.0624926443
 40
0.0937442582
 40
0.1249966376
 40
0.1874945686
 40
0.2187457491
 40
0.2499983944
 40
0.3124982279
 40
0.374997559
 40
0.4062493252
 40
0.4375014775
 40
0.4999973465
 40
0.5312489227
 40
0.5625002515
 40
0.6249951874
 40
0.6562467014
 40
0.6874983268
 40
0.7499952864
 40
0.7812477894
 40
0.8125000568
 40
0.8437511455
 40
0.8750021257
 40
0.9062544126
 40
0.9375073257
 40
1.0
 40
1.0
 40
1.0
 40
1.0
 10
5.0332658045
 20
2.1326786253
 30
0.0
 10
5.0338924786
 20
2.1319354765
 30
0.0
 10
5.0348102289
 20
2.1308015397
 30
0.0
 10
5.0359844235
 20
2.129251576
 30
0.0
 10
5.0371242839
 20
2.1276760888
 30
0.0
 10
5.0382098291
 20
2.1260617931
 30
0.0
 10
5.0392340572
 20
2.1244087333
 30
0.0
 10
5.0402154493
 20
2.1227298418
 30
0.0
 10
5.0413588548
 20
2.1205836023
 30
0.0
 10
5.0423819184
 20
2.1183772902
 30
0.0
 10
5.0431221335
 20
2.1165789162
 30
0.0
 10
5.0438082304
 20
2.1147593054
 30
0.0
 10
5.0444111076
 20
2.1129091462
 30
0.0
 10
5.0449259893
 20
2.1110338553
 30
0.0
 10
5.0453814547
 20
2.1091432753
 30
0.0
 10
5.0457461423
 20
2.1072317705
 30
0.0
 10
5.0460184415
 20
2.105306247
 30
0.0
 10
5.0462289356
 20
2.1033729582
 30
0.0
 10
5.0463473316
 20
2.1014305763
 30
0.0
 10
5.0463748723
 20
2.0994860748
 30
0.0
 10
5.0463506876
 20
2.098027609
 30
0.0
 10
5.0462820503
 20
2.0965706074
 30
0.0
 10
5.0461699668
 20
2.095116314
 30
0.0
 10
5.0460158094
 20
2.0936658434
 30
0.0
 10
5.0457559583
 20
2.0917386995
 30
0.0
 10
5.0455015702
 20
2.0903018526
 30
0.0
 10
5.0453070134
 20
2.0893494141
 30
0.0
  0
SPLINE
  5
2B8
100
AcDbEntity
  8
0
100
AcDbSpline
 62
7
  6
CONTINUOUS
 70
0
 71
3
 72
23
 73
19
 74
0
 42
0.0000001
 43
0.0000001
 44
0.0000000001
 40
0.0
 40
0.0
 40
0.0
 40
0.0
 40
0.0624966944
 40
0.1250085802
 40
0.18751379
 40
0.2500150412
 40
0.3125175561
 40
0.3750206512
 40
0.4375217028
 40
0.5000214342
 40
0.5625203339
 40
0.6250198324
 40
0.6875179723
 40
0.7500139003
 40
0.8125096402
 40
0.8750095567
 40
0.9375086269
 40
1.0
 40
1.0
 40
1.0
 40
1.0
 10
5.0041832471
 20
2.1509104588
 30
0.0
 10
5.0049016809
 20
2.1507809836
 30
0.0
 10
5.0063322763
 20
2.15048463
 30
0.0
 10
5.0084519639
 20
2.1499292227
 30
0.0
 10
5.0105398843
 20
2.1492639201
 30
0.0
 10
5.0125903889
 20
2.1484913535
 30
0.0
 10
5.0145984599
 20
2.1476145247
 30
0.0
 10
5.0165602286
 20
2.1466386234
 30
0.0
 10
5.0184722873
 20
2.1455687776
 30
0.0
 10
5.0203321842
 20
2.1444108339
 30
0.0
 10
5.0221382255
 20
2.1431707236
 30
0.0
 10
5.0238899581
 20
2.1418551667
 30
0.0
 10
5.0255870637
 20
2.1404699909
 30
0.0
 10
5.0272291543
 20
2.1390201585
 30
0.0
 10
5.0288169269
 20
2.1375111047
 30
0.0
 10
5.0303525812
 20
2.1359490802
 30
0.0
 10
5.0318379358
 20
2.1343392991
 30
0.0
 10
5.0327952409
 20
2.1332366486
 30
0.0
 10
5.0332658045
 20
2.1326786253
 30
0.0
  0
SPLINE
  5
2B9
100
AcDbEntity
  8
0
100
AcDbSpline
 62
7
  6
CONTINUOUS
 70
0
 71
3
 72
19
 73
15
 74
0
 42
0.0000001
 43
0.0000001
 44
0.0000000001
 40
0.0
 40
0.0
 40
0.0
 40
0.0
 40
0.1249950598
 40
0.1875003565
 40
0.2500029004
 40
0.3125059298
 40
0.3750099274
 40
0.4375147018
 40
0.5000190345
 40
0.5625242531
 40
0.625030077
 40
0.7500204311
 40
0.8750099565
 40
1.0
 40
1.0
 40
1.0
 40
1.0
 10
4.9686118
 20
2.146475208
 30
0.0
 10
4.9700184866
 20
2.1470328332
 30
0.0
 10
4.9721501383
 20
2.1478167521
 30
0.0
 10
4.9750310333
 20
2.1487451626
 30
0.0
 10
4.9772109464
 20
2.149379531
 30
0.0
 10
4.9794090544
 20
2.1499476264
 30
0.0
 10
4.9816240471
 20
2.1504461151
 30
0.0
 10
4.9838541841
 20
2.1508720057
 30
0.0
 10
4.986097556
 20
2.1512218221
 30
0.0
 10
4.9883520218
 20
2.1514917841
 30
0.0
 10
4.9913687718
 20
2.151741147
 30
0.0
 10
4.9951546688
 20
2.1518382395
 30
0.0
 10
4.9996919745
 20
2.1515914463
 30
0.0
 10
5.0026941174
 20
2.1511788278
 30
0.0
 10
5.0041832471
 20
2.1509104588
 30
0.0
  0
SPLINE
  5
2BA
100
AcDbEntity
  8
0
100
AcDbSpline
 62
7
  6
CONTINUOUS
 70
0
 71
3
 72
23
 73
19
 74
0
 42
0.0000001
 43
0.0000001
 44
0.0000000001
 40
0.0
 40
0.0
 40
0.0
 40
0.0
 40
0.1249965309
 40
0.249992677
 40
0.3124919361
 40
0.3749911639
 40
0.4374906419
 40
0.4999898781
 40
0.5624893595
 40
0.5937395653
 40
0.624989956
 40
0.6874898044
 40
0.7499907236
 40
0.8124909918
 40
0.8749920233
 40
0.9062450891
 40
0.9374994255
 40
1.0
 40
1.0
 40
1.0
 40
1.0
 10
4.925185522
 20
2.1186032953
 30
0.0
 10
4.9268359145
 20
2.1199950197
 30
0.0
 10
4.9301689056
 20
2.1227405385
 30
0.0
 10
4.9344197178
 20
2.1260672855
 30
0.0
 10
4.937874825
 20
2.1286569542
 30
0.0
 10
4.9404949585
 20
2.1305602858
 30
0.0
 10
4.9431454297
 20
2.1324211714
 30
0.0
 10
4.9458279874
 20
2.1342355421
 30
0.0
 10
4.9480914579
 20
2.1357053455
 30
0.0
 10
4.9499193162
 20
2.1368542707
 30
0.0
 10
4.9517586958
 20
2.1379846693
 30
0.0
 10
4.9540802801
 20
2.1393610267
 30
0.0
 10
4.9569036643
 20
2.1409477825
 30
0.0
 10
4.9597665502
 20
2.1424622729
 30
0.0
 10
4.9621864952
 20
2.1436577681
 30
0.0
 10
4.9641432367
 20
2.1445705067
 30
0.0
 10
4.9661139223
 20
2.1454526517
 30
0.0
 10
4.9676082983
 20
2.1460774096
 30
0.0
 10
4.9686118
 20
2.146475208
 30
0.0
  0
SPLINE
  5
2BB
100
AcDbEntity
  8
0
100
AcDbSpline
 62
7
  6
CONTINUOUS
 70
0
 71
3
 72
23
 73
19
 74
0
 42
0.0000001
 43
0.0000001
 44
0.0000000001
 40
0.0
 40
0.0
 40
0.0
 40
0.0
 40
0.062500701
 40
0.0937545666
 40
0.1250072025
 40
0.156258449
 40
0.1875092375
 40
0.2500093812
 40
0.3125101314
 40
0.3750099842
 40
0.406260134
 40
0.4375101418
 40
0.5000096971
 40
0.6250061233
 40
0.6875054306
 40
0.7500047581
 40
0.8750023075
 40
1.0
 40
1.0
 40
1.0
 40
1.0
 10
4.8952461752
 20
2.0881918813
 30
0.0
 10
4.8957638507
 20
2.0889173379
 30
0.0
 10
4.8965593351
 20
2.0899921756
 30
0.0
 10
4.8976515801
 20
2.0914009005
 30
0.0
 10
4.8984851648
 20
2.0924461902
 30
0.0
 10
4.8993321256
 20
2.093480602
 30
0.0
 10
4.9004782071
 20
2.0948458019
 30
0.0
 10
4.9019404233
 20
2.0965271791
 30
0.0
 10
4.903736277
 20
2.098508118
 30
0.0
 10
4.9052624628
 20
2.1001315219
 30
0.0
 10
4.9064991432
 20
2.1014151505
 30
0.0
 10
4.9077456477
 20
2.1026892393
 30
0.0
 10
4.9099516263
 20
2.1048945897
 30
0.0
 10
4.9125239538
 20
2.1073631703
 30
0.0
 10
4.9151372565
 20
2.1097877429
 30
0.0
 10
4.9177752184
 20
2.1121855129
 30
0.0
 10
4.9211142239
 20
2.1151365948
 30
0.0
 10
4.9238229337
 20
2.1174542672
 30
0.0
 10
4.925185522
 20
2.1186032953
 30
0.0
  0
SPLINE
  5
2BC
100
AcDbEntity
  8
0
100
AcDbSpline
 62
7
  6
CONTINUOUS
 70
0
 71
3
 72
20
 73
16
 74
0
 42
0.0000001
 43
0.0000001
 44
0.0000000001
 40
0.0
 40
0.0
 40
0.0
 40
0.0
 40
0.1249976369
 40
0.1875038712
 40
0.250006448
 40
0.3125078204
 40
0.3750090715
 40
0.4375109076
 40
0.5000117984
 40
0.5625121919
 40
0.6250120918
 40
0.6875120064
 40
0.7500114961
 40
0.875006062
 40
1.0
 40
1.0
 40
1.0
 40
1.0
 10
4.8819730966
 20
2.0624121234
 30
0.0
 10
4.8823313248
 20
2.0635712974
 30
0.0
 10
4.8829145331
 20
2.0652963802
 30
0.0
 10
4.8837756051
 20
2.067565259
 30
0.0
 10
4.8844615827
 20
2.0692512649
 30
0.0
 10
4.8851861199
 20
2.0709209743
 30
0.0
 10
4.8859476121
 20
2.0725741434
 30
0.0
 10
4.8867441332
 20
2.0742107016
 30
0.0
 10
4.8875738305
 20
2.0758306731
 30
0.0
 10
4.8884353923
 20
2.0774338968
 30
0.0
 10
4.8893276263
 20
2.079020235
 30
0.0
 10
4.8902490253
 20
2.0805897959
 30
0.0
 10
4.8915142258
 20
2.0826604882
 30
0.0
 10
4.8931610009
 20
2.0852082883
 30
0.0
 10
4.894541458
 20
2.0872043094
 30
0.0
 10
4.8952461752
 20
2.0881918813
 30
0.0
  0
SPLINE
  5
2BD
100
AcDbEntity
  8
0
100
AcDbSpline
 62
7
  6
CONTINUOUS
 70
0
 71
3
 72
15
 73
11
 74
0
 42
0.0000001
 43
0.0000001
 44
0.0000000001
 40
0.0
 40
0.0
 40
0.0
 40
0.0
 40
0.1249997269
 40
0.2499993303
 40
0.3749990513
 40
0.4999986733
 40
0.6249983631
 40
0.7499982357
 40
0.8749990057
 40
1.0
 40
1.0
 40
1.0
 40
1.0
 10
4.8806680875
 20
2.037794375
 30
0.0
 10
4.8804545315
 20
2.0388105934
 30
0.0
 10
4.8800922838
 20
2.0408573027
 30
0.0
 10
4.8797497587
 20
2.043955847
 30
0.0
 10
4.8796156628
 20
2.0470705802
 30
0.0
 10
4.8796894802
 20
2.0501872178
 30
0.0
 10
4.8799672789
 20
2.0532922434
 30
0.0
 10
4.8804431885
 20
2.0563730423
 30
0.0
 10
4.8811075982
 20
2.0594184365
 30
0.0
 10
4.8816664913
 20
2.0614199939
 30
0.0
 10
4.8819730966
 20
2.0624121234
 30
0.0
  0
SPLINE
  5
2BE
100
AcDbEntity
  8
0
100
AcDbSpline
 62
7
  6
CONTINUOUS
 70
0
 71
3
 72
18
 73
14
 74
0
 42
0.0000001
 43
0.0000001
 44
0.0000000001
 40
0.0
 40
0.0
 40
0.0
 40
0.0
 40
0.1249844668
 40
0.249989201
 40
0.3124955978
 40
0.3749984915
 40
0.4375010559
 40
0.500007803
 40
0.6250036234
 40
0.7499964869
 40
0.8125042823
 40
0.8750176777
 40
1.0
 40
1.0
 40
1.0
 40
1.0
 10
4.8924620226
 20
2.0145302238
 30
0.0
 10
4.8917564217
 20
2.0153711262
 30
0.0
 10
4.8903847959
 20
2.0170868757
 30
0.0
 10
4.8887822337
 20
2.0193167186
 30
0.0
 10
4.8875753947
 20
2.0211514795
 30
0.0
 10
4.8867098112
 20
2.0225528285
 30
0.0
 10
4.8858858906
 20
2.0239791032
 30
0.0
 10
4.8848458135
 20
2.025913225
 30
0.0
 10
4.883659627
 20
2.0283904658
 30
0.0
 10
4.8826389712
 20
2.0309406089
 30
0.0
 10
4.8819281018
 20
2.0330186219
 30
0.0
 10
4.8812897911
 20
2.0351198609
 30
0.0
 10
4.8808938361
 20
2.0367201378
 30
0.0
 10
4.8806680875
 20
2.037794375
 30
0.0
  0
SPLINE
  5
2BF
100
AcDbEntity
  8
0
100
AcDbSpline
 62
6
  6
CONTINUOUS
 70
0
 71
3
 72
23
 73
19
 74
0
 42
0.0000001
 43
0.0000001
 44
0.0000000001
 40
0.0
 40
0.0
 40
0.0
 40
0.0
 40
0.0624964813
 40
0.1250081934
 40
0.1875131001
 40
0.2500140824
 40
0.3125162524
 40
0.3750190827
 40
0.4375199538
 40
0.5000196946
 40
0.5625186007
 40
0.6250180875
 40
0.6875163315
 40
0.7500126546
 40
0.8125085716
 40
0.8750086829
 40
0.9375083852
 40
1.0
 40
1.0
 40
1.0
 40
1.0
 10
4.9215532147
 20
1.9963450555
 30
0.0
 10
4.9208350862
 20
1.9964743698
 30
0.0
 10
4.9194050769
 20
1.9967702789
 30
0.0
 10
4.9172860853
 20
1.9973243937
 30
0.0
 10
4.9151985388
 20
1.9979875562
 30
0.0
 10
4.9131479472
 20
1.9987570238
 30
0.0
 10
4.9111391965
 20
1.9996297689
 30
0.0
 10
4.9091761347
 20
2.0006008072
 30
0.0
 10
4.9072621929
 20
2.0016652362
 30
0.0
 10
4.9053999418
 20
2.0028175184
 30
0.0
 10
4.9035912715
 20
2.0040520596
 30
0.0
 10
4.9018369482
 20
2.0053625407
 30
0.0
 10
4.900137542
 20
2.0067433668
 30
0.0
 10
4.8984935843
 20
2.0081896309
 30
0.0
 10
4.8969047112
 20
2.0096961437
 30
0.0
 10
4.8953692704
 20
2.0112570559
 30
0.0
 10
4.8938858372
 20
2.0128673254
 30
0.0
 10
4.8929310143
 20
2.0139713012
 30
0.0
 10
4.8924620226
 20
2.0145302238
 30
0.0
  0
SPLINE
  5
2C0
100
AcDbEntity
  8
0
100
AcDbSpline
 62
6
  6
CONTINUOUS
 70
0
 71
3
 72
19
 73
15
 74
0
 42
0.0000001
 43
0.0000001
 44
0.0000000001
 40
0.0
 40
0.0
 40
0.0
 40
0.0
 40
0.1249950393
 40
0.1875002593
 40
0.250002764
 40
0.3125057733
 40
0.3750097363
 40
0.4375144644
 40
0.5000187449
 40
0.5625238845
 40
0.6250296173
 40
0.7500201025
 40
0.8750097941
 40
1.0
 40
1.0
 40
1.0
 40
1.0
 10
4.9571374532
 20
2.0006795412
 30
0.0
 10
4.9557286743
 20
2.0001279888
 30
0.0
 10
4.9535941675
 20
1.9993531296
 30
0.0
 10
4.9507100666
 20
1.9984365794
 30
0.0
 10
4.9485280652
 20
1.9978109634
 30
0.0
 10
4.946328199
 20
1.9972514272
 30
0.0
 10
4.9441117891
 20
1.9967612357
 30
0.0
 10
4.941880577
 20
1.9963433149
 30
0.0
 10
4.9396364698
 20
1.9960010623
 30
0.0
 10
4.9373816003
 20
1.9957381699
 30
0.0
 10
4.9343647188
 20
1.9954974216
 30
0.0
 10
4.9305793762
 20
1.9954092839
 30
0.0
 10
4.9260433912
 20
1.9956629828
 30
0.0
 10
4.9230421101
 20
1.9960769483
 30
0.0
 10
4.9215532147
 20
1.9963450555
 30
0.0
  0
SPLINE
  5
2C1
100
AcDbEntity
  8
0
100
AcDbSpline
 62
7
  6
CONTINUOUS
 70
0
 71
3
 72
24
 73
20
 74
0
 42
0.0000001
 43
0.0000001
 44
0.0000000001
 40
0.0
 40
0.0
 40
0.0
 40
0.0
 40
0.1249961275
 40
0.2499919417
 40
0.3124909397
 40
0.3749899156
 40
0.4374891696
 40
0.4999881757
 40
0.5624874498
 40
0.5937375497
 40
0.6249878585
 40
0.6874875318
 40
0.7499884608
 40
0.8124885786
 40
0.8437396565
 40
0.8749913328
 40
0.9062446698
 40
0.9374994559
 40
1.0
 40
1.0
 40
1.0
 40
1.0
 10
5.0006363525
 20
2.0286844969
 30
0.0
 10
4.9989815463
 20
2.0272890506
 30
0.0
 10
4.9956414403
 20
2.0245340816
 30
0.0
 10
4.9913853663
 20
2.0211907315
 30
0.0
 10
4.9879275411
 20
2.0185854706
 30
0.0
 10
4.9853058831
 20
2.0166695367
 30
0.0
 10
4.98265409
 20
2.0147954958
 30
0.0
 10
4.9799701135
 20
2.012967794
 30
0.0
 10
4.9777050955
 20
2.0114871389
 30
0.0
 10
4.975875673
 20
2.0103298674
 30
0.0
 10
4.9740344964
 20
2.0091913791
 30
0.0
 10
4.9717101188
 20
2.007805562
 30
0.0
 10
4.9688822258
 20
2.0062091437
 30
0.0
 10
4.9664912991
 20
2.0049412575
 30
0.0
 10
4.9645571778
 20
2.0039688223
 30
0.0
 10
4.9630957202
 20
2.0032613388
 30
0.0
 10
4.9616233485
 20
2.0025766743
 30
0.0
 10
4.9596457118
 20
2.0016958862
 30
0.0
 10
4.9581453239
 20
2.0010741336
 30
0.0
 10
4.9571374532
 20
2.0006795412
 30
0.0
  0
SPLINE
  5
2C2
100
AcDbEntity
  8
0
100
AcDbSpline
 62
7
  6
CONTINUOUS
 70
0
 71
3
 72
34
 73
30
 74
0
 42
0.0000001
 43
0.0000001
 44
0.0000000001
 40
0.0
 40
0.0
 40
0.0
 40
0.0
 40
0.0624963414
 40
0.0937536911
 40
0.1250089257
 40
0.1562630781
 40
0.1875174086
 40
0.2187724625
 40
0.2500254491
 40
0.2812782574
 40
0.312530254
 40
0.375028534
 40
0.4375255854
 40
0.4687753197
 40
0.500024504
 40
0.5312738349
 40
0.5625227486
 40
0.5937715031
 40
0.6250201264
 40
0.6562686686
 40
0.6875173561
 40
0.7187657744
 40
0.7500141719
 40
0.781262678
 40
0.8125108829
 40
0.8437590824
 40
0.8750075783
 40
0.9375044073
 40
1.0
 40
1.0
 40
1.0
 40
1.0
 10
5.0453070134
 20
2.0893494141
 30
0.0
 10
5.0449874293
 20
2.0877849143
 30
0.0
 10
5.0443982962
 20
2.0854588346
 30
0.0
 10
5.0434227309
 20
2.0824169286
 30
0.0
 10
5.0426016398
 20
2.0801655402
 30
0.0
 10
5.041697217
 20
2.0779465722
 30
0.0
 10
5.0407154981
 20
2.0757607496
 30
0.0
 10
5.0396627826
 20
2.0736083294
 30
0.0
 10
5.0385449291
 20
2.0714891064
 30
0.0
 10
5.0373666262
 20
2.0694030119
 30
0.0
 10
5.0357212174
 20
2.0666652104
 30
0.0
 10
5.0335351147
 20
2.0633227899
 30
0.0
 10
5.0312020663
 20
2.0600818732
 30
0.0
 10
5.0292601777
 20
2.0575461782
 30
0.0
 10
5.0277687956
 20
2.0556716307
 30
0.0
 10
5.0262451501
 20
2.0538232747
 30
0.0
 10
5.0246918425
 20
2.0519998013
 30
0.0
 10
5.0231104191
 20
2.0502006909
 30
0.0
 10
5.0215023038
 20
2.0484254212
 30
0.0
 10
5.0198689854
 20
2.0466733245
 30
0.0
 10
5.0182120508
 20
2.0449435624
 30
0.0
 10
5.0165329994
 20
2.0432352759
 30
0.0
 10
5.0148333645
 20
2.0415474842
 30
0.0
 10
5.0131146425
 20
2.0398791515
 30
0.0
 10
5.0113783104
 20
2.0382291701
 30
0.0
 10
5.0096253122
 20
2.0365969089
 30
0.0
 10
5.0072669155
 20
2.034443413
 30
0.0
 10
5.0042817058
 20
2.0317926471
 30
0.0
 10
5.0018570537
 20
2.0297138761
 30
0.0
 10
5.0006363525
 20
2.0286844969
 30
0.0
  0
SPLINE
  5
2C3
100
AcDbEntity
  8
0
100
AcDbSpline
 62
6
  6
CONTINUOUS
 70
0
 71
3
 72
21
 73
17
 74
0
 42
0.0000001
 43
0.0000001
 44
0.0000000001
 40
0.0
 40
0.0
 40
0.0
 40
0.0
 40
0.1249955185
 40
0.2499903715
 40
0.3124897943
 40
0.3749891527
 40
0.4374889484
 40
0.4999883625
 40
0.5624881763
 40
0.6249885495
 40
0.6874888294
 40
0.7499903582
 40
0.8124912233
 40
0.8749929769
 40
0.9374992133
 40
1.0
 40
1.0
 40
1.0
 40
1.0
 10
4.7619991845
 20
2.812408712
 30
0.0
 10
4.7614738489
 20
2.8135999206
 30
0.0
 10
4.7603894942
 20
2.8159676489
 30
0.0
 10
4.7589440873
 20
2.8188845426
 30
0.0
 10
4.7577286915
 20
2.8211874548
 30
0.0
 10
4.756785494
 20
2.8228976358
 30
0.0
 10
4.7558085401
 20
2.8245887785
 30
0.0
 10
4.7547954825
 20
2.8262585786
 30
0.0
 10
4.7537444421
 20
2.8279047577
 30
0.0
 10
4.7526549028
 20
2.8295257426
 30
0.0
 10
4.7515247744
 20
2.8311187587
 30
0.0
 10
4.750351444
 20
2.8326802817
 30
0.0
 10
4.7491326588
 20
2.8342066595
 30
0.0
 10
4.7478664546
 20
2.8356940575
 30
0.0
 10
4.7465517939
 20
2.837138819
 30
0.0
 10
4.7456416312
 20
2.8380703737
 30
0.0
 10
4.7451778348
 20
2.8385271809
 30
0.0
  0
SPLINE
  5
2C4
100
AcDbEntity
  8
0
100
AcDbSpline
 62
6
  6
CONTINUOUS
 70
0
 71
3
 72
13
 73
9
 74
0
 42
0.0000001
 43
0.0000001
 44
0.0000000001
 40
0.0
 40
0.0
 40
0.0
 40
0.0
 40
0.2499830686
 40
0.4999651112
 40
0.6249718186
 40
0.7499820992
 40
0.8750000836
 40
1.0
 40
1.0
 40
1.0
 40
1.0
 10
4.7720631131
 20
2.7750524751
 30
0.0
 10
4.7716591678
 20
2.7782619576
 30
0.0
 10
4.7706548712
 20
2.7846581729
 30
0.0
 10
4.7688648381
 20
2.792552062
 30
0.0
 10
4.7670899711
 20
2.7987752479
 30
0.0
 10
4.7655830112
 20
2.8033896504
 30
0.0
 10
4.7638967601
 20
2.807941437
 30
0.0
 10
4.762651871
 20
2.8109287327
 30
0.0
 10
4.7619991845
 20
2.812408712
 30
0.0
  0
SPLINE
  5
2C5
100
AcDbEntity
  8
0
100
AcDbSpline
 62
7
  6
CONTINUOUS
 70
0
 71
3
 72
17
 73
13
 74
0
 42
0.0000001
 43
0.0000001
 44
0.0000000001
 40
0.0
 40
0.0
 40
0.0
 40
0.0
 40
0.124999825
 40
0.2499994785
 40
0.3749988558
 40
0.4999979533
 40
0.6249967234
 40
0.749995267
 40
0.8124960063
 40
0.8749969271
 40
0.937499251
 40
1.0
 40
1.0
 40
1.0
 40
1.0
 10
4.7887443841
 20
2.7940608267
 30
0.0
 10
4.7889809826
 20
2.7930076887
 30
0.0
 10
4.7894386551
 20
2.7908978857
 30
0.0
 10
4.7900746873
 20
2.7877226592
 30
0.0
 10
4.7906551127
 20
2.784536764
 30
0.0
 10
4.7911726748
 20
2.7813400017
 30
0.0
 10
4.7916171944
 20
2.778132207
 30
0.0
 10
4.7919176907
 20
2.7754501475
 30
0.0
 10
4.7921110156
 20
2.7732999702
 30
0.0
 10
4.7922309684
 20
2.7716852279
 30
0.0
 10
4.7923239753
 20
2.7700687065
 30
0.0
 10
4.7923661522
 20
2.7689900333
 30
0.0
 10
4.7923817281
 20
2.7684505569
 30
0.0
  0
SPLINE
  5
2C6
100
AcDbEntity
  8
0
100
AcDbSpline
 62
7
  6
CONTINUOUS
 70
0
 71
3
 72
18
 73
14
 74
0
 42
0.0000001
 43
0.0000001
 44
0.0000000001
 40
0.0
 40
0.0
 40
0.0
 40
0.0
 40
0.062500779
 40
0.125003773
 40
0.1875048753
 40
0.2500057174
 40
0.3125067246
 40
0.3750074272
 40
0.5000051207
 40
0.6250032572
 40
0.750001812
 40
0.8750007746
 40
1.0
 40
1.0
 40
1.0
 40
1.0
 10
4.7807009886
 20
2.8187224964
 30
0.0
 10
4.7809355619
 20
2.8182343869
 30
0.0
 10
4.7813930977
 20
2.8172525285
 30
0.0
 10
4.7820474664
 20
2.8157653508
 30
0.0
 10
4.7826724915
 20
2.8142656112
 30
0.0
 10
4.7832698399
 20
2.8127546686
 30
0.0
 10
4.7838408926
 20
2.8112336017
 30
0.0
 10
4.7845686341
 20
2.8091932545
 30
0.0
 10
4.7854184472
 20
2.8066219326
 30
0.0
 10
4.7863537373
 20
2.803509908
 30
0.0
 10
4.7872161334
 20
2.8003769573
 30
0.0
 10
4.7880140757
 20
2.7972270321
 30
0.0
 10
4.7885069767
 20
2.7951175651
 30
0.0
 10
4.7887443841
 20
2.7940608267
 30
0.0
  0
SPLINE
  5
2C7
100
AcDbEntity
  8
0
100
AcDbSpline
 62
6
  6
CONTINUOUS
 70
0
 71
3
 72
21
 73
17
 74
0
 42
0.0000001
 43
0.0000001
 44
0.0000000001
 40
0.0
 40
0.0
 40
0.0
 40
0.0
 40
0.1249955185
 40
0.2499903715
 40
0.3124897943
 40
0.3749891527
 40
0.4374889484
 40
0.4999883625
 40
0.5624881762
 40
0.6249885494
 40
0.6874888293
 40
0.7499903581
 40
0.8124912232
 40
0.8749929769
 40
0.9374992133
 40
1.0
 40
1.0
 40
1.0
 40
1.0
 10
4.8052151904
 20
2.9454139018
 30
0.0
 10
4.8046898547
 20
2.9466051105
 30
0.0
 10
4.8036055002
 20
2.9489728389
 30
0.0
 10
4.8021600934
 20
2.9518897327
 30
0.0
 10
4.8009446979
 20
2.954192645
 30
0.0
 10
4.8000015006
 20
2.9559028262
 30
0.0
 10
4.7990245469
 20
2.9575939691
 30
0.0
 10
4.7980114895
 20
2.9592637693
 30
0.0
 10
4.7969604493
 20
2.9609099485
 30
0.0
 10
4.7958709101
 20
2.9625309336
 30
0.0
 10
4.7947407818
 20
2.9641239498
 30
0.0
 10
4.7935674514
 20
2.9656854728
 30
0.0
 10
4.7923486661
 20
2.9672118506
 30
0.0
 10
4.7910824616
 20
2.9686992484
 30
0.0
 10
4.7897678005
 20
2.9701440095
 30
0.0
 10
4.7888576374
 20
2.9710755639
 30
0.0
 10
4.7883938407
 20
2.9715323708
 30
0.0
  0
SPLINE
  5
2C8
100
AcDbEntity
  8
0
100
AcDbSpline
 62
6
  6
CONTINUOUS
 70
0
 71
3
 72
13
 73
9
 74
0
 42
0.0000001
 43
0.0000001
 44
0.0000000001
 40
0.0
 40
0.0
 40
0.0
 40
0.0
 40
0.2499830686
 40
0.4999651113
 40
0.6249718187
 40
0.7499820992
 40
0.8750000836
 40
1.0
 40
1.0
 40
1.0
 40
1.0
 10
4.815279119
 20
2.908057665
 30
0.0
 10
4.8148751734
 20
2.9112671474
 30
0.0
 10
4.8138708765
 20
2.9176633626
 30
0.0
 10
4.8120808434
 20
2.9255572517
 30
0.0
 10
4.8103059766
 20
2.9317804377
 30
0.0
 10
4.8087990169
 20
2.9363948402
 30
0.0
 10
4.807112766
 20
2.9409466269
 30
0.0
 10
4.8058678769
 20
2.9439339226
 30
0.0
 10
4.8052151904
 20
2.9454139018
 30
0.0
  0
SPLINE
  5
2C9
100
AcDbEntity
  8
0
100
AcDbSpline
 62
7
  6
CONTINUOUS
 70
0
 71
3
 72
17
 73
13
 74
0
 42
0.0000001
 43
0.0000001
 44
0.0000000001
 40
0.0
 40
0.0
 40
0.0
 40
0.0
 40
0.124999825
 40
0.2499994785
 40
0.3749988558
 40
0.4999979533
 40
0.6249967234
 40
0.7499952671
 40
0.8124960063
 40
0.8749969271
 40
0.937499251
 40
1.0
 40
1.0
 40
1.0
 40
1.0
 10
4.8319603893
 20
2.9270660165
 30
0.0
 10
4.8321969883
 20
2.9260128786
 30
0.0
 10
4.8326546616
 20
2.9239030758
 30
0.0
 10
4.8332906945
 20
2.9207278493
 30
0.0
 10
4.8338711201
 20
2.9175419541
 30
0.0
 10
4.834388682
 20
2.9143451918
 30
0.0
 10
4.8348332013
 20
2.9111373971
 30
0.0
 10
4.8351336972
 20
2.9084553375
 30
0.0
 10
4.8353270218
 20
2.9063051602
 30
0.0
 10
4.8354469744
 20
2.9046904178
 30
0.0
 10
4.8355399812
 20
2.9030738964
 30
0.0
 10
4.8355821581
 20
2.9019952232
 30
0.0
 10
4.835597734
 20
2.9014557468
 30
0.0
  0
SPLINE
  5
2CA
100
AcDbEntity
  8
0
100
AcDbSpline
 62
7
  6
CONTINUOUS
 70
0
 71
3
 72
18
 73
14
 74
0
 42
0.0000001
 43
0.0000001
 44
0.0000000001
 40
0.0
 40
0.0
 40
0.0
 40
0.0
 40
0.0625007243
 40
0.1250034733
 40
0.1875045083
 40
0.2500052982
 40
0.3125062399
 40
0.3750069047
 40
0.5000047773
 40
0.625003047
 40
0.7500017007
 40
0.875000725
 40
1.0
 40
1.0
 40
1.0
 40
1.0
 10
4.8241534387
 20
2.9512307404
 30
0.0
 10
4.8243793417
 20
2.9507512019
 30
0.0
 10
4.8248202673
 20
2.9497869459
 30
0.0
 10
4.8254516393
 20
2.9483272745
 30
0.0
 10
4.8260553557
 20
2.946855955
 30
0.0
 10
4.826632966
 20
2.9453742226
 30
0.0
 10
4.8271857658
 20
2.9438830641
 30
0.0
 10
4.8278910769
 20
2.9418834246
 30
0.0
 10
4.8287161874
 20
2.9393643562
 30
0.0
 10
4.8296262359
 20
2.9363165975
 30
0.0
 10
4.8304668566
 20
2.9332490148
 30
0.0
 10
4.8312459472
 20
2.9301652844
 30
0.0
 10
4.8317280071
 20
2.9281003843
 30
0.0
 10
4.8319603893
 20
2.9270660165
 30
0.0
  0
SPLINE
  5
2CB
100
AcDbEntity
  8
0
100
AcDbSpline
 62
7
  6
CONTINUOUS
 70
0
 71
3
 72
18
 73
14
 74
0
 42
0.0000001
 43
0.0000001
 44
0.0000000001
 40
0.0
 40
0.0
 40
0.0
 40
0.0
 40
0.1249833702
 40
0.24998873
 40
0.3124952309
 40
0.3749982006
 40
0.4375013135
 40
0.5000083774
 40
0.6250035203
 40
0.7499958558
 40
0.8125044164
 40
0.8750183948
 40
1.0
 40
1.0
 40
1.0
 40
1.0
 10
4.9036818017
 20
3.0486999902
 30
0.0
 10
4.9038326768
 20
3.047938805
 30
0.0
 10
4.9041733152
 20
3.0464236879
 30
0.0
 10
4.9047017304
 20
3.0445556841
 30
0.0
 10
4.905189093
 20
3.0430816817
 30
0.0
 10
4.9055875378
 20
3.0419875695
 30
0.0
 10
4.9060195154
 20
3.0409062361
 30
0.0
 10
4.906640806
 20
3.0394835366
 30
0.0
 10
4.9075031486
 20
3.0377438295
 30
0.0
 10
4.9084809184
 20
3.0360661314
 30
0.0
 10
4.9093311079
 20
3.0347670274
 30
0.0
 10
4.9102261754
 20
3.0334985894
 30
0.0
 10
4.9109471821
 20
3.0325830234
 30
0.0
 10
4.9114484644
 20
3.0319906846
 30
0.0
  0
SPLINE
  5
2CC
100
AcDbEntity
  8
0
100
AcDbSpline
 62
7
  6
CONTINUOUS
 70
0
 71
3
 72
17
 73
13
 74
0
 42
0.0000001
 43
0.0000001
 44
0.0000000001
 40
0.0
 40
0.0
 40
0.0
 40
0.0
 40
0.1249851904
 40
0.2499941327
 40
0.3749896378
 40
0.4374943142
 40
0.5000015908
 40
0.6249975852
 40
0.7499911733
 40
0.8125011843
 40
0.8750160462
 40
1.0
 40
1.0
 40
1.0
 40
1.0
 10
4.9049971353
 20
3.0685570129
 30
0.0
 10
4.9047381351
 20
3.0677598923
 30
0.0
 10
4.9042653313
 20
3.0661503405
 30
0.0
 10
4.9037000887
 20
3.0636985834
 30
0.0
 10
4.9033551459
 20
3.0616299834
 30
0.0
 10
4.9031580119
 20
3.0599648327
 30
0.0
 10
4.9030143125
 20
3.058294215
 30
0.0
 10
4.9029360518
 20
3.0561985111
 30
0.0
 10
4.9029962316
 20
3.0541021392
 30
0.0
 10
4.9031279546
 20
3.0524304277
 30
0.0
 10
4.9033155624
 20
3.050764192
 30
0.0
 10
4.9035188447
 20
3.0495221297
 30
0.0
 10
4.9036818017
 20
3.0486999902
 30
0.0
  0
SPLINE
  5
2CD
100
AcDbEntity
  8
0
100
AcDbSpline
 62
7
  6
CONTINUOUS
 70
0
 71
3
 72
25
 73
21
 74
0
 42
0.0000001
 43
0.0000001
 44
0.0000000001
 40
0.0
 40
0.0
 40
0.0
 40
0.0
 40
0.0624924657
 40
0.124999162
 40
0.1875014753
 40
0.2187535068
 40
0.2500058006
 40
0.3125075647
 40
0.3437622191
 40
0.3750167541
 40
0.4375197458
 40
0.468773917
 40
0.5000273302
 40
0.5625297954
 40
0.6250331214
 40
0.6875347089
 40
0.7500338297
 40
0.8125308242
 40
0.8750326869
 40
1.0
 40
1.0
 40
1.0
 40
1.0
 10
4.9239837868
 20
3.0915325695
 30
0.0
 10
4.9234110652
 20
3.0912499034
 30
0.0
 10
4.9222794245
 20
3.0906557063
 30
0.0
 10
4.920630392
 20
3.0896779643
 30
0.0
 10
4.9193014872
 20
3.0887907362
 30
0.0
 10
4.9182688434
 20
3.0880382608
 30
0.0
 10
4.9172574935
 20
3.0872574269
 30
0.0
 10
4.9162792262
 20
3.0864344615
 30
0.0
 10
4.9153366868
 20
3.0855717435
 30
0.0
 10
4.9144186012
 20
3.0846830259
 30
0.0
 10
4.9135379592
 20
3.083756317
 30
0.0
 10
4.9126967022
 20
3.0827945901
 30
0.0
 10
4.9118821095
 20
3.081810162
 30
0.0
 10
4.9109140992
 20
3.0805389759
 30
0.0
 10
4.9098334554
 20
3.0789554109
 30
0.0
 10
4.9088335015
 20
3.0773197716
 30
0.0
 10
4.9079135521
 20
3.0756379969
 30
0.0
 10
4.9070720535
 20
3.0739156538
 30
0.0
 10
4.9060504574
 20
3.0715735288
 30
0.0
 10
4.9053918047
 20
3.0697716802
 30
0.0
 10
4.9049971353
 20
3.0685570129
 30
0.0
  0
SPLINE
  5
2CE
100
AcDbEntity
  8
0
100
AcDbSpline
 62
6
  6
CONTINUOUS
 70
0
 71
3
 72
25
 73
21
 74
0
 42
0.0000001
 43
0.0000001
 44
0.0000000001
 40
0.0
 40
0.0
 40
0.0
 40
0.0
 40
0.124978663
 40
0.1874798493
 40
0.2499769783
 40
0.3749485045
 40
0.4374498999
 40
0.4999505989
 40
0.5312043934
 40
0.5624578265
 40
0.5937113683
 40
0.6249656286
 40
0.6874683544
 40
0.749972501
 40
0.7812269889
 40
0.812480851
 40
0.8437350618
 40
0.8749906827
 40
0.9375012377
 40
1.0
 40
1.0
 40
1.0
 40
1.0
 10
4.9556418485
 20
3.0925103963
 30
0.0
 10
4.9543538539
 20
3.0929288911
 30
0.0
 10
4.9524013232
 20
3.0934968715
 30
0.0
 10
4.9497640604
 20
3.0941173312
 30
0.0
 10
4.9471054438
 20
3.0946383019
 30
0.0
 10
4.944416576
 20
3.094996859
 30
0.0
 10
4.9417128016
 20
3.0951728826
 30
0.0
 10
4.9400190634
 20
3.0952018953
 30
0.0
 10
4.9386646413
 20
3.0951737009
 30
0.0
 10
4.937649629
 20
3.0951263105
 30
0.0
 10
4.9366362161
 20
3.0950520558
 30
0.0
 10
4.9352882485
 20
3.0949165582
 30
0.0
 10
4.9336109455
 20
3.094678011
 30
0.0
 10
4.9319497164
 20
3.0943451654
 30
0.0
 10
4.9306340551
 20
3.0940218524
 30
0.0
 10
4.9296547461
 20
3.0937506503
 30
0.0
 10
4.9286837819
 20
3.0934509055
 30
0.0
 10
4.9274013694
 20
3.0930136902
 30
0.0
 10
4.9258231653
 20
3.0923973386
 30
0.0
 10
4.9245910886
 20
3.0918323025
 30
0.0
 10
4.9239837868
 20
3.0915325695
 30
0.0
  0
SPLINE
  5
2CF
100
AcDbEntity
  8
0
100
AcDbSpline
 62
7
  6
CONTINUOUS
 70
0
 71
3
 72
23
 73
19
 74
0
 42
0.0000001
 43
0.0000001
 44
0.0000000001
 40
0.0
 40
0.0
 40
0.0
 40
0.0
 40
0.0624992171
 40
0.1250095522
 40
0.1562649099
 40
0.187519007
 40
0.2187727707
 40
0.2500270267
 40
0.3125311648
 40
0.3750339122
 40
0.4375361197
 40
0.5000380406
 40
0.5625389327
 40
0.6250402819
 40
0.6875408783
 40
0.7500408991
 40
0.8750191995
 40
1.0
 40
1.0
 40
1.0
 40
1.0
 10
4.9826242753
 20
3.0721563251
 30
0.0
 10
4.9822690904
 20
3.0727838744
 30
0.0
 10
4.981523806
 20
3.0740197042
 30
0.0
 10
4.9805077622
 20
3.0755102475
 30
0.0
 10
4.9796458957
 20
3.0766670789
 30
0.0
 10
4.9789755294
 20
3.0775163277
 30
0.0
 10
4.9782816992
 20
3.0783465019
 30
0.0
 10
4.9773262018
 20
3.0794271594
 30
0.0
 10
4.9760767013
 20
3.0807281748
 30
0.0
 10
4.9744958233
 20
3.0822064942
 30
0.0
 10
4.9728400697
 20
3.0836003582
 30
0.0
 10
4.9711162648
 20
3.0849089544
 30
0.0
 10
4.9693315389
 20
3.0861330057
 30
0.0
 10
4.9674927539
 20
3.0872740433
 30
0.0
 10
4.9656064472
 20
3.0883345438
 30
0.0
 10
4.9630357324
 20
3.0896436977
 30
0.0
 10
4.9597296589
 20
3.0910897235
 30
0.0
 10
4.9570132546
 20
3.0920647994
 30
0.0
 10
4.9556418485
 20
3.0925103963
 30
0.0
  0
SPLINE
  5
2D0
100
AcDbEntity
  8
0
100
AcDbSpline
 62
7
  6
CONTINUOUS
 70
0
 71
3
 72
20
 73
16
 74
0
 42
0.0000001
 43
0.0000001
 44
0.0000000001
 40
0.0
 40
0.0
 40
0.0
 40
0.0
 40
0.124976717
 40
0.2499499756
 40
0.3124559982
 40
0.3749635336
 40
0.4374716016
 40
0.4999782569
 40
0.5624850016
 40
0.6249931502
 40
0.6875005141
 40
0.7500061661
 40
0.8125103253
 40
0.8750214194
 40
1.0
 40
1.0
 40
1.0
 40
1.0
 10
4.9856847857
 20
3.0427273267
 30
0.0
 10
4.9860775158
 20
3.0439360255
 30
0.0
 10
4.9867546937
 20
3.0463903141
 30
0.0
 10
4.9872949207
 20
3.0495275604
 30
0.0
 10
4.9875234819
 20
3.0520605109
 30
0.0
 10
4.9875906746
 20
3.0539672584
 30
0.0
 10
4.9875513203
 20
3.0558747789
 30
0.0
 10
4.9874045832
 20
3.05777708
 30
0.0
 10
4.9871498943
 20
3.0596679467
 30
0.0
 10
4.9867899409
 20
3.0615415949
 30
0.0
 10
4.9863274507
 20
3.0633925566
 30
0.0
 10
4.9857663082
 20
3.065215928
 30
0.0
 10
4.9851105777
 20
3.0670075004
 30
0.0
 10
4.9841187191
 20
3.0693490453
 30
0.0
 10
4.9832502861
 20
3.0710502742
 30
0.0
 10
4.9826242753
 20
3.0721563251
 30
0.0
  0
SPLINE
  5
2D1
100
AcDbEntity
  8
0
100
AcDbSpline
 62
7
  6
CONTINUOUS
 70
0
 71
3
 72
19
 73
15
 74
0
 42
0.0000001
 43
0.0000001
 44
0.0000000001
 40
0.0
 40
0.0
 40
0.0
 40
0.0
 40
0.1249819124
 40
0.2499628135
 40
0.3749444921
 40
0.4374547934
 40
0.4999641107
 40
0.5624731946
 40
0.6249835163
 40
0.6874927221
 40
0.7500001632
 40
0.8125051598
 40
0.8750145288
 40
1.0
 40
1.0
 40
1.0
 40
1.0
 10
4.9706081242
 20
3.0237421917
 30
0.0
 10
4.9715040383
 20
3.0242584224
 30
0.0
 10
4.9732516046
 20
3.025370316
 30
0.0
 10
4.9757067763
 20
3.027273464
 30
0.0
 10
4.9775885916
 20
3.029052736
 30
0.0
 10
4.9789827985
 20
3.0305814245
 30
0.0
 10
4.9799710232
 20
3.0317782937
 30
0.0
 10
4.9808992687
 20
3.0330221853
 30
0.0
 10
4.9817668107
 20
3.0343091253
 30
0.0
 10
4.9825729334
 20
3.0356353576
 30
0.0
 10
4.9833173313
 20
3.0369971051
 30
0.0
 10
4.9839999976
 20
3.0383908292
 30
0.0
 10
4.9848299764
 20
3.0402857646
 30
0.0
 10
4.985365253
 20
3.0417439061
 30
0.0
 10
4.9856847857
 20
3.0427273267
 30
0.0
  0
SPLINE
  5
2D2
100
AcDbEntity
  8
0
100
AcDbSpline
 62
6
  6
CONTINUOUS
 70
0
 71
3
 72
24
 73
20
 74
0
 42
0.0000001
 43
0.0000001
 44
0.0000000001
 40
0.0
 40
0.0
 40
0.0
 40
0.0
 40
0.1249810861
 40
0.18747855
 40
0.2499732804
 40
0.3124697549
 40
0.3749658131
 40
0.4374626569
 40
0.4999602562
 40
0.5624582221
 40
0.6249578075
 40
0.6874587985
 40
0.7499630167
 40
0.7812170843
 40
0.8124715583
 40
0.8437268461
 40
0.8749835105
 40
0.9374991145
 40
1.0
 40
1.0
 40
1.0
 40
1.0
 10
4.9426388244
 20
3.0203071073
 30
0.0
 10
4.9438202748
 20
3.0201126313
 30
0.0
 10
4.9456000815
 20
3.0198637591
 30
0.0
 10
4.9479834456
 20
3.0196276055
 30
0.0
 10
4.9497755618
 20
3.0195024914
 30
0.0
 10
4.9515707472
 20
3.0194339886
 30
0.0
 10
4.9533673055
 20
3.0194267881
 30
0.0
 10
4.9551629754
 20
3.019485635
 30
0.0
 10
4.9569550663
 20
3.0196143103
 30
0.0
 10
4.9587403625
 20
3.0198173949
 30
0.0
 10
4.9605148071
 20
3.0201008508
 30
0.0
 10
4.9622736421
 20
3.0204695279
 30
0.0
 10
4.9637218687
 20
3.0208515697
 30
0.0
 10
4.9648666079
 20
3.0212040672
 30
0.0
 10
4.9657174808
 20
3.0214924174
 30
0.0
 10
4.9665597724
 20
3.0218050356
 30
0.0
 10
4.9676702066
 20
3.0222544792
 30
0.0
 10
4.9690322989
 20
3.0228781357
 30
0.0
 10
4.9700893138
 20
3.0234432503
 30
0.0
 10
4.9706081242
 20
3.0237421917
 30
0.0
  0
SPLINE
  5
2D3
100
AcDbEntity
  8
0
100
AcDbSpline
 62
6
  6
CONTINUOUS
 70
0
 71
3
 72
25
 73
21
 74
0
 42
0.0000001
 43
0.0000001
 44
0.0000000001
 40
0.0
 40
0.0
 40
0.0
 40
0.0
 40
0.0624936906
 40
0.1250003816
 40
0.187502597
 40
0.2187544523
 40
0.2500064539
 40
0.312507781
 40
0.3437617022
 40
0.3750154697
 40
0.437517672
 40
0.4687711487
 40
0.5000240281
 40
0.5625258439
 40
0.6250284259
 40
0.6875297058
 40
0.75002904
 40
0.8125266186
 40
0.8750285121
 40
1.0
 40
1.0
 40
1.0
 40
1.0
 10
4.9775047791
 20
3.003136783
 30
0.0
 10
4.9767583523
 20
3.0026983309
 30
0.0
 10
4.9752441438
 20
3.0018568212
 30
0.0
 10
4.9729139195
 20
3.0007073395
 30
0.0
 10
4.9709260119
 20
2.9998482877
 30
0.0
 10
4.9693110984
 20
2.9992229026
 30
0.0
 10
4.9676805537
 20
2.998639559
 30
0.0
 10
4.9660277189
 20
2.9981200673
 30
0.0
 10
4.9643566596
 20
2.9976654102
 30
0.0
 10
4.9626743579
 20
2.9972542359
 30
0.0
 10
4.9609766727
 20
2.9969083661
 30
0.0
 10
4.9592677656
 20
2.9966277739
 30
0.0
 10
4.9575522709
 20
2.9963906654
 30
0.0
 10
4.9553975863
 20
2.9961749002
 30
0.0
 10
4.9528026972
 20
2.9960414186
 30
0.0
 10
4.9502044688
 20
2.9960294555
 30
0.0
 10
4.9476085048
 20
2.9961347287
 30
0.0
 10
4.9450195501
 20
2.9963523772
 30
0.0
 10
4.9415831462
 20
2.9967833398
 30
0.0
 10
4.9390264239
 20
2.9972559249
 30
0.0
 10
4.9373361487
 20
2.9976297958
 30
0.0
  0
SPLINE
  5
2D4
100
AcDbEntity
  8
0
100
AcDbSpline
 62
6
  6
CONTINUOUS
 70
0
 71
3
 72
28
 73
24
 74
0
 42
0.0000001
 43
0.0000001
 44
0.0000000001
 40
0.0
 40
0.0
 40
0.0
 40
0.0
 40
0.0624894483
 40
0.1249875059
 40
0.1874865457
 40
0.2499815645
 40
0.3124768942
 40
0.3749745196
 40
0.437473302
 40
0.4999719544
 40
0.531222904
 40
0.5624748401
 40
0.6249744733
 40
0.6562270531
 40
0.6874803585
 40
0.7187334906
 40
0.7499859103
 40
0.7812377398
 40
0.8124896867
 40
0.8437425779
 40
0.8749972411
 40
0.9375059227
 40
1.0
 40
1.0
 40
1.0
 40
1.0
 10
5.0029672855
 20
3.0371119021
 30
0.0
 10
5.0026876553
 20
3.0362512889
 30
0.0
 10
5.0021020231
 20
3.0345383541
 30
0.0
 10
5.0011409208
 20
3.0319986805
 30
0.0
 10
5.0000936289
 20
3.0294931365
 30
0.0
 10
4.9989557961
 20
3.0270273476
 30
0.0
 10
4.9977226154
 20
3.0246077603
 30
0.0
 10
4.99639076
 20
3.0222408991
 30
0.0
 10
4.9949581273
 20
3.0199335316
 30
0.0
 10
4.9936784564
 20
3.0180664815
 30
0.0
 10
4.9926024518
 20
3.0166106755
 30
0.0
 10
4.9914913363
 20
3.0151814959
 30
0.0
 10
4.9903275695
 20
3.0137938196
 30
0.0
 10
4.9891122217
 20
3.0124520781
 30
0.0
 10
4.9881749807
 20
3.0114695294
 30
0.0
 10
4.987212502
 20
3.0105117056
 30
0.0
 10
4.9862252028
 20
3.0095795082
 30
0.0
 10
4.9852134847
 20
3.0086738929
 30
0.0
 10
4.9841779267
 20
3.0077956295
 30
0.0
 10
4.9831192678
 20
3.0069452772
 30
0.0
 10
4.9816779587
 20
3.0058495369
 30
0.0
 10
4.9798222714
 20
3.0045528206
 30
0.0
 10
4.9782850873
 20
3.0035951371
 30
0.0
 10
4.9775047791
 20
3.003136783
 30
0.0
  0
SPLINE
  5
2D5
100
AcDbEntity
  8
0
100
AcDbSpline
 62
7
  6
CONTINUOUS
 70
0
 71
3
 72
28
 73
24
 74
0
 42
0.0000001
 43
0.0000001
 44
0.0000000001
 40
0.0
 40
0.0
 40
0.0
 40
0.0
 40
0.0624940743
 40
0.1249945662
 40
0.1562463369
 40
0.1874980174
 40
0.2499966837
 40
0.2812496006
 40
0.3125023697
 40
0.3437545758
 40
0.3750065346
 40
0.4375026155
 40
0.4999986346
 40
0.5312506058
 40
0.5625027316
 40
0.5937552762
 40
0.6250076072
 40
0.6875074266
 40
0.7500078998
 40
0.8125077683
 40
0.8750059858
 40
0.9375064549
 40
1.0
 40
1.0
 40
1.0
 40
1.0
 10
4.996841136
 20
3.0888576094
 30
0.0
 10
4.9974626241
 20
3.0879187523
 30
0.0
 10
4.9986575758
 20
3.0860085763
 30
0.0
 10
5.0000201624
 20
3.0835435963
 30
0.0
 10
5.0010249103
 20
3.0815276894
 30
0.0
 10
5.001970443
 20
3.0794834245
 30
0.0
 10
5.0028242539
 20
3.0773976622
 30
0.0
 10
5.0035812274
 20
3.0752762627
 30
0.0
 10
5.0040995687
 20
3.0736682732
 30
0.0
 10
5.0045675522
 20
3.07204493
 30
0.0
 10
5.0051229432
 20
3.0698621026
 30
0.0
 10
5.0056875382
 20
3.0671022999
 30
0.0
 10
5.0060771716
 20
3.0643124574
 30
0.0
 10
5.00628459
 20
3.0620696718
 30
0.0
 10
5.0063883847
 20
3.0603834285
 30
0.0
 10
5.0064410843
 20
3.058694819
 30
0.0
 10
5.0064439629
 20
3.0564424
 30
0.0
 10
5.0063237745
 20
3.0536281554
 30
0.0
 10
5.005991261
 20
3.050264838
 30
0.0
 10
5.0054801585
 20
3.0469241133
 30
0.0
 10
5.0048007802
 20
3.0436136957
 30
0.0
 10
5.0039667695
 20
3.0403391795
 30
0.0
 10
5.0033152116
 20
3.0381827085
 30
0.0
 10
5.0029672855
 20
3.0371119021
 30
0.0
  0
SPLINE
  5
2D6
100
AcDbEntity
  8
0
100
AcDbSpline
 62
6
  6
CONTINUOUS
 70
0
 71
3
 72
19
 73
15
 74
0
 42
0.0000001
 43
0.0000001
 44
0.0000000001
 40
0.0
 40
0.0
 40
0.0
 40
0.0
 40
0.1249894371
 40
0.1874977694
 40
0.2500026252
 40
0.3125090739
 40
0.3750166245
 40
0.4375249453
 40
0.5000325485
 40
0.562540167
 40
0.6250482361
 40
0.7500321605
 40
0.8750153041
 40
1.0
 40
1.0
 40
1.0
 40
1.0
 10
4.9610204003
 20
3.1154212303
 30
0.0
 10
4.9628222389
 20
3.1148357775
 30
0.0
 10
4.9654966438
 20
3.1138647415
 30
0.0
 10
4.9689820336
 20
3.1123757003
 30
0.0
 10
4.9715516617
 20
3.1111588924
 30
0.0
 10
4.9740703685
 20
3.1098399514
 30
0.0
 10
4.9765326155
 20
3.1084181719
 30
0.0
 10
4.9789324559
 20
3.1068933067
 30
0.0
 10
4.981264024
 20
3.1052659157
 30
0.0
 10
4.9835211716
 20
3.1035366358
 30
0.0
 10
4.9864239194
 20
3.1010990688
 30
0.0
 10
4.9898420741
 20
3.0978100389
 30
0.0
 10
4.9935700848
 20
3.093510771
 30
0.0
 10
4.9957954106
 20
3.0904373448
 30
0.0
 10
4.996841136
 20
3.0888576094
 30
0.0
  0
SPLINE
  5
2D7
100
AcDbEntity
  8
0
100
AcDbSpline
 62
6
  6
CONTINUOUS
 70
0
 71
3
 72
28
 73
24
 74
0
 42
0.0000001
 43
0.0000001
 44
0.0000000001
 40
0.0
 40
0.0
 40
0.0
 40
0.0
 40
0.0625001478
 40
0.1250138001
 40
0.1875201503
 40
0.2187735052
 40
0.2500267791
 40
0.2812805504
 40
0.3125343027
 40
0.3437875772
 40
0.3750402851
 40
0.4375389955
 40
0.5000364321
 40
0.5312876233
 40
0.5625382013
 40
0.6250342238
 40
0.687529206
 40
0.7500242507
 40
0.8125184296
 40
0.8750110983
 40
0.9062599914
 40
0.937509005
 40
1.0
 40
1.0
 40
1.0
 40
1.0
 10
4.9160950496
 20
3.1129447082
 30
0.0
 10
4.9169544339
 20
3.113379524
 30
0.0
 10
4.9186952123
 20
3.1142069354
 30
0.0
 10
4.9213660125
 20
3.1153132852
 30
0.0
 10
4.923637526
 20
3.1161167453
 30
0.0
 10
4.9254782551
 20
3.1166856287
 30
0.0
 10
4.9268699132
 20
3.1170747234
 30
0.0
 10
4.9282716525
 20
3.1174257554
 30
0.0
 10
4.9296824363
 20
3.1177384649
 30
0.0
 10
4.9311012302
 20
3.1180125169
 30
0.0
 10
4.9330020626
 20
3.1183260299
 30
0.0
 10
4.935392984
 20
3.1186209514
 30
0.0
 10
4.937796214
 20
3.1187869917
 30
0.0
 10
4.9397217868
 20
3.1188440524
 30
0.0
 10
4.9416481686
 20
3.1188511201
 30
0.0
 10
4.9440555051
 20
3.1187679265
 30
0.0
 10
4.946935619
 20
3.1185263377
 30
0.0
 10
4.9498011449
 20
3.1181499251
 30
0.0
 10
4.9526467673
 20
3.117645443
 30
0.0
 10
4.9549979163
 20
3.1171237765
 30
0.0
 10
4.9568649879
 20
3.1166501773
 30
0.0
 10
4.958722495
 20
3.1161405099
 30
0.0
 10
4.9601045499
 20
3.1157188082
 30
0.0
 10
4.9610204003
 20
3.1154212303
 30
0.0
  0
SPLINE
  5
2D8
100
AcDbEntity
  8
0
100
AcDbSpline
 62
7
  6
CONTINUOUS
 70
0
 71
3
 72
15
 73
11
 74
0
 42
0.0000001
 43
0.0000001
 44
0.0000000001
 40
0.0
 40
0.0
 40
0.0
 40
0.0
 40
0.1250066126
 40
0.2500109825
 40
0.3750085331
 40
0.5000038591
 40
0.6249983552
 40
0.7499942582
 40
0.8749954607
 40
1.0
 40
1.0
 40
1.0
 40
1.0
 10
4.8882513412
 20
3.0801949339
 30
0.0
 10
4.8888201478
 20
3.0819455406
 30
0.0
 10
4.8901028379
 20
3.0854019451
 30
0.0
 10
4.8924897441
 20
3.0903902062
 30
0.0
 10
4.8953568148
 20
3.0951205449
 30
0.0
 10
4.8987007817
 20
3.0995274179
 30
0.0
 10
4.9024958623
 20
3.1035525578
 30
0.0
 10
4.9066953406
 20
3.1071532857
 30
0.0
 10
4.9112379815
 20
3.1103077272
 30
0.0
 10
4.9144526431
 20
3.1121137128
 30
0.0
 10
4.9160950496
 20
3.1129447082
 30
0.0
  0
SPLINE
  5
2D9
100
AcDbEntity
  8
0
100
AcDbSpline
 62
7
  6
CONTINUOUS
 70
0
 71
3
 72
19
 73
15
 74
0
 42
0.0000001
 43
0.0000001
 44
0.0000000001
 40
0.0
 40
0.0
 40
0.0
 40
0.0
 40
0.1249921989
 40
0.1874983999
 40
0.2500013558
 40
0.3125054287
 40
0.3750106314
 40
0.4375167413
 40
0.5000221805
 40
0.5625285081
 40
0.6250355359
 40
0.7500238959
 40
0.8750117312
 40
1.0
 40
1.0
 40
1.0
 40
1.0
 10
4.8884845742
 20
3.0443579713
 30
0.0
 10
4.888047958
 20
3.0458106157
 30
0.0
 10
4.8874565357
 20
3.0480097221
 30
0.0
 10
4.8868080711
 20
3.0509738912
 30
0.0
 10
4.886395637
 20
3.053212247
 30
0.0
 10
4.8860616713
 20
3.0554636383
 30
0.0
 10
4.885809142
 20
3.0577256869
 30
0.0
 10
4.8856407377
 20
3.0599955967
 30
0.0
 10
4.8855593543
 20
3.0622703306
 30
0.0
 10
4.8855680726
 20
3.0645465895
 30
0.0
 10
4.8857020324
 20
3.067578187
 30
0.0
 10
4.8861028058
 20
3.0713539579
 30
0.0
 10
4.8869627916
 20
3.0758274241
 30
0.0
 10
4.887782626
 20
3.0787523768
 30
0.0
 10
4.8882513412
 20
3.0801949339
 30
0.0
  0
SPLINE
  5
2DA
100
AcDbEntity
  8
0
100
AcDbSpline
 62
6
  6
CONTINUOUS
 70
0
 71
3
 72
21
 73
17
 74
0
 42
0.0000001
 43
0.0000001
 44
0.0000000001
 40
0.0
 40
0.0
 40
0.0
 40
0.0
 40
0.1249955185
 40
0.2499903715
 40
0.3124897943
 40
0.3749891527
 40
0.4374889484
 40
0.4999883625
 40
0.5624881763
 40
0.6249885495
 40
0.6874888294
 40
0.7499903582
 40
0.8124912233
 40
0.8749929769
 40
0.9374992133
 40
1.0
 40
1.0
 40
1.0
 40
1.0
 10
5.7489123834
 20
3.7473744305
 30
0.0
 10
5.7498829525
 20
3.7482421581
 30
0.0
 10
5.7517997119
 20
3.7500051089
 30
0.0
 10
5.7541271873
 20
3.7522811423
 30
0.0
 10
5.755941809
 20
3.7541486913
 30
0.0
 10
5.7572768238
 20
3.7555742005
 30
0.0
 10
5.7585833007
 20
3.7570259307
 30
0.0
 10
5.7598583229
 20
3.7585054023
 30
0.0
 10
5.7610991429
 20
3.7600136985
 30
0.0
 10
5.762304105
 20
3.7615508238
 30
0.0
 10
5.7634699245
 20
3.7631179089
 30
0.0
 10
5.7645924421
 20
3.7647163495
 30
0.0
 10
5.7656674884
 20
3.7663471598
 30
0.0
 10
5.7666908093
 20
3.7680110228
 30
0.0
 10
5.7676586066
 20
3.7697077953
 30
0.0
 10
5.7682633121
 20
3.7708612777
 30
0.0
 10
5.7685544406
 20
3.7714435355
 30
0.0
  0
SPLINE
  5
2DB
100
AcDbEntity
  8
0
100
AcDbSpline
 62
6
  6
CONTINUOUS
 70
0
 71
3
 72
13
 73
9
 74
0
 42
0.0000001
 43
0.0000001
 44
0.0000000001
 40
0.0
 40
0.0
 40
0.0
 40
0.0
 40
0.2499830686
 40
0.4999651112
 40
0.6249718186
 40
0.7499820992
 40
0.8750000836
 40
1.0
 40
1.0
 40
1.0
 40
1.0
 10
5.7164944159
 20
3.7262593535
 30
0.0
 10
5.7194219891
 20
3.727635313
 30
0.0
 10
5.7251948066
 20
3.730566995
 30
0.0
 10
5.7321491907
 20
3.7347087635
 30
0.0
 10
5.7375193282
 20
3.7383198326
 30
0.0
 10
5.7414422094
 20
3.7411789654
 30
0.0
 10
5.7452501356
 20
3.7441892649
 30
0.0
 10
5.7477065307
 20
3.74629635
 30
0.0
 10
5.7489123834
 20
3.7473744305
 30
0.0
  0
SPLINE
  5
2DC
100
AcDbEntity
  8
0
100
AcDbSpline
 62
7
  6
CONTINUOUS
 70
0
 71
3
 72
17
 73
13
 74
0
 42
0.0000001
 43
0.0000001
 44
0.0000000001
 40
0.0
 40
0.0
 40
0.0
 40
0.0
 40
0.124999825
 40
0.2499994785
 40
0.3749988558
 40
0.4999979533
 40
0.6249967234
 40
0.749995267
 40
0.8124960063
 40
0.8749969271
 40
0.937499251
 40
1.0
 40
1.0
 40
1.0
 40
1.0
 10
5.7397272287
 20
3.7162684258
 30
0.0
 10
5.7387987479
 20
3.7157179697
 30
0.0
 10
5.7369336347
 20
3.7146307323
 30
0.0
 10
5.7341103595
 20
3.7130446308
 30
0.0
 10
5.7312597544
 20
3.7115081176
 30
0.0
 10
5.7283793883
 20
3.710028033
 30
0.0
 10
5.7254659584
 20
3.7086140066
 30
0.0
 10
5.7230080267
 20
3.7074994157
 30
0.0
 10
5.7210228272
 20
3.7066511115
 30
0.0
 10
5.7195241835
 20
3.7060380468
 30
0.0
 10
5.718015521
 20
3.7054500594
 30
0.0
 10
5.7170026752
 20
3.7050766184
 30
0.0
 10
5.7164944159
 20
3.7048950974
 30
0.0
  0
SPLINE
  5
2DD
100
AcDbEntity
  8
0
100
AcDbSpline
 62
7
  6
CONTINUOUS
 70
0
 71
3
 72
18
 73
14
 74
0
 42
0.0000001
 43
0.0000001
 44
0.0000000001
 40
0.0
 40
0.0
 40
0.0
 40
0.0
 40
0.062500779
 40
0.125003773
 40
0.1875048753
 40
0.2500057174
 40
0.3125067246
 40
0.3750074272
 40
0.5000051207
 40
0.6250032572
 40
0.750001812
 40
0.8750007746
 40
1.0
 40
1.0
 40
1.0
 40
1.0
 10
5.7606963246
 20
3.7315390245
 30
0.0
 10
5.7603045919
 20
3.7311650979
 30
0.0
 10
5.7595121754
 20
3.7304265445
 30
0.0
 10
5.7582999965
 20
3.7293446397
 30
0.0
 10
5.7570668027
 20
3.7282867606
 30
0.0
 10
5.7558144016
 20
3.7272517415
 30
0.0
 10
5.7545442461
 20
3.7262386026
 30
0.0
 10
5.7528286451
 20
3.7249159774
 30
0.0
 10
5.7506457793
 20
3.7233131749
 30
0.0
 10
5.7479750886
 20
3.7214619926
 30
0.0
 10
5.7452619704
 20
3.7196736703
 30
0.0
 10
5.7425127913
 20
3.7179414016
 30
0.0
 10
5.7406588838
 20
3.7168207638
 30
0.0
 10
5.7397272287
 20
3.7162684258
 30
0.0
  0
SPLINE
  5
2DE
100
AcDbEntity
  8
0
100
AcDbSpline
 62
6
  6
CONTINUOUS
 70
0
 71
3
 72
35
 73
31
 74
0
 42
0.0000001
 43
0.0000001
 44
0.0000000001
 40
0.0
 40
0.0
 40
0.0
 40
0.0
 40
0.0624964529
 40
0.0937536925
 40
0.1250087459
 40
0.1562627722
 40
0.1875169215
 40
0.2187718388
 40
0.2500247562
 40
0.2812774663
 40
0.3125294696
 40
0.3750276869
 40
0.4375247183
 40
0.4687745133
 40
0.500023703
 40
0.5312730289
 40
0.5625219671
 40
0.5937707298
 40
0.625019378
 40
0.6562679236
 40
0.6875166153
 40
0.7187650528
 40
0.7500134493
 40
0.7812619711
 40
0.8125101978
 40
0.8437583958
 40
0.8750068938
 40
0.9062556358
 40
0.9375044162
 40
1.0
 40
1.0
 40
1.0
 40
1.0
 10
5.8571585447
 20
3.6062646339
 30
0.0
 10
5.8561685006
 20
3.6075175716
 30
0.0
 10
5.8547686414
 20
3.6094664341
 30
0.0
 10
5.8530675905
 20
3.6121705397
 30
0.0
 10
5.8518712428
 20
3.6142470975
 30
0.0
 10
5.8507523512
 20
3.6163661308
 30
0.0
 10
5.849707738
 20
3.618522705
 30
0.0
 10
5.8487337005
 20
3.6207119583
 30
0.0
 10
5.8478264403
 20
3.6229296271
 30
0.0
 10
5.8469829848
 20
3.6251722304
 30
0.0
 10
5.8459391852
 20
3.6281912221
 30
0.0
 10
5.8447782527
 20
3.6320128081
 30
0.0
 10
5.8437900064
 20
3.6358821229
 30
0.0
 10
5.8430919551
 20
3.6389989109
 30
0.0
 10
5.8426119546
 20
3.6413458873
 30
0.0
 10
5.8421730658
 20
3.6437008477
 30
0.0
 10
5.841772669
 20
3.6460626369
 30
0.0
 10
5.8414093668
 20
3.648430391
 30
0.0
 10
5.8410818976
 20
3.6508033492
 30
0.0
 10
5.8407888513
 20
3.653180794
 30
0.0
 10
5.8405286109
 20
3.6555620401
 30
0.0
 10
5.8402996061
 20
3.6579464815
 30
0.0
 10
5.8401001141
 20
3.6603335616
 30
0.0
 10
5.8399283762
 20
3.6627227861
 30
0.0
 10
5.8397825769
 20
3.6651137229
 30
0.0
 10
5.8396616152
 20
3.6675060414
 30
0.0
 10
5.8395645033
 20
3.6698994553
 30
0.0
 10
5.8394901724
 20
3.6722937
 30
0.0
 10
5.8394204387
 20
3.675486744
 30
0.0
 10
5.8394002764
 20
3.6778821375
 30
0.0
 10
5.8394002764
 20
3.6794789997
 30
0.0
  0
SPLINE
  5
2DF
100
AcDbEntity
  8
0
100
AcDbSpline
 62
7
  6
CONTINUOUS
 70
0
 71
3
 72
32
 73
28
 74
0
 42
0.0000001
 43
0.0000001
 44
0.0000000001
 40
0.0
 40
0.0
 40
0.0
 40
0.0
 40
0.0624920957
 40
0.0937433511
 40
0.1249954281
 40
0.1874929907
 40
0.2187438139
 40
0.2499961848
 40
0.3124956336
 40
0.374994755
 40
0.4062462788
 40
0.4374981966
 40
0.4999936738
 40
0.5312450202
 40
0.5624961014
 40
0.5937471851
 40
0.6249984514
 40
0.6562496808
 40
0.6875009995
 40
0.7499972183
 40
0.7812494617
 40
0.8125014936
 40
0.8437523851
 40
0.8750030945
 40
0.9062551153
 40
0.9375078433
 40
1.0
 40
1.0
 40
1.0
 40
1.0
 10
5.8980905931
 20
3.5876372522
 30
0.0
 10
5.8971184979
 20
3.5876372522
 30
0.0
 10
5.8956600263
 20
3.5876661939
 30
0.0
 10
5.8937181167
 20
3.5877662002
 30
0.0
 10
5.8917787461
 20
3.5879082794
 30
0.0
 10
5.889844565
 20
3.5881159551
 30
0.0
 10
5.8879200126
 20
3.5883946182
 30
0.0
 10
5.886003134
 20
3.5887221644
 30
0.0
 10
5.883623941
 20
3.589225106
 30
0.0
 10
5.8812757398
 20
3.5898577395
 30
0.0
 10
5.8794216896
 20
3.5904446768
 30
0.0
 10
5.8775860084
 20
3.5910864704
 30
0.0
 10
5.8757801902
 20
3.5918113884
 30
0.0
 10
5.874011545
 20
3.5926198207
 30
0.0
 10
5.8727047237
 20
3.593267781
 30
0.0
 10
5.8714192812
 20
3.5939571521
 30
0.0
 10
5.8701566216
 20
3.5946874209
 30
0.0
 10
5.8689180566
 20
3.5954578949
 30
0.0
 10
5.8673007614
 20
3.5965377562
 30
0.0
 10
5.8657359687
 20
3.5976946136
 30
0.0
 10
5.8642284428
 20
3.5989230796
 30
0.0
 10
5.8631268262
 20
3.5998791762
 30
0.0
 10
5.8620552239
 20
3.600868724
 30
0.0
 10
5.8610140073
 20
3.6018901792
 30
0.0
 10
5.8600031694
 20
3.6029417536
 30
0.0
 10
5.8586960976
 20
3.6043815136
 30
0.0
 10
5.8577612295
 20
3.6055019139
 30
0.0
 10
5.8571585447
 20
3.6062646339
 30
0.0
  0
SPLINE
  5
2E0
100
AcDbEntity
  8
0
100
AcDbSpline
 62
7
  6
CONTINUOUS
 70
0
 71
3
 72
23
 73
19
 74
0
 42
0.0000001
 43
0.0000001
 44
0.0000000001
 40
0.0
 40
0.0
 40
0.0
 40
0.0
 40
0.0624963967
 40
0.1250076086
 40
0.1875125052
 40
0.2500134897
 40
0.3125158143
 40
0.3750188289
 40
0.4375199294
 40
0.5000197971
 40
0.5625188359
 40
0.6250185417
 40
0.687516894
 40
0.75001315
 40
0.8125090117
 40
0.8750090861
 40
0.9375084867
 40
1.0
 40
1.0
 40
1.0
 40
1.0
 10
5.930750891
 20
3.5981965922
 30
0.0
 10
5.930188765
 20
3.5977308308
 30
0.0
 10
5.9290404026
 20
3.596827705
 30
0.0
 10
5.9272510064
 20
3.5955629745
 30
0.0
 10
5.925398851
 20
3.5943918649
 30
0.0
 10
5.923489286
 20
3.5933171653
 30
0.0
 10
5.9215275755
 20
3.5923410016
 30
0.0
 10
5.9195199601
 20
3.5914632395
 30
0.0
 10
5.9174723723
 20
3.5906834763
 30
0.0
 10
5.9153907202
 20
3.5900001617
 30
0.0
 10
5.9132805384
 20
3.5894111251
 30
0.0
 10
5.9111472296
 20
3.5889126864
 30
0.0
 10
5.9089954725
 20
3.5885015569
 30
0.0
 10
5.9068293637
 20
3.5881749737
 30
0.0
 10
5.9046526574
 20
3.5879291468
 30
0.0
 10
5.9024687863
 20
3.5877586096
 30
0.0
 10
5.9002806562
 20
3.5876587317
 30
0.0
 10
5.8988205493
 20
3.5876372522
 30
0.0
 10
5.8980905931
 20
3.5876372522
 30
0.0
  0
SPLINE
  5
2E1
100
AcDbEntity
  8
0
100
AcDbSpline
 62
7
  6
CONTINUOUS
 70
0
 71
3
 72
20
 73
16
 74
0
 42
0.0000001
 43
0.0000001
 44
0.0000000001
 40
0.0
 40
0.0
 40
0.0
 40
0.0
 40
0.0624995154
 40
0.1250042501
 40
0.1875089001
 40
0.2500108055
 40
0.3125130733
 40
0.3750163692
 40
0.4375204586
 40
0.5000241293
 40
0.5625287191
 40
0.6250339572
 40
0.7500230878
 40
0.8750112731
 40
1.0
 40
1.0
 40
1.0
 40
1.0
 10
5.9502181698
 20
3.6282968174
 30
0.0
 10
5.9499778949
 20
3.6275793757
 30
0.0
 10
5.9494798427
 20
3.6261502118
 30
0.0
 10
5.9486785265
 20
3.6240261461
 30
0.0
 10
5.9478212772
 20
3.6219239584
 30
0.0
 10
5.9469055164
 20
3.6198465873
 30
0.0
 10
5.9459282879
 20
3.6177973898
 30
0.0
 10
5.9448876768
 20
3.61577958
 30
0.0
 10
5.9437823627
 20
3.6137964158
 30
0.0
 10
5.9426106962
 20
3.6118516629
 30
0.0
 10
5.9413709022
 20
3.6099495035
 30
0.0
 10
5.9396260496
 20
3.6074760222
 30
0.0
 10
5.9372700125
 20
3.6045109793
 30
0.0
 10
5.9341648062
 20
3.601193414
 30
0.0
 10
5.9319160029
 20
3.5991619706
 30
0.0
 10
5.930750891
 20
3.5981965922
 30
0.0
  0
SPLINE
  5
2E2
100
AcDbEntity
  8
0
100
AcDbSpline
 62
6
  6
CONTINUOUS
 70
0
 71
3
 72
24
 73
20
 74
0
 42
0.0000001
 43
0.0000001
 44
0.0000000001
 40
0.0
 40
0.0
 40
0.0
 40
0.0
 40
0.1249962666
 40
0.2499922128
 40
0.3124912645
 40
0.3749902951
 40
0.4374895877
 40
0.4999886359
 40
0.5624879395
 40
0.5937380409
 40
0.6249883398
 40
0.6874880223
 40
0.7499888982
 40
0.8124890058
 40
0.8437400377
 40
0.8749916431
 40
0.9062448583
 40
0.9374994803
 40
1.0
 40
1.0
 40
1.0
 40
1.0
 10
5.9567809098
 20
3.6794789997
 30
0.0
 10
5.9567809098
 20
3.6773201743
 30
0.0
 10
5.9567336334
 20
3.6730023696
 30
0.0
 10
5.9565456354
 20
3.6676079538
 30
0.0
 10
5.9563084724
 20
3.6632966707
 30
0.0
 10
5.9560836969
 20
3.6600660656
 30
0.0
 10
5.9558080625
 20
3.6568393814
 30
0.0
 10
5.9554770329
 20
3.6536178815
 30
0.0
 10
5.9551512543
 20
3.6509388502
 30
0.0
 10
5.9548591313
 20
3.6487997883
 30
0.0
 10
5.9545454639
 20
3.6466637743
 30
0.0
 10
5.9541109131
 20
3.644000121
 30
0.0
 10
5.9535151903
 20
3.6408167284
 30
0.0
 10
5.9529503598
 20
3.6381774766
 30
0.0
 10
5.9524537039
 20
3.6360763755
 30
0.0
 10
5.9520580036
 20
3.6345061373
 30
0.0
 10
5.9516383194
 20
3.6329420607
 30
0.0
 10
5.9510455327
 20
3.6308659434
 30
0.0
 10
5.9505609709
 20
3.6293203936
 30
0.0
 10
5.9502181698
 20
3.6282968174
 30
0.0
  0
SPLINE
  5
2E3
100
AcDbEntity
  8
0
100
AcDbSpline
 62
6
  6
CONTINUOUS
 70
0
 71
3
 72
24
 73
20
 74
0
 42
0.0000001
 43
0.0000001
 44
0.0000000001
 40
0.0
 40
0.0
 40
0.0
 40
0.0
 40
0.0625004563
 40
0.0937539181
 40
0.1250062828
 40
0.1562573776
 40
0.1875080447
 40
0.2500080641
 40
0.3125086331
 40
0.3750083771
 40
0.4062584878
 40
0.4375084599
 40
0.500007918
 40
0.5625072209
 40
0.6250066087
 40
0.6875058609
 40
0.7500051324
 40
0.8750024813
 40
1.0
 40
1.0
 40
1.0
 40
1.0
 10
5.9527290663
 20
3.7219619527
 30
0.0
 10
5.9529499435
 20
3.7210985245
 30
0.0
 10
5.9532597957
 20
3.7197977437
 30
0.0
 10
5.9536354332
 20
3.7180552019
 30
0.0
 10
5.9538999196
 20
3.716744645
 30
0.0
 10
5.9541480253
 20
3.715430938
 30
0.0
 10
5.9544579147
 20
3.7136755697
 30
0.0
 10
5.9548079316
 20
3.7114749579
 30
0.0
 10
5.9551741486
 20
3.7088263196
 30
0.0
 10
5.9554394377
 20
3.7066139805
 30
0.0
 10
5.9556300018
 20
3.7048417328
 30
0.0
 10
5.955806918
 20
3.7030680739
 30
0.0
 10
5.9560033641
 20
3.7008486207
 30
0.0
 10
5.956202339
 20
3.698182308
 30
0.0
 10
5.9563674648
 20
3.6955136981
 30
0.0
 10
5.9565015978
 20
3.6928433613
 30
0.0
 10
5.9566425124
 20
3.6892812478
 30
0.0
 10
5.9567533184
 20
3.6848263128
 30
0.0
 10
5.9567809098
 20
3.6812614159
 30
0.0
 10
5.9567809098
 20
3.6794789997
 30
0.0
  0
SPLINE
  5
2E4
100
AcDbEntity
  8
0
100
AcDbSpline
 62
7
  6
CONTINUOUS
 70
0
 71
3
 72
20
 73
16
 74
0
 42
0.0000001
 43
0.0000001
 44
0.0000000001
 40
0.0
 40
0.0
 40
0.0
 40
0.0
 40
0.1249974876
 40
0.1875031673
 40
0.2500055675
 40
0.3125068891
 40
0.3750081659
 40
0.4375099186
 40
0.5000108378
 40
0.5625113448
 40
0.6250114405
 40
0.6875115056
 40
0.7500111344
 40
0.875005899
 40
1.0
 40
1.0
 40
1.0
 40
1.0
 10
5.9415124079
 20
3.7487006271
 30
0.0
 10
5.9421676353
 20
3.7476794927
 30
0.0
 10
5.9431121721
 20
3.74612268
 30
0.0
 10
5.9442963215
 20
3.7440044018
 30
0.0
 10
5.9451475426
 20
3.7423954854
 30
0.0
 10
5.9459622337
 20
3.7407678474
 30
0.0
 10
5.9467410119
 20
3.7391227347
 30
0.0
 10
5.9474847916
 20
3.7374615226
 30
0.0
 10
5.9481945045
 20
3.7357854898
 30
0.0
 10
5.94887075
 20
3.7340956991
 30
0.0
 10
5.9495140843
 20
3.7323931235
 30
0.0
 10
5.950125362
 20
3.7306787907
 30
0.0
 10
5.9508989889
 20
3.7283787537
 30
0.0
 10
5.9517907748
 20
3.7254790419
 30
0.0
 10
5.9524283841
 20
3.7231373457
 30
0.0
 10
5.9527290663
 20
3.7219619527
 30
0.0
  0
SPLINE
  5
2E5
100
AcDbEntity
  8
0
100
AcDbSpline
 62
7
  6
CONTINUOUS
 70
0
 71
3
 72
15
 73
11
 74
0
 42
0.0000001
 43
0.0000001
 44
0.0000000001
 40
0.0
 40
0.0
 40
0.0
 40
0.0
 40
0.1249998346
 40
0.2499995983
 40
0.3749994296
 40
0.4999992005
 40
0.624999006
 40
0.7499989141
 40
0.8749993768
 40
1.0
 40
1.0
 40
1.0
 40
1.0
 10
5.9234929622
 20
3.7655243057
 30
0.0
 10
5.924407509
 20
3.7650324479
 30
0.0
 10
5.9262065526
 20
3.7639915886
 30
0.0
 10
5.9288000888
 20
3.7622619907
 30
0.0
 10
5.9312739445
 20
3.7603647848
 30
0.0
 10
5.9336166847
 20
3.7583079645
 30
0.0
 10
5.9358194598
 20
3.7561019751
 30
0.0
 10
5.9378752704
 20
3.7537584982
 30
0.0
 10
5.9397803924
 20
3.7512913339
 30
0.0
 10
5.9409516066
 20
3.7495746039
 30
0.0
 10
5.9415124079
 20
3.7487006271
 30
0.0
  0
SPLINE
  5
2E6
100
AcDbEntity
  8
0
100
AcDbSpline
 62
7
  6
CONTINUOUS
 70
0
 71
3
 72
18
 73
14
 74
0
 42
0.0000001
 43
0.0000001
 44
0.0000000001
 40
0.0
 40
0.0
 40
0.0
 40
0.0
 40
0.1249843192
 40
0.249988954
 40
0.3124955082
 40
0.3749984735
 40
0.4375009297
 40
0.5000077621
 40
0.6250036981
 40
0.7499965679
 40
0.8125043772
 40
0.8750180002
 40
1.0
 40
1.0
 40
1.0
 40
1.0
 10
5.8980905931
 20
3.7714435355
 30
0.0
 10
5.8991884157
 20
3.7714435355
 30
0.0
 10
5.9013846206
 20
3.7713918704
 30
0.0
 10
5.9041232429
 20
3.7711876494
 30
0.0
 10
5.906304874
 20
3.7709342593
 30
0.0
 10
5.907935085
 20
3.7706977416
 30
0.0
 10
5.9095576455
 20
3.7704132795
 30
0.0
 10
5.911708328
 20
3.7699682265
 30
0.0
 10
5.914369094
 20
3.7692858561
 30
0.0
 10
5.9169789969
 20
3.7684285079
 30
0.0
 10
5.9190275576
 20
3.7676361426
 30
0.0
 10
5.9210468299
 20
3.7667723564
 30
0.0
 10
5.9225261186
 20
3.7660442896
 30
0.0
 10
5.9234929622
 20
3.7655243057
 30
0.0
  0
SPLINE
  5
2E7
100
AcDbEntity
  8
0
100
AcDbSpline
 62
7
  6
CONTINUOUS
 70
0
 71
3
 72
22
 73
18
 74
0
 42
0.0000001
 43
0.0000001
 44
0.0000000001
 40
0.0
 40
0.0
 40
0.0
 40
0.0
 40
0.1249725301
 40
0.1874795341
 40
0.2499827347
 40
0.3124871801
 40
0.3749924063
 40
0.4374958346
 40
0.4999982381
 40
0.5624997428
 40
0.6250019305
 40
0.6875028736
 40
0.7500020424
 40
0.8125005451
 40
0.87500321
 40
0.9375056648
 40
1.0
 40
1.0
 40
1.0
 40
1.0
 10
5.865460486
 20
3.7608475929
 30
0.0
 10
5.8665875242
 20
3.7617733744
 30
0.0
 10
5.868349386
 20
3.7630789541
 30
0.0
 10
5.8708183609
 20
3.7646348062
 30
0.0
 10
5.8727267656
 20
3.765707927
 30
0.0
 10
5.8746860818
 20
3.7666846668
 30
0.0
 10
5.8766905295
 20
3.7675650487
 30
0.0
 10
5.878734464
 20
3.7683491995
 30
0.0
 10
5.8808122696
 20
3.7690383219
 30
0.0
 10
5.8829186582
 20
3.7696341197
 30
0.0
 10
5.8850484198
 20
3.7701397056
 30
0.0
 10
5.8871969653
 20
3.7705579529
 30
0.0
 10
5.8893602074
 20
3.7708913975
 30
0.0
 10
5.8915344081
 20
3.7711433493
 30
0.0
 10
5.8937161141
 20
3.7713186092
 30
0.0
 10
5.8959023246
 20
3.7714213825
 30
0.0
 10
5.8973612378
 20
3.7714435355
 30
0.0
 10
5.8980905931
 20
3.7714435355
 30
0.0
  0
SPLINE
  5
2E8
100
AcDbEntity
  8
0
100
AcDbSpline
 62
6
  6
CONTINUOUS
 70
0
 71
3
 72
20
 73
16
 74
0
 42
0.0000001
 43
0.0000001
 44
0.0000000001
 40
0.0
 40
0.0
 40
0.0
 40
0.0
 40
0.0624995334
 40
0.1250041948
 40
0.1875088537
 40
0.2500107777
 40
0.3125129899
 40
0.3750162691
 40
0.4375203476
 40
0.5000240234
 40
0.5625286328
 40
0.6250339167
 40
0.7500231037
 40
0.8750112754
 40
1.0
 40
1.0
 40
1.0
 40
1.0
 10
5.8459077844
 20
3.73080233
 30
0.0
 10
5.8461510962
 20
3.7315187484
 30
0.0
 10
5.8466549241
 20
3.7329458813
 30
0.0
 10
5.8474640404
 20
3.735066982
 30
0.0
 10
5.8483282378
 20
3.7371663165
 30
0.0
 10
5.8492501699
 20
3.7392409505
 30
0.0
 10
5.850232916
 20
3.7412875026
 30
0.0
 10
5.8512785063
 20
3.7433027322
 30
0.0
 10
5.8523883328
 20
3.7452833717
 30
0.0
 10
5.8535641543
 20
3.7472256143
 30
0.0
 10
5.8548078806
 20
3.7491252078
 30
0.0
 10
5.8565578789
 20
3.7515950558
 30
0.0
 10
5.8589205467
 20
3.7545548714
 30
0.0
 10
5.8620349745
 20
3.757863901
 30
0.0
 10
5.8642912808
 20
3.7598871742
 30
0.0
 10
5.865460486
 20
3.7608475929
 30
0.0
  0
SPLINE
  5
2E9
100
AcDbEntity
  8
0
100
AcDbSpline
 62
6
  6
CONTINUOUS
 70
0
 71
3
 72
24
 73
20
 74
0
 42
0.0000001
 43
0.0000001
 44
0.0000000001
 40
0.0
 40
0.0
 40
0.0
 40
0.0
 40
0.1249959697
 40
0.2499916665
 40
0.3124905498
 40
0.3749894094
 40
0.4374885385
 40
0.4999874669
 40
0.5624866774
 40
0.5937367189
 40
0.6249869906
 40
0.6874866318
 40
0.7499876133
 40
0.8124877211
 40
0.8437388589
 40
0.8749906304
 40
0.9062441924
 40
0.9374993471
 40
1.0
 40
1.0
 40
1.0
 40
1.0
 10
5.8394002764
 20
3.6794789997
 30
0.0
 10
5.8394002764
 20
3.6816435985
 30
0.0
 10
5.8394447782
 20
3.6859729342
 30
0.0
 10
5.83962333
 20
3.691382068
 30
0.0
 10
5.8398504401
 20
3.6957054495
 30
0.0
 10
5.8400667697
 20
3.6989453053
 30
0.0
 10
5.8403334562
 20
3.7021814286
 30
0.0
 10
5.8406553282
 20
3.7054125593
 30
0.0
 10
5.8409736018
 20
3.7080997643
 30
0.0
 10
5.8412601867
 20
3.7102454034
 30
0.0
 10
5.8415687371
 20
3.7123879998
 30
0.0
 10
5.8419978572
 20
3.7150598615
 30
0.0
 10
5.8425891483
 20
3.7182529159
 30
0.0
 10
5.8431527799
 20
3.7208998436
 30
0.0
 10
5.8436504246
 20
3.7230066599
 30
0.0
 10
5.8440479242
 20
3.724580931
 30
0.0
 10
5.8444705529
 20
3.7261487304
 30
0.0
 10
5.8450689068
 20
3.7282292873
 30
0.0
 10
5.8455597212
 20
3.7297774769
 30
0.0
 10
5.8459077844
 20
3.73080233
 30
0.0
  0
SPLINE
  5
2EA
100
AcDbEntity
  8
0
100
AcDbSpline
 62
7
  6
CONTINUOUS
 70
0
 71
3
 72
29
 73
25
 74
0
 42
0.0000001
 43
0.0000001
 44
0.0000000001
 40
0.0
 40
0.0
 40
0.0
 40
0.0
 40
0.06248265
 40
0.1249744134
 40
0.1874657588
 40
0.2187120232
 40
0.2499600727
 40
0.3124537489
 40
0.3749494819
 40
0.4374441071
 40
0.4999407126
 40
0.5624377008
 40
0.5936917031
 40
0.6249458297
 40
0.6561999488
 40
0.687454822
 40
0.7187103884
 40
0.7499657723
 40
0.7812198793
 40
0.8124738864
 40
0.8437301328
 40
0.8749893783
 40
0.9375044461
 40
1.0
 40
1.0
 40
1.0
 40
1.0
 10
5.9236005389
 20
3.7385173424
 30
0.0
 10
5.9232301106
 20
3.7390432183
 30
0.0
 10
5.9224687767
 20
3.7400808625
 30
0.0
 10
5.9212635538
 20
3.7415888707
 30
0.0
 10
5.9202044149
 20
3.7428000915
 30
0.0
 10
5.9193225433
 20
3.7437372182
 30
0.0
 10
5.9184170881
 20
3.7446516064
 30
0.0
 10
5.9172404811
 20
3.7457494992
 30
0.0
 10
5.9157572189
 20
3.7469861253
 30
0.0
 10
5.9142030046
 20
3.7481326832
 30
0.0
 10
5.9125790757
 20
3.7491783487
 30
0.0
 10
5.9111708673
 20
3.7499584956
 30
0.0
 10
5.910014393
 20
3.7505234913
 30
0.0
 10
5.9091328003
 20
3.750917078
 30
0.0
 10
5.9082380054
 20
3.7512796598
 30
0.0
 10
5.9073309518
 20
3.7516104379
 30
0.0
 10
5.9064128203
 20
3.7519091241
 30
0.0
 10
5.9054848039
 20
3.7521754857
 30
0.0
 10
5.9045480545
 20
3.7524092178
 30
0.0
 10
5.9036037654
 20
3.7526103407
 30
0.0
 10
5.9026531198
 20
3.7527791899
 30
0.0
 10
5.9013787502
 20
3.7529616642
 30
0.0
 10
5.8997757011
 20
3.7531104683
 30
0.0
 10
5.8984884081
 20
3.753148853
 30
0.0
 10
5.8978450315
 20
3.753148853
 30
0.0
  0
SPLINE
  5
2EB
100
AcDbEntity
  8
0
100
AcDbSpline
 62
6
  6
CONTINUOUS
 70
0
 71
3
 72
38
 73
34
 74
0
 42
0.0000001
 43
0.0000001
 44
0.0000000001
 40
0.0
 40
0.0
 40
0.0
 40
0.0
 40
0.0624978613
 40
0.124996192
 40
0.156245455
 40
0.1874946713
 40
0.2187439949
 40
0.2499934178
 40
0.3124917384
 40
0.3749901289
 40
0.4374883487
 40
0.4687378663
 40
0.4999875017
 40
0.5312370265
 40
0.5624867145
 40
0.5937363422
 40
0.6249860667
 40
0.6562357436
 40
0.6874855713
 40
0.718735161
 40
0.7499848027
 40
0.7812344157
 40
0.8124839153
 40
0.8437334482
 40
0.8749831879
 40
0.8906094124
 40
0.9062358154
 40
0.9218617701
 40
0.9374880092
 40
0.9531150313
 40
0.9687445405
 40
0.9843742833
 40
1.0
 40
1.0
 40
1.0
 40
1.0
 10
5.9340660326
 20
3.6794789997
 30
0.0
 10
5.9340660326
 20
3.6807434481
 30
0.0
 10
5.9340526464
 20
3.6832723758
 30
0.0
 10
5.9340002982
 20
3.6864331556
 30
0.0
 10
5.9339354875
 20
3.6889612581
 30
0.0
 10
5.9338748421
 20
3.6908569947
 30
0.0
 10
5.9338016947
 20
3.6927522954
 30
0.0
 10
5.9336866
 20
3.6952786151
 30
0.0
 10
5.9335075506
 20
3.6984348326
 30
0.0
 10
5.9332291444
 20
3.7022181691
 30
0.0
 10
5.9329361865
 20
3.7053659648
 30
0.0
 10
5.9326610251
 20
3.7078799254
 30
0.0
 10
5.9324332668
 20
3.7097629573
 30
0.0
 10
5.9321825125
 20
3.7116430733
 30
0.0
 10
5.9319072362
 20
3.7135197642
 30
0.0
 10
5.9316053453
 20
3.7153923728
 30
0.0
 10
5.9312745927
 20
3.717260113
 30
0.0
 10
5.9309123534
 20
3.7191220227
 30
0.0
 10
5.9305158862
 20
3.7209769635
 30
0.0
 10
5.930081565
 20
3.722823437
 30
0.0
 10
5.9296054206
 20
3.7246595978
 30
0.0
 10
5.9290837748
 20
3.72648339
 30
0.0
 10
5.928511744
 20
3.7282920746
 30
0.0
 10
5.9278835133
 20
3.7300820738
 30
0.0
 10
5.9273077407
 20
3.7315545479
 30
0.0
 10
5.9268117851
 20
3.7327178592
 30
0.0
 10
5.9264208952
 20
3.7335820956
 30
0.0
 10
5.9260096365
 20
3.7344368401
 30
0.0
 10
5.9255766764
 20
3.7352808308
 30
0.0
 10
5.9251209325
 20
3.7361128338
 30
0.0
 10
5.9246415618
 20
3.7369315565
 30
0.0
 10
5.9241370926
 20
3.7377350448
 30
0.0
 10
5.9237825947
 20
3.7382588882
 30
0.0
 10
5.9236005389
 20
3.7385173424
 30
0.0
  0
SPLINE
  5
2EC
100
AcDbEntity
  8
0
100
AcDbSpline
 62
6
  6
CONTINUOUS
 70
0
 71
3
 72
37
 73
33
 74
0
 42
0.0000001
 43
0.0000001
 44
0.0000000001
 40
0.0
 40
0.0
 40
0.0
 40
0.0
 40
0.0156257184
 40
0.0312550006
 40
0.0468835112
 40
0.0625100548
 40
0.0781360827
 40
0.0937621072
 40
0.1093884528
 40
0.1250142182
 40
0.1406397986
 40
0.1562652593
 40
0.1875148076
 40
0.2187643356
 40
0.2500139326
 40
0.2812635807
 40
0.3125133974
 40
0.3437631099
 40
0.3750129454
 40
0.4062626822
 40
0.4375123914
 40
0.4687620669
 40
0.5000117664
 40
0.5625099956
 40
0.6250084569
 40
0.6875069883
 40
0.7187566479
 40
0.7500061512
 40
0.812504784
 40
0.8750032223
 40
0.9375018
 40
1.0
 40
1.0
 40
1.0
 40
1.0
 10
5.9236294715
 20
3.6205431188
 30
0.0
 10
5.9238104254
 20
3.6208016243
 30
0.0
 10
5.9241627747
 20
3.6213254763
 30
0.0
 10
5.9246642537
 20
3.6221287044
 30
0.0
 10
5.9251409429
 20
3.6229468902
 30
0.0
 10
5.9255941463
 20
3.6237782196
 30
0.0
 10
5.9260247608
 20
3.6246214013
 30
0.0
 10
5.9264339339
 20
3.6254751733
 30
0.0
 10
5.9268229772
 20
3.6263382832
 30
0.0
 10
5.9271932576
 20
3.6272095848
 30
0.0
 10
5.9275459057
 20
3.6280881438
 30
0.0
 10
5.9279941899
 20
3.6292680522
 30
0.0
 10
5.9285158434
 20
3.6307573014
 30
0.0
 10
5.9290857817
 20
3.6325629072
 30
0.0
 10
5.929606058
 20
3.6343834018
 30
0.0
 10
5.9300809643
 20
3.6362162217
 30
0.0
 10
5.9305144096
 20
3.6380592568
 30
0.0
 10
5.9309102931
 20
3.6399107002
 30
0.0
 10
5.9312719981
 20
3.6417691
 30
0.0
 10
5.931602559
 20
3.6436332757
 30
0.0
 10
5.9319042942
 20
3.6455023178
 30
0.0
 10
5.9321794577
 20
3.6473754463
 30
0.0
 10
5.9325137887
 20
3.6498774701
 30
0.0
 10
5.9328748816
 20
3.6530122928
 30
0.0
 10
5.9332268142
 20
3.6567824353
 30
0.0
 10
5.9334593947
 20
3.6599292875
 30
0.0
 10
5.9336135132
 20
3.6624488061
 30
0.0
 10
5.9337477884
 20
3.6649694647
 30
0.0
 10
5.9338804235
 20
3.6681220373
 30
0.0
 10
5.9339895666
 20
3.6719068541
 30
0.0
 10
5.9340525833
 20
3.6756926977
 30
0.0
 10
5.9340660326
 20
3.6782169093
 30
0.0
 10
5.9340660326
 20
3.6794789997
 30
0.0
  0
SPLINE
  5
2ED
100
AcDbEntity
  8
0
100
AcDbSpline
 62
7
  6
CONTINUOUS
 70
0
 71
3
 72
27
 73
23
 74
0
 42
0.0000001
 43
0.0000001
 44
0.0000000001
 40
0.0
 40
0.0
 40
0.0
 40
0.0
 40
0.0624967404
 40
0.1250136619
 40
0.156273443
 40
0.1875301111
 40
0.2187847265
 40
0.2500395881
 40
0.2812955953
 40
0.3125518059
 40
0.34380724
 40
0.3750618337
 40
0.4375617277
 40
0.500059628
 40
0.5625571885
 40
0.6250529158
 40
0.6875494346
 40
0.7500437327
 40
0.8125335652
 40
0.8750251004
 40
0.9375169689
 40
1.0
 40
1.0
 40
1.0
 40
1.0
 10
5.8980905931
 20
3.6058091479
 30
0.0
 10
5.8987309861
 20
3.6058091479
 30
0.0
 10
5.9000123428
 20
3.6058490681
 30
0.0
 10
5.9016074787
 20
3.6060031838
 30
0.0
 10
5.902874961
 20
3.6061916262
 30
0.0
 10
5.9038201244
 20
3.606365673
 30
0.0
 10
5.904758582
 20
3.6065726077
 30
0.0
 10
5.9056891194
 20
3.6068126565
 30
0.0
 10
5.9066105449
 20
3.6070856573
 30
0.0
 10
5.9075217027
 20
3.607391191
 30
0.0
 10
5.9084214185
 20
3.6077289305
 30
0.0
 10
5.9096041135
 20
3.6082215164
 30
0.0
 10
5.9110490604
 20
3.6089144247
 30
0.0
 10
5.9127217737
 20
3.6098623499
 30
0.0
 10
5.9143285919
 20
3.610917922
 30
0.0
 10
5.9158659563
 20
3.6120720216
 30
0.0
 10
5.9173330716
 20
3.6133139109
 30
0.0
 10
5.9187297158
 20
3.6146343055
 30
0.0
 10
5.9200560298
 20
3.6160251023
 30
0.0
 10
5.9213141647
 20
3.6174776618
 30
0.0
 10
5.9225078842
 20
3.6189833469
 30
0.0
 10
5.9232623108
 20
3.6200186035
 30
0.0
 10
5.9236294715
 20
3.6205431188
 30
0.0
  0
SPLINE
  5
2EE
100
AcDbEntity
  8
0
100
AcDbSpline
 62
7
  6
CONTINUOUS
 70
0
 71
3
 72
29
 73
25
 74
0
 42
0.0000001
 43
0.0000001
 44
0.0000000001
 40
0.0
 40
0.0
 40
0.0
 40
0.0
 40
0.0624825598
 40
0.1249743188
 40
0.1874656868
 40
0.2187119556
 40
0.2499600342
 40
0.3124537551
 40
0.3749495583
 40
0.4374442065
 40
0.4999408391
 40
0.562437861
 40
0.5936919073
 40
0.6249460801
 40
0.6562002433
 40
0.68745513
 40
0.7187107088
 40
0.7499661092
 40
0.781220188
 40
0.8124741645
 40
0.8437304165
 40
0.8749896609
 40
0.9375045563
 40
1.0
 40
1.0
 40
1.0
 40
1.0
 10
5.8724289338
 20
3.6204203353
 30
0.0
 10
5.8727967897
 20
3.619894827
 30
0.0
 10
5.8735530343
 20
3.6188578656
 30
0.0
 10
5.8747508264
 20
3.6173507548
 30
0.0
 10
5.8758039783
 20
3.6161402057
 30
0.0
 10
5.8766812202
 20
3.6152036092
 30
0.0
 10
5.8775821633
 20
3.6142897608
 30
0.0
 10
5.8787533583
 20
3.613192577
 30
0.0
 10
5.8802304887
 20
3.6119569159
 30
0.0
 10
5.8817789271
 20
3.6108114979
 30
0.0
 10
5.8833974187
 20
3.6097672218
 30
0.0
 10
5.8848013152
 20
3.6089884448
 30
0.0
 10
5.8859544261
 20
3.6084246633
 30
0.0
 10
5.8868335265
 20
3.6080320333
 30
0.0
 10
5.8877258473
 20
3.6076704461
 30
0.0
 10
5.8886304338
 20
3.6073406872
 30
0.0
 10
5.8895460926
 20
3.6070430234
 30
0.0
 10
5.8904716223
 20
3.6067776697
 30
0.0
 10
5.8914058642
 20
3.6065449127
 30
0.0
 10
5.8923476189
 20
3.6063447049
 30
0.0
 10
5.893295701
 20
3.6061766882
 30
0.0
 10
5.8945666123
 20
3.6059951844
 30
0.0
 10
5.8961652666
 20
3.6058472665
 30
0.0
 10
5.8974489961
 20
3.6058091479
 30
0.0
 10
5.8980905931
 20
3.6058091479
 30
0.0
  0
SPLINE
  5
2EF
100
AcDbEntity
  8
0
100
AcDbSpline
 62
6
  6
CONTINUOUS
 70
0
 71
3
 72
38
 73
34
 74
0
 42
0.0000001
 43
0.0000001
 44
0.0000000001
 40
0.0
 40
0.0
 40
0.0
 40
0.0
 40
0.0624978547
 40
0.1249961504
 40
0.1562453922
 40
0.1874945902
 40
0.218743893
 40
0.2499932926
 40
0.3124915895
 40
0.3749899605
 40
0.4374881745
 40
0.4687376737
 40
0.4999872922
 40
0.5312368047
 40
0.5624864791
 40
0.5937360953
 40
0.6249858122
 40
0.656235482
 40
0.6874853034
 40
0.7187348939
 40
0.7499845384
 40
0.7812341547
 40
0.8124836621
 40
0.843733203
 40
0.8749829541
 40
0.8906091941
 40
0.9062356157
 40
0.9218615858
 40
0.9374878468
 40
0.9531148969
 40
0.9687444604
 40
0.9843742645
 40
1.0
 40
1.0
 40
1.0
 40
1.0
 10
5.8621151535
 20
3.6794789997
 30
0.0
 10
5.8621151535
 20
3.6782148765
 30
0.0
 10
5.862128083
 20
3.6756866011
 30
0.0
 10
5.8621787068
 20
3.6725266118
 30
0.0
 10
5.8622414413
 20
3.6699991095
 30
0.0
 10
5.8623001815
 20
3.6681038027
 30
0.0
 10
5.8623710756
 20
3.6662089063
 30
0.0
 10
5.8624827013
 20
3.6636830839
 30
0.0
 10
5.8626565428
 20
3.6605273969
 30
0.0
 10
5.8629273043
 20
3.6567444923
 30
0.0
 10
5.8632126929
 20
3.653596827
 30
0.0
 10
5.8634811264
 20
3.651082795
 30
0.0
 10
5.8637035212
 20
3.6491996154
 30
0.0
 10
5.8639485981
 20
3.6473192447
 30
0.0
 10
5.8642178864
 20
3.64544218
 30
0.0
 10
5.86451349
 20
3.6435690644
 30
0.0
 10
5.8648376693
 20
3.6417006691
 30
0.0
 10
5.8651930789
 20
3.639837942
 30
0.0
 10
5.8655825059
 20
3.6379820102
 30
0.0
 10
5.866009601
 20
3.636134354
 30
0.0
 10
5.8664783609
 20
3.6342967984
 30
0.0
 10
5.8669925408
 20
3.6324713945
 30
0.0
 10
5.8675570881
 20
3.6306608709
 30
0.0
 10
5.8681778917
 20
3.6288687975
 30
0.0
 10
5.8687476092
 20
3.627394403
 30
0.0
 10
5.8692388619
 20
3.6262294492
 30
0.0
 10
5.8696263117
 20
3.6253639305
 30
0.0
 10
5.8700342371
 20
3.6245078581
 30
0.0
 10
5.8704639889
 20
3.6236625003
 30
0.0
 10
5.870916668
 20
3.6228290995
 30
0.0
 10
5.8713931349
 20
3.6220089604
 30
0.0
 10
5.8718948775
 20
3.6212040488
 30
0.0
 10
5.8722476873
 20
3.6206792589
 30
0.0
 10
5.8724289338
 20
3.6204203353
 30
0.0
  0
SPLINE
  5
2F0
100
AcDbEntity
  8
0
100
AcDbSpline
 62
6
  6
CONTINUOUS
 70
0
 71
3
 72
30
 73
26
 74
0
 42
0.0000001
 43
0.0000001
 44
0.0000000001
 40
0.0
 40
0.0
 40
0.0
 40
0.0
 40
0.0312525219
 40
0.0625159649
 40
0.0937719252
 40
0.1250257337
 40
0.1875234507
 40
0.218775526
 40
0.2500273415
 40
0.3125249949
 40
0.3437755343
 40
0.3750256043
 40
0.4062757117
 40
0.437525264
 40
0.4687749132
 40
0.5000242947
 40
0.5625216032
 40
0.6250187508
 40
0.6875157238
 40
0.7187646114
 40
0.75001337
 40
0.8125101725
 40
0.8750067936
 40
0.9375035711
 40
1.0
 40
1.0
 40
1.0
 40
1.0
 10
5.8735701887
 20
3.7402313911
 30
0.0
 10
5.87319839
 20
3.7396954651
 30
0.0
 10
5.8724873182
 20
3.7386004537
 30
0.0
 10
5.8715114508
 20
3.7369031227
 30
0.0
 10
5.870617619
 20
3.7351612444
 30
0.0
 10
5.8695274351
 20
3.7327902246
 30
0.0
 10
5.8685754458
 20
3.7303585149
 30
0.0
 10
5.8677365309
 20
3.7278879735
 30
0.0
 10
5.8669670136
 20
3.7253948373
 30
0.0
 10
5.8662925166
 20
3.7228735301
 30
0.0
 10
5.8656991192
 20
3.720332984
 30
0.0
 10
5.865291396
 20
3.7184191483
 30
0.0
 10
5.8649181798
 20
3.7164983436
 30
0.0
 10
5.8645766374
 20
3.7145716737
 30
0.0
 10
5.8642646954
 20
3.712640016
 30
0.0
 10
5.8638852121
 20
3.7100589153
 30
0.0
 10
5.8634750096
 20
3.7068235013
 30
0.0
 10
5.8630737018
 20
3.7029307277
 30
0.0
 10
5.8628078951
 20
3.699680423
 30
0.0
 10
5.862631791
 20
3.6970776054
 30
0.0
 10
5.8624783963
 20
3.6944733516
 30
0.0
 10
5.8623268517
 20
3.6912158265
 30
0.0
 10
5.8622023434
 20
3.6873046077
 30
0.0
 10
5.862130475
 20
3.6833920934
 30
0.0
 10
5.8621151535
 20
3.6807833521
 30
0.0
 10
5.8621151535
 20
3.6794789997
 30
0.0
  0
SPLINE
  5
2F1
100
AcDbEntity
  8
0
100
AcDbSpline
 62
7
  6
CONTINUOUS
 70
0
 71
3
 72
27
 73
23
 74
0
 42
0.0000001
 43
0.0000001
 44
0.0000000001
 40
0.0
 40
0.0
 40
0.0
 40
0.0
 40
0.0624915858
 40
0.1249939812
 40
0.187492487
 40
0.2187445891
 40
0.2499984059
 40
0.3124982535
 40
0.3749970384
 40
0.4062496442
 40
0.4375025728
 40
0.4999998279
 40
0.562497354
 40
0.5937503592
 40
0.6250032952
 40
0.6875038978
 40
0.7500045494
 40
0.7812581445
 40
0.8125096673
 40
0.8750082242
 40
0.9375093029
 40
1.0
 40
1.0
 40
1.0
 40
1.0
 10
5.8978450315
 20
3.753148853
 30
0.0
 10
5.8972471679
 20
3.753148853
 30
0.0
 10
5.8960510868
 20
3.7531190204
 30
0.0
 10
5.8942619359
 20
3.7529794912
 30
0.0
 10
5.8927795453
 20
3.752779423
 30
0.0
 10
5.8916026632
 20
3.7525658811
 30
0.0
 10
5.8904329708
 20
3.7523158803
 30
0.0
 10
5.8889864722
 20
3.7519343582
 30
0.0
 10
5.8875679102
 20
3.7514591311
 30
0.0
 10
5.8864543441
 20
3.7510224323
 30
0.0
 10
5.8853563441
 20
3.7505479934
 30
0.0
 10
5.8840151182
 20
3.7498851562
 30
0.0
 10
5.8827222299
 20
3.7491324119
 30
0.0
 10
5.8817202356
 20
3.7484791901
 30
0.0
 10
5.8807405802
 20
3.7477928668
 30
0.0
 10
5.8795588043
 20
3.7468755836
 30
0.0
 10
5.8784368903
 20
3.7458861403
 30
0.0
 10
5.8775762944
 20
3.7450554701
 30
0.0
 10
5.8767404958
 20
3.7441998808
 30
0.0
 10
5.8757418412
 20
3.7430864204
 30
0.0
 10
5.8746153973
 20
3.7416895774
 30
0.0
 10
5.8739109727
 20
3.7407226111
 30
0.0
 10
5.8735701887
 20
3.7402313911
 30
0.0
  0
SPLINE
  5
2F2
100
AcDbEntity
  8
0
100
AcDbSpline
 62
6
  6
CONTINUOUS
 70
0
 71
3
 72
24
 73
20
 74
0
 42
0.0000001
 43
0.0000001
 44
0.0000000001
 40
0.0
 40
0.0
 40
0.0
 40
0.0
 40
0.1249959696
 40
0.2499916664
 40
0.3124905498
 40
0.3749894094
 40
0.4374885384
 40
0.4999874669
 40
0.5624866773
 40
0.5937367189
 40
0.6249869906
 40
0.6874866317
 40
0.7499876132
 40
0.8124877211
 40
0.8437388589
 40
0.8749906303
 40
0.9062441923
 40
0.9374993471
 40
1.0
 40
1.0
 40
1.0
 40
1.0
 10
5.9792502038
 20
3.6794789997
 30
0.0
 10
5.9792502038
 20
3.6816435984
 30
0.0
 10
5.9792947056
 20
3.6859729341
 30
0.0
 10
5.9794732575
 20
3.6913820679
 30
0.0
 10
5.9797003677
 20
3.6957054494
 30
0.0
 10
5.9799166972
 20
3.6989453051
 30
0.0
 10
5.9801833839
 20
3.7021814283
 30
0.0
 10
5.9805052561
 20
3.705412559
 30
0.0
 10
5.9808235298
 20
3.708099764
 30
0.0
 10
5.9811101149
 20
3.710245403
 30
0.0
 10
5.9814186655
 20
3.7123879994
 30
0.0
 10
5.9818477858
 20
3.7150598609
 30
0.0
 10
5.9824390774
 20
3.7182529153
 30
0.0
 10
5.9830027094
 20
3.7208998428
 30
0.0
 10
5.9835003546
 20
3.723006659
 30
0.0
 10
5.9838978546
 20
3.72458093
 30
0.0
 10
5.9843204836
 20
3.7261487293
 30
0.0
 10
5.9849188381
 20
3.728229286
 30
0.0
 10
5.985409653
 20
3.7297774754
 30
0.0
 10
5.9857577166
 20
3.7308023284
 30
0.0
  0
SPLINE
  5
2F3
100
AcDbEntity
  8
0
100
AcDbSpline
 62
6
  6
CONTINUOUS
 70
0
 71
3
 72
35
 73
31
 74
0
 42
0.0000001
 43
0.0000001
 44
0.0000000001
 40
0.0
 40
0.0
 40
0.0
 40
0.0
 40
0.062496453
 40
0.0937536926
 40
0.1250087459
 40
0.1562627722
 40
0.1875169215
 40
0.2187718388
 40
0.2500247562
 40
0.2812774662
 40
0.3125294695
 40
0.3750276869
 40
0.4375247182
 40
0.4687745133
 40
0.500023703
 40
0.5312730288
 40
0.5625219671
 40
0.5937707298
 40
0.6250193779
 40
0.6562679236
 40
0.6875166153
 40
0.7187650528
 40
0.7500134493
 40
0.7812619711
 40
0.8125101978
 40
0.8437583958
 40
0.8750068938
 40
0.9062556358
 40
0.9375044162
 40
1.0
 40
1.0
 40
1.0
 40
1.0
 10
5.9970084792
 20
3.6062646311
 30
0.0
 10
5.9960184354
 20
3.607517569
 30
0.0
 10
5.9946185765
 20
3.6094664319
 30
0.0
 10
5.9929175258
 20
3.6121705378
 30
0.0
 10
5.9917211782
 20
3.6142470957
 30
0.0
 10
5.9906022865
 20
3.6163661292
 30
0.0
 10
5.9895576732
 20
3.6185227035
 30
0.0
 10
5.9885836355
 20
3.6207119568
 30
0.0
 10
5.987676375
 20
3.6229296256
 30
0.0
 10
5.9868329192
 20
3.6251722289
 30
0.0
 10
5.9857891191
 20
3.6281912206
 30
0.0
 10
5.984628186
 20
3.6320128066
 30
0.0
 10
5.983639939
 20
3.6358821214
 30
0.0
 10
5.9829418871
 20
3.6389989095
 30
0.0
 10
5.9824618862
 20
3.6413458859
 30
0.0
 10
5.9820229969
 20
3.6437008463
 30
0.0
 10
5.9816225997
 20
3.6460626356
 30
0.0
 10
5.9812592971
 20
3.6484303898
 30
0.0
 10
5.9809318275
 20
3.650803348
 30
0.0
 10
5.9806387809
 20
3.6531807929
 30
0.0
 10
5.9803785401
 20
3.655562039
 30
0.0
 10
5.980149535
 20
3.6579464806
 30
0.0
 10
5.9799500426
 20
3.6603335607
 30
0.0
 10
5.9797783045
 20
3.6627227853
 30
0.0
 10
5.979632505
 20
3.6651137223
 30
0.0
 10
5.9795115431
 20
3.6675060408
 30
0.0
 10
5.979414431
 20
3.6698994548
 30
0.0
 10
5.9793400999
 20
3.6722936997
 30
0.0
 10
5.9792703662
 20
3.6754867438
 30
0.0
 10
5.9792502038
 20
3.6778821374
 30
0.0
 10
5.9792502038
 20
3.6794789997
 30
0.0
  0
SPLINE
  5
2F4
100
AcDbEntity
  8
0
100
AcDbSpline
 62
7
  6
CONTINUOUS
 70
0
 71
3
 72
32
 73
28
 74
0
 42
0.0000001
 43
0.0000001
 44
0.0000000001
 40
0.0
 40
0.0
 40
0.0
 40
0.0
 40
0.0624920957
 40
0.0937433511
 40
0.1249954281
 40
0.1874929907
 40
0.2187438139
 40
0.2499961848
 40
0.3124956336
 40
0.374994755
 40
0.4062462788
 40
0.4374981966
 40
0.4999936738
 40
0.5312450202
 40
0.5624961014
 40
0.5937471851
 40
0.6249984514
 40
0.6562496808
 40
0.6875009995
 40
0.7499972183
 40
0.7812494617
 40
0.8125014936
 40
0.8437523851
 40
0.8750030945
 40
0.9062551153
 40
0.9375078433
 40
1.0
 40
1.0
 40
1.0
 40
1.0
 10
6.0379405205
 20
3.5876372522
 30
0.0
 10
6.0369684255
 20
3.5876372522
 30
0.0
 10
6.0355099541
 20
3.5876661939
 30
0.0
 10
6.0335680448
 20
3.5877662002
 30
0.0
 10
6.0316286745
 20
3.5879082793
 30
0.0
 10
6.0296944936
 20
3.5881159549
 30
0.0
 10
6.0277699416
 20
3.588394618
 30
0.0
 10
6.0258530633
 20
3.588722164
 30
0.0
 10
6.0234738706
 20
3.5892251054
 30
0.0
 10
6.0211256697
 20
3.5898577387
 30
0.0
 10
6.0192716198
 20
3.5904446759
 30
0.0
 10
6.0174359388
 20
3.5910864693
 30
0.0
 10
6.0156301209
 20
3.5918113871
 30
0.0
 10
6.0138614759
 20
3.5926198191
 30
0.0
 10
6.0125546547
 20
3.5932677792
 30
0.0
 10
6.0112692124
 20
3.5939571502
 30
0.0
 10
6.0100065531
 20
3.5946874188
 30
0.0
 10
6.0087679882
 20
3.5954578927
 30
0.0
 10
6.0071506933
 20
3.5965377538
 30
0.0
 10
6.0055859007
 20
3.5976946111
 30
0.0
 10
6.0040783751
 20
3.598923077
 30
0.0
 10
6.0029767588
 20
3.5998791735
 30
0.0
 10
6.0019051568
 20
3.6008687212
 30
0.0
 10
6.0008639405
 20
3.6018901763
 30
0.0
 10
5.9998531029
 20
3.6029417507
 30
0.0
 10
5.9985460314
 20
3.6043815107
 30
0.0
 10
5.9976111638
 20
3.6055019111
 30
0.0
 10
5.9970084792
 20
3.6062646311
 30
0.0
  0
SPLINE
  5
2F5
100
AcDbEntity
  8
0
100
AcDbSpline
 62
7
  6
CONTINUOUS
 70
0
 71
3
 72
23
 73
19
 74
0
 42
0.0000001
 43
0.0000001
 44
0.0000000001
 40
0.0
 40
0.0
 40
0.0
 40
0.0
 40
0.0624963967
 40
0.1250076088
 40
0.1875125055
 40
0.25001349
 40
0.3125158146
 40
0.3750188292
 40
0.4375199297
 40
0.5000197974
 40
0.5625188362
 40
0.6250185419
 40
0.6875168942
 40
0.7500131501
 40
0.8125090118
 40
0.8750090862
 40
0.9375084868
 40
1.0
 40
1.0
 40
1.0
 40
1.0
 10
6.0706008228
 20
3.598196587
 30
0.0
 10
6.0700386971
 20
3.5977308251
 30
0.0
 10
6.0688903349
 20
3.5968276986
 30
0.0
 10
6.0671009389
 20
3.5955629675
 30
0.0
 10
6.0652487834
 20
3.5943918576
 30
0.0
 10
6.0633392181
 20
3.5933171581
 30
0.0
 10
6.0613775072
 20
3.5923409947
 30
0.0
 10
6.0593698913
 20
3.5914632331
 30
0.0
 10
6.057322303
 20
3.5906834707
 30
0.0
 10
6.0552406503
 20
3.5900001569
 30
0.0
 10
6.053130468
 20
3.5894111213
 30
0.0
 10
6.0509971588
 20
3.5889126834
 30
0.0
 10
6.0488454013
 20
3.5885015548
 30
0.0
 10
6.0466792921
 20
3.5881749723
 30
0.0
 10
6.0445025855
 20
3.587929146
 30
0.0
 10
6.0423187142
 20
3.5877586093
 30
0.0
 10
6.0401305838
 20
3.5876587317
 30
0.0
 10
6.0386704768
 20
3.5876372522
 30
0.0
 10
6.0379405205
 20
3.5876372522
 30
0.0
  0
SPLINE
  5
2F6
100
AcDbEntity
  8
0
100
AcDbSpline
 62
7
  6
CONTINUOUS
 70
0
 71
3
 72
20
 73
16
 74
0
 42
0.0000001
 43
0.0000001
 44
0.0000000001
 40
0.0
 40
0.0
 40
0.0
 40
0.0
 40
0.0624995155
 40
0.1250042501
 40
0.1875089
 40
0.2500108054
 40
0.3125130733
 40
0.3750163691
 40
0.4375204585
 40
0.5000241292
 40
0.5625287189
 40
0.625033957
 40
0.7500230877
 40
0.8750112731
 40
1.0
 40
1.0
 40
1.0
 40
1.0
 10
6.0900681091
 20
3.6282968206
 30
0.0
 10
6.0898278335
 20
3.6275793789
 30
0.0
 10
6.0893297802
 20
3.626150215
 30
0.0
 10
6.0885284626
 20
3.6240261493
 30
0.0
 10
6.0876712119
 20
3.6219239615
 30
0.0
 10
6.08675545
 20
3.6198465903
 30
0.0
 10
6.0857782206
 20
3.6177973927
 30
0.0
 10
6.0847376087
 20
3.6157795826
 30
0.0
 10
6.083632294
 20
3.6137964181
 30
0.0
 10
6.082460627
 20
3.6118516648
 30
0.0
 10
6.0812208327
 20
3.6099495049
 30
0.0
 10
6.0794759799
 20
3.6074760229
 30
0.0
 10
6.0771199429
 20
3.6045109787
 30
0.0
 10
6.0740147371
 20
3.6011934114
 30
0.0
 10
6.0717659344
 20
3.5991619663
 30
0.0
 10
6.0706008228
 20
3.598196587
 30
0.0
  0
SPLINE
  5
2F7
100
AcDbEntity
  8
0
100
AcDbSpline
 62
7
  6
CONTINUOUS
 70
0
 71
3
 72
24
 73
20
 74
0
 42
0.0000001
 43
0.0000001
 44
0.0000000001
 40
0.0
 40
0.0
 40
0.0
 40
0.0
 40
0.1249962666
 40
0.2499922127
 40
0.3124912645
 40
0.374990295
 40
0.4374895877
 40
0.4999886358
 40
0.5624879394
 40
0.5937380408
 40
0.6249883397
 40
0.6874880222
 40
0.7499888981
 40
0.8124890057
 40
0.8437400377
 40
0.874991643
 40
0.9062448583
 40
0.9374994803
 40
1.0
 40
1.0
 40
1.0
 40
1.0
 10
6.0966308586
 20
3.6794789997
 30
0.0
 10
6.0966308586
 20
3.6773201744
 30
0.0
 10
6.0965835823
 20
3.6730023697
 30
0.0
 10
6.0963955842
 20
3.667607954
 30
0.0
 10
6.0961584211
 20
3.663296671
 30
0.0
 10
6.0959336455
 20
3.6600660661
 30
0.0
 10
6.0956580109
 20
3.6568393819
 30
0.0
 10
6.095326981
 20
3.6536178821
 30
0.0
 10
6.0950012021
 20
3.6509388509
 30
0.0
 10
6.0947090787
 20
3.6487997891
 30
0.0
 10
6.0943954109
 20
3.6466637751
 30
0.0
 10
6.0939608596
 20
3.644000122
 30
0.0
 10
6.0933651359
 20
3.6408167296
 30
0.0
 10
6.0928003044
 20
3.6381774781
 30
0.0
 10
6.0923036476
 20
3.6360763772
 30
0.0
 10
6.0919079466
 20
3.6345061392
 30
0.0
 10
6.0914882616
 20
3.6329420629
 30
0.0
 10
6.0908954737
 20
3.630865946
 30
0.0
 10
6.0904109109
 20
3.6293203966
 30
0.0
 10
6.0900681091
 20
3.6282968206
 30
0.0
  0
SPLINE
  5
2F8
100
AcDbEntity
  8
0
100
AcDbSpline
 62
7
  6
CONTINUOUS
 70
0
 71
3
 72
24
 73
20
 74
0
 42
0.0000001
 43
0.0000001
 44
0.0000000001
 40
0.0
 40
0.0
 40
0.0
 40
0.0
 40
0.0625004563
 40
0.093753918
 40
0.1250062826
 40
0.1562573774
 40
0.1875080445
 40
0.2500080639
 40
0.3125086329
 40
0.3750083769
 40
0.4062584875
 40
0.4375084597
 40
0.5000079178
 40
0.5625072207
 40
0.6250066085
 40
0.6875058608
 40
0.7500051323
 40
0.8750024813
 40
1.0
 40
1.0
 40
1.0
 40
1.0
 10
6.0925790051
 20
3.7219619501
 30
0.0
 10
6.0927998815
 20
3.7210985218
 30
0.0
 10
6.0931097327
 20
3.7197977408
 30
0.0
 10
6.0934853695
 20
3.7180551989
 30
0.0
 10
6.0937498554
 20
3.7167446421
 30
0.0
 10
6.0939979611
 20
3.7154309351
 30
0.0
 10
6.0943078505
 20
3.7136755669
 30
0.0
 10
6.0946578679
 20
3.7114749553
 30
0.0
 10
6.0950240859
 20
3.7088263173
 30
0.0
 10
6.0952893758
 20
3.7066139784
 30
0.0
 10
6.0954799407
 20
3.7048417309
 30
0.0
 10
6.0956568578
 20
3.7030680721
 30
0.0
 10
6.095853305
 20
3.7008486191
 30
0.0
 10
6.0960522815
 20
3.6981823068
 30
0.0
 10
6.0962174088
 20
3.6955136971
 30
0.0
 10
6.0963515433
 20
3.6928433605
 30
0.0
 10
6.0964924595
 20
3.6892812472
 30
0.0
 10
6.0966032669
 20
3.6848263125
 30
0.0
 10
6.0966308586
 20
3.6812614158
 30
0.0
 10
6.0966308586
 20
3.6794789997
 30
0.0
  0
SPLINE
  5
2F9
100
AcDbEntity
  8
0
100
AcDbSpline
 62
7
  6
CONTINUOUS
 70
0
 71
3
 72
20
 73
16
 74
0
 42
0.0000001
 43
0.0000001
 44
0.0000000001
 40
0.0
 40
0.0
 40
0.0
 40
0.0
 40
0.1249974875
 40
0.1875031671
 40
0.2500055672
 40
0.3125068888
 40
0.3750081657
 40
0.4375099184
 40
0.5000108375
 40
0.5625113446
 40
0.6250114403
 40
0.6875115055
 40
0.7500111344
 40
0.875005899
 40
1.0
 40
1.0
 40
1.0
 40
1.0
 10
6.0813623353
 20
3.7487006271
 30
0.0
 10
6.0820175629
 20
3.7476794925
 30
0.0
 10
6.0829621004
 20
3.7461226797
 30
0.0
 10
6.0841462513
 20
3.7440044016
 30
0.0
 10
6.0849974737
 20
3.7423954853
 30
0.0
 10
6.0858121663
 20
3.7407678475
 30
0.0
 10
6.0865909461
 20
3.739122735
 30
0.0
 10
6.0873347273
 20
3.7374615231
 30
0.0
 10
6.0880444417
 20
3.7357854904
 30
0.0
 10
6.0887206885
 20
3.7340956997
 30
0.0
 10
6.089364024
 20
3.732393124
 30
0.0
 10
6.0899753026
 20
3.7306787911
 30
0.0
 10
6.0907489302
 20
3.7283787537
 30
0.0
 10
6.091640716
 20
3.725479041
 30
0.0
 10
6.0922783239
 20
3.7231373437
 30
0.0
 10
6.0925790051
 20
3.7219619501
 30
0.0
  0
SPLINE
  5
2FA
100
AcDbEntity
  8
0
100
AcDbSpline
 62
7
  6
CONTINUOUS
 70
0
 71
3
 72
15
 73
11
 74
0
 42
0.0000001
 43
0.0000001
 44
0.0000000001
 40
0.0
 40
0.0
 40
0.0
 40
0.0
 40
0.1249998346
 40
0.2499995983
 40
0.3749994296
 40
0.4999992005
 40
0.624999006
 40
0.7499989141
 40
0.8749993768
 40
1.0
 40
1.0
 40
1.0
 40
1.0
 10
6.0633428896
 20
3.7655243057
 30
0.0
 10
6.0642574364
 20
3.7650324479
 30
0.0
 10
6.06605648
 20
3.7639915886
 30
0.0
 10
6.0686500162
 20
3.7622619907
 30
0.0
 10
6.0711238719
 20
3.7603647848
 30
0.0
 10
6.0734666121
 20
3.7583079645
 30
0.0
 10
6.0756693872
 20
3.7561019751
 30
0.0
 10
6.0777251979
 20
3.7537584982
 30
0.0
 10
6.0796303199
 20
3.7512913339
 30
0.0
 10
6.080801534
 20
3.7495746039
 30
0.0
 10
6.0813623353
 20
3.7487006271
 30
0.0
  0
SPLINE
  5
2FB
100
AcDbEntity
  8
0
100
AcDbSpline
 62
7
  6
CONTINUOUS
 70
0
 71
3
 72
18
 73
14
 74
0
 42
0.0000001
 43
0.0000001
 44
0.0000000001
 40
0.0
 40
0.0
 40
0.0
 40
0.0
 40
0.1249843192
 40
0.2499889537
 40
0.3124955079
 40
0.3749984733
 40
0.4375009295
 40
0.500007762
 40
0.6250036981
 40
0.7499965679
 40
0.8125043773
 40
0.8750180002
 40
1.0
 40
1.0
 40
1.0
 40
1.0
 10
6.0379405205
 20
3.7714435355
 30
0.0
 10
6.0390383431
 20
3.7714435355
 30
0.0
 10
6.0412345481
 20
3.7713918706
 30
0.0
 10
6.0439731704
 20
3.7711876502
 30
0.0
 10
6.0461548016
 20
3.7709342605
 30
0.0
 10
6.0477850127
 20
3.7706977431
 30
0.0
 10
6.0494075733
 20
3.7704132812
 30
0.0
 10
6.0515582559
 20
3.7699682283
 30
0.0
 10
6.0542190219
 20
3.7692858578
 30
0.0
 10
6.0568289247
 20
3.7684285091
 30
0.0
 10
6.0588774853
 20
3.7676361433
 30
0.0
 10
6.0608967574
 20
3.7667723566
 30
0.0
 10
6.062376046
 20
3.7660442896
 30
0.0
 10
6.0633428896
 20
3.7655243057
 30
0.0
  0
SPLINE
  5
2FC
100
AcDbEntity
  8
0
100
AcDbSpline
 62
7
  6
CONTINUOUS
 70
0
 71
3
 72
22
 73
18
 74
0
 42
0.0000001
 43
0.0000001
 44
0.0000000001
 40
0.0
 40
0.0
 40
0.0
 40
0.0
 40
0.1249725301
 40
0.1874795341
 40
0.2499827347
 40
0.3124871801
 40
0.3749924063
 40
0.4374958346
 40
0.4999982381
 40
0.5624997428
 40
0.6250019305
 40
0.6875028736
 40
0.7500020424
 40
0.8125005451
 40
0.87500321
 40
0.9375056648
 40
1.0
 40
1.0
 40
1.0
 40
1.0
 10
6.0053104156
 20
3.7608475903
 30
0.0
 10
6.0064374535
 20
3.7617733721
 30
0.0
 10
6.0081993149
 20
3.7630789522
 30
0.0
 10
6.0106682894
 20
3.7646348049
 30
0.0
 10
6.0125766939
 20
3.7657079259
 30
0.0
 10
6.0145360099
 20
3.7666846661
 30
0.0
 10
6.0165404575
 20
3.7675650482
 30
0.0
 10
6.0185843919
 20
3.7683491991
 30
0.0
 10
6.0206621974
 20
3.7690383217
 30
0.0
 10
6.0227685859
 20
3.7696341195
 30
0.0
 10
6.0248983475
 20
3.7701397055
 30
0.0
 10
6.027046893
 20
3.7705579529
 30
0.0
 10
6.029210135
 20
3.7708913975
 30
0.0
 10
6.0313843357
 20
3.7711433493
 30
0.0
 10
6.0335660416
 20
3.7713186092
 30
0.0
 10
6.0357522521
 20
3.7714213825
 30
0.0
 10
6.0372111653
 20
3.7714435355
 30
0.0
 10
6.0379405205
 20
3.7714435355
 30
0.0
  0
SPLINE
  5
2FD
100
AcDbEntity
  8
0
100
AcDbSpline
 62
6
  6
CONTINUOUS
 70
0
 71
3
 72
20
 73
16
 74
0
 42
0.0000001
 43
0.0000001
 44
0.0000000001
 40
0.0
 40
0.0
 40
0.0
 40
0.0
 40
0.0624995334
 40
0.1250041948
 40
0.1875088536
 40
0.2500107777
 40
0.3125129899
 40
0.375016269
 40
0.4375203476
 40
0.5000240234
 40
0.5625286327
 40
0.6250339166
 40
0.7500231036
 40
0.8750112754
 40
1.0
 40
1.0
 40
1.0
 40
1.0
 10
5.9857577166
 20
3.7308023284
 30
0.0
 10
5.9860010287
 20
3.7315187466
 30
0.0
 10
5.986504857
 20
3.7329458792
 30
0.0
 10
5.9873139739
 20
3.7350669794
 30
0.0
 10
5.9881781716
 20
3.7371663135
 30
0.0
 10
5.9891001041
 20
3.7392409471
 30
0.0
 10
5.9900828504
 20
3.7412874989
 30
0.0
 10
5.9911284407
 20
3.7433027283
 30
0.0
 10
5.9922382671
 20
3.7452833676
 30
0.0
 10
5.9934140884
 20
3.74722561
 30
0.0
 10
5.9946578143
 20
3.7491252035
 30
0.0
 10
5.9964078121
 20
3.7515950515
 30
0.0
 10
5.9987704789
 20
3.7545548674
 30
0.0
 10
6.0018849054
 20
3.7578638976
 30
0.0
 10
6.0041412108
 20
3.7598871713
 30
0.0
 10
6.0053104156
 20
3.7608475903
 30
0.0
  0
SPLINE
  5
2FE
100
AcDbEntity
  8
0
100
AcDbSpline
 62
7
  6
CONTINUOUS
 70
0
 71
3
 72
29
 73
25
 74
0
 42
0.0000001
 43
0.0000001
 44
0.0000000001
 40
0.0
 40
0.0
 40
0.0
 40
0.0
 40
0.06248265
 40
0.1249744134
 40
0.1874657588
 40
0.2187120232
 40
0.2499600727
 40
0.3124537489
 40
0.3749494819
 40
0.4374441071
 40
0.4999407126
 40
0.5624377008
 40
0.5936917031
 40
0.6249458297
 40
0.6561999488
 40
0.687454822
 40
0.7187103884
 40
0.7499657723
 40
0.7812198793
 40
0.8124738864
 40
0.8437301328
 40
0.8749893783
 40
0.9375044461
 40
1.0
 40
1.0
 40
1.0
 40
1.0
 10
6.0634504663
 20
3.7385173424
 30
0.0
 10
6.063080038
 20
3.7390432183
 30
0.0
 10
6.0623187041
 20
3.7400808625
 30
0.0
 10
6.0611134813
 20
3.7415888707
 30
0.0
 10
6.0600543423
 20
3.7428000915
 30
0.0
 10
6.0591724707
 20
3.7437372182
 30
0.0
 10
6.0582670156
 20
3.7446516064
 30
0.0
 10
6.0570904085
 20
3.7457494992
 30
0.0
 10
6.0556071463
 20
3.7469861253
 30
0.0
 10
6.0540529321
 20
3.7481326832
 30
0.0
 10
6.0524290031
 20
3.7491783487
 30
0.0
 10
6.0510207947
 20
3.7499584956
 30
0.0
 10
6.0498643205
 20
3.7505234913
 30
0.0
 10
6.0489827277
 20
3.750917078
 30
0.0
 10
6.0480879329
 20
3.7512796598
 30
0.0
 10
6.0471808792
 20
3.7516104379
 30
0.0
 10
6.0462627477
 20
3.7519091241
 30
0.0
 10
6.0453347314
 20
3.7521754857
 30
0.0
 10
6.0443979819
 20
3.7524092178
 30
0.0
 10
6.0434536928
 20
3.7526103407
 30
0.0
 10
6.0425030472
 20
3.7527791899
 30
0.0
 10
6.0412286776
 20
3.7529616642
 30
0.0
 10
6.0396256285
 20
3.7531104683
 30
0.0
 10
6.0383383356
 20
3.753148853
 30
0.0
 10
6.0376949589
 20
3.753148853
 30
0.0
  0
SPLINE
  5
2FF
100
AcDbEntity
  8
0
100
AcDbSpline
 62
7
  6
CONTINUOUS
 70
0
 71
3
 72
38
 73
34
 74
0
 42
0.0000001
 43
0.0000001
 44
0.0000000001
 40
0.0
 40
0.0
 40
0.0
 40
0.0
 40
0.0624978613
 40
0.124996192
 40
0.156245455
 40
0.1874946713
 40
0.2187439949
 40
0.2499934179
 40
0.3124917384
 40
0.374990129
 40
0.4374883488
 40
0.4687378663
 40
0.4999875017
 40
0.5312370266
 40
0.5624867145
 40
0.5937363423
 40
0.6249860668
 40
0.6562357436
 40
0.6874855714
 40
0.7187351611
 40
0.7499848027
 40
0.7812344158
 40
0.8124839153
 40
0.8437334482
 40
0.8749831879
 40
0.8906094125
 40
0.9062358154
 40
0.9218617702
 40
0.9374880092
 40
0.9531150314
 40
0.9687445405
 40
0.9843742833
 40
1.0
 40
1.0
 40
1.0
 40
1.0
 10
6.0739159815
 20
3.6794789997
 30
0.0
 10
6.0739159815
 20
3.6807434482
 30
0.0
 10
6.0739025952
 20
3.6832723761
 30
0.0
 10
6.0738502467
 20
3.6864331561
 30
0.0
 10
6.0737854356
 20
3.6889612587
 30
0.0
 10
6.0737247899
 20
3.6908569954
 30
0.0
 10
6.0736516421
 20
3.6927522962
 30
0.0
 10
6.0735365468
 20
3.6952786161
 30
0.0
 10
6.0733574965
 20
3.6984348338
 30
0.0
 10
6.0730790891
 20
3.7022181705
 30
0.0
 10
6.0727861299
 20
3.7053659663
 30
0.0
 10
6.0725109673
 20
3.707879927
 30
0.0
 10
6.0722832082
 20
3.7097629589
 30
0.0
 10
6.0720324529
 20
3.7116430749
 30
0.0
 10
6.0717571757
 20
3.7135197658
 30
0.0
 10
6.0714552837
 20
3.7153923744
 30
0.0
 10
6.0711245302
 20
3.7172601145
 30
0.0
 10
6.0707622898
 20
3.7191220241
 30
0.0
 10
6.0703658215
 20
3.7209769648
 30
0.0
 10
6.0699314993
 20
3.7228234382
 30
0.0
 10
6.0694553538
 20
3.7246595989
 30
0.0
 10
6.0689337069
 20
3.726483391
 30
0.0
 10
6.0683616751
 20
3.7282920753
 30
0.0
 10
6.0677334435
 20
3.7300820743
 30
0.0
 10
6.0671576702
 20
3.7315545483
 30
0.0
 10
6.066661714
 20
3.7327178594
 30
0.0
 10
6.0662708238
 20
3.7335820957
 30
0.0
 10
6.0658595648
 20
3.7344368402
 30
0.0
 10
6.0654266044
 20
3.7352808308
 30
0.0
 10
6.0649708603
 20
3.7361128338
 30
0.0
 10
6.0644914894
 20
3.7369315564
 30
0.0
 10
6.0639870201
 20
3.7377350448
 30
0.0
 10
6.0636325221
 20
3.7382588882
 30
0.0
 10
6.0634504663
 20
3.7385173424
 30
0.0
  0
SPLINE
  5
300
100
AcDbEntity
  8
0
100
AcDbSpline
 62
7
  6
CONTINUOUS
 70
0
 71
3
 72
37
 73
33
 74
0
 42
0.0000001
 43
0.0000001
 44
0.0000000001
 40
0.0
 40
0.0
 40
0.0
 40
0.0
 40
0.0156257184
 40
0.0312550006
 40
0.0468835111
 40
0.0625100548
 40
0.0781360827
 40
0.0937621071
 40
0.1093884527
 40
0.1250142181
 40
0.1406397986
 40
0.1562652592
 40
0.1875148075
 40
0.2187643356
 40
0.2500139326
 40
0.2812635806
 40
0.3125133973
 40
0.3437631098
 40
0.3750129454
 40
0.4062626821
 40
0.4375123914
 40
0.4687620669
 40
0.5000117663
 40
0.5625099956
 40
0.6250084568
 40
0.6875069883
 40
0.7187566478
 40
0.7500061512
 40
0.812504784
 40
0.8750032223
 40
0.9375018
 40
1.0
 40
1.0
 40
1.0
 40
1.0
 10
6.0634793989
 20
3.6205431188
 30
0.0
 10
6.0636603528
 20
3.6208016243
 30
0.0
 10
6.0640127021
 20
3.6213254763
 30
0.0
 10
6.0645141813
 20
3.6221287044
 30
0.0
 10
6.0649908707
 20
3.6229468902
 30
0.0
 10
6.0654440743
 20
3.6237782196
 30
0.0
 10
6.065874689
 20
3.6246214012
 30
0.0
 10
6.0662838624
 20
3.6254751731
 30
0.0
 10
6.0666729061
 20
3.6263382829
 30
0.0
 10
6.0670431869
 20
3.6272095845
 30
0.0
 10
6.0673958354
 20
3.6280881434
 30
0.0
 10
6.0678441202
 20
3.6292680517
 30
0.0
 10
6.0683657745
 20
3.6307573007
 30
0.0
 10
6.0689357137
 20
3.6325629063
 30
0.0
 10
6.0694559911
 20
3.6343834008
 30
0.0
 10
6.0699308985
 20
3.6362162205
 30
0.0
 10
6.0703643449
 20
3.6380592555
 30
0.0
 10
6.0707602294
 20
3.6399106987
 30
0.0
 10
6.0711219355
 20
3.6417690985
 30
0.0
 10
6.0714524974
 20
3.6436332742
 30
0.0
 10
6.0717542337
 20
3.6455023162
 30
0.0
 10
6.0720293981
 20
3.6473754448
 30
0.0
 10
6.0723637303
 20
3.6498774686
 30
0.0
 10
6.0727248247
 20
3.6530122913
 30
0.0
 10
6.0730767588
 20
3.6567824339
 30
0.0
 10
6.0733093404
 20
3.6599292863
 30
0.0
 10
6.0734634597
 20
3.662448805
 30
0.0
 10
6.0735977356
 20
3.6649694638
 30
0.0
 10
6.0737303714
 20
3.6681220366
 30
0.0
 10
6.073839515
 20
3.6719068536
 30
0.0
 10
6.0739025321
 20
3.6756926974
 30
0.0
 10
6.0739159815
 20
3.6782169092
 30
0.0
 10
6.0739159815
 20
3.6794789997
 30
0.0
  0
SPLINE
  5
301
100
AcDbEntity
  8
0
100
AcDbSpline
 62
7
  6
CONTINUOUS
 70
0
 71
3
 72
27
 73
23
 74
0
 42
0.0000001
 43
0.0000001
 44
0.0000000001
 40
0.0
 40
0.0
 40
0.0
 40
0.0
 40
0.0624967404
 40
0.1250136619
 40
0.156273443
 40
0.1875301111
 40
0.2187847265
 40
0.2500395881
 40
0.2812955953
 40
0.3125518059
 40
0.34380724
 40
0.3750618337
 40
0.4375617277
 40
0.500059628
 40
0.5625571885
 40
0.6250529158
 40
0.6875494346
 40
0.7500437327
 40
0.8125335652
 40
0.8750251004
 40
0.9375169689
 40
1.0
 40
1.0
 40
1.0
 40
1.0
 10
6.0379405205
 20
3.6058091479
 30
0.0
 10
6.0385809135
 20
3.6058091479
 30
0.0
 10
6.0398622702
 20
3.6058490681
 30
0.0
 10
6.0414574061
 20
3.6060031838
 30
0.0
 10
6.0427248884
 20
3.6061916262
 30
0.0
 10
6.0436700519
 20
3.606365673
 30
0.0
 10
6.0446085094
 20
3.6065726077
 30
0.0
 10
6.0455390468
 20
3.6068126565
 30
0.0
 10
6.0464604723
 20
3.6070856573
 30
0.0
 10
6.0473716302
 20
3.607391191
 30
0.0
 10
6.0482713459
 20
3.6077289305
 30
0.0
 10
6.0494540409
 20
3.6082215164
 30
0.0
 10
6.0508989878
 20
3.6089144247
 30
0.0
 10
6.0525717011
 20
3.6098623499
 30
0.0
 10
6.0541785193
 20
3.610917922
 30
0.0
 10
6.0557158838
 20
3.6120720216
 30
0.0
 10
6.057182999
 20
3.6133139109
 30
0.0
 10
6.0585796433
 20
3.6146343055
 30
0.0
 10
6.0599059572
 20
3.6160251023
 30
0.0
 10
6.0611640921
 20
3.6174776618
 30
0.0
 10
6.0623578116
 20
3.6189833469
 30
0.0
 10
6.0631122382
 20
3.6200186035
 30
0.0
 10
6.0634793989
 20
3.6205431188
 30
0.0
  0
SPLINE
  5
302
100
AcDbEntity
  8
0
100
AcDbSpline
 62
7
  6
CONTINUOUS
 70
0
 71
3
 72
29
 73
25
 74
0
 42
0.0000001
 43
0.0000001
 44
0.0000000001
 40
0.0
 40
0.0
 40
0.0
 40
0.0
 40
0.0624825598
 40
0.1249743188
 40
0.1874656868
 40
0.2187119556
 40
0.2499600342
 40
0.3124537551
 40
0.3749495583
 40
0.4374442065
 40
0.4999408391
 40
0.562437861
 40
0.5936919073
 40
0.6249460801
 40
0.6562002433
 40
0.68745513
 40
0.7187107088
 40
0.7499661092
 40
0.781220188
 40
0.8124741645
 40
0.8437304165
 40
0.8749896609
 40
0.9375045563
 40
1.0
 40
1.0
 40
1.0
 40
1.0
 10
6.0122788613
 20
3.6204203353
 30
0.0
 10
6.0126467171
 20
3.619894827
 30
0.0
 10
6.0134029617
 20
3.6188578656
 30
0.0
 10
6.0146007538
 20
3.6173507548
 30
0.0
 10
6.0156539057
 20
3.6161402057
 30
0.0
 10
6.0165311476
 20
3.6152036092
 30
0.0
 10
6.0174320907
 20
3.6142897608
 30
0.0
 10
6.0186032857
 20
3.613192577
 30
0.0
 10
6.0200804161
 20
3.6119569159
 30
0.0
 10
6.0216288545
 20
3.6108114979
 30
0.0
 10
6.0232473461
 20
3.6097672218
 30
0.0
 10
6.0246512426
 20
3.6089884448
 30
0.0
 10
6.0258043535
 20
3.6084246633
 30
0.0
 10
6.0266834539
 20
3.6080320333
 30
0.0
 10
6.0275757747
 20
3.6076704461
 30
0.0
 10
6.0284803612
 20
3.6073406872
 30
0.0
 10
6.0293960201
 20
3.6070430234
 30
0.0
 10
6.0303215497
 20
3.6067776697
 30
0.0
 10
6.0312557916
 20
3.6065449127
 30
0.0
 10
6.0321975464
 20
3.6063447049
 30
0.0
 10
6.0331456285
 20
3.6061766882
 30
0.0
 10
6.0344165397
 20
3.6059951844
 30
0.0
 10
6.036015194
 20
3.6058472665
 30
0.0
 10
6.0372989236
 20
3.6058091479
 30
0.0
 10
6.0379405205
 20
3.6058091479
 30
0.0
  0
SPLINE
  5
303
100
AcDbEntity
  8
0
100
AcDbSpline
 62
6
  6
CONTINUOUS
 70
0
 71
3
 72
38
 73
34
 74
0
 42
0.0000001
 43
0.0000001
 44
0.0000000001
 40
0.0
 40
0.0
 40
0.0
 40
0.0
 40
0.0624978547
 40
0.1249961504
 40
0.1562453922
 40
0.1874945902
 40
0.218743893
 40
0.2499932926
 40
0.3124915895
 40
0.3749899605
 40
0.4374881745
 40
0.4687376737
 40
0.4999872922
 40
0.5312368047
 40
0.5624864791
 40
0.5937360953
 40
0.6249858122
 40
0.656235482
 40
0.6874853034
 40
0.7187348939
 40
0.7499845384
 40
0.7812341547
 40
0.8124836621
 40
0.843733203
 40
0.8749829541
 40
0.8906091941
 40
0.9062356157
 40
0.9218615858
 40
0.9374878468
 40
0.9531148969
 40
0.9687444604
 40
0.9843742645
 40
1.0
 40
1.0
 40
1.0
 40
1.0
 10
6.001965081
 20
3.6794789997
 30
0.0
 10
6.001965081
 20
3.6782148765
 30
0.0
 10
6.0019780104
 20
3.6756866011
 30
0.0
 10
6.0020286343
 20
3.6725266118
 30
0.0
 10
6.0020913688
 20
3.6699991095
 30
0.0
 10
6.0021501089
 20
3.6681038027
 30
0.0
 10
6.0022210031
 20
3.6662089063
 30
0.0
 10
6.0023326287
 20
3.6636830839
 30
0.0
 10
6.0025064702
 20
3.6605273969
 30
0.0
 10
6.0027772317
 20
3.6567444923
 30
0.0
 10
6.0030626203
 20
3.653596827
 30
0.0
 10
6.0033310539
 20
3.651082795
 30
0.0
 10
6.0035534486
 20
3.6491996154
 30
0.0
 10
6.0037985255
 20
3.6473192447
 30
0.0
 10
6.0040678138
 20
3.64544218
 30
0.0
 10
6.0043634175
 20
3.6435690644
 30
0.0
 10
6.0046875967
 20
3.6417006691
 30
0.0
 10
6.0050430063
 20
3.639837942
 30
0.0
 10
6.0054324333
 20
3.6379820102
 30
0.0
 10
6.0058595284
 20
3.636134354
 30
0.0
 10
6.0063282883
 20
3.6342967984
 30
0.0
 10
6.0068424682
 20
3.6324713945
 30
0.0
 10
6.0074070155
 20
3.6306608709
 30
0.0
 10
6.0080278191
 20
3.6288687975
 30
0.0
 10
6.0085975366
 20
3.627394403
 30
0.0
 10
6.0090887893
 20
3.6262294492
 30
0.0
 10
6.0094762392
 20
3.6253639305
 30
0.0
 10
6.0098841646
 20
3.6245078581
 30
0.0
 10
6.0103139163
 20
3.6236625003
 30
0.0
 10
6.0107665954
 20
3.6228290995
 30
0.0
 10
6.0112430623
 20
3.6220089604
 30
0.0
 10
6.0117448049
 20
3.6212040488
 30
0.0
 10
6.0120976147
 20
3.6206792589
 30
0.0
 10
6.0122788613
 20
3.6204203353
 30
0.0
  0
SPLINE
  5
304
100
AcDbEntity
  8
0
100
AcDbSpline
 62
6
  6
CONTINUOUS
 70
0
 71
3
 72
30
 73
26
 74
0
 42
0.0000001
 43
0.0000001
 44
0.0000000001
 40
0.0
 40
0.0
 40
0.0
 40
0.0
 40
0.0312525219
 40
0.0625159649
 40
0.0937719252
 40
0.1250257337
 40
0.1875234507
 40
0.218775526
 40
0.2500273415
 40
0.3125249949
 40
0.3437755343
 40
0.3750256043
 40
0.4062757117
 40
0.437525264
 40
0.4687749132
 40
0.5000242947
 40
0.5625216032
 40
0.6250187508
 40
0.6875157238
 40
0.7187646114
 40
0.75001337
 40
0.8125101725
 40
0.8750067936
 40
0.9375035711
 40
1.0
 40
1.0
 40
1.0
 40
1.0
 10
6.0134201162
 20
3.7402313911
 30
0.0
 10
6.0130483174
 20
3.7396954651
 30
0.0
 10
6.0123372456
 20
3.7386004537
 30
0.0
 10
6.0113613782
 20
3.7369031227
 30
0.0
 10
6.0104675464
 20
3.7351612444
 30
0.0
 10
6.0093773625
 20
3.7327902246
 30
0.0
 10
6.0084253733
 20
3.7303585149
 30
0.0
 10
6.0075864583
 20
3.7278879735
 30
0.0
 10
6.0068169411
 20
3.7253948373
 30
0.0
 10
6.006142444
 20
3.7228735301
 30
0.0
 10
6.0055490467
 20
3.720332984
 30
0.0
 10
6.0051413234
 20
3.7184191483
 30
0.0
 10
6.0047681072
 20
3.7164983436
 30
0.0
 10
6.0044265648
 20
3.7145716737
 30
0.0
 10
6.0041146228
 20
3.712640016
 30
0.0
 10
6.0037351395
 20
3.7100589153
 30
0.0
 10
6.003324937
 20
3.7068235013
 30
0.0
 10
6.0029236292
 20
3.7029307277
 30
0.0
 10
6.0026578225
 20
3.699680423
 30
0.0
 10
6.0024817184
 20
3.6970776054
 30
0.0
 10
6.0023283237
 20
3.6944733516
 30
0.0
 10
6.0021767791
 20
3.6912158265
 30
0.0
 10
6.0020522708
 20
3.6873046077
 30
0.0
 10
6.0019804024
 20
3.6833920934
 30
0.0
 10
6.001965081
 20
3.6807833521
 30
0.0
 10
6.001965081
 20
3.6794789997
 30
0.0
  0
SPLINE
  5
305
100
AcDbEntity
  8
0
100
AcDbSpline
 62
7
  6
CONTINUOUS
 70
0
 71
3
 72
27
 73
23
 74
0
 42
0.0000001
 43
0.0000001
 44
0.0000000001
 40
0.0
 40
0.0
 40
0.0
 40
0.0
 40
0.0624915858
 40
0.1249939812
 40
0.187492487
 40
0.2187445891
 40
0.2499984059
 40
0.3124982535
 40
0.3749970384
 40
0.4062496442
 40
0.4375025728
 40
0.4999998279
 40
0.562497354
 40
0.5937503592
 40
0.6250032952
 40
0.6875038978
 40
0.7500045494
 40
0.7812581445
 40
0.8125096673
 40
0.8750082242
 40
0.9375093029
 40
1.0
 40
1.0
 40
1.0
 40
1.0
 10
6.0376949589
 20
3.753148853
 30
0.0
 10
6.0370970953
 20
3.753148853
 30
0.0
 10
6.0359010142
 20
3.7531190204
 30
0.0
 10
6.0341118634
 20
3.7529794912
 30
0.0
 10
6.0326294727
 20
3.752779423
 30
0.0
 10
6.0314525906
 20
3.7525658811
 30
0.0
 10
6.0302828982
 20
3.7523158803
 30
0.0
 10
6.0288363997
 20
3.7519343582
 30
0.0
 10
6.0274178376
 20
3.7514591311
 30
0.0
 10
6.0263042715
 20
3.7510224323
 30
0.0
 10
6.0252062715
 20
3.7505479934
 30
0.0
 10
6.0238650456
 20
3.7498851562
 30
0.0
 10
6.0225721573
 20
3.7491324119
 30
0.0
 10
6.021570163
 20
3.7484791901
 30
0.0
 10
6.0205905076
 20
3.7477928668
 30
0.0
 10
6.0194087317
 20
3.7468755836
 30
0.0
 10
6.0182868177
 20
3.7458861403
 30
0.0
 10
6.0174262218
 20
3.7450554701
 30
0.0
 10
6.0165904232
 20
3.7441998808
 30
0.0
 10
6.0155917686
 20
3.7430864204
 30
0.0
 10
6.0144653247
 20
3.7416895774
 30
0.0
 10
6.0137609001
 20
3.7407226111
 30
0.0
 10
6.0134201162
 20
3.7402313911
 30
0.0
  0
SPLINE
  5
306
100
AcDbEntity
  8
0
100
AcDbSpline
 62
7
  6
CONTINUOUS
 70
0
 71
3
 72
20
 73
16
 74
0
 42
0.0000001
 43
0.0000001
 44
0.0000000001
 40
0.0
 40
0.0
 40
0.0
 40
0.0
 40
0.1249838291
 40
0.2499670207
 40
0.3749510337
 40
0.4374588203
 40
0.4999656378
 40
0.5624711245
 40
0.624977397
 40
0.6874823823
 40
0.7499858413
 40
0.8124882744
 40
0.8749946785
 40
0.937501144
 40
1.0
 40
1.0
 40
1.0
 40
1.0
 10
6.9025181792
 20
2.9947099796
 30
0.0
 10
6.9037061093
 20
2.9942331595
 30
0.0
 10
6.906038553
 20
2.9931667238
 30
0.0
 10
6.9093672033
 20
2.9912407798
 30
0.0
 10
6.9119758614
 20
2.9893779885
 30
0.0
 10
6.9139526538
 20
2.9877496246
 30
0.0
 10
6.9153794262
 20
2.9864630333
 30
0.0
 10
6.9167488368
 20
2.9851157036
 30
0.0
 10
6.9180609387
 20
2.9837125792
 30
0.0
 10
6.9193158483
 20
2.9822581604
 30
0.0
 10
6.9205136356
 20
2.9807564409
 30
0.0
 10
6.9216549951
 20
2.9792114414
 30
0.0
 10
6.9227420116
 20
2.9776277562
 30
0.0
 10
6.9237765692
 20
2.976009419
 30
0.0
 10
6.9244320777
 20
2.974909413
 30
0.0
 10
6.9247514627
 20
2.9743546895
 30
0.0
  0
SPLINE
  5
307
100
AcDbEntity
  8
0
100
AcDbSpline
 62
7
  6
CONTINUOUS
 70
0
 71
3
 72
20
 73
16
 74
0
 42
0.0000001
 43
0.0000001
 44
0.0000000001
 40
0.0
 40
0.0
 40
0.0
 40
0.0
 40
0.0624991361
 40
0.1250052066
 40
0.1875111514
 40
0.2500134684
 40
0.3125165461
 40
0.3750209556
 40
0.4375265299
 40
0.5000315043
 40
0.562537831
 40
0.6250450147
 40
0.7500304803
 40
0.8750149548
 40
1.0
 40
1.0
 40
1.0
 40
1.0
 10
6.8718848737
 20
2.9956540469
 30
0.0
 10
6.8725125752
 20
2.9958222391
 30
0.0
 10
6.873772905
 20
2.9961408385
 30
0.0
 10
6.8756767473
 20
2.9965624208
 30
0.0
 10
6.8775927978
 20
2.996924922
 30
0.0
 10
6.8795197102
 20
2.9972244276
 30
0.0
 10
6.8814559288
 20
2.9974565119
 30
0.0
 10
6.8833993901
 20
2.9976178195
 30
0.0
 10
6.8853476253
 20
2.9977054176
 30
0.0
 10
6.8872978557
 20
2.997715932
 30
0.0
 10
6.8892469586
 20
2.9976457138
 30
0.0
 10
6.8918389199
 20
2.9974409236
 30
0.0
 10
6.8950586206
 20
2.9969699219
 30
0.0
 10
6.8988521306
 20
2.996047355
 30
0.0
 10
6.9013121539
 20
2.995194063
 30
0.0
 10
6.9025181792
 20
2.9947099796
 30
0.0
  0
SPLINE
  5
308
100
AcDbEntity
  8
0
100
AcDbSpline
 62
6
  6
CONTINUOUS
 70
0
 71
3
 72
25
 73
21
 74
0
 42
0.0000001
 43
0.0000001
 44
0.0000000001
 40
0.0
 40
0.0
 40
0.0
 40
0.0
 40
0.0625009321
 40
0.1250155885
 40
0.1875250653
 40
0.2500273742
 40
0.3125302964
 40
0.3437841783
 40
0.3750376384
 40
0.4375375403
 40
0.5000358094
 40
0.5625331272
 40
0.6250295401
 40
0.6875249936
 40
0.7500206533
 40
0.8125155319
 40
0.8750087221
 40
0.9062582952
 40
0.9375082446
 40
1.0
 40
1.0
 40
1.0
 40
1.0
 10
6.8380037129
 20
2.9697003148
 30
0.0
 10
6.8384497658
 20
2.9704991133
 30
0.0
 10
6.8393780272
 20
2.9720770873
 30
0.0
 10
6.8408800003
 20
2.9743759599
 30
0.0
 10
6.8424934501
 20
2.9765982312
 30
0.0
 10
6.8442179038
 20
2.9787353254
 30
0.0
 10
6.8457468311
 20
2.9804381881
 30
0.0
 10
6.8470232465
 20
2.98174971
 30
0.0
 10
6.8483347007
 20
2.9830261313
 30
0.0
 10
6.8500383932
 20
2.9845540545
 30
0.0
 10
6.8521798412
 20
2.98627287
 30
0.0
 10
6.8544115807
 20
2.9878726398
 30
0.0
 10
6.8567259408
 20
2.9893501799
 30
0.0
 10
6.8591145554
 20
2.9907042048
 30
0.0
 10
6.8615687468
 20
2.9919351555
 30
0.0
 10
6.8640801166
 20
2.9930444794
 30
0.0
 10
6.8662143007
 20
2.993868957
 30
0.0
 10
6.8679422538
 20
2.9944708818
 30
0.0
 10
6.8696827631
 20
2.995035342
 30
0.0
 10
6.8710012777
 20
2.9954172881
 30
0.0
 10
6.8718848737
 20
2.9956540469
 30
0.0
  0
SPLINE
  5
309
100
AcDbEntity
  8
0
100
AcDbSpline
 62
6
  6
CONTINUOUS
 70
0
 71
3
 72
29
 73
25
 74
0
 42
0.0000001
 43
0.0000001
 44
0.0000000001
 40
0.0
 40
0.0
 40
0.0
 40
0.0
 40
0.062488134
 40
0.0937358464
 40
0.1249840152
 40
0.1874761156
 40
0.2187231001
 40
0.2499713342
 40
0.3124652799
 40
0.3749605024
 40
0.4374555115
 40
0.4999526955
 40
0.5312035138
 40
0.5624550454
 40
0.5937072687
 40
0.6249596985
 40
0.6562127598
 40
0.6874668169
 40
0.7499684393
 40
0.7812218079
 40
0.812475854
 40
0.8749839213
 40
0.9375008693
 40
1.0
 40
1.0
 40
1.0
 40
1.0
 10
6.8339828316
 20
2.9241019693
 30
0.0
 10
6.8337295321
 20
2.9250472957
 30
0.0
 10
6.8333723932
 20
2.9264716235
 30
0.0
 10
6.8329447671
 20
2.9283818899
 30
0.0
 10
6.8325503696
 20
2.9302993567
 30
0.0
 10
6.8322076772
 20
2.9322271965
 30
0.0
 10
6.8319213703
 20
2.9341637777
 30
0.0
 10
6.8316741442
 20
2.9361057683
 30
0.0
 10
6.8314405752
 20
2.938542343
 30
0.0
 10
6.8312881884
 20
2.9414756922
 30
0.0
 10
6.8312709539
 20
2.94441309
 30
0.0
 10
6.8313753362
 20
2.946859011
 30
0.0
 10
6.8315333466
 20
2.9488105189
 30
0.0
 10
6.8316899861
 20
2.9502706786
 30
0.0
 10
6.8318852661
 20
2.9517261968
 30
0.0
 10
6.8321195439
 20
2.9531759758
 30
0.0
 10
6.8323932327
 20
2.9546188855
 30
0.0
 10
6.8328110686
 20
2.9565318243
 30
0.0
 10
6.8333085519
 20
2.9584266991
 30
0.0
 10
6.8338858666
 20
2.9602977313
 30
0.0
 10
6.8345161008
 20
2.9621517298
 30
0.0
 10
6.8354020742
 20
2.9644349033
 30
0.0
 10
6.8366182184
 20
2.9671098078
 30
0.0
 10
6.8375264836
 20
2.9688456851
 30
0.0
 10
6.8380037129
 20
2.9697003148
 30
0.0
  0
SPLINE
  5
30A
100
AcDbEntity
  8
0
100
AcDbSpline
 62
6
  6
CONTINUOUS
 70
0
 71
3
 72
26
 73
22
 74
0
 42
0.0000001
 43
0.0000001
 44
0.0000000001
 40
0.0
 40
0.0
 40
0.0
 40
0.0
 40
0.1249774838
 40
0.1874898204
 40
0.2499947854
 40
0.3124999614
 40
0.3750048852
 40
0.4062590926
 40
0.4375130618
 40
0.4687664491
 40
0.5000190275
 40
0.5625196358
 40
0.6250182216
 40
0.6875169323
 40
0.7500143582
 40
0.7812644277
 40
0.8125132644
 40
0.8750087505
 40
0.9062586918
 40
0.9375082329
 40
1.0
 40
1.0
 40
1.0
 40
1.0
 10
6.8602852872
 20
2.8866585735
 30
0.0
 10
6.8586082976
 20
2.8876657233
 30
0.0
 10
6.8561702567
 20
2.8893129453
 30
0.0
 10
6.8531206409
 20
2.8917669974
 30
0.0
 10
6.8509389974
 20
2.8937330498
 30
0.0
 10
6.8488712217
 20
2.8958180595
 30
0.0
 10
6.8472463
 20
2.8976479571
 30
0.0
 10
6.8460074509
 20
2.8991628249
 30
0.0
 10
6.8451089125
 20
2.9003234065
 30
0.0
 10
6.8442413041
 20
2.9015072486
 30
0.0
 10
6.843126015
 20
2.9031151257
 30
0.0
 10
6.8418090345
 20
2.905177259
 30
0.0
 10
6.8403508031
 20
2.9077253383
 30
0.0
 10
6.8390118447
 20
2.9103379081
 30
0.0
 10
6.8379926661
 20
2.9125619117
 30
0.0
 10
6.837233546
 20
2.914365239
 30
0.0
 10
6.8365112243
 20
2.9161835813
 30
0.0
 10
6.8358425504
 20
2.9180227959
 30
0.0
 10
6.8352243801
 20
2.9198791063
 30
0.0
 10
6.8346389405
 20
2.9217459355
 30
0.0
 10
6.8342359923
 20
2.9231571606
 30
0.0
 10
6.8339828316
 20
2.9241019693
 30
0.0
  0
SPLINE
  5
30B
100
AcDbEntity
  8
0
100
AcDbSpline
 62
7
  6
CONTINUOUS
 70
0
 71
3
 72
27
 73
23
 74
0
 42
0.0000001
 43
0.0000001
 44
0.0000000001
 40
0.0
 40
0.0
 40
0.0
 40
0.0
 40
0.0624910852
 40
0.0937408833
 40
0.1249901777
 40
0.1562385579
 40
0.18748698
 40
0.2499810591
 40
0.3124758099
 40
0.3437256545
 40
0.3749758281
 40
0.4374713988
 40
0.4999680351
 40
0.5312196591
 40
0.5624715209
 40
0.624970981
 40
0.6874721374
 40
0.7499744798
 40
0.8124764554
 40
0.8749859207
 40
0.9374998345
 40
1.0
 40
1.0
 40
1.0
 40
1.0
 10
6.9019900047
 20
2.8809281838
 30
0.0
 10
6.9011182927
 20
2.8806946093
 30
0.0
 10
6.8998030673
 20
2.8803716156
 30
0.0
 10
6.8980368155
 20
2.8799989204
 30
0.0
 10
6.8967060815
 20
2.8797491331
 30
0.0
 10
6.8953699538
 20
2.8795301208
 30
0.0
 10
6.8935820963
 20
2.8792805325
 30
0.0
 10
6.8913366062
 20
2.8790502532
 30
0.0
 10
6.8890822873
 20
2.8789330513
 30
0.0
 10
6.8872771503
 20
2.8789094747
 30
0.0
 10
6.885472009
 20
2.8789334762
 30
0.0
 10
6.8832176844
 20
2.8790536166
 30
0.0
 10
6.8809731493
 20
2.8792959543
 30
0.0
 10
6.879187632
 20
2.8795630368
 30
0.0
 10
6.8774100577
 20
2.879878897
 30
0.0
 10
6.8752051546
 20
2.8803644118
 30
0.0
 10
6.8725948225
 20
2.8810891813
 30
0.0
 10
6.8700265033
 20
2.8819511413
 30
0.0
 10
6.8675061716
 20
2.8829447917
 30
0.0
 10
6.865038397
 20
2.8840628424
 30
0.0
 10
6.8626272614
 20
2.8852979338
 30
0.0
 10
6.8610590604
 20
2.8861938686
 30
0.0
 10
6.8602852872
 20
2.8866585735
 30
0.0
  0
SPLINE
  5
30C
100
AcDbEntity
  8
0
100
AcDbSpline
 62
7
  6
CONTINUOUS
 70
0
 71
3
 72
17
 73
13
 74
0
 42
0.0000001
 43
0.0000001
 44
0.0000000001
 40
0.0
 40
0.0
 40
0.0
 40
0.0
 40
0.1249940506
 40
0.2499877588
 40
0.37498186
 40
0.4999755649
 40
0.6249697962
 40
0.6874785756
 40
0.7499862698
 40
0.8124926667
 40
0.8750023787
 40
1.0
 40
1.0
 40
1.0
 40
1.0
 10
6.9274582526
 20
2.8968075668
 30
0.0
 10
6.9266523462
 20
2.8958242869
 30
0.0
 10
6.9249587257
 20
2.8939230922
 30
0.0
 10
6.922188185
 20
2.8912954523
 30
0.0
 10
6.9192036186
 20
2.8889132718
 30
0.0
 10
6.9160305428
 20
2.8867893658
 30
0.0
 10
6.9132511916
 20
2.8852398955
 30
0.0
 10
6.9109620754
 20
2.8841313619
 30
0.0
 10
6.909215104
 20
2.8833646889
 30
0.0
 10
6.9074414223
 20
2.8826620752
 30
0.0
 10
6.9050458027
 20
2.8818080092
 30
0.0
 10
6.9032180672
 20
2.8812572422
 30
0.0
 10
6.9019900047
 20
2.8809281838
 30
0.0
  0
SPLINE
  5
30D
100
AcDbEntity
  8
0
100
AcDbSpline
 62
7
  6
CONTINUOUS
 70
0
 71
3
 72
20
 73
16
 74
0
 42
0.0000001
 43
0.0000001
 44
0.0000000001
 40
0.0
 40
0.0
 40
0.0
 40
0.0
 40
0.0624990372
 40
0.1250045728
 40
0.1875102148
 40
0.2500123476
 40
0.3125152143
 40
0.3750195059
 40
0.4375249782
 40
0.5000297853
 40
0.5625358737
 40
0.625042852
 40
0.7500289911
 40
0.8750141886
 40
1.0
 40
1.0
 40
1.0
 40
1.0
 10
6.9378124689
 20
2.9256103507
 30
0.0
 10
6.937773617
 20
2.9249630658
 30
0.0
 10
6.9376781735
 20
2.9236694149
 30
0.0
 10
6.9374794233
 20
2.9217338415
 30
0.0
 10
6.9372228525
 20
2.9198050036
 30
0.0
 10
6.9369049871
 20
2.9178852994
 30
0.0
 10
6.9365218434
 20
2.9159775194
 30
0.0
 10
6.9360708373
 20
2.9140845667
 30
0.0
 10
6.9355500066
 20
2.9122095631
 30
0.0
 10
6.9349569682
 20
2.9103560746
 30
0.0
 10
6.9342891423
 20
2.9085280901
 30
0.0
 10
6.9332973453
 20
2.906130703
 30
0.0
 10
6.9318638085
 20
2.9032175207
 30
0.0
 10
6.9298331013
 20
2.8998932599
 30
0.0
 10
6.9282802757
 20
2.8978105108
 30
0.0
 10
6.9274582526
 20
2.8968075668
 30
0.0
  0
SPLINE
  5
30E
100
AcDbEntity
  8
0
100
AcDbSpline
 62
7
  6
CONTINUOUS
 70
0
 71
3
 72
18
 73
14
 74
0
 42
0.0000001
 43
0.0000001
 44
0.0000000001
 40
0.0
 40
0.0
 40
0.0
 40
0.0
 40
0.1249899583
 40
0.1875018343
 40
0.2500099498
 40
0.375000473
 40
0.4999906378
 40
0.5624960734
 40
0.6250013234
 40
0.749993834
 40
0.8124971851
 40
0.8750034749
 40
1.0
 40
1.0
 40
1.0
 40
1.0
 10
6.9567181288
 20
2.9100835793
 30
0.0
 10
6.9557510758
 20
2.910450038
 30
0.0
 10
6.9543251653
 20
2.91106852
 30
0.0
 10
6.9524869945
 20
2.9120182501
 30
0.0
 10
6.9506925777
 20
2.9130486391
 30
0.0
 10
6.9485364498
 20
2.9144814167
 30
0.0
 10
6.9465027027
 20
2.9160821427
 30
0.0
 10
6.9449501747
 20
2.9174495755
 30
0.0
 10
6.9434472558
 20
2.9188713633
 30
0.0
 10
6.9420180562
 20
2.920369087
 30
0.0
 10
6.9406603112
 20
2.9219298999
 30
0.0
 10
6.9393482531
 20
2.923529357
 30
0.0
 10
6.9384138629
 20
2.9247689702
 30
0.0
 10
6.9378124689
 20
2.9256103507
 30
0.0
  0
SPLINE
  5
30F
100
AcDbEntity
  8
0
100
AcDbSpline
 62
7
  6
CONTINUOUS
 70
0
 71
3
 72
19
 73
15
 74
0
 42
0.0000001
 43
0.0000001
 44
0.0000000001
 40
0.0
 40
0.0
 40
0.0
 40
0.0
 40
0.124981288
 40
0.2499796861
 40
0.3749647363
 40
0.4374716156
 40
0.499978335
 40
0.5624862527
 40
0.6249948351
 40
0.6875008775
 40
0.750005856
 40
0.8125124221
 40
0.8750240233
 40
1.0
 40
1.0
 40
1.0
 40
1.0
 10
6.9795448576
 20
2.9093358106
 30
0.0
 10
6.97861043
 20
2.9090854315
 30
0.0
 10
6.9767254493
 20
2.9086418582
 30
0.0
 10
6.9738602814
 20
2.9081656758
 30
0.0
 10
6.9714495595
 20
2.9079403955
 30
0.0
 10
6.9695153339
 20
2.9078710596
 30
0.0
 10
6.968063475
 20
2.9078759183
 30
0.0
 10
6.9666129775
 20
2.9079393118
 30
0.0
 10
6.9651663057
 20
2.9080623397
 30
0.0
 10
6.9637260412
 20
2.908245697
 30
0.0
 10
6.9622949067
 20
2.9084902017
 30
0.0
 10
6.9608754426
 20
2.9087957007
 30
0.0
 10
6.9590026255
 20
2.9092840151
 30
0.0
 10
6.9576227081
 20
2.9097407946
 30
0.0
 10
6.9567181288
 20
2.9100835793
 30
0.0
  0
SPLINE
  5
310
100
AcDbEntity
  8
0
100
AcDbSpline
 62
7
  6
CONTINUOUS
 70
0
 71
3
 72
20
 73
16
 74
0
 42
0.0000001
 43
0.0000001
 44
0.0000000001
 40
0.0
 40
0.0
 40
0.0
 40
0.0
 40
0.124978931
 40
0.1874894572
 40
0.2499934388
 40
0.3124990189
 40
0.3750061079
 40
0.4375138048
 40
0.5000202314
 40
0.5625265973
 40
0.6250342001
 40
0.6875413354
 40
0.7500470766
 40
0.8750220654
 40
1.0
 40
1.0
 40
1.0
 40
1.0
 10
7.0079671811
 20
2.9318239241
 30
0.0
 10
7.0072255829
 20
2.9304576469
 30
0.0
 10
7.0060236868
 20
2.928454189
 30
0.0
 10
7.0042388466
 20
2.9259067747
 30
0.0
 10
7.0028073833
 20
2.9240638536
 30
0.0
 10
7.0012830674
 20
2.9222970357
 30
0.0
 10
6.9996678308
 20
2.920612777
 30
0.0
 10
6.9979642989
 20
2.9190178173
 30
0.0
 10
6.9961763712
 20
2.9175180289
 30
0.0
 10
6.9943082515
 20
2.9161193829
 30
0.0
 10
6.9923664258
 20
2.9148250679
 30
0.0
 10
6.9903572794
 20
2.9136379305
 30
0.0
 10
6.9875987224
 20
2.9122001231
 30
0.0
 10
6.9840159284
 20
2.9106759143
 30
0.0
 10
6.9810464429
 20
2.9097381592
 30
0.0
 10
6.9795448576
 20
2.9093358106
 30
0.0
  0
SPLINE
  5
311
100
AcDbEntity
  8
0
100
AcDbSpline
 62
7
  6
CONTINUOUS
 70
0
 71
3
 72
28
 73
24
 74
0
 42
0.0000001
 43
0.0000001
 44
0.0000000001
 40
0.0
 40
0.0
 40
0.0
 40
0.0
 40
0.0624887312
 40
0.1249872547
 40
0.1874868935
 40
0.2499821677
 40
0.3124779294
 40
0.3749762297
 40
0.437475581
 40
0.4999748536
 40
0.5312261417
 40
0.562478305
 40
0.6249779246
 40
0.6562305696
 40
0.687483825
 40
0.718736902
 40
0.7499892286
 40
0.7812407847
 40
0.8124923178
 40
0.8437448589
 40
0.8749992601
 40
0.9375070909
 40
1.0
 40
1.0
 40
1.0
 40
1.0
 10
7.0114307322
 20
2.9720303326
 30
0.0
 10
7.0116538442
 20
2.9711976672
 30
0.0
 10
7.0120728825
 20
2.9695247554
 30
0.0
 10
7.0126141811
 20
2.9669950974
 30
0.0
 10
7.0130627282
 20
2.9644471705
 30
0.0
 10
7.0134118948
 20
2.9618836913
 30
0.0
 10
7.0136543351
 20
2.9593078552
 30
0.0
 10
7.0137839033
 20
2.9567237413
 30
0.0
 10
7.0137953055
 20
2.9541363115
 30
0.0
 10
7.0137017644
 20
2.9519819189
 30
0.0
 10
7.0135624146
 20
2.9502629647
 30
0.0
 10
7.0133791515
 20
2.9485481529
 30
0.0
 10
7.0131293563
 20
2.9468409369
 30
0.0
 10
7.0128119668
 20
2.9451457721
 30
0.0
 10
7.0125398368
 20
2.9438811385
 30
0.0
 10
7.0122336276
 20
2.9426243369
 30
0.0
 10
7.0118933198
 20
2.9413763545
 30
0.0
 10
7.0115188505
 20
2.9401382138
 30
0.0
 10
7.011110393
 20
2.9389108655
 30
0.0
 10
7.0106683881
 20
2.9376951475
 30
0.0
 10
7.0100348906
 20
2.9360909229
 30
0.0
 10
7.0091611337
 20
2.9341191882
 30
0.0
 10
7.0083784395
 20
2.9325816025
 30
0.0
 10
7.0079671811
 20
2.9318239241
 30
0.0
  0
SPLINE
  5
312
100
AcDbEntity
  8
0
100
AcDbSpline
 62
7
  6
CONTINUOUS
 70
0
 71
3
 72
25
 73
21
 74
0
 42
0.0000001
 43
0.0000001
 44
0.0000000001
 40
0.0
 40
0.0
 40
0.0
 40
0.0
 40
0.0624984762
 40
0.1250076497
 40
0.1562624703
 40
0.1875160074
 40
0.2187693308
 40
0.2500233138
 40
0.3125266299
 40
0.3750289242
 40
0.4062828859
 40
0.4375362995
 40
0.46878979
 40
0.5000436118
 40
0.5625447759
 40
0.6250469282
 40
0.7500203115
 40
0.8125183729
 40
0.875020288
 40
1.0
 40
1.0
 40
1.0
 40
1.0
 10
6.988777925
 20
3.0048558814
 30
0.0
 10
6.9895040205
 20
3.0044102705
 30
0.0
 10
6.9909320667
 20
3.0034787479
 30
0.0
 10
6.9926494835
 20
3.0022167938
 30
0.0
 10
6.9939790801
 20
3.0011505286
 30
0.0
 10
6.9949533821
 20
3.0003230741
 30
0.0
 10
6.9959038976
 20
2.9994684158
 30
0.0
 10
6.9971385516
 20
2.9982936642
 30
0.0
 10
6.9986197432
 20
2.9967613601
 30
0.0
 10
7.0000148005
 20
2.9951503297
 30
0.0
 10
7.00107802
 20
2.9938184697
 30
0.0
 10
7.0018488878
 20
2.9927988521
 30
0.0
 10
7.0025931458
 20
2.9917596626
 30
0.0
 10
7.0035500621
 20
2.9903495289
 30
0.0
 10
7.0046801358
 20
2.9885429297
 30
0.0
 10
7.0063492895
 20
2.9855711849
 30
0.0
 10
7.0078174139
 20
2.9824907557
 30
0.0
 10
7.0090937999
 20
2.9793307355
 30
0.0
 10
7.0102499641
 20
2.9761246745
 30
0.0
 10
7.0109898019
 20
2.9736759069
 30
0.0
 10
7.0114307322
 20
2.9720303326
 30
0.0
  0
SPLINE
  5
313
100
AcDbEntity
  8
0
100
AcDbSpline
 62
7
  6
CONTINUOUS
 70
0
 71
3
 72
27
 73
23
 74
0
 42
0.0000001
 43
0.0000001
 44
0.0000000001
 40
0.0
 40
0.0
 40
0.0
 40
0.0
 40
0.0624924639
 40
0.0937430268
 40
0.1249929834
 40
0.1562420458
 40
0.1874913051
 40
0.2187414507
 40
0.2499917227
 40
0.3124876336
 40
0.3749837995
 40
0.4374807245
 40
0.499979018
 40
0.5312314758
 40
0.5624841176
 40
0.5937373618
 40
0.6249913018
 40
0.687494689
 40
0.7499985642
 40
0.8125024263
 40
0.8750147916
 40
1.0
 40
1.0
 40
1.0
 40
1.0
 10
6.9532213806
 20
3.0099483485
 30
0.0
 10
6.9539656933
 20
3.0101477865
 30
0.0
 10
6.9550888413
 20
3.0104230838
 30
0.0
 10
6.9565972889
 20
3.0107397535
 30
0.0
 10
6.9577338429
 20
3.0109514353
 30
0.0
 10
6.9588750276
 20
3.0111364128
 30
0.0
 10
6.9600203494
 20
3.0112938233
 30
0.0
 10
6.9611692377
 20
3.0114228901
 30
0.0
 10
6.9627048561
 20
3.0115564116
 30
0.0
 10
6.9646301203
 20
3.0116493277
 30
0.0
 10
6.9669430265
 20
3.011638918
 30
0.0
 10
6.9692520883
 20
3.0115039511
 30
0.0
 10
6.9711674106
 20
3.0112859006
 30
0.0
 10
6.9726904983
 20
3.0110481729
 30
0.0
 10
6.9738275255
 20
3.010838216
 30
0.0
 10
6.9749583434
 20
3.0105969716
 30
0.0
 10
6.9764566596
 20
3.010234177
 30
0.0
 10
6.978310251
 20
3.0097043759
 30
0.0
 10
6.9804972154
 20
3.0089507813
 30
0.0
 10
6.982641866
 20
3.0080836313
 30
0.0
 10
6.985439027
 20
3.0067858172
 30
0.0
 10
6.9874644169
 20
3.0056619923
 30
0.0
 10
6.988777925
 20
3.0048558814
 30
0.0
  0
SPLINE
  5
314
100
AcDbEntity
  8
0
100
AcDbSpline
 62
7
  6
CONTINUOUS
 70
0
 71
3
 72
16
 73
12
 74
0
 42
0.0000001
 43
0.0000001
 44
0.0000000001
 40
0.0
 40
0.0
 40
0.0
 40
0.0
 40
0.1249965796
 40
0.2499925976
 40
0.3749893201
 40
0.4999856768
 40
0.624982507
 40
0.7499803999
 40
0.8124877855
 40
0.8749984578
 40
1.0
 40
1.0
 40
1.0
 40
1.0
 10
6.9333249021
 20
2.9977830161
 30
0.0
 10
6.933953303
 20
2.9985448931
 30
0.0
 10
6.9352783795
 20
3.0000137421
 30
0.0
 10
6.9374514828
 20
3.0020330193
 30
0.0
 10
6.9397937167
 20
3.00385352
 30
0.0
 10
6.9422801667
 20
3.0054706771
 30
0.0
 10
6.9448868094
 20
3.0068851839
 30
0.0
 10
6.9471411625
 20
3.0078978757
 30
0.0
 10
6.9489828518
 20
3.0086130617
 30
0.0
 10
6.9508469654
 20
3.0092675283
 30
0.0
 10
6.952267399
 20
3.0096927299
 30
0.0
 10
6.9532213806
 20
3.0099483485
 30
0.0
  0
SPLINE
  5
315
100
AcDbEntity
  8
0
100
AcDbSpline
 62
7
  6
CONTINUOUS
 70
0
 71
3
 72
20
 73
16
 74
0
 42
0.0000001
 43
0.0000001
 44
0.0000000001
 40
0.0
 40
0.0
 40
0.0
 40
0.0
 40
0.124991011
 40
0.1874945542
 40
0.249995152
 40
0.3124967158
 40
0.3749991059
 40
0.4375018277
 40
0.5000050682
 40
0.5625096091
 40
0.6250143806
 40
0.7499990309
 40
0.8125053668
 40
0.8750160522
 40
1.0
 40
1.0
 40
1.0
 40
1.0
 10
6.9247514627
 20
2.9743546895
 30
0.0
 10
6.9248397779
 20
2.9754066518
 30
0.0
 10
6.9250116202
 20
2.9769818132
 30
0.0
 10
6.9253256262
 20
2.9790699717
 30
0.0
 10
6.9256061498
 20
2.9806288378
 30
0.0
 10
6.9259346201
 20
2.9821783146
 30
0.0
 10
6.9263137786
 20
2.9837162335
 30
0.0
 10
6.9267464796
 20
2.9852400095
 30
0.0
 10
6.9272347094
 20
2.9867469461
 30
0.0
 10
6.9277798545
 20
2.9882343426
 30
0.0
 10
6.9285849445
 20
2.9901866822
 30
0.0
 10
6.9295122278
 20
2.9920871997
 30
0.0
 10
6.9305666292
 20
2.9939173665
 30
0.0
 10
6.9317051662
 20
2.9956962252
 30
0.0
 10
6.932653228
 20
2.9969686746
 30
0.0
 10
6.9333249021
 20
2.9977830161
 30
0.0
  0
SPLINE
  5
316
100
AcDbEntity
  8
0
100
AcDbSpline
 62
7
  6
CONTINUOUS
 70
0
 71
3
 72
24
 73
20
 74
0
 42
0.0000001
 43
0.0000001
 44
0.0000000001
 40
0.0
 40
0.0
 40
0.0
 40
0.0
 40
0.1249677205
 40
0.1874730385
 40
0.2499740817
 40
0.3124722724
 40
0.3749762416
 40
0.4374806482
 40
0.4999867215
 40
0.531242172
 40
0.562497233
 40
0.5937525157
 40
0.6250085954
 40
0.6875153605
 40
0.7187702467
 40
0.7500238398
 40
0.8125266108
 40
0.8750354999
 40
1.0
 40
1.0
 40
1.0
 40
1.0
 10
6.993941579
 20
2.9670899041
 30
0.0
 10
6.9936923446
 20
2.9680200597
 30
0.0
 10
6.9932672114
 20
2.9694026812
 30
0.0
 10
6.9925906239
 20
2.9712066143
 30
0.0
 10
6.9920259569
 20
2.9725370983
 30
0.0
 10
6.9914019392
 20
2.9738408093
 30
0.0
 10
6.9907168561
 20
2.9751135834
 30
0.0
 10
6.98997059
 20
2.9763515606
 30
0.0
 10
6.9892975192
 20
2.977350716
 30
0.0
 10
6.9887288616
 20
2.9781284257
 30
0.0
 10
6.9882873453
 20
2.9787004756
 30
0.0
 10
6.9878309452
 20
2.9792607344
 30
0.0
 10
6.9872028681
 20
2.9799913083
 30
0.0
 10
6.9865459768
 20
2.9806967024
 30
0.0
 10
6.9858618781
 20
2.9813750811
 30
0.0
 10
6.9851599952
 20
2.9820350029
 30
0.0
 10
6.9842503276
 20
2.9828249336
 30
0.0
 10
6.9827322334
 20
2.9840115489
 30
0.0
 10
6.981527483
 20
2.9848142778
 30
0.0
 10
6.9807017351
 20
2.9853096562
 30
0.0
  0
SPLINE
  5
317
100
AcDbEntity
  8
0
100
AcDbSpline
 62
7
  6
CONTINUOUS
 70
0
 71
3
 72
22
 73
18
 74
0
 42
0.0000001
 43
0.0000001
 44
0.0000000001
 40
0.0
 40
0.0
 40
0.0
 40
0.0
 40
0.1249647549
 40
0.1874725603
 40
0.2499750133
 40
0.2812280509
 40
0.3124828832
 40
0.3749904511
 40
0.4374979059
 40
0.5000052733
 40
0.562513093
 40
0.6250198524
 40
0.6875262676
 40
0.7500268947
 40
0.8125283252
 40
0.8750344697
 40
1.0
 40
1.0
 40
1.0
 40
1.0
 10
6.9912791842
 20
2.9447670672
 30
0.0
 10
6.991750897
 20
2.9456052347
 30
0.0
 10
6.9924046875
 20
2.9468944238
 30
0.0
 10
6.9931518075
 20
2.9486679268
 30
0.0
 10
6.9935641294
 20
2.9497983348
 30
0.0
 10
6.9938591748
 20
2.9507142124
 30
0.0
 10
6.9941304121
 20
2.9516374668
 30
0.0
 10
6.9944243175
 20
2.9528043443
 30
0.0
 10
6.9947028789
 20
2.9542211424
 30
0.0
 10
6.9949059309
 20
2.9556507325
 30
0.0
 10
6.9950338052
 20
2.957088976
 30
0.0
 10
6.9950865453
 20
2.9585319039
 30
0.0
 10
6.9950658415
 20
2.9599755654
 30
0.0
 10
6.9949731615
 20
2.9614163141
 30
0.0
 10
6.994811533
 20
2.9628509488
 30
0.0
 10
6.9945094231
 20
2.9647514644
 30
0.0
 10
6.9941905098
 20
2.9661608817
 30
0.0
 10
6.993941579
 20
2.9670899041
 30
0.0
  0
SPLINE
  5
318
100
AcDbEntity
  8
0
100
AcDbSpline
 62
7
  6
CONTINUOUS
 70
0
 71
3
 72
22
 73
18
 74
0
 42
0.0000001
 43
0.0000001
 44
0.0000000001
 40
0.0
 40
0.0
 40
0.0
 40
0.0
 40
0.1249644146
 40
0.1874721375
 40
0.2499748964
 40
0.3124763619
 40
0.3749839583
 40
0.4374916716
 40
0.4999998829
 40
0.5625077506
 40
0.6250151027
 40
0.6875223328
 40
0.7187770399
 40
0.7500296918
 40
0.8125310485
 40
0.8750380174
 40
1.0
 40
1.0
 40
1.0
 40
1.0
 10
6.9737844147
 20
2.9313084647
 30
0.0
 10
6.9746980089
 20
2.9315532616
 30
0.0
 10
6.9760546177
 20
2.9319770354
 30
0.0
 10
6.9778186894
 20
2.9326622903
 30
0.0
 10
6.9791163285
 20
2.9332385085
 30
0.0
 10
6.9803836464
 20
2.9338786909
 30
0.0
 10
6.981616159
 20
2.9345837222
 30
0.0
 10
6.9828098624
 20
2.9353527773
 30
0.0
 10
6.9839603514
 20
2.9361851234
 30
0.0
 10
6.9850642057
 20
2.9370784045
 30
0.0
 10
6.9861177713
 20
2.9380304408
 30
0.0
 10
6.9869517728
 20
2.9388699696
 30
0.0
 10
6.9875914441
 20
2.9395673214
 30
0.0
 10
6.9882124454
 20
2.9402812851
 30
0.0
 10
6.9889537954
 20
2.9412035479
 30
0.0
 10
6.990064869
 20
2.9427355433
 30
0.0
 10
6.9908153113
 20
2.94394283
 30
0.0
 10
6.9912791842
 20
2.9447670672
 30
0.0
  0
SPLINE
  5
319
100
AcDbEntity
  8
0
100
AcDbSpline
 62
7
  6
CONTINUOUS
 70
0
 71
3
 72
23
 73
19
 74
0
 42
0.0000001
 43
0.0000001
 44
0.0000000001
 40
0.0
 40
0.0
 40
0.0
 40
0.0
 40
0.1249642287
 40
0.1874715239
 40
0.249973839
 40
0.2812262014
 40
0.3124803684
 40
0.3749876286
 40
0.4374950074
 40
0.5000027003
 40
0.5625102138
 40
0.6250170974
 40
0.6875237746
 40
0.7187780553
 40
0.750030313
 40
0.8125312622
 40
0.8750374975
 40
1.0
 40
1.0
 40
1.0
 40
1.0
 10
6.9525607554
 20
2.934138263
 30
0.0
 10
6.9533546978
 20
2.9336798805
 30
0.0
 10
6.9545751138
 20
2.9330408093
 30
0.0
 10
6.9562541248
 20
2.9323021029
 30
0.0
 10
6.9573246292
 20
2.9318905296
 30
0.0
 10
6.9581923744
 20
2.9315934978
 30
0.0
 10
6.9590674324
 20
2.9313186212
 30
0.0
 10
6.960174137
 20
2.9310173476
 30
0.0
 10
6.9615192387
 20
2.930725797
 30
0.0
 10
6.9628780028
 20
2.9305063969
 30
0.0
 10
6.9642465182
 20
2.9303596454
 30
0.0
 10
6.9656208974
 20
2.9302863155
 30
0.0
 10
6.9667678794
 20
2.9302857091
 30
0.0
 10
6.9676844163
 20
2.9303209205
 30
0.0
 10
6.9685996953
 20
2.9303797411
 30
0.0
 10
6.9697406305
 20
2.9304965201
 30
0.0
 10
6.9715542737
 20
2.9307711294
 30
0.0
 10
6.9728988994
 20
2.9310711916
 30
0.0
 10
6.9737844147
 20
2.9313084647
 30
0.0
  0
SPLINE
  5
31A
100
AcDbEntity
  8
0
100
AcDbSpline
 62
7
  6
CONTINUOUS
 70
0
 71
3
 72
25
 73
21
 74
0
 42
0.0000001
 43
0.0000001
 44
0.0000000001
 40
0.0
 40
0.0
 40
0.0
 40
0.0
 40
0.0624834111
 40
0.1249804937
 40
0.1874810709
 40
0.2499779494
 40
0.3124705988
 40
0.3749696171
 40
0.4374694403
 40
0.4999717939
 40
0.5624731703
 40
0.5937265595
 40
0.6249813389
 40
0.6874856143
 40
0.7187395329
 40
0.7499923741
 40
0.8124930451
 40
0.8750004979
 40
0.9375110053
 40
1.0
 40
1.0
 40
1.0
 40
1.0
 10
6.9394494339
 20
2.9522345482
 30
0.0
 10
6.9395732275
 20
2.9517725441
 30
0.0
 10
6.9398368896
 20
2.9508526372
 30
0.0
 10
6.9402827213
 20
2.9494881602
 30
0.0
 10
6.9407810348
 20
2.9481417915
 30
0.0
 10
6.9413342352
 20
2.9468170144
 30
0.0
 10
6.9419451933
 20
2.9455178026
 30
0.0
 10
6.9426163019
 20
2.9442485367
 30
0.0
 10
6.943348293
 20
2.943013239
 30
0.0
 10
6.9441417929
 20
2.941816471
 30
0.0
 10
6.9448543162
 20
2.9408549623
 30
0.0
 10
6.9454548176
 20
2.940109765
 30
0.0
 10
6.946075569
 20
2.9393813365
 30
0.0
 10
6.9467262355
 20
2.9386788293
 30
0.0
 10
6.9474053236
 20
2.9380044634
 30
0.0
 10
6.9481030613
 20
2.9373494363
 30
0.0
 10
6.9490091958
 20
2.9365675763
 30
0.0
 10
6.9501466397
 20
2.9356908054
 30
0.0
 10
6.9513300159
 20
2.9348773392
 30
0.0
 10
6.9521464968
 20
2.9343774352
 30
0.0
 10
6.9525607554
 20
2.934138263
 30
0.0
  0
SPLINE
  5
31B
100
AcDbEntity
  8
0
100
AcDbSpline
 62
7
  6
CONTINUOUS
 70
0
 71
3
 72
24
 73
20
 74
0
 42
0.0000001
 43
0.0000001
 44
0.0000000001
 40
0.0
 40
0.0
 40
0.0
 40
0.0
 40
0.1249616786
 40
0.1874721041
 40
0.2499758435
 40
0.2812302213
 40
0.3124855612
 40
0.3749926749
 40
0.4062488026
 40
0.4375034641
 40
0.5000075214
 40
0.5625125172
 40
0.6250148746
 40
0.6875164044
 40
0.7500116717
 40
0.8125111186
 40
0.8750141343
 40
0.9375137208
 40
1.0
 40
1.0
 40
1.0
 40
1.0
 10
6.9417099524
 20
2.974989488
 30
0.0
 10
6.9412255804
 20
2.9741394759
 30
0.0
 10
6.9405645068
 20
2.9728249052
 30
0.0
 10
6.9398311847
 20
2.9710096827
 30
0.0
 10
6.9394360687
 20
2.9698510256
 30
0.0
 10
6.9391592004
 20
2.9689121533
 30
0.0
 10
6.9389087053
 20
2.9679658779
 30
0.0
 10
6.9386976774
 20
2.967009515
 30
0.0
 10
6.9385261919
 20
2.9660457838
 30
0.0
 10
6.9383810371
 20
2.9650777486
 30
0.0
 10
6.9382482874
 20
2.9638609532
 30
0.0
 10
6.9381646472
 20
2.9623946817
 30
0.0
 10
6.9381542395
 20
2.9609261098
 30
0.0
 10
6.9382141381
 20
2.9594588475
 30
0.0
 10
6.9383415754
 20
2.9579959746
 30
0.0
 10
6.9385322161
 20
2.9565400441
 30
0.0
 10
6.9387815268
 20
2.9550930192
 30
0.0
 10
6.9390856594
 20
2.9536566801
 30
0.0
 10
6.9393228172
 20
2.9527070882
 30
0.0
 10
6.9394494339
 20
2.9522345482
 30
0.0
  0
SPLINE
  5
31C
100
AcDbEntity
  8
0
100
AcDbSpline
 62
7
  6
CONTINUOUS
 70
0
 71
3
 72
25
 73
21
 74
0
 42
0.0000001
 43
0.0000001
 44
0.0000000001
 40
0.0
 40
0.0
 40
0.0
 40
0.0
 40
0.0624853792
 40
0.1249848536
 40
0.1874885017
 40
0.2499885081
 40
0.3124843463
 40
0.3749872743
 40
0.4374910224
 40
0.4999968127
 40
0.5312523822
 40
0.5625073099
 40
0.5937622779
 40
0.6250182388
 40
0.6875246484
 40
0.7187795222
 40
0.7500327606
 40
0.8125339808
 40
0.8750415869
 40
1.0
 40
1.0
 40
1.0
 40
1.0
 10
6.9597802365
 20
2.9883167378
 30
0.0
 10
6.9593156854
 20
2.9881922617
 30
0.0
 10
6.9583908068
 20
2.9879267402
 30
0.0
 10
6.9570194352
 20
2.9874764332
 30
0.0
 10
6.9556669365
 20
2.9869717632
 30
0.0
 10
6.9543370643
 20
2.986410104
 30
0.0
 10
6.9530341232
 20
2.9857883655
 30
0.0
 10
6.9517628333
 20
2.9851040533
 30
0.0
 10
6.9505274088
 20
2.9843567479
 30
0.0
 10
6.9495316479
 20
2.9836810726
 30
0.0
 10
6.9487576938
 20
2.983109177
 30
0.0
 10
6.948189043
 20
2.9826646389
 30
0.0
 10
6.9476328354
 20
2.9822046132
 30
0.0
 10
6.9469086573
 20
2.9815708587
 30
0.0
 10
6.9462112033
 20
2.9809070829
 30
0.0
 10
6.9455424626
 20
2.9802151033
 30
0.0
 10
6.9448933621
 20
2.9795047153
 30
0.0
 10
6.9441191795
 20
2.9785833818
 30
0.0
 10
6.9429621704
 20
2.9770454081
 30
0.0
 10
6.9421861299
 20
2.9758251197
 30
0.0
 10
6.9417099524
 20
2.974989488
 30
0.0
  0
SPLINE
  5
31D
100
AcDbEntity
  8
0
100
AcDbSpline
 62
7
  6
CONTINUOUS
 70
0
 71
3
 72
22
 73
18
 74
0
 42
0.0000001
 43
0.0000001
 44
0.0000000001
 40
0.0
 40
0.0
 40
0.0
 40
0.0
 40
0.1249639712
 40
0.1874719462
 40
0.249974772
 40
0.3124764638
 40
0.3749840895
 40
0.437491812
 40
0.4999999709
 40
0.5625078406
 40
0.6250151867
 40
0.6875223746
 40
0.7187770793
 40
0.7500297694
 40
0.8125312149
 40
0.8750383174
 40
1.0
 40
1.0
 40
1.0
 40
1.0
 10
6.9807017351
 20
2.9853096562
 30
0.0
 10
6.9799248174
 20
2.9857757407
 30
0.0
 10
6.9787290388
 20
2.9864267417
 30
0.0
 10
6.9770810172
 20
2.9871819722
 30
0.0
 10
6.9758188242
 20
2.9876885755
 30
0.0
 10
6.9745327227
 20
2.9881309949
 30
0.0
 10
6.9732252104
 20
2.9885057057
 30
0.0
 10
6.9718995988
 20
2.9888105674
 30
0.0
 10
6.970559397
 20
2.9890431365
 30
0.0
 10
6.9692085529
 20
2.9892027118
 30
0.0
 10
6.9678510375
 20
2.9892883107
 30
0.0
 10
6.9667175301
 20
2.9892984873
 30
0.0
 10
6.9658115049
 20
2.9892704614
 30
0.0
 10
6.9649065843
 20
2.9892184739
 30
0.0
 10
6.9637783579
 20
2.9891095034
 30
0.0
 10
6.9619848616
 20
2.9888455643
 30
0.0
 10
6.9606553491
 20
2.9885512235
 30
0.0
 10
6.9597802365
 20
2.9883167378
 30
0.0
  0
SPLINE
  5
31E
100
AcDbEntity
  8
0
100
AcDbSpline
 62
7
  6
CONTINUOUS
 70
0
 71
3
 72
18
 73
14
 74
0
 42
0.0000001
 43
0.0000001
 44
0.0000000001
 40
0.0
 40
0.0
 40
0.0
 40
0.0
 40
0.1249835531
 40
0.249965761
 40
0.3749488134
 40
0.4374622713
 40
0.4999748376
 40
0.5624873817
 40
0.6250010631
 40
0.6875133576
 40
0.7500240976
 40
0.8750123794
 40
1.0
 40
1.0
 40
1.0
 40
1.0
 10
6.9186013457
 20
2.9198590161
 30
0.0
 10
6.9191965368
 20
2.9209218308
 30
0.0
 10
6.9202916599
 20
2.9231027507
 30
0.0
 10
6.9216099366
 20
2.926517179
 30
0.0
 10
6.9224112522
 20
2.9294616721
 30
0.0
 10
6.9228652377
 20
2.9318565833
 30
0.0
 10
6.9231115923
 20
2.9336685913
 30
0.0
 10
6.9232631153
 20
2.9354909115
 30
0.0
 10
6.923321661
 20
2.937318548
 30
0.0
 10
6.9232889739
 20
2.9391468002
 30
0.0
 10
6.9231273007
 20
2.9415789365
 30
0.0
 10
6.9227105866
 20
2.9446003161
 30
0.0
 10
6.9221717183
 20
2.9469794331
 30
0.0
 10
6.9218564342
 20
2.9481560894
 30
0.0
  0
SPLINE
  5
31F
100
AcDbEntity
  8
0
100
AcDbSpline
 62
7
  6
CONTINUOUS
 70
0
 71
3
 72
22
 73
18
 74
0
 42
0.0000001
 43
0.0000001
 44
0.0000000001
 40
0.0
 40
0.0
 40
0.0
 40
0.0
 40
0.1249724396
 40
0.1874780079
 40
0.2499787253
 40
0.3124821671
 40
0.3749875006
 40
0.4374943177
 40
0.4999999596
 40
0.5312552349
 40
0.5625109847
 40
0.6250172242
 40
0.6875232188
 40
0.7500277748
 40
0.8125288893
 40
0.875034071
 40
1.0
 40
1.0
 40
1.0
 40
1.0
 10
6.8959055432
 20
2.9026869053
 30
0.0
 10
6.8970834884
 20
2.9030025348
 30
0.0
 10
6.8988333404
 20
2.903545599
 30
0.0
 10
6.9011118395
 20
2.904418322
 30
0.0
 10
6.9027896128
 20
2.905150207
 30
0.0
 10
6.9044302669
 20
2.905961903
 30
0.0
 10
6.9060286612
 20
2.9068542029
 30
0.0
 10
6.907579196
 20
2.9078273638
 30
0.0
 10
6.9088269436
 20
2.9087053177
 30
0.0
 10
6.909795469
 20
2.9094472809
 30
0.0
 10
6.9107434321
 20
2.9102153464
 30
0.0
 10
6.91188873
 20
2.9112233503
 30
0.0
 10
6.9131948939
 20
2.9125060843
 30
0.0
 10
6.9144296259
 20
2.913857643
 30
0.0
 10
6.9155897767
 20
2.9152737806
 30
0.0
 10
6.9170351644
 20
2.9172396576
 30
0.0
 10
6.9180055144
 20
2.9187950581
 30
0.0
 10
6.9186013457
 20
2.9198590161
 30
0.0
  0
SPLINE
  5
320
100
AcDbEntity
  8
0
100
AcDbSpline
 62
7
  6
CONTINUOUS
 70
0
 71
3
 72
22
 73
18
 74
0
 42
0.0000001
 43
0.0000001
 44
0.0000000001
 40
0.0
 40
0.0
 40
0.0
 40
0.0
 40
0.1249657957
 40
0.1874711857
 40
0.249972596
 40
0.3124775123
 40
0.3749839098
 40
0.437490402
 40
0.4687462314
 40
0.5000014215
 40
0.5625070682
 40
0.6250139013
 40
0.6875188946
 40
0.7500217242
 40
0.812521869
 40
0.8750267754
 40
1.0
 40
1.0
 40
1.0
 40
1.0
 10
6.8681897913
 20
2.9059062527
 30
0.0
 10
6.8692219447
 20
2.9053041515
 30
0.0
 10
6.8708150667
 20
2.9044738716
 30
0.0
 10
6.8730140898
 20
2.9035350562
 30
0.0
 10
6.8746988772
 20
2.9029188879
 30
0.0
 10
6.8764146256
 20
2.9023951956
 30
0.0
 10
6.8781563996
 20
2.9019657328
 30
0.0
 10
6.8796254
 20
2.9016878061
 30
0.0
 10
6.8808081905
 20
2.9015135771
 30
0.0
 10
6.8819952721
 20
2.9013715424
 30
0.0
 10
6.88348564
 20
2.901253876
 30
0.0
 10
6.885278817
 20
2.9012058461
 30
0.0
 10
6.887072089
 20
2.9012481487
 30
0.0
 10
6.8888610576
 20
2.9013774804
 30
0.0
 10
6.8906420181
 20
2.9015901929
 30
0.0
 10
6.8930012757
 20
2.9019775823
 30
0.0
 10
6.8947512573
 20
2.9023776154
 30
0.0
 10
6.8959055432
 20
2.9026869053
 30
0.0
  0
SPLINE
  5
321
100
AcDbEntity
  8
0
100
AcDbSpline
 62
7
  6
CONTINUOUS
 70
0
 71
3
 72
22
 73
18
 74
0
 42
0.0000001
 43
0.0000001
 44
0.0000000001
 40
0.0
 40
0.0
 40
0.0
 40
0.0
 40
0.1249752144
 40
0.1874805299
 40
0.2499810535
 40
0.3124835004
 40
0.3749882673
 40
0.4374945992
 40
0.5000000054
 40
0.531254831
 40
0.5625103227
 40
0.6250162368
 40
0.6875222513
 40
0.7500269461
 40
0.8125283694
 40
0.8750337583
 40
1.0
 40
1.0
 40
1.0
 40
1.0
 10
6.8515990923
 20
2.9285680025
 30
0.0
 10
6.8519102077
 20
2.9274069042
 30
0.0
 10
6.8524399067
 20
2.9256807813
 30
0.0
 10
6.8532825425
 20
2.9234283143
 30
0.0
 10
6.8539861808
 20
2.9217670413
 30
0.0
 10
6.8547646446
 20
2.9201394703
 30
0.0
 10
6.85561955
 20
2.9185505764
 30
0.0
 10
6.8565517359
 20
2.9170056923
 30
0.0
 10
6.8573933414
 20
2.9157594901
 30
0.0
 10
6.8581053518
 20
2.9147903551
 30
0.0
 10
6.8588431021
 20
2.9138406648
 30
0.0
 10
6.8598127511
 20
2.9126911907
 30
0.0
 10
6.8610494402
 20
2.9113771383
 30
0.0
 10
6.8623555947
 20
2.910132163
 30
0.0
 10
6.8637274884
 20
2.9089599495
 30
0.0
 10
6.8656363811
 20
2.9074968193
 30
0.0
 10
6.8671515591
 20
2.9065118999
 30
0.0
 10
6.8681897913
 20
2.9059062527
 30
0.0
  0
SPLINE
  5
322
100
AcDbEntity
  8
0
100
AcDbSpline
 62
6
  6
CONTINUOUS
 70
0
 71
3
 72
19
 73
15
 74
0
 42
0.0000001
 43
0.0000001
 44
0.0000000001
 40
0.0
 40
0.0
 40
0.0
 40
0.0
 40
0.1249907192
 40
0.1874969343
 40
0.2500002748
 40
0.3125031238
 40
0.3750077605
 40
0.5000008826
 40
0.6249939199
 40
0.6874982649
 40
0.7500007481
 40
0.8125036801
 40
0.8750093448
 40
1.0
 40
1.0
 40
1.0
 40
1.0
 10
6.8512987841
 20
2.9481902678
 30
0.0
 10
6.8511066884
 20
2.9473866061
 30
0.0
 10
6.8508537835
 20
2.946172164
 30
0.0
 10
6.8505907654
 20
2.9445403181
 30
0.0
 10
6.8504315387
 20
2.9433107418
 30
0.0
 10
6.8503116026
 20
2.942076722
 30
0.0
 10
6.850204967
 20
2.9404271952
 30
0.0
 10
6.8501717413
 20
2.9383600821
 30
0.0
 10
6.8502719935
 20
2.9362951583
 30
0.0
 10
6.8504311776
 20
2.9346498841
 30
0.0
 10
6.8505897401
 20
2.9334202458
 30
0.0
 10
6.8507865583
 20
2.9321961446
 30
0.0
 10
6.8510980558
 20
2.9305728715
 30
0.0
 10
6.8513852301
 20
2.9293661473
 30
0.0
 10
6.8515990923
 20
2.9285680025
 30
0.0
  0
SPLINE
  5
323
100
AcDbEntity
  8
0
100
AcDbSpline
 62
6
  6
CONTINUOUS
 70
0
 71
3
 72
19
 73
15
 74
0
 42
0.0000001
 43
0.0000001
 44
0.0000000001
 40
0.0
 40
0.0
 40
0.0
 40
0.0
 40
0.1249814587
 40
0.1874938297
 40
0.2500012756
 40
0.312505318
 40
0.3750101264
 40
0.5000008432
 40
0.6249912764
 40
0.6874956757
 40
0.7499993419
 40
0.8125067679
 40
0.8750183075
 40
1.0
 40
1.0
 40
1.0
 40
1.0
 10
6.8611180428
 20
2.9646768014
 30
0.0
 10
6.860510377
 20
2.9641379529
 30
0.0
 10
6.8596282839
 20
2.9632952812
 30
0.0
 10
6.8585194312
 20
2.9621075881
 30
0.0
 10
6.8577226458
 20
2.9611851553
 30
0.0
 10
6.8569624094
 20
2.9602324476
 30
0.0
 10
6.8559997076
 20
2.9589234059
 30
0.0
 10
6.8548941469
 20
2.9572174493
 30
0.0
 10
6.8539259731
 20
2.9554299889
 30
0.0
 10
6.8532365694
 20
2.9539585835
 30
0.0
 10
6.85276233
 20
2.952835793
 30
0.0
 10
6.8523308602
 20
2.9516958325
 30
0.0
 10
6.851812692
 20
2.9501558325
 30
0.0
 10
6.8514875944
 20
2.9489801846
 30
0.0
 10
6.8512987841
 20
2.9481902678
 30
0.0
  0
SPLINE
  5
324
100
AcDbEntity
  8
0
100
AcDbSpline
 62
7
  6
CONTINUOUS
 70
0
 71
3
 72
20
 73
16
 74
0
 42
0.0000001
 43
0.0000001
 44
0.0000000001
 40
0.0
 40
0.0
 40
0.0
 40
0.0
 40
0.1249903906
 40
0.1874956108
 40
0.2499979942
 40
0.3124998017
 40
0.3750030354
 40
0.4999953422
 40
0.5624981146
 40
0.6250007903
 40
0.6875034291
 40
0.7500044371
 40
0.8125057761
 40
0.8750095158
 40
1.0
 40
1.0
 40
1.0
 40
1.0
 10
6.8776453174
 20
2.9736813896
 30
0.0
 10
6.8768808956
 20
2.9734765634
 30
0.0
 10
6.8757427128
 20
2.9731360188
 30
0.0
 10
6.87424761
 20
2.9726157377
 30
0.0
 10
6.8731383002
 20
2.9721921721
 30
0.0
 10
6.8720424088
 20
2.9717350366
 30
0.0
 10
6.8706007097
 20
2.9710811207
 30
0.0
 10
6.8691894625
 20
2.970361691
 30
0.0
 10
6.8678129723
 20
2.969579802
 30
0.0
 10
6.8667985209
 20
2.9689626852
 30
0.0
 10
6.8658026976
 20
2.9683159973
 30
0.0
 10
6.8648260396
 20
2.9676407389
 30
0.0
 10
6.86386881
 20
2.9669381937
 30
0.0
 10
6.8626186197
 20
2.9659671539
 30
0.0
 10
6.8617101618
 20
2.9652018637
 30
0.0
 10
6.8611180428
 20
2.9646768014
 30
0.0
  0
SPLINE
  5
325
100
AcDbEntity
  8
0
100
AcDbSpline
 62
7
  6
CONTINUOUS
 70
0
 71
3
 72
22
 73
18
 74
0
 42
0.0000001
 43
0.0000001
 44
0.0000000001
 40
0.0
 40
0.0
 40
0.0
 40
0.0
 40
0.124966415
 40
0.187471732
 40
0.2499731064
 40
0.3124779294
 40
0.3749842287
 40
0.4374906588
 40
0.4687464188
 40
0.5000015776
 40
0.5625071208
 40
0.6250138816
 40
0.6875188451
 40
0.7500217405
 40
0.8125218867
 40
0.8750267238
 40
1.0
 40
1.0
 40
1.0
 40
1.0
 10
6.9051888046
 20
2.9705111506
 30
0.0
 10
6.9041608512
 20
2.9711046399
 30
0.0
 10
6.9025751818
 20
2.9719231133
 30
0.0
 10
6.900387978
 20
2.972848981
 30
0.0
 10
6.8987129274
 20
2.9734568964
 30
0.0
 10
6.8970076408
 20
2.973973846
 30
0.0
 10
6.8952769004
 20
2.9743980488
 30
0.0
 10
6.8938174497
 20
2.974672786
 30
0.0
 10
6.8926424375
 20
2.9748451374
 30
0.0
 10
6.8914632097
 20
2.974985734
 30
0.0
 10
6.88998276
 20
2.975102346
 30
0.0
 10
6.8882015401
 20
2.9751501537
 30
0.0
 10
6.886420211
 20
2.9751085064
 30
0.0
 10
6.8846431232
 20
2.974980586
 30
0.0
 10
6.8828739578
 20
2.9747698758
 30
0.0
 10
6.8805303074
 20
2.9743857389
 30
0.0
 10
6.8787919135
 20
2.9739886191
 30
0.0
 10
6.8776453174
 20
2.9736813896
 30
0.0
  0
SPLINE
  5
326
100
AcDbEntity
  8
0
100
AcDbSpline
 62
7
  6
CONTINUOUS
 70
0
 71
3
 72
22
 73
18
 74
0
 42
0.0000001
 43
0.0000001
 44
0.0000000001
 40
0.0
 40
0.0
 40
0.0
 40
0.0
 40
0.1249733646
 40
0.1874787068
 40
0.2499792719
 40
0.3124824656
 40
0.3749876776
 40
0.4374944637
 40
0.5000000306
 40
0.5312551433
 40
0.5625107598
 40
0.6250169557
 40
0.6875228782
 40
0.7500273131
 40
0.8125282605
 40
0.875033197
 40
1.0
 40
1.0
 40
1.0
 40
1.0
 10
6.9218564342
 20
2.9481560894
 30
0.0
 10
6.9215474341
 20
2.9493092936
 30
0.0
 10
6.9210179409
 20
2.951022896
 30
0.0
 10
6.9201701566
 20
2.9532560178
 30
0.0
 10
6.9194602081
 20
2.9549013476
 30
0.0
 10
6.9186734007
 20
2.9565113509
 30
0.0
 10
6.9178087432
 20
2.9580810624
 30
0.0
 10
6.9168658285
 20
2.9596050972
 30
0.0
 10
6.9160150445
 20
2.9608326954
 30
0.0
 10
6.9152958605
 20
2.9617863289
 30
0.0
 10
6.914551227
 20
2.9627202301
 30
0.0
 10
6.9135737075
 20
2.9638495607
 30
0.0
 10
6.9123293119
 20
2.9651393354
 30
0.0
 10
6.9110176679
 20
2.9663605794
 30
0.0
 10
6.9096428375
 20
2.967510268
 30
0.0
 10
6.9077336915
 20
2.9689460066
 30
0.0
 10
6.9062226849
 20
2.9699142394
 30
0.0
 10
6.9051888046
 20
2.9705111506
 30
0.0
  0
SPLINE
  5
327
100
AcDbEntity
  8
0
100
AcDbSpline
 62
7
  6
CONTINUOUS
 70
0
 71
3
 72
25
 73
21
 74
0
 42
0.0000001
 43
0.0000001
 44
0.0000000001
 40
0.0
 40
0.0
 40
0.0
 40
0.0
 40
0.0624937763
 40
0.1250003392
 40
0.1875025454
 40
0.2187543706
 40
0.2500063308
 40
0.3125076377
 40
0.3750100501
 40
0.4062636488
 40
0.4375172666
 40
0.4687706905
 40
0.5000235462
 40
0.5625253126
 40
0.6250278646
 40
0.6875291464
 40
0.7500285697
 40
0.8125262174
 40
0.8750281141
 40
1.0
 40
1.0
 40
1.0
 40
1.0
 10
6.8727113506
 20
2.832565107
 30
0.0
 10
6.8730943576
 20
2.8333309566
 30
0.0
 10
6.8738967512
 20
2.8348449898
 30
0.0
 10
6.875208784
 20
2.8370549633
 30
0.0
 10
6.8763926259
 20
2.8388401635
 30
0.0
 10
6.8773928722
 20
2.8402307741
 30
0.0
 10
6.878428395
 20
2.8415953123
 30
0.0
 10
6.8797881476
 20
2.8432503748
 30
0.0
 10
6.8812310315
 20
2.8448335149
 30
0.0
 10
6.8824326698
 20
2.8460543804
 30
0.0
 10
6.8833569008
 20
2.8469469102
 30
0.0
 10
6.8843033642
 20
2.8478158119
 30
0.0
 10
6.8855939784
 20
2.848942164
 30
0.0
 10
6.8872590637
 20
2.8502895499
 30
0.0
 10
6.88933231
 20
2.851808468
 30
0.0
 10
6.8914738358
 20
2.8532293952
 30
0.0
 10
6.8936768027
 20
2.8545527686
 30
0.0
 10
6.8959347723
 20
2.8557799253
 30
0.0
 10
6.8990088428
 20
2.857291814
 30
0.0
 10
6.9013784297
 20
2.8582914546
 30
0.0
 10
6.9029783815
 20
2.8589016177
 30
0.0
  0
SPLINE
  5
328
100
AcDbEntity
  8
0
100
AcDbSpline
 62
7
  6
CONTINUOUS
 70
0
 71
3
 72
28
 73
24
 74
0
 42
0.0000001
 43
0.0000001
 44
0.0000000001
 40
0.0
 40
0.0
 40
0.0
 40
0.0
 40
0.0624894483
 40
0.124987506
 40
0.1874865458
 40
0.2499815646
 40
0.3124768943
 40
0.3749745197
 40
0.4374733021
 40
0.4999719545
 40
0.531222904
 40
0.5624748401
 40
0.6249744733
 40
0.656227053
 40
0.6874803585
 40
0.7187334906
 40
0.7499859103
 40
0.7812377398
 40
0.8124896866
 40
0.8437425779
 40
0.874997241
 40
0.9375059227
 40
1.0
 40
1.0
 40
1.0
 40
1.0
 10
6.8698608692
 20
2.7902033099
 30
0.0
 10
6.8696266633
 20
2.7910773782
 30
0.0
 10
6.8691848849
 20
2.7928329239
 30
0.0
 10
6.8686077281
 20
2.7954863267
 30
0.0
 10
6.8681214444
 20
2.7981580482
 30
0.0
 10
6.867732747
 20
2.8008457402
 30
0.0
 10
6.8674491783
 20
2.8035466146
 30
0.0
 10
6.8672770818
 20
2.8062570112
 30
0.0
 10
6.8672219068
 20
2.8089723995
 30
0.0
 10
6.8672782611
 20
2.8112351975
 30
0.0
 10
6.8673877859
 20
2.8130421729
 30
0.0
 10
6.867541259
 20
2.8148459401
 30
0.0
 10
6.8677614933
 20
2.8166435757
 30
0.0
 10
6.8680500051
 20
2.8184307802
 30
0.0
 10
6.868300907
 20
2.8197652726
 30
0.0
 10
6.8685864413
 20
2.8210927744
 30
0.0
 10
6.8689067489
 20
2.8224123022
 30
0.0
 10
6.8692620135
 20
2.823722836
 30
0.0
 10
6.8696521689
 20
2.8250234146
 30
0.0
 10
6.8700768998
 20
2.8263131667
 30
0.0
 10
6.8706889001
 20
2.8280171247
 30
0.0
 10
6.8715389677
 20
2.8301153217
 30
0.0
 10
6.8723065667
 20
2.8317557128
 30
0.0
 10
6.8727113506
 20
2.832565107
 30
0.0
  0
SPLINE
  5
329
100
AcDbEntity
  8
0
100
AcDbSpline
 62
6
  6
CONTINUOUS
 70
0
 71
3
 72
28
 73
24
 74
0
 42
0.0000001
 43
0.0000001
 44
0.0000000001
 40
0.0
 40
0.0
 40
0.0
 40
0.0
 40
0.0624940743
 40
0.1249945661
 40
0.1562463368
 40
0.1874980173
 40
0.2499966836
 40
0.2812496005
 40
0.3125023697
 40
0.3437545757
 40
0.3750065345
 40
0.4375026155
 40
0.4999986346
 40
0.5312506058
 40
0.5625027316
 40
0.5937552762
 40
0.6250076072
 40
0.6875074267
 40
0.7500078999
 40
0.8125077684
 40
0.8750059859
 40
0.937506455
 40
1.0
 40
1.0
 40
1.0
 40
1.0
 10
6.9031814244
 20
2.7501422191
 30
0.0
 10
6.9021488621
 20
2.750591125
 30
0.0
 10
6.9001063344
 20
2.7515423174
 30
0.0
 10
6.8976210481
 20
2.7528675071
 30
0.0
 10
6.8956804535
 20
2.754010965
 30
0.0
 10
6.893774076
 20
2.7552104569
 30
0.0
 10
6.8919220219
 20
2.7564947066
 30
0.0
 10
6.890131773
 20
2.7578615856
 30
0.0
 10
6.8888212813
 20
2.758927851
 30
0.0
 10
6.8875446609
 20
2.7600344199
 30
0.0
 10
6.8858900174
 20
2.7615626065
 30
0.0
 10
6.8839134117
 20
2.7635696729
 30
0.0
 10
6.8820671806
 20
2.7656972237
 30
0.0
 10
6.8806717163
 20
2.7674652153
 30
0.0
 10
6.879666273
 20
2.7688228883
 30
0.0
 10
6.8787023929
 20
2.7702103742
 30
0.0
 10
6.8774732237
 20
2.7720978453
 30
0.0
 10
6.8760412752
 20
2.7745235305
 30
0.0
 10
6.8744883512
 20
2.7775253477
 30
0.0
 10
6.8730975094
 20
2.7806054834
 30
0.0
 10
6.8718643019
 20
2.783751851
 30
0.0
 10
6.8707803329
 20
2.7869523279
 30
0.0
 10
6.8701522769
 20
2.7891157615
 30
0.0
 10
6.8698608692
 20
2.7902033099
 30
0.0
  0
SPLINE
  5
32A
100
AcDbEntity
  8
0
100
AcDbSpline
 62
6
  6
CONTINUOUS
 70
0
 71
3
 72
19
 73
15
 74
0
 42
0.0000001
 43
0.0000001
 44
0.0000000001
 40
0.0
 40
0.0
 40
0.0
 40
0.0
 40
0.1249894371
 40
0.1874977694
 40
0.2500026252
 40
0.3125090739
 40
0.3750166246
 40
0.4375249454
 40
0.5000325486
 40
0.5625401671
 40
0.6250482362
 40
0.7500321606
 40
0.8750153042
 40
1.0
 40
1.0
 40
1.0
 40
1.0
 10
6.9476908154
 20
2.7473734508
 30
0.0
 10
6.9458608053
 20
2.7468831011
 30
0.0
 10
6.9430889958
 20
2.7462408949
 30
0.0
 10
6.939354911
 20
2.7455914306
 30
0.0
 10
6.9365371178
 20
2.745212412
 30
0.0
 10
6.933706405
 20
2.7449467831
 30
0.0
 10
6.9308670335
 20
2.7447981523
 30
0.0
 10
6.9280238562
 20
2.7447699657
 30
0.0
 10
6.9251820972
 20
2.7448649483
 30
0.0
 10
6.9223472599
 20
2.7450859146
 30
0.0
 10
6.9185852159
 20
2.745549282
 30
0.0
 10
6.9139271752
 20
2.7464460361
 30
0.0
 10
6.9084590525
 20
2.7480212885
 30
0.0
 10
6.9049188291
 20
2.7493868834
 30
0.0
 10
6.9031814244
 20
2.7501422191
 30
0.0
  0
SPLINE
  5
32B
100
AcDbEntity
  8
0
100
AcDbSpline
 62
6
  6
CONTINUOUS
 70
0
 71
3
 72
28
 73
24
 74
0
 42
0.0000001
 43
0.0000001
 44
0.0000000001
 40
0.0
 40
0.0
 40
0.0
 40
0.0
 40
0.0625001478
 40
0.1250138001
 40
0.1875201504
 40
0.2187735053
 40
0.2500267792
 40
0.2812805505
 40
0.3125343028
 40
0.3437875773
 40
0.3750402852
 40
0.4375389955
 40
0.5000364322
 40
0.5312876233
 40
0.5625382013
 40
0.6250342238
 40
0.687529206
 40
0.7500242507
 40
0.8125184296
 40
0.8750110982
 40
0.9062599914
 40
0.937509005
 40
1.0
 40
1.0
 40
1.0
 40
1.0
 10
6.9840195543
 20
2.7739185481
 30
0.0
 10
6.9835356322
 20
2.7730858266
 30
0.0
 10
6.9825263341
 20
2.7714438049
 30
0.0
 10
6.9808889753
 20
2.7690613195
 30
0.0
 10
6.9794215207
 20
2.7671503258
 30
0.0
 10
6.9781875925
 20
2.7656706868
 30
0.0
 10
6.9772323666
 20
2.7645864129
 30
0.0
 10
6.9762479556
 20
2.7635285704
 30
0.0
 10
6.9752350874
 20
2.7624979419
 30
0.0
 10
6.9741944468
 20
2.7614953716
 30
0.0
 10
6.9727710271
 20
2.7601971694
 30
0.0
 10
6.9709264587
 20
2.7586476375
 30
0.0
 10
6.9690013737
 20
2.7571994906
 30
0.0
 10
6.9674175308
 20
2.7561028926
 30
0.0
 10
6.9658057815
 20
2.7550477817
 30
0.0
 10
6.9637415098
 20
2.7538064233
 30
0.0
 10
6.9611944655
 20
2.7524404132
 30
0.0
 10
6.9585862254
 20
2.7511954211
 30
0.0
 10
6.9559249259
 20
2.7500686775
 30
0.0
 10
6.9536689671
 20
2.7492256558
 30
0.0
 10
6.951845169
 20
2.7486059691
 30
0.0
 10
6.9500097482
 20
2.7480217411
 30
0.0
 10
6.9486209844
 20
2.7476226888
 30
0.0
 10
6.9476908154
 20
2.7473734508
 30
0.0
  0
SPLINE
  5
32C
100
AcDbEntity
  8
0
100
AcDbSpline
 62
7
  6
CONTINUOUS
 70
0
 71
3
 72
15
 73
11
 74
0
 42
0.0000001
 43
0.0000001
 44
0.0000000001
 40
0.0
 40
0.0
 40
0.0
 40
0.0
 40
0.1250066125
 40
0.2500109822
 40
0.3750085327
 40
0.5000038585
 40
0.6249983546
 40
0.7499942577
 40
0.8749954605
 40
1.0
 40
1.0
 40
1.0
 40
1.0
 10
6.9895344618
 20
2.8165495997
 30
0.0
 10
6.9900108693
 20
2.8147716226
 30
0.0
 10
6.9908176078
 20
2.8111742339
 30
0.0
 10
6.991532581
 20
2.8056907222
 30
0.0
 10
6.9917043785
 20
2.8001620063
 30
0.0
 10
6.9913000438
 20
2.7946448354
 30
0.0
 10
6.9903094659
 20
2.7892021193
 30
0.0
 10
6.9887485804
 20
2.7838950946
 30
0.0
 10
6.9866568308
 20
2.7787754572
 30
0.0
 10
6.9849443993
 20
2.775509999
 30
0.0
 10
6.9840195543
 20
2.7739185481
 30
0.0
  0
SPLINE
  5
32D
100
AcDbEntity
  8
0
100
AcDbSpline
 62
7
  6
CONTINUOUS
 70
0
 71
3
 72
19
 73
15
 74
0
 42
0.0000001
 43
0.0000001
 44
0.0000000001
 40
0.0
 40
0.0
 40
0.0
 40
0.0
 40
0.1249921989
 40
0.1874983999
 40
0.2500013559
 40
0.3125054287
 40
0.3750106314
 40
0.4375167412
 40
0.5000221804
 40
0.562528508
 40
0.6250355358
 40
0.7500238958
 40
0.8750117312
 40
1.0
 40
1.0
 40
1.0
 40
1.0
 10
6.9698206447
 20
2.846477988
 30
0.0
 10
6.9709779885
 20
2.8454974954
 30
0.0
 10
6.972671716
 20
2.8439752802
 30
0.0
 10
6.9748299663
 20
2.8418424968
 30
0.0
 10
6.9763949587
 20
2.8401898806
 30
0.0
 10
6.9779012416
 20
2.838483595
 30
0.0
 10
6.9793450306
 20
2.8367240181
 30
0.0
 10
6.9807225481
 20
2.8349120306
 30
0.0
 10
6.982029711
 20
2.8330486023
 30
0.0
 10
6.9832621391
 20
2.831134822
 30
0.0
 10
6.9848009177
 20
2.82851935
 30
0.0
 10
6.9865212337
 20
2.8251344445
 30
0.0
 10
6.9882364138
 20
2.8209142971
 30
0.0
 10
6.9891418864
 20
2.8180147108
 30
0.0
 10
6.9895344618
 20
2.8165495997
 30
0.0
  0
SPLINE
  5
32E
100
AcDbEntity
  8
0
100
AcDbSpline
 62
7
  6
CONTINUOUS
 70
0
 71
3
 72
18
 73
14
 74
0
 42
0.0000001
 43
0.0000001
 44
0.0000000001
 40
0.0
 40
0.0
 40
0.0
 40
0.0
 40
0.1249833702
 40
0.2499887299
 40
0.3124952308
 40
0.3749982005
 40
0.4375013135
 40
0.5000083775
 40
0.6250035203
 40
0.7499958558
 40
0.8125044165
 40
0.8750183948
 40
1.0
 40
1.0
 40
1.0
 40
1.0
 10
6.9594400037
 20
2.8345594679
 30
0.0
 10
6.9588988987
 20
2.8351156792
 30
0.0
 10
6.9577880246
 20
2.8362008386
 30
0.0
 10
6.9563274715
 20
2.8374796827
 30
0.0
 10
6.9551159362
 20
2.838450448
 30
0.0
 10
6.9541858765
 20
2.8391510388
 30
0.0
 10
6.9532346534
 20
2.839822649
 30
0.0
 10
6.9519387379
 20
2.8406774452
 30
0.0
 10
6.9502680045
 20
2.8416668197
 30
0.0
 10
6.9485342381
 20
2.8425413228
 30
0.0
 10
6.9471136668
 20
2.8431677958
 30
0.0
 10
6.9456721596
 20
2.8437441078
 30
0.0
 10
6.9445688199
 20
2.8441192773
 30
0.0
 10
6.9438257987
 20
2.8443430363
 30
0.0
  0
SPLINE
  5
32F
100
AcDbEntity
  8
0
100
AcDbSpline
 62
7
  6
CONTINUOUS
 70
0
 71
3
 72
17
 73
13
 74
0
 42
0.0000001
 43
0.0000001
 44
0.0000000001
 40
0.0
 40
0.0
 40
0.0
 40
0.0
 40
0.1249851904
 40
0.2499941326
 40
0.3749896377
 40
0.4374943141
 40
0.5000015907
 40
0.6249975852
 40
0.7499911734
 40
0.8125011844
 40
0.8750160461
 40
1.0
 40
1.0
 40
1.0
 40
1.0
 10
6.9691517911
 20
2.8171895684
 30
0.0
 10
6.9689348637
 20
2.8179991523
 30
0.0
 10
6.9684547651
 20
2.819606545
 30
0.0
 10
6.9675934938
 20
2.8219706168
 30
0.0
 10
6.9667561457
 20
2.8238933618
 30
0.0
 10
6.9660145692
 20
2.8253972428
 30
0.0
 10
6.965225201
 20
2.8268766063
 30
0.0
 10
6.9641494325
 20
2.8286768368
 30
0.0
 10
6.9629571942
 20
2.8304022275
 30
0.0
 10
6.9619362419
 20
2.8317325027
 30
0.0
 10
6.9608714031
 20
2.8330277485
 30
0.0
 10
6.9600244403
 20
2.8339587154
 30
0.0
 10
6.9594400037
 20
2.8345594679
 30
0.0
  0
SPLINE
  5
330
100
AcDbEntity
  8
0
100
AcDbSpline
 62
7
  6
CONTINUOUS
 70
0
 71
3
 72
25
 73
21
 74
0
 42
0.0000001
 43
0.0000001
 44
0.0000000001
 40
0.0
 40
0.0
 40
0.0
 40
0.0
 40
0.0624924656
 40
0.1249991617
 40
0.1875014751
 40
0.2187535065
 40
0.2500058003
 40
0.3125075644
 40
0.3437622189
 40
0.375016754
 40
0.4375197457
 40
0.468773917
 40
0.5000273302
 40
0.5625297955
 40
0.6250331215
 40
0.6875347091
 40
0.7500338299
 40
0.8125308243
 40
0.875032687
 40
1.0
 40
1.0
 40
1.0
 40
1.0
 10
6.9657416247
 20
2.7875797945
 30
0.0
 10
6.9660679983
 20
2.7881287843
 30
0.0
 10
6.9666934488
 20
2.7892434548
 30
0.0
 10
6.9675439273
 20
2.7909615844
 30
0.0
 10
6.9681752218
 20
2.7924294487
 30
0.0
 10
6.9686314426
 20
2.7936229449
 30
0.0
 10
6.9690543598
 20
2.7948286269
 30
0.0
 10
6.9694265851
 20
2.7960516253
 30
0.0
 10
6.9697471956
 20
2.7972885044
 30
0.0
 10
6.9700331372
 20
2.79853387
 30
0.0
 10
6.9702669844
 20
2.7997907045
 30
0.0
 10
6.9704487283
 20
2.8010554571
 30
0.0
 10
6.9705957457
 20
2.802324726
 30
0.0
 10
6.9707152503
 20
2.8039180476
 30
0.0
 10
6.9707590836
 20
2.8058346965
 30
0.0
 10
6.9707068829
 20
2.8077510717
 30
0.0
 10
6.9705624575
 20
2.8096625659
 30
0.0
 10
6.9703301426
 20
2.8115653561
 30
0.0
 10
6.9699113127
 20
2.8140860269
 30
0.0
 10
6.9694823485
 20
2.8159559111
 30
0.0
 10
6.9691517911
 20
2.8171895684
 30
0.0
  0
SPLINE
  5
331
100
AcDbEntity
  8
0
100
AcDbSpline
 62
6
  6
CONTINUOUS
 70
0
 71
3
 72
25
 73
21
 74
0
 42
0.0000001
 43
0.0000001
 44
0.0000000001
 40
0.0
 40
0.0
 40
0.0
 40
0.0
 40
0.1249786629
 40
0.1874798493
 40
0.2499769784
 40
0.3749485047
 40
0.4374499
 40
0.4999505991
 40
0.5312043937
 40
0.5624578268
 40
0.5937113686
 40
0.6249656289
 40
0.6874683547
 40
0.7499725012
 40
0.7812269891
 40
0.8124808512
 40
0.843735062
 40
0.8749906828
 40
0.9375012377
 40
1.0
 40
1.0
 40
1.0
 40
1.0
 10
6.9397235083
 20
2.769517483
 30
0.0
 10
6.9410316404
 20
2.7698679959
 30
0.0
 10
6.9429785151
 20
2.7704550724
 30
0.0
 10
6.9455282365
 20
2.7713710688
 30
0.0
 10
6.9480416809
 20
2.7723821342
 30
0.0
 10
6.950492039
 20
2.7735458875
 30
0.0
 10
6.9528554837
 20
2.7748708453
 30
0.0
 10
6.9542917729
 20
2.7757689908
 30
0.0
 10
6.9554123305
 20
2.776530309
 30
0.0
 10
6.9562377804
 20
2.7771228702
 30
0.0
 10
6.9570472575
 20
2.7777370906
 30
0.0
 10
6.9581039605
 20
2.7785848854
 30
0.0
 10
6.9593807423
 20
2.779698474
 30
0.0
 10
6.9605926849
 20
2.7808823933
 30
0.0
 10
6.9615200019
 20
2.7818701077
 30
0.0
 10
6.962193612
 20
2.7826309274
 30
0.0
 10
6.9628446782
 20
2.7834111401
 30
0.0
 10
6.963682075
 20
2.7844762721
 30
0.0
 10
6.964669979
 20
2.7858527403
 30
0.0
 10
6.9653955448
 20
2.7869976568
 30
0.0
 10
6.9657416247
 20
2.7875797945
 30
0.0
  0
SPLINE
  5
332
100
AcDbEntity
  8
0
100
AcDbSpline
 62
6
  6
CONTINUOUS
 70
0
 71
3
 72
23
 73
19
 74
0
 42
0.0000001
 43
0.0000001
 44
0.0000000001
 40
0.0
 40
0.0
 40
0.0
 40
0.0
 40
0.0624992171
 40
0.1250095523
 40
0.1562649099
 40
0.1875190071
 40
0.2187727707
 40
0.2500270267
 40
0.3125311648
 40
0.3750339122
 40
0.4375361196
 40
0.5000380405
 40
0.5625389326
 40
0.6250402818
 40
0.6875408783
 40
0.7500408991
 40
0.8750191994
 40
1.0
 40
1.0
 40
1.0
 40
1.0
 10
6.9060085359
 20
2.7718921609
 30
0.0
 10
6.9066482068
 20
2.771559302
 30
0.0
 10
6.9079463357
 20
2.7709287601
 30
0.0
 10
6.9096102693
 20
2.7702320639
 30
0.0
 10
6.9109631465
 20
2.7697312707
 30
0.0
 10
6.9119878966
 20
2.769384139
 30
0.0
 10
6.9130219364
 20
2.769065784
 30
0.0
 10
6.9144118515
 20
2.7686798702
 30
0.0
 10
6.9161683536
 20
2.7682692741
 30
0.0
 10
6.9182993388
 20
2.7678904593
 30
0.0
 10
6.9204471221
 20
2.7676232545
 30
0.0
 10
6.9226055378
 20
2.7674646244
 30
0.0
 10
6.9247689998
 20
2.7674100792
 30
0.0
 10
6.9269325871
 20
2.7674545976
 30
0.0
 10
6.9290921658
 20
2.7675925423
 30
0.0
 10
6.9319611635
 20
2.7678947036
 30
0.0
 10
6.9355214305
 20
2.7684825793
 30
0.0
 10
6.9383306617
 20
2.7691442708
 30
0.0
 10
6.9397235083
 20
2.769517483
 30
0.0
  0
SPLINE
  5
333
100
AcDbEntity
  8
0
100
AcDbSpline
 62
7
  6
CONTINUOUS
 70
0
 71
3
 72
20
 73
16
 74
0
 42
0.0000001
 43
0.0000001
 44
0.0000000001
 40
0.0
 40
0.0
 40
0.0
 40
0.0
 40
0.124976717
 40
0.2499499757
 40
0.3124559983
 40
0.3749635337
 40
0.4374716017
 40
0.499978257
 40
0.5624850017
 40
0.6249931503
 40
0.6875005142
 40
0.7500061662
 40
0.8125103254
 40
0.8750214195
 40
1.0
 40
1.0
 40
1.0
 40
1.0
 10
6.8874135726
 20
2.7949065426
 30
0.0
 10
6.8877425063
 20
2.7936789451
 30
0.0
 10
6.888511279
 20
2.7912517851
 30
0.0
 10
6.8897668739
 20
2.7883264368
 30
0.0
 10
6.8909547308
 20
2.7860776397
 30
0.0
 10
6.8919368681
 20
2.784441909
 30
0.0
 10
6.8930087845
 20
2.7828635596
 30
0.0
 10
6.8941679172
 20
2.7813480728
 30
0.0
 10
6.8954113586
 20
2.7799009706
 30
0.0
 10
6.8967337046
 20
2.7785256405
 30
0.0
 10
6.8981296895
 20
2.7772251827
 30
0.0
 10
6.8995933845
 20
2.7760015941
 30
0.0
 10
6.901119089
 20
2.7748561912
 30
0.0
 10
6.9032262316
 20
2.7734326111
 30
0.0
 10
6.904881119
 20
2.7724788231
 30
0.0
 10
6.9060085359
 20
2.7718921609
 30
0.0
  0
SPLINE
  5
334
100
AcDbEntity
  8
0
100
AcDbSpline
 62
7
  6
CONTINUOUS
 70
0
 71
3
 72
19
 73
15
 74
0
 42
0.0000001
 43
0.0000001
 44
0.0000000001
 40
0.0
 40
0.0
 40
0.0
 40
0.0
 40
0.1249819123
 40
0.2499628135
 40
0.3749444921
 40
0.4374547934
 40
0.4999641106
 40
0.5624731946
 40
0.6249835163
 40
0.687492722
 40
0.7500001632
 40
0.8125051599
 40
0.8750145289
 40
1.0
 40
1.0
 40
1.0
 40
1.0
 10
6.889717888
 20
2.8190401326
 30
0.0
 10
6.8892476706
 20
2.8181192363
 30
0.0
 10
6.8883876189
 20
2.816234933
 30
0.0
 10
6.8873650669
 20
2.8133016395
 30
0.0
 10
6.8867559039
 20
2.8107845089
 30
0.0
 10
6.8864192062
 20
2.8087431053
 30
0.0
 10
6.8862422721
 20
2.807201102
 30
0.0
 10
6.8861412511
 20
2.8056523294
 30
0.0
 10
6.886114586
 20
2.8041005149
 30
0.0
 10
6.8861608317
 20
2.8025491983
 30
0.0
 10
6.8862781871
 20
2.8010017139
 30
0.0
 10
6.8864647307
 20
2.7994610331
 30
0.0
 10
6.8868007067
 20
2.7974197693
 30
0.0
 10
6.8871459462
 20
2.7959053376
 30
0.0
 10
6.8874135726
 20
2.7949065426
 30
0.0
  0
SPLINE
  5
335
100
AcDbEntity
  8
0
100
AcDbSpline
 62
7
  6
CONTINUOUS
 70
0
 71
3
 72
25
 73
21
 74
0
 42
0.0000001
 43
0.0000001
 44
0.0000000001
 40
0.0
 40
0.0
 40
0.0
 40
0.0
 40
0.0624925481
 40
0.1249897564
 40
0.1874865599
 40
0.2499805722
 40
0.3124763437
 40
0.3749716912
 40
0.4374678495
 40
0.4999647249
 40
0.5624620376
 40
0.6249608777
 40
0.687461153
 40
0.7499647798
 40
0.7812186063
 40
0.8124728299
 40
0.8437279003
 40
0.8749843631
 40
0.9374996608
 40
1.0
 40
1.0
 40
1.0
 40
1.0
 10
6.9117177073
 20
2.8373339434
 30
0.0
 10
6.911159262
 20
2.8370932833
 30
0.0
 10
6.9100480929
 20
2.8365984247
 30
0.0
 10
6.9084008189
 20
2.8358138674
 30
0.0
 10
6.9067750768
 20
2.834985495
 30
0.0
 10
6.9051740865
 20
2.8341101828
 30
0.0
 10
6.903601534
 20
2.833184683
 30
0.0
 10
6.9020615218
 20
2.8322058477
 30
0.0
 10
6.9005586586
 20
2.8311707651
 30
0.0
 10
6.8990973913
 20
2.8300776241
 30
0.0
 10
6.8976830423
 20
2.8289242492
 30
0.0
 10
6.8963225089
 20
2.8277076512
 30
0.0
 10
6.8950227003
 20
2.8264262034
 30
0.0
 10
6.893996182
 20
2.8253034464
 30
0.0
 10
6.8932130302
 20
2.8243724557
 30
0.0
 10
6.8926456757
 20
2.823657769
 30
0.0
 10
6.8920992928
 20
2.8229268846
 30
0.0
 10
6.8913999308
 20
2.8219312105
 30
0.0
 10
6.8905827919
 20
2.8206476183
 30
0.0
 10
6.889994457
 20
2.8195817784
 30
0.0
 10
6.889717888
 20
2.8190401326
 30
0.0
  0
SPLINE
  5
336
100
AcDbEntity
  8
0
100
AcDbSpline
 62
7
  6
CONTINUOUS
 70
0
 71
3
 72
22
 73
18
 74
0
 42
0.0000001
 43
0.0000001
 44
0.0000000001
 40
0.0
 40
0.0
 40
0.0
 40
0.0
 40
0.0625003674
 40
0.0937526961
 40
0.1250044198
 40
0.1875051223
 40
0.2500054864
 40
0.3125061511
 40
0.3750062759
 40
0.4062566235
 40
0.4375068403
 40
0.5000067005
 40
0.5625064743
 40
0.6250062979
 40
0.7500036865
 40
0.8750017139
 40
1.0
 40
1.0
 40
1.0
 40
1.0
 10
6.7687981785
 20
2.1170510765
 30
0.0
 10
6.7696767532
 20
2.1164128401
 30
0.0
 10
6.7709819459
 20
2.1154378404
 30
0.0
 10
6.7726984439
 20
2.1141070536
 30
0.0
 10
6.7743999456
 20
2.1127571148
 30
0.0
 10
6.7764993521
 20
2.1110354631
 30
0.0
 10
6.7789761942
 20
2.1089189084
 30
0.0
 10
6.7814124385
 20
2.1067557968
 30
0.0
 10
6.7834104641
 20
2.1049176151
 30
0.0
 10
6.7849908965
 20
2.1034278956
 30
0.0
 10
6.7865598472
 20
2.1019260937
 30
0.0
 10
6.7885000621
 20
2.1000270773
 30
0.0
 10
6.7907963303
 20
2.0977160674
 30
0.0
 10
6.7938171735
 20
2.0945947601
 30
0.0
 10
6.797520111
 20
2.0906231073
 30
0.0
 10
6.8018576058
 20
2.0857607631
 30
0.0
 10
6.8046852358
 20
2.0824631663
 30
0.0
 10
6.8060841897
 20
2.0808019318
 30
0.0
  0
SPLINE
  5
337
100
AcDbEntity
  8
0
100
AcDbSpline
 62
7
  6
CONTINUOUS
 70
0
 71
3
 72
13
 73
9
 74
0
 42
0.0000001
 43
0.0000001
 44
0.0000000001
 40
0.0
 40
0.0
 40
0.0
 40
0.0
 40
0.2499796179
 40
0.3749909578
 40
0.4999948463
 40
0.6250019194
 40
0.7500125215
 40
1.0
 40
1.0
 40
1.0
 40
1.0
 10
6.7914782735
 20
2.0631512226
 30
0.0
 10
6.7888491514
 20
2.0664152401
 30
0.0
 10
6.7847493213
 20
2.07118846
 30
0.0
 10
6.7790145051
 20
2.0773038136
 30
0.0
 10
6.7745866391
 20
2.0817692001
 30
0.0
 10
6.7700415072
 20
2.0861149624
 30
0.0
 10
6.763836609
 20
2.0917529859
 30
0.0
 10
6.7590304951
 20
2.0958111088
 30
0.0
 10
6.7557694648
 20
2.0984441451
 30
0.0
  0
SPLINE
  5
338
100
AcDbEntity
  8
0
100
AcDbSpline
 62
7
  6
CONTINUOUS
 70
0
 71
3
 72
11
 73
7
 74
0
 42
0.0000001
 43
0.0000001
 44
0.0000000001
 40
0.0
 40
0.0
 40
0.0
 40
0.0
 40
0.2500004851
 40
0.5000007941
 40
0.7500004698
 40
1.0
 40
1.0
 40
1.0
 40
1.0
 10
6.827579482
 20
2.0060110913
 30
0.0
 10
6.8251245474
 20
2.0110932142
 30
0.0
 10
6.8199329851
 20
2.021124311
 30
0.0
 10
6.8113049526
 20
2.035703498
 30
0.0
 10
6.8018514346
 20
2.0497615849
 30
0.0
 10
6.7950187206
 20
2.0587558081
 30
0.0
 10
6.7914782735
 20
2.0631512226
 30
0.0
  0
SPLINE
  5
339
100
AcDbEntity
  8
0
100
AcDbSpline
 62
6
  6
CONTINUOUS
 70
0
 71
3
 72
23
 73
19
 74
0
 42
0.0000001
 43
0.0000001
 44
0.0000000001
 40
0.0
 40
0.0
 40
0.0
 40
0.0
 40
0.0625002313
 40
0.0937522862
 40
0.1250038206
 40
0.1875044289
 40
0.2500046821
 40
0.312505213
 40
0.3750052354
 40
0.4062555316
 40
0.4375057321
 40
0.5000055287
 40
0.5625052033
 40
0.6250049791
 40
0.6875046266
 40
0.7500043068
 40
0.8750020126
 40
1.0
 40
1.0
 40
1.0
 40
1.0
 10
6.8478570788
 20
1.9501749251
 30
0.0
 10
6.8476039906
 20
1.9513894114
 30
0.0
 10
6.8472012168
 20
1.9532064511
 30
0.0
 10
6.8466220919
 20
1.9556191738
 30
0.0
 10
6.8460162873
 20
1.9580253581
 30
0.0
 10
6.8452108015
 20
1.9610206667
 30
0.0
 10
6.8441717664
 20
1.9645946721
 30
0.0
 10
6.8430652316
 20
1.9681483188
 30
0.0
 10
6.8420910091
 20
1.9710929505
 30
0.0
 10
6.8412828884
 20
1.9734388353
 30
0.0
 10
6.8404564618
 20
1.9757783297
 30
0.0
 10
6.8393901244
 20
1.9786908082
 30
0.0
 10
6.8380598718
 20
1.9821667813
 30
0.0
 10
6.8366821336
 20
1.9856241922
 30
0.0
 10
6.8352602044
 20
1.9890636519
 30
0.0
 10
6.8333095623
 20
1.9936265124
 30
0.0
 10
6.8307759177
 20
1.9992887667
 30
0.0
 10
6.8286586731
 20
2.0037769862
 30
0.0
 10
6.827579482
 20
2.0060110913
 30
0.0
  0
SPLINE
  5
33A
100
AcDbEntity
  8
0
100
AcDbSpline
 62
6
  6
CONTINUOUS
 70
0
 71
3
 72
18
 73
14
 74
0
 42
0.0000001
 43
0.0000001
 44
0.0000000001
 40
0.0
 40
0.0
 40
0.0
 40
0.0
 40
0.1249997817
 40
0.249999576
 40
0.3125003214
 40
0.3750011731
 40
0.4375020164
 40
0.5000029259
 40
0.5625039409
 40
0.6250049872
 40
0.7500035188
 40
0.8750016607
 40
1.0
 40
1.0
 40
1.0
 40
1.0
 10
6.8404245374
 20
2.028825584
 30
0.0
 10
6.8415007794
 20
2.0267085087
 30
0.0
 10
6.8436095054
 20
2.0224519425
 30
0.0
 10
6.8461274441
 20
2.0170743333
 30
0.0
 10
6.8480640863
 20
2.0127370578
 30
0.0
 10
6.8494756191
 20
2.0094660705
 30
0.0
 10
6.8508436788
 20
2.006176652
 30
0.0
 10
6.8521661176
 20
2.0028686197
 30
0.0
 10
6.8534411995
 20
1.9995420205
 30
0.0
 10
6.8550749969
 20
1.9950818185
 30
0.0
 10
6.8569866578
 20
1.9894594583
 30
0.0
 10
6.8590475342
 20
1.9826378688
 30
0.0
 10
6.8602517429
 20
1.9780417464
 30
0.0
 10
6.8608062963
 20
1.9757324944
 30
0.0
  0
SPLINE
  5
33B
100
AcDbEntity
  8
0
100
AcDbSpline
 62
7
  6
CONTINUOUS
 70
0
 71
3
 72
11
 73
7
 74
0
 42
0.0000001
 43
0.0000001
 44
0.0000000001
 40
0.0
 40
0.0
 40
0.0
 40
0.0
 40
0.2499989291
 40
0.4999982515
 40
0.7499989634
 40
1.0
 40
1.0
 40
1.0
 40
1.0
 10
6.8060841897
 20
2.0808019318
 30
0.0
 10
6.809435074
 20
2.0768228127
 30
0.0
 10
6.815906164
 20
2.0686669484
 30
0.0
 10
6.8248793345
 20
2.05588781
 30
0.0
 10
6.8330975316
 20
2.0426107764
 30
0.0
 10
6.8380670967
 20
2.0334629048
 30
0.0
 10
6.8404245374
 20
2.028825584
 30
0.0
  0
SPLINE
  5
33C
100
AcDbEntity
  8
0
100
AcDbSpline
 62
7
  6
CONTINUOUS
 70
0
 71
3
 72
18
 73
14
 74
0
 42
0.0000001
 43
0.0000001
 44
0.0000000001
 40
0.0
 40
0.0
 40
0.0
 40
0.0
 40
0.1249833702
 40
0.2499887299
 40
0.3124952308
 40
0.3749982005
 40
0.4375013135
 40
0.5000083775
 40
0.6250035203
 40
0.7499958558
 40
0.8125044165
 40
0.8750183948
 40
1.0
 40
1.0
 40
1.0
 40
1.0
 10
6.7597401804
 20
1.9385965374
 30
0.0
 10
6.7598184474
 20
1.9393685736
 30
0.0
 10
6.7599356716
 20
1.9409170796
 30
0.0
 10
6.7599764976
 20
1.9428579532
 30
0.0
 10
6.7599413871
 20
1.9444100391
 30
0.0
 10
6.7598802399
 20
1.9455728373
 30
0.0
 10
6.7597832887
 20
1.9467332191
 30
0.0
 10
6.7596051022
 20
1.9482754004
 30
0.0
 10
6.7592890802
 20
1.9501912141
 30
0.0
 10
6.758844545
 20
1.952081476
 30
0.0
 10
6.7584113255
 20
1.9535723858
 30
0.0
 10
6.7579262232
 20
1.9550470906
 30
0.0
 10
6.7575044066
 20
1.9561334521
 30
0.0
 10
6.7571982111
 20
1.9568464689
 30
0.0
  0
SPLINE
  5
33D
100
AcDbEntity
  8
0
100
AcDbSpline
 62
7
  6
CONTINUOUS
 70
0
 71
3
 72
17
 73
13
 74
0
 42
0.0000001
 43
0.0000001
 44
0.0000000001
 40
0.0
 40
0.0
 40
0.0
 40
0.0
 40
0.1249851904
 40
0.2499941326
 40
0.3749896377
 40
0.4374943141
 40
0.5000015907
 40
0.6249975852
 40
0.7499911734
 40
0.8125011844
 40
0.8750160461
 40
1.0
 40
1.0
 40
1.0
 40
1.0
 10
6.752676682
 20
1.9199917205
 30
0.0
 10
6.753157421
 20
1.920678287
 30
0.0
 10
6.7540801538
 20
1.9220792759
 30
0.0
 10
6.7553375234
 20
1.9242586441
 30
0.0
 10
6.7562721945
 20
1.9261360066
 30
0.0
 10
6.756947558
 20
1.9276707633
 30
0.0
 10
6.7575734201
 20
1.9292263709
 30
0.0
 10
6.758260986
 20
1.9312076232
 30
0.0
 10
6.758816356
 20
1.9332299905
 30
0.0
 10
6.7591791504
 20
1.9348671698
 30
0.0
 10
6.759486901
 20
1.9365154516
 30
0.0
 10
6.7596556459
 20
1.9377626767
 30
0.0
 10
6.7597401804
 20
1.9385965374
 30
0.0
  0
SPLINE
  5
33E
100
AcDbEntity
  8
0
100
AcDbSpline
 62
6
  6
CONTINUOUS
 70
0
 71
3
 72
25
 73
21
 74
0
 42
0.0000001
 43
0.0000001
 44
0.0000000001
 40
0.0
 40
0.0
 40
0.0
 40
0.0
 40
0.0624924656
 40
0.1249991617
 40
0.1875014751
 40
0.2187535065
 40
0.2500058003
 40
0.3125075644
 40
0.3437622189
 40
0.375016754
 40
0.4375197457
 40
0.468773917
 40
0.5000273302
 40
0.5625297955
 40
0.6250331215
 40
0.6875347091
 40
0.7500338299
 40
0.8125308243
 40
0.875032687
 40
1.0
 40
1.0
 40
1.0
 40
1.0
 10
6.7278022665
 20
1.9035712636
 30
0.0
 10
6.7284326061
 20
1.9036741308
 30
0.0
 10
6.729688525
 20
1.9039115044
 30
0.0
 10
6.7315513657
 20
1.9043643924
 30
0.0
 10
6.7330816033
 20
1.9048243178
 30
0.0
 10
6.7342891275
 20
1.9052419969
 30
0.0
 10
6.7354845794
 20
1.905693021
 30
0.0
 10
6.7366607123
 20
1.9061940081
 30
0.0
 10
6.7378143011
 20
1.9067434567
 30
0.0
 10
6.7389521062
 20
1.9073249184
 30
0.0
 10
6.7400652114
 20
1.9079536587
 30
0.0
 10
6.7411508908
 20
1.908627402
 30
0.0
 10
6.7422177082
 20
1.9093306505
 30
0.0
 10
6.7435150794
 20
1.9102632721
 30
0.0
 10
6.7450114932
 20
1.911461692
 30
0.0
 10
6.7464459678
 20
1.9127335023
 30
0.0
 10
6.7478174225
 20
1.9140728233
 30
0.0
 10
6.7491257152
 20
1.9154738769
 30
0.0
 10
6.7507874424
 20
1.9174149751
 30
0.0
 10
6.7519441239
 20
1.9189455191
 30
0.0
 10
6.752676682
 20
1.9199917205
 30
0.0
  0
SPLINE
  5
33F
100
AcDbEntity
  8
0
100
AcDbSpline
 62
6
  6
CONTINUOUS
 70
0
 71
3
 72
25
 73
21
 74
0
 42
0.0000001
 43
0.0000001
 44
0.0000000001
 40
0.0
 40
0.0
 40
0.0
 40
0.0
 40
0.124978662
 40
0.1874798474
 40
0.2499769757
 40
0.3749485006
 40
0.4374498948
 40
0.4999505936
 40
0.5312043877
 40
0.5624578203
 40
0.593711362
 40
0.6249656221
 40
0.6874683475
 40
0.7499724938
 40
0.7812269815
 40
0.8124808439
 40
0.8437350557
 40
0.874990678
 40
0.9375012363
 40
1.0
 40
1.0
 40
1.0
 40
1.0
 10
6.6972416103
 20
1.9118920671
 30
0.0
 10
6.6983509699
 20
1.9111152852
 30
0.0
 10
6.7000521235
 20
1.9100012582
 30
0.0
 10
6.7023927467
 20
1.9086368493
 30
0.0
 10
6.7047828787
 20
1.9073613396
 30
0.0
 10
6.7072494252
 20
1.9062323025
 30
0.0
 10
6.7097835946
 20
1.9052734653
 30
0.0
 10
6.7113948429
 20
1.9047505208
 30
0.0
 10
6.7126983271
 20
1.9043814897
 30
0.0
 10
6.7136828443
 20
1.9041300494
 30
0.0
 10
6.7146736862
 20
1.9039047672
 30
0.0
 10
6.7160023703
 20
1.9036402378
 30
0.0
 10
6.7176761281
 20
1.9033779671
 30
0.0
 10
6.7193620846
 20
1.9032105738
 30
0.0
 10
6.7207147857
 20
1.9031350984
 30
0.0
 10
6.7217305956
 20
1.9031081287
 30
0.0
 10
6.7227467704
 20
1.9031108941
 30
0.0
 10
6.7241009773
 20
1.9031540645
 30
0.0
 10
6.7257904256
 20
1.9032820628
 30
0.0
 10
6.7271338673
 20
1.9034621853
 30
0.0
 10
6.7278022665
 20
1.9035712636
 30
0.0
  0
SPLINE
  5
340
100
AcDbEntity
  8
0
100
AcDbSpline
 62
7
  6
CONTINUOUS
 70
0
 71
3
 72
23
 73
19
 74
0
 42
0.0000001
 43
0.0000001
 44
0.0000000001
 40
0.0
 40
0.0
 40
0.0
 40
0.0
 40
0.0624992171
 40
0.1250095523
 40
0.1562649099
 40
0.1875190071
 40
0.2187727707
 40
0.2500270267
 40
0.3125311648
 40
0.3750339122
 40
0.4375361196
 40
0.5000380405
 40
0.5625389326
 40
0.6250402818
 40
0.6875408783
 40
0.7500408991
 40
0.8750191994
 40
1.0
 40
1.0
 40
1.0
 40
1.0
 10
6.6773891526
 20
1.939245648
 30
0.0
 10
6.6775453404
 20
1.938541674
 30
0.0
 10
6.6778967385
 20
1.937141945
 30
0.0
 10
6.6784325942
 20
1.9354194703
 30
0.0
 10
6.678918577
 20
1.9340612026
 30
0.0
 10
6.6793113554
 20
1.9330530665
 30
0.0
 10
6.6797321492
 20
1.9320563114
 30
0.0
 10
6.6803299423
 20
1.930743514
 30
0.0
 10
6.6811444653
 20
1.9291340293
 30
0.0
 10
6.6822240471
 20
1.9272581024
 30
0.0
 10
6.6833999249
 20
1.925441049
 30
0.0
 10
6.6846658101
 20
1.9236856412
 30
0.0
 10
6.6860146726
 20
1.9219932722
 30
0.0
 10
6.6874395028
 20
1.9203644841
 30
0.0
 10
6.688933325
 20
1.91879882
 30
0.0
 10
6.6910089502
 20
1.9167952657
 30
0.0
 10
6.6937477845
 20
1.9144458222
 30
0.0
 10
6.6960604087
 20
1.9127191534
 30
0.0
 10
6.6972416103
 20
1.9118920671
 30
0.0
  0
SPLINE
  5
341
100
AcDbEntity
  8
0
100
AcDbSpline
 62
7
  6
CONTINUOUS
 70
0
 71
3
 72
20
 73
16
 74
0
 42
0.0000001
 43
0.0000001
 44
0.0000000001
 40
0.0
 40
0.0
 40
0.0
 40
0.0
 40
0.124976717
 40
0.2499499757
 40
0.3124559983
 40
0.3749635337
 40
0.4374716017
 40
0.499978257
 40
0.5624850017
 40
0.6249931503
 40
0.6875005142
 40
0.7500061662
 40
0.8125103254
 40
0.8750214195
 40
1.0
 40
1.0
 40
1.0
 40
1.0
 10
6.6830665798
 20
1.9682835757
 30
0.0
 10
6.6823376201
 20
1.9672425133
 30
0.0
 10
6.6809724653
 20
1.9650934509
 30
0.0
 10
6.6795385992
 20
1.9622512317
 30
0.0
 10
6.6785794605
 20
1.9598957817
 30
0.0
 10
6.6779577237
 20
1.9580919934
 30
0.0
 10
6.6774376525
 20
1.9562563144
 30
0.0
 10
6.6770217984
 20
1.9543942311
 30
0.0
 10
6.6767125225
 20
1.9525115203
 30
0.0
 10
6.6765089462
 20
1.9506144994
 30
0.0
 10
6.6764100595
 20
1.9487091947
 30
0.0
 10
6.6764135813
 20
1.9468014317
 30
0.0
 10
6.6765168557
 20
1.9448964234
 30
0.0
 10
6.6767807752
 20
1.942367199
 30
0.0
 10
6.6771138723
 20
1.9404863986
 30
0.0
 10
6.6773891526
 20
1.939245648
 30
0.0
  0
SPLINE
  5
342
100
AcDbEntity
  8
0
100
AcDbSpline
 62
7
  6
CONTINUOUS
 70
0
 71
3
 72
19
 73
15
 74
0
 42
0.0000001
 43
0.0000001
 44
0.0000000001
 40
0.0
 40
0.0
 40
0.0
 40
0.0
 40
0.1249819123
 40
0.2499628135
 40
0.3749444921
 40
0.4374547934
 40
0.4999641106
 40
0.5624731946
 40
0.6249835163
 40
0.687492722
 40
0.7500001632
 40
0.8125051599
 40
0.8750145289
 40
1.0
 40
1.0
 40
1.0
 40
1.0
 10
6.7030351677
 20
1.9820311402
 30
0.0
 10
6.7020274703
 20
1.9817994069
 30
0.0
 10
6.7000311797
 20
1.981247038
 30
0.0
 10
6.6971268627
 20
1.9801448735
 30
0.0
 10
6.6948070664
 20
1.9789935391
 30
0.0
 10
6.6930268354
 20
1.9779392755
 30
0.0
 10
6.6917318613
 20
1.9770836343
 30
0.0
 10
6.6904804976
 20
1.976165489
 30
0.0
 10
6.6892745987
 20
1.9751884285
 30
0.0
 10
6.6881159474
 20
1.9741558352
 30
0.0
 10
6.6870059402
 20
1.973071232
 30
0.0
 10
6.6859456181
 20
1.9719380007
 30
0.0
 10
6.6845978806
 20
1.9703685291
 30
0.0
 10
6.6836596743
 20
1.9691306024
 30
0.0
 10
6.6830665798
 20
1.9682835757
 30
0.0
  0
SPLINE
  5
343
100
AcDbEntity
  8
0
100
AcDbSpline
 62
7
  6
CONTINUOUS
 70
0
 71
3
 72
24
 73
20
 74
0
 42
0.0000001
 43
0.0000001
 44
0.0000000001
 40
0.0
 40
0.0
 40
0.0
 40
0.0
 40
0.1249810862
 40
0.1874785501
 40
0.2499732805
 40
0.312469755
 40
0.3749658132
 40
0.437462657
 40
0.4999602563
 40
0.5624582222
 40
0.6249578075
 40
0.6874587986
 40
0.7499630168
 40
0.7812170843
 40
0.8124715583
 40
0.8437268461
 40
0.8749835105
 40
0.9374991145
 40
1.0
 40
1.0
 40
1.0
 40
1.0
 10
6.730786669
 20
1.9771387082
 30
0.0
 10
6.7297137011
 20
1.9776701082
 30
0.0
 10
6.7280844259
 20
1.9784284695
 30
0.0
 10
6.7258742472
 20
1.9793511305
 30
0.0
 10
6.7241970172
 20
1.9799947402
 30
0.0
 10
6.7225003005
 20
1.9805851098
 30
0.0
 10
6.7207843481
 20
1.981117257
 30
0.0
 10
6.7190499349
 20
1.9815859832
 30
0.0
 10
6.7172985286
 20
1.981986886
 30
0.0
 10
6.7155318648
 20
1.9823146443
 30
0.0
 10
6.7137520804
 20
1.9825623708
 30
0.0
 10
6.7119623073
 20
1.9827240362
 30
0.0
 10
6.7104656631
 20
1.9827821081
 30
0.0
 10
6.7092678832
 20
1.9827797023
 30
0.0
 10
6.708369884
 20
1.9827527229
 30
0.0
 10
6.7074729958
 20
1.982700027
 30
0.0
 10
6.7062796776
 20
1.9825948816
 30
0.0
 10
6.7047947627
 20
1.9823967136
 30
0.0
 10
6.7036187106
 20
1.9821653336
 30
0.0
 10
6.7030351677
 20
1.9820311402
 30
0.0
  0
SPLINE
  5
344
100
AcDbEntity
  8
0
100
AcDbSpline
 62
7
  6
CONTINUOUS
 70
0
 71
3
 72
25
 73
21
 74
0
 42
0.0000001
 43
0.0000001
 44
0.0000000001
 40
0.0
 40
0.0
 40
0.0
 40
0.0
 40
0.0624936906
 40
0.1250003815
 40
0.187502597
 40
0.2187544522
 40
0.2500064539
 40
0.312507781
 40
0.3437617021
 40
0.3750154697
 40
0.437517672
 40
0.4687711487
 40
0.5000240281
 40
0.5625258439
 40
0.6250284259
 40
0.6875297059
 40
0.7500290401
 40
0.8125266187
 40
0.8750285122
 40
1.0
 40
1.0
 40
1.0
 40
1.0
 10
6.7024643077
 20
2.0037525896
 30
0.0
 10
6.70330631
 20
2.0039536493
 30
0.0
 10
6.7050003884
 20
2.0043156773
 30
0.0
 10
6.7075648688
 20
2.0047336405
 30
0.0
 10
6.7097170765
 20
2.0049739478
 30
0.0
 10
6.7114442707
 20
2.0050998515
 30
0.0
 10
6.7131741214
 20
2.0051809806
 30
0.0
 10
6.7149066198
 20
2.0051945308
 30
0.0
 10
6.7166375905
 20
2.0051407509
 30
0.0
 10
6.7183665992
 20
2.0050421013
 30
0.0
 10
6.720091226
 20
2.004876503
 30
0.0
 10
6.7218074991
 20
2.0046451984
 30
0.0
 10
6.7235173585
 20
2.004370384
 30
0.0
 10
6.725640977
 20
2.003946752
 30
0.0
 10
6.7281615077
 20
2.0033157283
 30
0.0
 10
6.7306497031
 20
2.0025675195
 30
0.0
 10
6.7331014566
 20
2.001707859
 30
0.0
 10
6.7355136513
 20
2.0007427825
 30
0.0
 10
6.7386738985
 20
1.999325942
 30
0.0
 10
6.7409807327
 20
1.9981264921
 30
0.0
 10
6.742487841
 20
1.9972747679
 30
0.0
  0
SPLINE
  5
345
100
AcDbEntity
  8
0
100
AcDbSpline
 62
7
  6
CONTINUOUS
 70
0
 71
3
 72
28
 73
24
 74
0
 42
0.0000001
 43
0.0000001
 44
0.0000000001
 40
0.0
 40
0.0
 40
0.0
 40
0.0
 40
0.0624894483
 40
0.124987506
 40
0.1874865458
 40
0.2499815646
 40
0.3124768943
 40
0.3749745197
 40
0.4374733021
 40
0.4999719545
 40
0.531222904
 40
0.5624748401
 40
0.6249744733
 40
0.656227053
 40
0.6874803585
 40
0.7187334906
 40
0.7499859103
 40
0.7812377398
 40
0.8124896866
 40
0.8437425779
 40
0.874997241
 40
0.9375059227
 40
1.0
 40
1.0
 40
1.0
 40
1.0
 10
6.6681810343
 20
1.9787065468
 30
0.0
 10
6.6687000648
 20
1.9794477992
 30
0.0
 10
6.6697609211
 20
1.9809146641
 30
0.0
 10
6.6714225564
 20
1.9830623663
 30
0.0
 10
6.6731566366
 20
1.9851522307
 30
0.0
 10
6.6749656783
 20
1.9871776053
 30
0.0
 10
6.6768523936
 20
1.9891309202
 30
0.0
 10
6.6788180564
 20
1.9910049631
 30
0.0
 10
6.6808626987
 20
1.9927926475
 30
0.0
 10
6.6826323265
 20
1.9942039762
 30
0.0
 10
6.6840869511
 20
1.9952815766
 30
0.0
 10
6.6855673675
 20
1.9963234487
 30
0.0
 10
6.6870860002
 20
1.9973102373
 30
0.0
 10
6.68864053
 20
1.9982380174
 30
0.0
 10
6.6898240872
 20
1.9989036105
 30
0.0
 10
6.6910245505
 20
1.9995381802
 30
0.0
 10
6.6922412572
 20
2.0001409866
 30
0.0
 10
6.693473544
 20
2.0007112329
 30
0.0
 10
6.694720632
 20
2.0012483524
 30
0.0
 10
6.6959816512
 20
2.0017520264
 30
0.0
 10
6.6976803449
 20
2.00237849
 30
0.0
 10
6.6998340701
 20
2.0030759954
 30
0.0
 10
6.7015840857
 20
2.0035424035
 30
0.0
 10
6.7024643077
 20
2.0037525896
 30
0.0
  0
SPLINE
  5
346
100
AcDbEntity
  8
0
100
AcDbSpline
 62
7
  6
CONTINUOUS
 70
0
 71
3
 72
28
 73
24
 74
0
 42
0.0000001
 43
0.0000001
 44
0.0000000001
 40
0.0
 40
0.0
 40
0.0
 40
0.0
 40
0.0624940743
 40
0.1249945661
 40
0.1562463368
 40
0.1874980173
 40
0.2499966836
 40
0.2812496005
 40
0.3125023697
 40
0.3437545757
 40
0.3750065345
 40
0.4375026155
 40
0.4999986346
 40
0.5312506058
 40
0.5625027316
 40
0.5937552762
 40
0.6250076072
 40
0.6875074267
 40
0.7500078999
 40
0.8125077684
 40
0.8750059859
 40
0.937506455
 40
1.0
 40
1.0
 40
1.0
 40
1.0
 10
6.6589104984
 20
1.9274307479
 30
0.0
 10
6.658590662
 20
1.9285102877
 30
0.0
 10
6.6580064061
 20
1.9306863693
 30
0.0
 10
6.6574240491
 20
1.9334420246
 30
0.0
 10
6.6570525984
 20
1.9356636069
 30
0.0
 10
6.6567460667
 20
1.9378949953
 30
0.0
 10
6.6565393816
 20
1.9401392508
 30
0.0
 10
6.6564357219
 20
1.9423892739
 30
0.0
 10
6.6564101607
 20
1.944078551
 30
0.0
 10
6.656437246
 20
1.9457677878
 30
0.0
 10
6.6565443205
 20
1.9480176176
 30
0.0
 10
6.6568112849
 20
1.9508219029
 30
0.0
 10
6.6572543489
 20
1.9536037613
 30
0.0
 10
6.6577117219
 20
1.955809192
 30
0.0
 10
6.6581054732
 20
1.9574521016
 30
0.0
 10
6.6585487789
 20
1.9590823353
 30
0.0
 10
6.6592045709
 20
1.9612371766
 30
0.0
 10
6.6601423148
 20
1.9638933132
 30
0.0
 10
6.6614436399
 20
1.9670124529
 30
0.0
 10
6.6629091449
 20
1.9700577726
 30
0.0
 10
6.6645267118
 20
1.9730249105
 30
0.0
 10
6.6662816575
 20
1.9759125058
 30
0.0
 10
6.6675352372
 20
1.9777842529
 30
0.0
 10
6.6681810343
 20
1.9787065468
 30
0.0
  0
SPLINE
  5
347
100
AcDbEntity
  8
0
100
AcDbSpline
 62
7
  6
CONTINUOUS
 70
0
 71
3
 72
19
 73
15
 74
0
 42
0.0000001
 43
0.0000001
 44
0.0000000001
 40
0.0
 40
0.0
 40
0.0
 40
0.0
 40
0.1249894371
 40
0.1874977694
 40
0.2500026252
 40
0.3125090739
 40
0.3750166246
 40
0.4375249454
 40
0.5000325486
 40
0.5625401671
 40
0.6250482362
 40
0.7500321606
 40
0.8750153042
 40
1.0
 40
1.0
 40
1.0
 40
1.0
 10
6.6853995838
 20
1.8915548463
 30
0.0
 10
6.6838476463
 20
1.8926415246
 30
0.0
 10
6.6815740031
 20
1.8943520517
 30
0.0
 10
6.6786762611
 20
1.896795059
 30
0.0
 10
6.6765746734
 20
1.8987099854
 30
0.0
 10
6.6745516428
 20
1.9007076942
 30
0.0
 10
6.6726126722
 20
1.902787241
 30
0.0
 10
6.6707635208
 20
1.9049471231
 30
0.0
 10
6.6690096342
 20
1.9071850904
 30
0.0
 10
6.667356706
 20
1.9094987362
 30
0.0
 10
6.6652934707
 20
1.912678476
 30
0.0
 10
6.6629862934
 20
1.9168231646
 30
0.0
 10
6.6606781652
 20
1.9220245422
 30
0.0
 10
6.6594486599
 20
1.9256142982
 30
0.0
 10
6.6589104984
 20
1.9274307479
 30
0.0
  0
SPLINE
  5
348
100
AcDbEntity
  8
0
100
AcDbSpline
 62
6
  6
CONTINUOUS
 70
0
 71
3
 72
28
 73
24
 74
0
 42
0.0000001
 43
0.0000001
 44
0.0000000001
 40
0.0
 40
0.0
 40
0.0
 40
0.0
 40
0.0625001478
 40
0.1250138001
 40
0.1875201504
 40
0.2187735053
 40
0.2500267792
 40
0.2812805505
 40
0.3125343028
 40
0.3437875773
 40
0.3750402852
 40
0.4375389955
 40
0.5000364322
 40
0.5312876233
 40
0.5625382013
 40
0.6250342238
 40
0.687529206
 40
0.7500242507
 40
0.8125184296
 40
0.8750110982
 40
0.9062599914
 40
0.937509005
 40
1.0
 40
1.0
 40
1.0
 40
1.0
 10
6.7290859713
 20
1.8807882773
 30
0.0
 10
6.7281370105
 20
1.8806237201
 30
0.0
 10
6.7262303846
 20
1.8803414162
 30
0.0
 10
6.723352821
 20
1.8800642737
 30
0.0
 10
6.7209456533
 20
1.879960046
 30
0.0
 10
6.7190190302
 20
1.8799541962
 30
0.0
 10
6.7175744209
 20
1.8799889839
 30
0.0
 10
6.7161312994
 20
1.8800631184
 30
0.0
 10
6.7146907329
 20
1.8801765452
 30
0.0
 10
6.7132538086
 20
1.8803292824
 30
0.0
 10
6.7113443715
 20
1.8805852169
 30
0.0
 10
6.7089716955
 20
1.8810022183
 30
0.0
 10
6.7066249299
 20
1.8815460682
 30
0.0
 10
6.7047668125
 20
1.8820544826
 30
0.0
 10
6.7029225381
 20
1.882610942
 30
0.0
 10
6.7006447141
 20
1.8833943361
 30
0.0
 10
6.6979610811
 20
1.8844674308
 30
0.0
 10
6.6953308175
 20
1.8856651931
 30
0.0
 10
6.6927570315
 20
1.88697961
 30
0.0
 10
6.690661137
 20
1.8881658908
 30
0.0
 10
6.6890141146
 20
1.8891646742
 30
0.0
 10
6.6873867842
 20
1.8901951536
 30
0.0
 10
6.6861884123
 20
1.8910025026
 30
0.0
 10
6.6853995838
 20
1.8915548463
 30
0.0
  0
SPLINE
  5
349
100
AcDbEntity
  8
0
100
AcDbSpline
 62
6
  6
CONTINUOUS
 70
0
 71
3
 72
15
 73
11
 74
0
 42
0.0000001
 43
0.0000001
 44
0.0000000001
 40
0.0
 40
0.0
 40
0.0
 40
0.0
 40
0.1250066125
 40
0.2500109822
 40
0.3750085327
 40
0.5000038585
 40
0.6249983546
 40
0.7499942577
 40
0.8749954605
 40
1.0
 40
1.0
 40
1.0
 40
1.0
 10
6.7652881657
 20
1.9039663249
 30
0.0
 10
6.7642323851
 20
1.9024585139
 30
0.0
 10
6.761995187
 20
1.8995281594
 30
0.0
 10
6.7582541493
 20
1.8954557249
 30
0.0
 10
6.7541293364
 20
1.8917703302
 30
0.0
 10
6.749643037
 20
1.8885336995
 30
0.0
 10
6.7448369434
 20
1.8857940157
 30
0.0
 10
6.7397682087
 20
1.8835784336
 30
0.0
 10
6.7345017883
 20
1.8818899673
 30
0.0
 10
6.7308995723
 20
1.8811027699
 30
0.0
 10
6.7290859713
 20
1.8807882773
 30
0.0
  0
SPLINE
  5
34A
100
AcDbEntity
  8
0
100
AcDbSpline
 62
7
  6
CONTINUOUS
 70
0
 71
3
 72
20
 73
16
 74
0
 42
0.0000001
 43
0.0000001
 44
0.0000000001
 40
0.0
 40
0.0
 40
0.0
 40
0.0
 40
0.062498884
 40
0.1250049638
 40
0.1875107428
 40
0.2500128934
 40
0.3125161856
 40
0.3750208227
 40
0.4375265799
 40
0.5000315747
 40
0.5625376952
 40
0.6250446679
 40
0.750030049
 40
0.8750147778
 40
1.0
 40
1.0
 40
1.0
 40
1.0
 10
6.7755185718
 20
1.9406853806
 30
0.0
 10
6.7755386726
 20
1.9398776028
 30
0.0
 10
6.7755549066
 20
1.9382612445
 30
0.0
 10
6.7755042327
 20
1.9358371243
 30
0.0
 10
6.7753755192
 20
1.93341579
 30
0.0
 10
6.7751644783
 20
1.9310002223
 30
0.0
 10
6.7748663664
 20
1.9285938102
 30
0.0
 10
6.774478334
 20
1.9262001706
 30
0.0
 10
6.7739980771
 20
1.9238232504
 30
0.0
 10
6.7734230168
 20
1.921467412
 30
0.0
 10
6.7727504114
 20
1.9191374303
 30
0.0
 10
6.7717224354
 20
1.9160722832
 30
0.0
 10
6.7701887596
 20
1.9123285192
 30
0.0
 10
6.7679542783
 20
1.9080197117
 30
0.0
 10
6.7662150041
 20
1.9052899873
 30
0.0
 10
6.7652881657
 20
1.9039663249
 30
0.0
  0
SPLINE
  5
34B
100
AcDbEntity
  8
0
100
AcDbSpline
 62
7
  6
CONTINUOUS
 70
0
 71
3
 72
9
 73
5
 74
0
 42
0.0000001
 43
0.0000001
 44
0.0000000001
 40
0.0
 40
0.0
 40
0.0
 40
0.0
 40
0.4999795227
 40
1.0
 40
1.0
 40
1.0
 40
1.0
 10
5.0006363525
 20
2.0286844969
 30
0.0
 10
5.0030006045
 20
2.0306781967
 30
0.0
 10
5.0076693702
 20
2.0347376027
 30
0.0
 10
5.0121866976
 20
2.0389659563
 30
0.0
 10
5.0143986057
 20
2.0411277972
 30
0.0
  0
ENDSEC
  0
SECTION
  2
OBJECTS
  0
DICTIONARY
  5
C
100
AcDbDictionary
280
0
281
1
  3
ACAD_GROUP
350
D
  3
ACAD_MLINESTYLE
350
17
  3
ACAD_LAYOUT
350
1A
  3
ACAD_PLOTSETTINGS
350
19
  3
ACAD_PLOTSTYLENAME
350
E
  0
DICTIONARY
  5
D
102
{ACAD_REACTORS
330
C
102
}
100
AcDbDictionary
280
0
281
1
  0
ACDBDICTIONARYWDFLT
  5
E
102
{ACAD_REACTORS
330
C
102
}
100
AcDbDictionary
281
1
  3
Normal
350
F
100
AcDbDictionaryWithDefault
340
F
  0
DICTIONARY
  5
17
102
{ACAD_REACTORS
330
C
102
}
100
AcDbDictionary
280
0
281
1
  3
Standard
350
18
  0
DICTIONARY
  5
19
102
{ACAD_REACTORS
330
C
102
}
100
AcDbDictionary
281
1
  0
DICTIONARY
  5
1A
102
{ACAD_REACTORS
330
C
102
}
100
AcDbDictionary
281
1
  3
Model
350
34C
  3
Layout1
350
34D
  0
ACDBPLACEHOLDER
  5
F
102
{ACAD_REACTORS
330
E
102
}
  0
MLINESTYLE
  5
18
102
{ACAD_REACTORS
330
17
102
}
100
AcDbMlineStyle
  2
STANDARD
 70
0
  3

 62
256
 51
90.0
 52
90.0
 71
2
 49
0.5
 62
256
  6
BYLAYER
 49
-0.5
 62
256
  6
BYLAYER
  0
LAYOUT
  5
34C
102
{ACAD_REACTORS
330
1A
102
}
100
AcDbPlotSettings
  1

  2
none_device
  4
ISO_A4_(297.00_x_210.00_MM)
  6

 40
0.0
 41
0.0
 42
0.0
 43
0.0
 44
297.0
 45
210.0
 46
0.0
 47
0.0
 48
0.0
 49
0.0
140
0.0
141
0.0
142
1.0
143
1.0
 70
1024
 72
0
 73
0
 74
0
  7

 75
0
147
1.0
148
0.0
149
0.0
100
AcDbLayout
  1
Model
 70
0
 71
0
 10
0.0
 20
0.0
 11
11.6929133858
 21
8.2677165354
 12
0.0
 22
0.0
 32
0.0
 14
0.0
 24
0.0
 34
0.0
 15
0.0
 25
0.0
 35
0.0
146
0.0
 13
0.0
 23
0.0
 33
0.0
 16
1.0
 26
0.0
 36
0.0
 17
0.0
 27
1.0
 37
0.0
 76
0
330
202
345
0
346
0
  0
LAYOUT
  5
34D
102
{ACAD_REACTORS
330
1A
102
}
100
AcDbPlotSettings
  1

  2
none_device
  4
ISO_A4_(297.00_x_210.00_MM)
  6

 40
0.0
 41
0.0
 42
0.0
 43
0.0
 44
297.0
 45
210.0
 46
0.0
 47
0.0
 48
0.0
 49
0.0
140
0.0
141
0.0
142
1.0
143
1.0
 70
0
 72
0
 73
0
 74
0
  7

 75
0
147
1.0
148
0.0
149
0.0
100
AcDbLayout
  1
Layout1
 70
0
 71
1
 10
0.0
 20
0.0
 11
11.6929133858
 21
8.2677165354
 12
0.0
 22
0.0
 32
0.0
 14
0.0
 24
0.0
 34
0.0
 15
0.0
 25
0.0
 35
0.0
146
0.0
 13
0.0
 23
0.0
 33
0.0
 16
1.0
 26
0.0
 36
0.0
 17
0.0
 27
1.0
 37
0.0
 76
0
330
203
345
0
346
0
  0
ENDSEC
  0
EOF
