999
DXF file: 3-1203_RIGHT.dxf
999
Pro/ENGINEER 2014000 by Parametric Technology Corporation
  0
SECTION
  2
HEADER
  9
$ACADVER
  1
AC1015
  9
$DWGCODEPAGE
  3
ANSI_1252
  9
$EXTMAX
 10
11.6929133858
 20
8.2677165354
 30
0.0
  9
$EXTMIN
 10
0.0
 20
0.0
 30
0.0
  9
$LIMMIN
 10
0.0
 20
0.0
  9
$LIMMAX
 10
11.6929133858
 20
8.2677165354
  9
$VIEWCTR
 10
5.8464566929
 20
4.1338582677
  9
$VIEWSIZE
 40
8.2677165354
  9
$CLAYER
  8
0
  9
$LTSCALE
 40
0.6431102362
  9
$CELTYPE
  6
BYLAYER
  9
$DIMSCALE
 40
1.0
  9
$DIMASZ
 40
0.1
  9
$DIMEXO
 40
0.0625
  9
$DIMDLI
 40
0.4443307087
  9
$DIMEXE
 40
0.125
  9
$DIMCEN
 40
0.1052362205
  9
$DIMLFAC
 40
1.0
  9
$DIMBLK
  1
_FILLED
  9
$DIMTXT
 40
0.08
  9
$DIMTOL
 70
1
  9
$DIMLIM
 70
0
  9
$DIMTFAC
 40
1.0
  9
$DIMTP
 40
0.001
  9
$DIMTM
 40
0.001
  9
$DIMGAP
 40
0.09
  9
$DIMDSEP
 70
46
  9
$PDMODE
 70
3
  9
$PDSIZE
 40
0.06
  9
$HANDSEED
  5
2E6
  9
$TILEMODE
 70
1
  9
$MEASUREMENT
 70
0
  9
$INSUNITS
 70
1
  0
ENDSEC
  0
SECTION
  2
CLASSES
  0
CLASS
  1
ACDBDICTIONARYWDFLT
  2
AcDbDictionaryWithDefault
  3
AutoCAD 2000
 90
0
280
0
281
0
  0
CLASS
  1
ACDBPLACEHOLDER
  2
AcDbPlaceHolder
  3
AutoCAD 2000
 90
0
280
0
281
0
  0
CLASS
  1
LAYOUT
  2
AcDbLayout
  3
AutoCAD 2000
 90
0
280
0
281
0
  0
ENDSEC
  0
SECTION
  2
TABLES
  0
TABLE
  2
VPORT
  5
8
100
AcDbSymbolTable
 70
2
  0
VPORT
  5
1F4
100
AcDbSymbolTableRecord
100
AcDbViewportTableRecord
  2
*ACTIVE
 70
0
 10
0.0
 20
0.0
 11
1.0
 21
1.0
 12
5.8464566929
 22
4.1338582677
 13
0.0
 23
0.0
 14
1.0
 24
1.0
 15
0.0
 25
0.0
 16
0.0
 26
0.0
 36
1.0
 17
0.0
 27
0.0
 37
0.0
 40
8.2677165354
 41
1.4142857143
 42
50.0
 43
0.0
 44
0.0
 50
0.0
 51
0.0
 71
0
 72
100
 73
1
 74
1
 75
0
 76
0
 77
0
 78
0
  0
ENDTAB
  0
TABLE
  2
LTYPE
  5
5
100
AcDbSymbolTable
 70
6
  0
LTYPE
  5
14
100
AcDbSymbolTableRecord
100
AcDbLinetypeTableRecord
  2
BYBLOCK
 70
0
  3

 72
65
 73
0
 40
0.0
  0
LTYPE
  5
15
100
AcDbSymbolTableRecord
100
AcDbLinetypeTableRecord
  2
BYLAYER
 70
0
  3

 72
65
 73
0
 40
0.0
  0
LTYPE
  5
16
100
AcDbSymbolTableRecord
100
AcDbLinetypeTableRecord
  2
CONTINUOUS
 70
64
  3
Solid line
 72
65
 73
0
 40
0.0
  0
LTYPE
  5
1F5
100
AcDbSymbolTableRecord
100
AcDbLinetypeTableRecord
  2
CENTER
 70
64
  3
____ _ ____ _ ____ _ ____ _ ____ _ ____ _ ____
 72
65
 73
4
 40
0.6
 49
0.375
 74
0
 49
-0.075
 74
0
 49
0.075
 74
0
 49
-0.075
 74
0
  0
LTYPE
  5
1F6
100
AcDbSymbolTableRecord
100
AcDbLinetypeTableRecord
  2
HIDDEN
 70
64
  3
- - - - - - - - - - - - - - - - - - - -
 72
65
 73
2
 40
0.2
 49
0.1
 74
0
 49
-0.1
 74
0
  0
LTYPE
  5
1F7
100
AcDbSymbolTableRecord
100
AcDbLinetypeTableRecord
  2
PHANTOM
 70
64
  3
_____ _ _ _____ _ _ _____ _ _ _____
 72
65
 73
6
 40
0.8
 49
0.45
 74
0
 49
-0.05
 74
0
 49
0.1
 74
0
 49
-0.05
 74
0
 49
0.1
 74
0
 49
-0.05
 74
0
  0
LTYPE
  5
1F8
100
AcDbSymbolTableRecord
100
AcDbLinetypeTableRecord
  2
DOT
 70
64
  3
. . . . . . . . . . . . . . . . . . . .
 72
65
 73
2
 40
0.2
 49
0.1
 74
0
 49
-0.1
 74
0
  0
LTYPE
  5
1F9
100
AcDbSymbolTableRecord
100
AcDbLinetypeTableRecord
  2
DASHED
 70
64
  3
- - - - - - - - - - - - - - - - - - - -
 72
65
 73
2
 40
0.2
 49
0.1
 74
0
 49
-0.1
 74
0
  0
ENDTAB
  0
TABLE
  2
LAYER
  5
2
100
AcDbSymbolTable
 70
36
  0
LAYER
  5
10
100
AcDbSymbolTableRecord
100
AcDbLayerTableRecord
  2
0
 70
0
 62
7
  6
CONTINUOUS
370
-3
390
F
  0
LAYER
  5
1FA
100
AcDbSymbolTableRecord
100
AcDbLayerTableRecord
  2
DEFAULT_1
 70
0
 62
7
  6
CENTER
370
-3
390
F
  0
LAYER
  5
1FB
100
AcDbSymbolTableRecord
100
AcDbLayerTableRecord
  2
DEFAULT_2
 70
0
 62
8
  6
HIDDEN
370
-3
390
F
  0
LAYER
  5
1FC
100
AcDbSymbolTableRecord
100
AcDbLayerTableRecord
  2
DEFAULT_3
 70
0
 62
7
  6
PHANTOM
370
-3
390
F
  0
LAYER
  5
1FD
100
AcDbSymbolTableRecord
100
AcDbLayerTableRecord
  2
DEFAULT_COORDINATE_SYSTEM
 70
0
 62
7
  6
CONTINUOUS
370
-3
390
F
  0
LAYER
  5
1FE
100
AcDbSymbolTableRecord
100
AcDbLayerTableRecord
  2
DEFAULT_DATUM_AXES
 70
0
 62
7
  6
CONTINUOUS
370
-3
390
F
  0
LAYER
  5
1FF
100
AcDbSymbolTableRecord
100
AcDbLayerTableRecord
  2
DEFAULT_DATUM_PLANES
 70
0
 62
7
  6
CONTINUOUS
370
-3
390
F
  0
ENDTAB
  0
TABLE
  2
STYLE
  5
3
100
AcDbSymbolTable
 70
1
  0
STYLE
  5
11
100
AcDbSymbolTableRecord
100
AcDbTextStyleTableRecord
  2
STANDARD
 70
0
 40
0.0
 41
0.8
 50
0.0
 71
0
 42
0.2
  3
txt
  4

  0
STYLE
  5
200
100
AcDbSymbolTableRecord
100
AcDbTextStyleTableRecord
  2
TEXTSTYLE_1
 70
0
 40
0.0
 41
0.8
 50
0.0
 71
0
 42
0.2
  3
gdt
  4

  0
ENDTAB
  0
TABLE
  2
VIEW
  5
6
100
AcDbSymbolTable
 70
0
  0
ENDTAB
  0
TABLE
  2
UCS
  5
7
100
AcDbSymbolTable
 70
0
  0
ENDTAB
  0
TABLE
  2
APPID
  5
9
100
AcDbSymbolTable
 70
1
  0
APPID
  5
201
100
AcDbSymbolTableRecord
100
AcDbRegAppTableRecord
  2
ACAD
 70
0
  0
ENDTAB
  0
TABLE
  2
BLOCK_RECORD
  5
1
100
AcDbSymbolTable
 70
0
  0
BLOCK_RECORD
  5
202
100
AcDbSymbolTableRecord
100
AcDbBlockTableRecord
  2
*Model_Space
  0
BLOCK_RECORD
  5
203
100
AcDbSymbolTableRecord
100
AcDbBlockTableRecord
  2
*Paper_Space
  0
ENDTAB
  0
TABLE
  2
DIMSTYLE
  5
A
100
AcDbSymbolTable
 70
1
100
AcDbDimStyleTable
 71
0
  0
DIMSTYLE
105
204
100
AcDbSymbolTableRecord
100
AcDbDimStyleTableRecord
  2
STANDARD
 70
0
  3

  4

 40
1.0
 41
0.1
 42
0.0625
 43
0.38
 44
0.125
 45
0.0
 46
0.0
 47
0.001
 48
0.001
140
0.08
141
0.09
142
0.0
143
25.4
144
1.0
145
0.0
146
1.0
147
0.09
 71
1.0
 72
0.0
 73
1
 74
1
 75
0
 76
0
 77
0
 78
4
170
0
171
2
172
0
173
0
174
0
175
0
176
0
177
0
178
0
270
2
271
3
272
3
273
2
274
2
275
0
280
0
281
0
282
0
283
1
284
4
285
0
286
0
287
3
288
0
340
11
278
46
  0
ENDTAB
  0
ENDSEC
  0
SECTION
  2
BLOCKS
  0
BLOCK
  5
20
100
AcDbEntity
  8
0
100
AcDbBlockBegin
  2
*Model_Space
 70
0
 10
0.0
 20
0.0
 30
0.0
  3
*Model_Space
  1

  0
ENDBLK
  5
21
100
AcDbEntity
  8
0
100
AcDbBlockEnd
  0
BLOCK
  5
1C
100
AcDbEntity
  8
0
100
AcDbBlockBegin
  2
*Paper_Space
 70
0
 10
0.0
 20
0.0
 30
0.0
  3
*Paper_Space
  1

  0
ENDBLK
  5
1D
100
AcDbEntity
  8
0
100
AcDbBlockEnd
  0
ENDSEC
  0
SECTION
  2
ENTITIES
  0
LINE
  5
205
100
AcDbEntity
  8
0
100
AcDbLine
 62
6
  6
CONTINUOUS
 10
7.3965819058
 20
0.6539366125
 11
7.4715819058
 21
0.6539366125
  0
LINE
  5
206
100
AcDbEntity
  8
0
100
AcDbLine
 62
6
  6
CONTINUOUS
 10
7.4715819058
 20
0.6590344009
 11
7.5715819058
 21
0.6590344009
  0
LINE
  5
207
100
AcDbEntity
  8
0
100
AcDbLine
 62
9
  6
CONTINUOUS
 10
4.1036179967
 20
1.412697268
 11
4.544112744
 21
1.412697268
  0
LINE
  5
208
100
AcDbEntity
  8
0
100
AcDbLine
 62
9
  6
CONTINUOUS
 10
4.6366570324
 20
1.436127728
 11
4.0110737083
 21
1.436127728
  0
LINE
  5
209
100
AcDbEntity
  8
0
100
AcDbLine
 62
9
  6
CONTINUOUS
 10
4.6838653703
 20
1.4860497334
 11
3.9638653703
 21
1.4860497334
  0
LINE
  5
20A
100
AcDbEntity
  8
0
100
AcDbLine
 62
9
  6
CONTINUOUS
 10
4.6838653703
 20
1.5010187098
 11
3.9638653703
 21
1.5010187098
  0
LINE
  5
20B
100
AcDbEntity
  8
0
100
AcDbLine
 62
9
  6
CONTINUOUS
 10
4.6539522904
 20
1.5468064335
 11
3.9937784503
 21
1.5468064335
  0
LINE
  5
20C
100
AcDbEntity
  8
0
100
AcDbLine
 62
6
  6
CONTINUOUS
 10
7.1530583668
 20
1.2732833363
 11
7.2041054447
 21
1.2719466216
  0
LINE
  5
20D
100
AcDbEntity
  8
0
100
AcDbLine
 62
9
  6
CONTINUOUS
 10
4.0174858386
 20
1.5792180473
 11
4.6302449021
 21
1.5792180473
  0
LINE
  5
20E
100
AcDbEntity
  8
0
100
AcDbLine
 62
6
  6
CONTINUOUS
 10
6.9528653703
 20
1.7944366125
 11
5.5597595781
 21
1.7944366125
  0
LINE
  5
20F
100
AcDbEntity
  8
0
100
AcDbLine
 62
6
  6
CONTINUOUS
 10
6.9528653703
 20
1.7946649589
 11
7.1335819058
 21
1.7946649589
  0
LINE
  5
210
100
AcDbEntity
  8
0
100
AcDbLine
 62
9
  6
CONTINUOUS
 10
4.5415249728
 20
2.0830754696
 11
4.1062057679
 21
2.0830754696
  0
LINE
  5
211
100
AcDbEntity
  8
0
100
AcDbLine
 62
6
  6
CONTINUOUS
 10
5.4387214491
 20
1.8640250885
 11
5.4247913082
 21
1.8670101187
  0
LINE
  5
212
100
AcDbEntity
  8
0
100
AcDbLine
 62
6
  6
CONTINUOUS
 10
5.0507075378
 20
6.0520288433
 11
5.0473860365
 21
6.0496801872
  0
LINE
  5
213
100
AcDbEntity
  8
0
100
AcDbLine
 62
6
  6
CONTINUOUS
 10
5.1094952916
 20
6.0537969785
 11
5.0704327916
 21
6.0425206061
  0
LINE
  5
214
100
AcDbEntity
  8
0
100
AcDbLine
 62
6
  6
CONTINUOUS
 10
5.1094952916
 20
6.0086914887
 11
5.1485577916
 21
6.0199678612
  0
LINE
  5
215
100
AcDbEntity
  8
0
100
AcDbLine
 62
6
  6
CONTINUOUS
 10
4.5038653703
 20
2.1134366125
 11
4.1438653703
 21
2.1134366125
  0
LINE
  5
216
100
AcDbEntity
  8
0
100
AcDbLine
 62
6
  6
CONTINUOUS
 10
4.0118653703
 20
2.1314366125
 11
4.1313653703
 21
2.1314366125
  0
LINE
  5
217
100
AcDbEntity
  8
0
100
AcDbLine
 62
6
  6
CONTINUOUS
 10
4.5163653703
 20
2.1314366125
 11
4.6368653703
 21
2.1314366125
  0
LINE
  5
218
100
AcDbEntity
  8
0
100
AcDbLine
 62
6
  6
CONTINUOUS
 10
4.6368653703
 20
2.3089366125
 11
4.9468653703
 21
2.3089366125
  0
LINE
  5
219
100
AcDbEntity
  8
0
100
AcDbLine
 62
6
  6
CONTINUOUS
 10
3.9638653703
 20
1.5010187098
 11
3.9638653703
 21
1.4860497334
  0
LINE
  5
21A
100
AcDbEntity
  8
0
100
AcDbLine
 62
6
  6
CONTINUOUS
 10
4.0118653703
 20
3.1114366125
 11
4.0118653703
 21
2.1314366125
  0
LINE
  5
21B
100
AcDbEntity
  8
0
100
AcDbLine
 62
6
  6
CONTINUOUS
 10
4.1438653703
 20
2.1362080633
 11
4.1438653703
 21
2.1134366125
  0
LINE
  5
21C
100
AcDbEntity
  8
0
100
AcDbLine
 62
6
  6
CONTINUOUS
 10
4.9968653703
 20
2.4364366125
 11
4.9468653703
 21
2.4364366125
  0
LINE
  5
21D
100
AcDbEntity
  8
0
100
AcDbLine
 62
6
  6
CONTINUOUS
 10
4.8465783284
 20
2.9046455809
 11
4.8515385616
 21
2.9014027445
  0
LINE
  5
21E
100
AcDbEntity
  8
0
100
AcDbLine
 62
6
  6
CONTINUOUS
 10
4.8515385616
 20
2.9014027445
 11
4.8574154783
 21
2.8972471369
  0
LINE
  5
21F
100
AcDbEntity
  8
0
100
AcDbLine
 62
6
  6
CONTINUOUS
 10
5.4815794925
 20
1.832083792
 11
5.4730577551
 21
1.8427686359
  0
LINE
  5
220
100
AcDbEntity
  8
0
100
AcDbLine
 62
6
  6
CONTINUOUS
 10
4.2814952916
 20
4.6510187098
 11
4.2814952916
 21
4.6360497334
  0
LINE
  5
221
100
AcDbEntity
  8
0
100
AcDbLine
 62
6
  6
CONTINUOUS
 10
4.3294952916
 20
6.2614366125
 11
4.3294952916
 21
5.2814366125
  0
LINE
  5
222
100
AcDbEntity
  8
0
100
AcDbLine
 62
6
  6
CONTINUOUS
 10
4.4614952916
 20
5.2862080633
 11
4.4614952916
 21
5.2634366125
  0
LINE
  5
223
100
AcDbEntity
  8
0
100
AcDbLine
 62
6
  6
CONTINUOUS
 10
4.9968653703
 20
2.8064366125
 11
4.9468653703
 21
2.8064366125
  0
LINE
  5
224
100
AcDbEntity
  8
0
100
AcDbLine
 62
6
  6
CONTINUOUS
 10
4.7528028703
 20
2.8699678612
 11
4.7918653703
 21
2.8586914887
  0
LINE
  5
225
100
AcDbEntity
  8
0
100
AcDbLine
 62
6
  6
CONTINUOUS
 10
4.8309278703
 20
2.8925206061
 11
4.7918653703
 21
2.9037969785
  0
LINE
  5
226
100
AcDbEntity
  8
0
100
AcDbLine
 62
6
  6
CONTINUOUS
 10
4.5038653703
 20
2.1362080631
 11
4.5038653703
 21
2.1134366125
  0
LINE
  5
227
100
AcDbEntity
  8
0
100
AcDbLine
 62
6
  6
CONTINUOUS
 10
4.6368653703
 20
3.1114366125
 11
4.6368653703
 21
2.1314366125
  0
LINE
  5
228
100
AcDbEntity
  8
0
100
AcDbLine
 62
6
  6
CONTINUOUS
 10
4.6838653703
 20
1.5010187098
 11
4.6838653703
 21
1.4860497334
  0
LINE
  5
229
100
AcDbEntity
  8
0
100
AcDbLine
 62
6
  6
CONTINUOUS
 10
4.6368653703
 20
2.9339366125
 11
4.9468653703
 21
2.9339366125
  0
LINE
  5
22A
100
AcDbEntity
  8
0
100
AcDbLine
 62
6
  6
CONTINUOUS
 10
4.0118653703
 20
3.1114366125
 11
4.6368653703
 21
3.1114366125
  0
LINE
  5
22B
100
AcDbEntity
  8
0
100
AcDbLine
 62
6
  6
CONTINUOUS
 10
4.7528028703
 20
2.8925206061
 11
4.7528028703
 21
2.8699678612
  0
LINE
  5
22C
100
AcDbEntity
  8
0
100
AcDbLine
 62
6
  6
CONTINUOUS
 10
4.7918653703
 20
2.9037969785
 11
4.7918653703
 21
2.8586914887
  0
LINE
  5
22D
100
AcDbEntity
  8
0
100
AcDbLine
 62
6
  6
CONTINUOUS
 10
4.8214952916
 20
5.2862080631
 11
4.8214952916
 21
5.2634366125
  0
LINE
  5
22E
100
AcDbEntity
  8
0
100
AcDbLine
 62
6
  6
CONTINUOUS
 10
4.8309278703
 20
2.8699678612
 11
4.8309278703
 21
2.8925206061
  0
LINE
  5
22F
100
AcDbEntity
  8
0
100
AcDbLine
 62
6
  6
CONTINUOUS
 10
4.9468653703
 20
2.9339366125
 11
4.9468653703
 21
2.3089366125
  0
LINE
  5
230
100
AcDbEntity
  8
0
100
AcDbLine
 62
6
  6
CONTINUOUS
 10
4.9544952916
 20
6.2614366125
 11
4.9544952916
 21
5.2814366125
  0
LINE
  5
231
100
AcDbEntity
  8
0
100
AcDbLine
 62
6
  6
CONTINUOUS
 10
4.9968653703
 20
2.9714366125
 11
4.9968653703
 21
2.2714366125
  0
LINE
  5
232
100
AcDbEntity
  8
0
100
AcDbLine
 62
6
  6
CONTINUOUS
 10
5.0014952916
 20
4.6510187098
 11
5.0014952916
 21
4.6360497334
  0
LINE
  5
233
100
AcDbEntity
  8
0
100
AcDbLine
 62
9
  6
CONTINUOUS
 10
5.0095905965
 20
2.2296465158
 11
5.0095905965
 21
3.0132267092
  0
LINE
  5
234
100
AcDbEntity
  8
0
100
AcDbLine
 62
9
  6
CONTINUOUS
 10
5.0306741559
 20
2.2118777783
 11
5.0306741559
 21
3.0309954466
  0
LINE
  5
235
100
AcDbEntity
  8
0
100
AcDbLine
 62
6
  6
CONTINUOUS
 10
5.0704327916
 20
6.0425206061
 11
5.0704327916
 21
6.0199678612
  0
LINE
  5
236
100
AcDbEntity
  8
0
100
AcDbLine
 62
6
  6
CONTINUOUS
 10
5.1094952916
 20
6.0537969785
 11
5.1094952916
 21
6.0086914887
  0
LINE
  5
237
100
AcDbEntity
  8
0
100
AcDbLine
 62
6
  6
CONTINUOUS
 10
5.1485577916
 20
6.0199678612
 11
5.1485577916
 21
6.0425206061
  0
LINE
  5
238
100
AcDbEntity
  8
0
100
AcDbLine
 62
6
  6
CONTINUOUS
 10
5.2644952916
 20
6.0839366125
 11
5.2644952916
 21
5.4589366125
  0
LINE
  5
239
100
AcDbEntity
  8
0
100
AcDbLine
 62
6
  6
CONTINUOUS
 10
5.4387214491
 20
3.3788481365
 11
5.4247913082
 21
3.3758631063
  0
LINE
  5
23A
100
AcDbEntity
  8
0
100
AcDbLine
 62
6
  6
CONTINUOUS
 10
7.1335819058
 20
3.4476808199
 11
7.0034010281
 21
3.4476808199
  0
LINE
  5
23B
100
AcDbEntity
  8
0
100
AcDbLine
 62
6
  6
CONTINUOUS
 10
6.9528653703
 20
3.448208266
 11
6.9734165514
 21
3.448208266
  0
LINE
  5
23C
100
AcDbEntity
  8
0
100
AcDbLine
 62
6
  6
CONTINUOUS
 10
5.7098653703
 20
3.4484366125
 11
5.5597595781
 21
3.4484366125
  0
LINE
  5
23D
100
AcDbEntity
  8
0
100
AcDbLine
 62
6
  6
CONTINUOUS
 10
6.1158653703
 20
3.4484366125
 11
6.9528653703
 21
3.4484366125
  0
LINE
  5
23E
100
AcDbEntity
  8
0
100
AcDbLine
 62
9
  6
CONTINUOUS
 10
5.7203653703
 20
3.5784366125
 11
6.1053653703
 21
3.5784366125
  0
LINE
  5
23F
100
AcDbEntity
  8
0
100
AcDbLine
 62
9
  6
CONTINUOUS
 10
5.7303675093
 20
3.5884366125
 11
6.0953632314
 21
3.5884366125
  0
LINE
  5
240
100
AcDbEntity
  8
0
100
AcDbLine
 62
6
  6
CONTINUOUS
 10
5.3144952916
 20
5.4482924082
 11
5.3144952916
 21
6.0945808168
  0
LINE
  5
241
100
AcDbEntity
  8
0
100
AcDbLine
 62
9
  6
CONTINUOUS
 10
5.3387177948
 20
5.411535496
 11
5.3387177948
 21
6.1313377289
  0
LINE
  5
242
100
AcDbEntity
  8
0
100
AcDbLine
 62
9
  6
CONTINUOUS
 10
5.3724558651
 20
3.3379563803
 11
5.3724558651
 21
1.9049168446
  0
LINE
  5
243
100
AcDbEntity
  8
0
100
AcDbLine
 62
9
  6
CONTINUOUS
 10
5.4247913078
 20
3.3758631062
 11
5.4247913078
 21
1.8670101188
  0
LINE
  5
244
100
AcDbEntity
  8
0
100
AcDbLine
 62
9
  6
CONTINUOUS
 10
5.4387214488
 20
1.8640250886
 11
5.4387214488
 21
3.3788481364
  0
LINE
  5
245
100
AcDbEntity
  8
0
100
AcDbLine
 62
9
  6
CONTINUOUS
 10
5.4730577542
 20
1.8427686371
 11
5.4730577542
 21
3.4001045879
  0
LINE
  5
246
100
AcDbEntity
  8
0
100
AcDbLine
 62
9
  6
CONTINUOUS
 10
5.4815794925
 20
1.832083792
 11
5.4815794925
 21
3.4107894329
  0
LINE
  5
247
100
AcDbEntity
  8
0
100
AcDbLine
 62
6
  6
CONTINUOUS
 10
7.1530583668
 20
3.9695898886
 11
7.2041054447
 21
3.9709266034
  0
LINE
  5
248
100
AcDbEntity
  8
0
100
AcDbLine
 62
9
  6
CONTINUOUS
 10
5.5597595781
 20
3.4484366125
 11
5.5597595781
 21
1.7944366125
  0
LINE
  5
249
100
AcDbEntity
  8
0
100
AcDbLine
 62
9
  6
CONTINUOUS
 10
5.6485827259
 20
6.377986218
 11
5.6485827259
 21
5.164887007
  0
LINE
  5
24A
100
AcDbEntity
  8
0
100
AcDbLine
 62
6
  6
CONTINUOUS
 10
5.7203653703
 20
3.4459413365
 11
5.7203653703
 21
3.5784366125
  0
LINE
  5
24B
100
AcDbEntity
  8
0
100
AcDbLine
 62
9
  6
CONTINUOUS
 10
5.7292867784
 20
6.4189366125
 11
5.7292867784
 21
5.1239366125
  0
LINE
  5
24C
100
AcDbEntity
  8
0
100
AcDbLine
 62
9
  6
CONTINUOUS
 10
5.9115819058
 20
5.0946745553
 11
5.9115819058
 21
6.4481986697
  0
LINE
  5
24D
100
AcDbEntity
  8
0
100
AcDbLine
 62
9
  6
CONTINUOUS
 10
6.0615819058
 20
4.9446666125
 11
6.0615819058
 21
6.5982066125
  0
LINE
  5
24E
100
AcDbEntity
  8
0
100
AcDbLine
 62
6
  6
CONTINUOUS
 10
5.4815794925
 20
3.4107894329
 11
5.4730577551
 21
3.400104589
  0
LINE
  5
24F
100
AcDbEntity
  8
0
100
AcDbLine
 62
6
  6
CONTINUOUS
 10
6.1053653703
 20
3.4459412989
 11
6.1053653703
 21
3.5784366125
  0
LINE
  5
250
100
AcDbEntity
  8
0
100
AcDbLine
 62
6
  6
CONTINUOUS
 10
4.7330776165
 20
2.9020288433
 11
4.7297561153
 21
2.8996801872
  0
LINE
  5
251
100
AcDbEntity
  8
0
100
AcDbLine
 62
9
  6
CONTINUOUS
 10
4.421247918
 20
4.562697268
 11
4.8617426652
 21
4.562697268
  0
LINE
  5
252
100
AcDbEntity
  8
0
100
AcDbLine
 62
9
  6
CONTINUOUS
 10
4.9542869536
 20
4.586127728
 11
4.3287036296
 21
4.586127728
  0
LINE
  5
253
100
AcDbEntity
  8
0
100
AcDbLine
 62
9
  6
CONTINUOUS
 10
5.0014952916
 20
4.6360497334
 11
4.2814952916
 21
4.6360497334
  0
LINE
  5
254
100
AcDbEntity
  8
0
100
AcDbLine
 62
9
  6
CONTINUOUS
 10
5.0014952916
 20
4.6510187098
 11
4.2814952916
 21
4.6510187098
  0
LINE
  5
255
100
AcDbEntity
  8
0
100
AcDbLine
 62
9
  6
CONTINUOUS
 10
4.9715822116
 20
4.6968064335
 11
4.3114083716
 21
4.6968064335
  0
LINE
  5
256
100
AcDbEntity
  8
0
100
AcDbLine
 62
9
  6
CONTINUOUS
 10
4.3351157599
 20
4.7292180473
 11
4.9478748233
 21
4.7292180473
  0
LINE
  5
257
100
AcDbEntity
  8
0
100
AcDbLine
 62
6
  6
CONTINUOUS
 10
7.2235819058
 20
4.9446666125
 11
6.0615819058
 21
4.9446666125
  0
LINE
  5
258
100
AcDbEntity
  8
0
100
AcDbLine
 62
6
  6
CONTINUOUS
 10
4.7918653703
 20
2.9037969785
 11
4.7528028703
 21
2.8925206061
  0
LINE
  5
259
100
AcDbEntity
  8
0
100
AcDbLine
 62
6
  6
CONTINUOUS
 10
4.7918653703
 20
2.8586914887
 11
4.8309278703
 21
2.8699678612
  0
LINE
  5
25A
100
AcDbEntity
  8
0
100
AcDbLine
 62
6
  6
CONTINUOUS
 10
5.7292867784
 20
5.1239366125
 11
5.9115819058
 21
5.1239366125
  0
LINE
  5
25B
100
AcDbEntity
  8
0
100
AcDbLine
 62
9
  6
CONTINUOUS
 10
4.8591548941
 20
5.2330754696
 11
4.4238356891
 21
5.2330754696
  0
LINE
  5
25C
100
AcDbEntity
  8
0
100
AcDbLine
 62
6
  6
CONTINUOUS
 10
4.8214952916
 20
5.2634366125
 11
4.4614952916
 21
5.2634366125
  0
LINE
  5
25D
100
AcDbEntity
  8
0
100
AcDbLine
 62
6
  6
CONTINUOUS
 10
4.3294952916
 20
5.2814366125
 11
4.4489952916
 21
5.2814366125
  0
LINE
  5
25E
100
AcDbEntity
  8
0
100
AcDbLine
 62
6
  6
CONTINUOUS
 10
4.8339952916
 20
5.2814366125
 11
4.9544952916
 21
5.2814366125
  0
LINE
  5
25F
100
AcDbEntity
  8
0
100
AcDbLine
 62
6
  6
CONTINUOUS
 10
6.9528653703
 20
3.4484366125
 11
6.9528653703
 21
1.7944366125
  0
LINE
  5
260
100
AcDbEntity
  8
0
100
AcDbLine
 62
9
  6
CONTINUOUS
 10
7.1335819058
 20
1.2932764829
 11
7.1335819058
 21
3.9495967421
  0
LINE
  5
261
100
AcDbEntity
  8
0
100
AcDbLine
 62
6
  6
CONTINUOUS
 10
4.9544952916
 20
5.4589366125
 11
5.2644952916
 21
5.4589366125
  0
LINE
  5
262
100
AcDbEntity
  8
0
100
AcDbLine
 62
6
  6
CONTINUOUS
 10
5.1642082496
 20
6.0546455809
 11
5.1691684828
 21
6.0514027445
  0
LINE
  5
263
100
AcDbEntity
  8
0
100
AcDbLine
 62
6
  6
CONTINUOUS
 10
5.1691684828
 20
6.0514027445
 11
5.1750453995
 21
6.0472471369
  0
LINE
  5
264
100
AcDbEntity
  8
0
100
AcDbLine
 62
9
  6
CONTINUOUS
 10
7.1530583668
 20
1.2732833363
 11
7.1530583668
 21
3.9695898886
  0
LINE
  5
265
100
AcDbEntity
  8
0
100
AcDbLine
 62
9
  6
CONTINUOUS
 10
7.2041054447
 20
1.2719466216
 11
7.2041054447
 21
3.9709266034
  0
LINE
  5
266
100
AcDbEntity
  8
0
100
AcDbLine
 62
9
  6
CONTINUOUS
 10
7.2235819058
 20
0.9642366547
 11
7.2235819058
 21
7.4302365703
  0
LINE
  5
267
100
AcDbEntity
  8
0
100
AcDbLine
 62
9
  6
CONTINUOUS
 10
7.2389287616
 20
0.9171200448
 11
7.2389287616
 21
7.4773531802
  0
LINE
  5
268
100
AcDbEntity
  8
0
100
AcDbLine
 62
9
  6
CONTINUOUS
 10
7.3173405263
 20
0.722945535
 11
7.3173405263
 21
7.67152769
  0
LINE
  5
269
100
AcDbEntity
  8
0
100
AcDbLine
 62
9
  6
CONTINUOUS
 10
7.3965819058
 20
0.6539366125
 11
7.3965819058
 21
7.7405366125
  0
LINE
  5
26A
100
AcDbEntity
  8
0
100
AcDbLine
 62
6
  6
CONTINUOUS
 10
5.2644952916
 20
5.5864366125
 11
5.3144952916
 21
5.5864366125
  0
LINE
  5
26B
100
AcDbEntity
  8
0
100
AcDbLine
 62
6
  6
CONTINUOUS
 10
5.0704327916
 20
6.0199678612
 11
5.1094952916
 21
6.0086914887
  0
LINE
  5
26C
100
AcDbEntity
  8
0
100
AcDbLine
 62
6
  6
CONTINUOUS
 10
5.1485577916
 20
6.0425206061
 11
5.1094952916
 21
6.0537969785
  0
LINE
  5
26D
100
AcDbEntity
  8
0
100
AcDbLine
 62
6
  6
CONTINUOUS
 10
7.4715819058
 20
0.6590344009
 11
7.4715819058
 21
0.6539367915
  0
LINE
  5
26E
100
AcDbEntity
  8
0
100
AcDbLine
 62
6
  6
CONTINUOUS
 10
7.5715819058
 20
0.6590344009
 11
7.5715819058
 21
7.7405366125
  0
LINE
  5
26F
100
AcDbEntity
  8
0
100
AcDbLine
 62
6
  6
CONTINUOUS
 10
7.6365819058
 20
7.3532366125
 11
7.6365819058
 21
7.6032366125
  0
LINE
  5
270
100
AcDbEntity
  8
0
100
AcDbLine
 62
6
  6
CONTINUOUS
 10
5.2644952916
 20
5.9564366125
 11
5.3144952916
 21
5.9564366125
  0
LINE
  5
271
100
AcDbEntity
  8
0
100
AcDbLine
 62
6
  6
CONTINUOUS
 10
4.9544952916
 20
6.0839366125
 11
5.2644952916
 21
6.0839366125
  0
LINE
  5
272
100
AcDbEntity
  8
0
100
AcDbLine
 62
6
  6
CONTINUOUS
 10
4.3294952916
 20
6.2614366125
 11
4.9544952916
 21
6.2614366125
  0
LINE
  5
273
100
AcDbEntity
  8
0
100
AcDbLine
 62
6
  6
CONTINUOUS
 10
5.7292867784
 20
6.4189366125
 11
5.9115819058
 21
6.4189366125
  0
LINE
  5
274
100
AcDbEntity
  8
0
100
AcDbLine
 62
6
  6
CONTINUOUS
 10
7.2235819058
 20
6.5982066125
 11
6.0615819058
 21
6.5982066125
  0
LINE
  5
275
100
AcDbEntity
  8
0
100
AcDbLine
 62
6
  6
CONTINUOUS
 10
7.6365819058
 20
7.3532366125
 11
7.5715819058
 21
7.3532366125
  0
LINE
  5
276
100
AcDbEntity
  8
0
100
AcDbLine
 62
6
  6
CONTINUOUS
 10
7.6365819058
 20
7.6032366125
 11
7.5715819058
 21
7.6032366125
  0
LINE
  5
277
100
AcDbEntity
  8
0
100
AcDbLine
 62
6
  6
CONTINUOUS
 10
7.3965819058
 20
7.7405366125
 11
7.5715819058
 21
7.7405366125
  0
ARC
  5
278
100
AcDbEntity
  8
0
100
AcDbCircle
 62
6
  6
CONTINUOUS
 10
0.9210467095
 20
1.1858368474
 40
3.73
100
AcDbArc
 50
6.0539076486
 51
13.9188002726
  0
ARC
  5
279
100
AcDbEntity
  8
0
100
AcDbCircle
 62
6
  6
CONTINUOUS
 10
4.3238653703
 20
1.8804366125
 40
0.517
100
AcDbArc
 50
244.7853651812
 51
295.2146348188
  0
ARC
  5
27A
100
AcDbEntity
  8
0
100
AcDbCircle
 62
6
  6
CONTINUOUS
 10
3.9971153983
 20
1.186517701
 40
0.25
100
AcDbArc
 50
64.7853651812
 51
86.7993265714
  0
ARC
  5
27B
100
AcDbEntity
  8
0
100
AcDbCircle
 62
6
  6
CONTINUOUS
 10
4.0138653703
 20
1.5010187098
 40
0.05
100
AcDbArc
 50
113.6868993629
 51
180.0
  0
ARC
  5
27C
100
AcDbEntity
  8
0
100
AcDbCircle
 62
6
  6
CONTINUOUS
 10
4.0138653703
 20
1.4860497334
 40
0.05
100
AcDbArc
 50
180.0
 51
266.7993265714
  0
ARC
  5
27D
100
AcDbEntity
  8
0
100
AcDbCircle
 62
6
  6
CONTINUOUS
 10
3.9777089143
 20
1.5834366125
 40
0.04
100
AcDbArc
 50
293.6868993629
 51
353.9460923514
  0
ARC
  5
27E
100
AcDbEntity
  8
0
100
AcDbCircle
 62
6
  6
CONTINUOUS
 10
4.145031272
 20
2.0734536077
 40
0.04
100
AcDbArc
 50
91.6702677152
 51
166.0811997563
  0
ARC
  5
27F
100
AcDbEntity
  8
0
100
AcDbCircle
 62
6
  6
CONTINUOUS
 10
1.2386766308
 20
4.3358368474
 40
3.73
100
AcDbArc
 50
6.0539076486
 51
13.9188002726
  0
ARC
  5
280
100
AcDbEntity
  8
0
100
AcDbCircle
 62
6
  6
CONTINUOUS
 10
4.3147453195
 20
4.336517701
 40
0.25
100
AcDbArc
 50
64.7853651812
 51
86.7993265714
  0
ARC
  5
281
100
AcDbEntity
  8
0
100
AcDbCircle
 62
6
  6
CONTINUOUS
 10
4.3314952916
 20
4.6510187098
 40
0.05
100
AcDbArc
 50
113.6868993629
 51
180.0
  0
ARC
  5
282
100
AcDbEntity
  8
0
100
AcDbCircle
 62
6
  6
CONTINUOUS
 10
4.3314952916
 20
4.6360497334
 40
0.05
100
AcDbArc
 50
180.0
 51
266.7993265714
  0
ARC
  5
283
100
AcDbEntity
  8
0
100
AcDbCircle
 62
6
  6
CONTINUOUS
 10
4.2953388356
 20
4.7334366125
 40
0.04
100
AcDbArc
 50
293.6868993629
 51
353.9460923514
  0
ARC
  5
284
100
AcDbEntity
  8
0
100
AcDbCircle
 62
6
  6
CONTINUOUS
 10
4.4626611933
 20
5.2234536077
 40
0.04
100
AcDbArc
 50
91.6702677152
 51
166.0811997563
  0
ARC
  5
285
100
AcDbEntity
  8
0
100
AcDbCircle
 62
6
  6
CONTINUOUS
 10
7.7266840312
 20
1.1858368474
 40
3.73
100
AcDbArc
 50
166.0811997274
 51
173.9460923514
  0
ARC
  5
286
100
AcDbEntity
  8
0
100
AcDbCircle
 62
6
  6
CONTINUOUS
 10
5.4295747905
 20
2.6214366125
 40
1.5
100
AcDbArc
 50
160.9334198993
 51
199.0665801007
  0
ARC
  5
287
100
AcDbEntity
  8
0
100
AcDbCircle
 62
6
  6
CONTINUOUS
 10
4.723800553
 20
1.5264366125
 40
0.751
100
AcDbArc
 50
30.2628930981
 51
65.8818266345
  0
ARC
  5
288
100
AcDbEntity
  8
0
100
AcDbCircle
 62
6
  6
CONTINUOUS
 10
4.723800553
 20
3.7164366125
 40
0.751
100
AcDbArc
 50
294.1181733655
 51
329.7371069019
  0
ARC
  5
289
100
AcDbEntity
  8
0
100
AcDbCircle
 62
6
  6
CONTINUOUS
 10
6.8914181119
 20
0.6638684934
 40
0.43
100
AcDbArc
 50
7.8967562426
 51
36.083035471
  0
ARC
  5
28A
100
AcDbEntity
  8
0
100
AcDbCircle
 62
6
  6
CONTINUOUS
 10
4.6506153424
 20
1.186517701
 40
0.25
100
AcDbArc
 50
93.2006734286
 51
115.2146348188
  0
ARC
  5
28B
100
AcDbEntity
  8
0
100
AcDbCircle
 62
6
  6
CONTINUOUS
 10
4.7833219035
 20
2.9788131579
 40
0.1299930277
100
AcDbArc
 50
266.2949220583
 51
271.0729221409
  0
ARC
  5
28C
100
AcDbEntity
  8
0
100
AcDbCircle
 62
6
  6
CONTINUOUS
 10
5.5597595781
 20
1.8944366125
 40
0.1
100
AcDbArc
 50
218.574242923
 51
270.0
  0
ARC
  5
28D
100
AcDbEntity
  8
0
100
AcDbCircle
 62
6
  6
CONTINUOUS
 10
5.5597595781
 20
3.3484366125
 40
0.1
100
AcDbArc
 50
90.0
 51
141.425757077
  0
ARC
  5
28E
100
AcDbEntity
  8
0
100
AcDbCircle
 62
6
  6
CONTINUOUS
 10
4.8100447045
 20
2.9412049862
 40
0.0967982878
100
AcDbArc
 50
300.0955938973
 51
305.1934663632
  0
ARC
  5
28F
100
AcDbEntity
  8
0
100
AcDbCircle
 62
6
  6
CONTINUOUS
 10
7.3965819058
 20
0.7339366125
 40
0.08
100
AcDbArc
 50
187.8967562426
 51
270.0
  0
ARC
  5
290
100
AcDbEntity
  8
0
100
AcDbCircle
 62
6
  6
CONTINUOUS
 10
7.3035819058
 20
0.9642366125
 40
0.08
100
AcDbArc
 50
180.0
 51
216.083035471
  0
ARC
  5
291
100
AcDbEntity
  8
0
100
AcDbCircle
 62
6
  6
CONTINUOUS
 10
5.4415536353
 20
3.2976389131
 40
0.08
100
AcDbArc
 50
102.094757077
 51
149.7371069019
  0
ARC
  5
292
100
AcDbEntity
  8
0
100
AcDbCircle
 62
6
  6
CONTINUOUS
 10
5.4415536353
 20
1.9452343118
 40
0.08
100
AcDbArc
 50
210.2628930981
 51
257.905242923
  0
ARC
  5
293
100
AcDbEntity
  8
0
100
AcDbCircle
 62
6
  6
CONTINUOUS
 10
5.0718480678
 20
2.9714366125
 40
0.0749826974
100
AcDbArc
 50
146.128659452
 51
180.0
  0
ARC
  5
294
100
AcDbEntity
  8
0
100
AcDbCircle
 62
6
  6
CONTINUOUS
 10
5.0718480678
 20
2.2714366125
 40
0.0749826974
100
AcDbArc
 50
180.0
 51
213.871340548
  0
ARC
  5
295
100
AcDbEntity
  8
0
100
AcDbCircle
 62
6
  6
CONTINUOUS
 10
5.4261497038
 20
3.4375162813
 40
0.06
100
AcDbArc
 50
282.094757077
 51
321.425757077
  0
ARC
  5
296
100
AcDbEntity
  8
0
100
AcDbCircle
 62
6
  6
CONTINUOUS
 10
5.4261497038
 20
1.8053569437
 40
0.06
100
AcDbArc
 50
38.574242923
 51
77.905242923
  0
ARC
  5
297
100
AcDbEntity
  8
0
100
AcDbCircle
 62
6
  6
CONTINUOUS
 10
5.0511051548
 20
2.9853602159
 40
0.05
100
AcDbArc
 50
114.1181733657
 51
146.1286594522
  0
ARC
  5
298
100
AcDbEntity
  8
0
100
AcDbCircle
 62
6
  6
CONTINUOUS
 10
4.6338653703
 20
1.5010187098
 40
0.05
100
AcDbArc
 50
0.0
 51
66.3131006371
  0
ARC
  5
299
100
AcDbEntity
  8
0
100
AcDbCircle
 62
6
  6
CONTINUOUS
 10
4.6338653703
 20
1.4860497334
 40
0.05
100
AcDbArc
 50
273.2006734286
 51
360.0
  0
ARC
  5
29A
100
AcDbEntity
  8
0
100
AcDbCircle
 62
6
  6
CONTINUOUS
 10
5.0511051548
 20
2.2575130091
 40
0.05
100
AcDbArc
 50
213.871340548
 51
245.8818266345
  0
ARC
  5
29B
100
AcDbEntity
  8
0
100
AcDbCircle
 62
6
  6
CONTINUOUS
 10
4.6700218264
 20
1.5834366125
 40
0.04
100
AcDbArc
 50
186.0539076486
 51
246.3131006371
  0
ARC
  5
29C
100
AcDbEntity
  8
0
100
AcDbCircle
 62
6
  6
CONTINUOUS
 10
4.5026994687
 20
2.0734536077
 40
0.04
100
AcDbArc
 50
13.918800243
 51
88.3297322846
  0
ARC
  5
29D
100
AcDbEntity
  8
0
100
AcDbCircle
 62
6
  6
CONTINUOUS
 10
7.2035819058
 20
1.2519534751
 40
0.02
100
AcDbArc
 50
0.2433696539
 51
88.5
  0
ARC
  5
29E
100
AcDbEntity
  8
0
100
AcDbCircle
 62
6
  6
CONTINUOUS
 10
7.2035819058
 20
3.9909197499
 40
0.02
100
AcDbArc
 50
271.5
 51
359.7566303461
  0
ARC
  5
29F
100
AcDbEntity
  8
0
100
AcDbCircle
 62
6
  6
CONTINUOUS
 10
7.1535819058
 20
3.9495967421
 40
0.02
100
AcDbArc
 50
91.5
 51
180.0
  0
ARC
  5
2A0
100
AcDbEntity
  8
0
100
AcDbCircle
 62
6
  6
CONTINUOUS
 10
7.1535819058
 20
1.2932764828
 40
0.02
100
AcDbArc
 50
180.0
 51
268.5
  0
ARC
  5
2A1
100
AcDbEntity
  8
0
100
AcDbCircle
 62
6
  6
CONTINUOUS
 10
5.7303653703
 20
3.5784366125
 40
0.01
100
AcDbArc
 50
90.0
 51
180.0
  0
ARC
  5
2A2
100
AcDbEntity
  8
0
100
AcDbCircle
 62
6
  6
CONTINUOUS
 10
6.0953653703
 20
3.5784366125
 40
0.01
100
AcDbArc
 50
0.0
 51
90.0
  0
ARC
  5
2A3
100
AcDbEntity
  8
0
100
AcDbCircle
 62
6
  6
CONTINUOUS
 10
8.0443139524
 20
4.3358368474
 40
3.73
100
AcDbArc
 50
166.0811997274
 51
173.9460923514
  0
ARC
  5
2A4
100
AcDbEntity
  8
0
100
AcDbCircle
 62
6
  6
CONTINUOUS
 10
5.7472047118
 20
5.7714366125
 40
1.5
100
AcDbArc
 50
160.9334198993
 51
199.0665801007
  0
ARC
  5
2A5
100
AcDbEntity
  8
0
100
AcDbCircle
 62
6
  6
CONTINUOUS
 10
5.0424952916
 20
4.7214244697
 40
0.751
100
AcDbArc
 50
36.1922176694
 51
66.7691079294
  0
ARC
  5
2A6
100
AcDbEntity
  8
0
100
AcDbCircle
 62
6
  6
CONTINUOUS
 10
5.0424952916
 20
6.8214487552
 40
0.751
100
AcDbArc
 50
293.2308920706
 51
323.8077823306
  0
ARC
  5
2A7
100
AcDbEntity
  8
0
100
AcDbCircle
 62
6
  6
CONTINUOUS
 10
4.6414952916
 20
5.0304366125
 40
0.517
100
AcDbArc
 50
244.7853651812
 51
295.2146348188
  0
ARC
  5
2A8
100
AcDbEntity
  8
0
100
AcDbCircle
 62
6
  6
CONTINUOUS
 10
6.8914181119
 20
7.7306047316
 40
0.43
100
AcDbArc
 50
323.916964529
 51
352.1032437574
  0
ARC
  5
2A9
100
AcDbEntity
  8
0
100
AcDbCircle
 62
6
  6
CONTINUOUS
 10
4.9682452637
 20
4.336517701
 40
0.25
100
AcDbArc
 50
93.2006734286
 51
115.2146348188
  0
ARC
  5
2AA
100
AcDbEntity
  8
0
100
AcDbCircle
 62
6
  6
CONTINUOUS
 10
5.1009518248
 20
6.1288131579
 40
0.1299930277
100
AcDbArc
 50
266.2949220583
 51
271.0729221409
  0
ARC
  5
2AB
100
AcDbEntity
  8
0
100
AcDbCircle
 62
6
  6
CONTINUOUS
 10
5.7292867784
 20
6.3189366125
 40
0.1
100
AcDbArc
 50
90.0
 51
143.8077823307
  0
ARC
  5
2AC
100
AcDbEntity
  8
0
100
AcDbCircle
 62
6
  6
CONTINUOUS
 10
5.7292867784
 20
5.2239366125
 40
0.1
100
AcDbArc
 50
216.1922176694
 51
270.0
  0
ARC
  5
2AD
100
AcDbEntity
  8
0
100
AcDbCircle
 62
6
  6
CONTINUOUS
 10
5.1276746258
 20
6.0912049862
 40
0.0967982878
100
AcDbArc
 50
300.0955938973
 51
305.1934663632
  0
ARC
  5
2AE
100
AcDbEntity
  8
0
100
AcDbCircle
 62
6
  6
CONTINUOUS
 10
7.3965819058
 20
7.6605366125
 40
0.08
100
AcDbArc
 50
90.0
 51
172.1032437574
  0
ARC
  5
2AF
100
AcDbEntity
  8
0
100
AcDbCircle
 62
6
  6
CONTINUOUS
 10
7.3035819058
 20
7.4302366125
 40
0.08
100
AcDbArc
 50
143.916964529
 51
180.0
  0
ARC
  5
2B0
100
AcDbEntity
  8
0
100
AcDbCircle
 62
6
  6
CONTINUOUS
 10
4.9514952916
 20
4.6510187098
 40
0.05
100
AcDbArc
 50
0.0
 51
66.3131006371
  0
ARC
  5
2B1
100
AcDbEntity
  8
0
100
AcDbCircle
 62
6
  6
CONTINUOUS
 10
4.9514952916
 20
4.6360497334
 40
0.05
100
AcDbArc
 50
273.2006734286
 51
360.0
  0
ARC
  5
2B2
100
AcDbEntity
  8
0
100
AcDbCircle
 62
6
  6
CONTINUOUS
 10
5.3544952916
 20
5.4482924082
 40
0.04
100
AcDbArc
 50
180.0
 51
246.7691079294
  0
ARC
  5
2B3
100
AcDbEntity
  8
0
100
AcDbCircle
 62
6
  6
CONTINUOUS
 10
5.3544952916
 20
6.0945808168
 40
0.04
100
AcDbArc
 50
113.2308920706
 51
180.0
  0
ARC
  5
2B4
100
AcDbEntity
  8
0
100
AcDbCircle
 62
6
  6
CONTINUOUS
 10
4.9876517477
 20
4.7334366125
 40
0.04
100
AcDbArc
 50
186.0539076486
 51
246.3131006371
  0
ARC
  5
2B5
100
AcDbEntity
  8
0
100
AcDbCircle
 62
6
  6
CONTINUOUS
 10
4.8203293899
 20
5.2234536077
 40
0.04
100
AcDbArc
 50
13.918800243
 51
88.3297322846
  0
SPLINE
  5
2B6
100
AcDbEntity
  8
0
100
AcDbSpline
 62
6
  6
CONTINUOUS
 70
0
 71
3
 72
39
 73
35
 74
0
 42
0.0000001
 43
0.0000001
 44
0.0000000001
 40
0.0
 40
0.0
 40
0.0
 40
0.0
 40
0.0970842666
 40
0.1934341411
 40
0.288009816
 40
0.3798798314
 40
0.4682160154
 40
0.5522015221
 40
0.6310477682
 40
0.7039737672
 40
0.7702470855
 40
0.8292048328
 40
0.855734834
 40
0.8801918457
 40
0.9025168576
 40
0.9226608032
 40
0.940574673
 40
0.9562094516
 40
0.9695161177
 40
0.9752810881
 40
0.9804464779
 40
0.9850102055
 40
0.9889709641
 40
0.9923274472
 40
0.9950783483
 40
0.9962262972
 40
0.9972223607
 40
0.9980663753
 40
0.9987581778
 40
0.9992976048
 40
0.999684493
 40
0.999820684
 40
0.9999186791
 40
1.0
 40
1.0
 40
1.0
 40
1.0
 10
7.0034010278
 20
3.44768082
 30
0.0
 10
7.0024305379
 20
3.44768082
 30
0.0
 10
7.000496898
 20
3.4476842036
 30
0.0
 10
6.9976178789
 20
3.4476988903
 30
0.0
 10
6.9947910467
 20
3.4477227997
 30
0.0
 10
6.9920444115
 20
3.4477550749
 30
0.0
 10
6.9894037428
 20
3.4477943811
 30
0.0
 10
6.986893378
 20
3.447839503
 30
0.0
 10
6.9845371651
 20
3.4478885644
 30
0.0
 10
6.9823580999
 20
3.4479397256
 30
0.0
 10
6.980377914
 20
3.4479911001
 30
0.0
 10
6.9788614541
 20
3.4480337771
 30
0.0
 10
6.9777628882
 20
3.4480663322
 30
0.0
 10
6.9770303751
 20
3.4480886786
 30
0.0
 10
6.9763616866
 20
3.4481096264
 30
0.0
 10
6.9757583884
 20
3.448128992
 30
0.0
 10
6.9752219462
 20
3.4481465935
 30
0.0
 10
6.9747538251
 20
3.448162249
 30
0.0
 10
6.974407087
 20
3.4481740264
 30
0.0
 10
6.9741649467
 20
3.4481823167
 30
0.0
 10
6.9740101534
 20
3.4481876319
 30
0.0
 10
6.9738733854
 20
3.4481923419
 30
0.0
 10
6.9737546897
 20
3.448196442
 30
0.0
 10
6.9736541052
 20
3.4481999275
 30
0.0
 10
6.9735816221
 20
3.4482024478
 30
0.0
 10
6.9735327205
 20
3.4482041533
 30
0.0
 10
6.9735028693
 20
3.4482051969
 30
0.0
 10
6.9734775752
 20
3.4482060825
 30
0.0
 10
6.9734568432
 20
3.4482068133
 30
0.0
 10
6.9734406776
 20
3.448207378
 30
0.0
 10
6.9734300638
 20
3.4482077663
 30
0.0
 10
6.9734238583
 20
3.4482079723
 30
0.0
 10
6.9734207082
 20
3.4482081148
 30
0.0
 10
6.9734189133
 20
3.4482081237
 30
0.0
 10
6.9734181034
 20
3.4482081934
 30
0.0
  0
SPLINE
  5
2B7
100
AcDbEntity
  8
0
100
AcDbSpline
 62
6
  6
CONTINUOUS
 70
0
 71
3
 72
65
 73
61
 74
0
 42
0.0000001
 43
0.0000001
 44
0.0000000001
 40
0.0
 40
0.0
 40
0.0
 40
0.0
 40
0.0006201561
 40
0.0024751303
 40
0.0055566881
 40
0.0098566044
 40
0.0153638497
 40
0.0220574245
 40
0.0299141696
 40
0.0389109983
 40
0.0490231184
 40
0.0602186057
 40
0.072463859
 40
0.0857254576
 40
0.0999691905
 40
0.1151566006
 40
0.1482047172
 40
0.1845504101
 40
0.2238490149
 40
0.2444962496
 40
0.2657452224
 40
0.2875466619
 40
0.3098517297
 40
0.3326108216
 40
0.355769696
 40
0.379273133
 40
0.4030662514
 40
0.4270938574
 40
0.4512978427
 40
0.47561929
 40
0.4999994102
 40
0.5243795789
 40
0.548701142
 40
0.5729052677
 40
0.5969329974
 40
0.6207262134
 40
0.6442297297
 40
0.6673886586
 40
0.690147774
 40
0.7124528523
 40
0.734254299
 40
0.7555032586
 40
0.7761504438
 40
0.8154489143
 40
0.8517945425
 40
0.8848428058
 40
0.9000303454
 40
0.9142741901
 40
0.9275358765
 40
0.9397812062
 40
0.9509767534
 40
0.9610889111
 40
0.9700857653
 40
0.9779425349
 40
0.9846361297
 40
0.9901433874
 40
0.9944433088
 40
0.9975248691
 40
0.9993798439
 40
1.0
 40
1.0
 40
1.0
 40
1.0
 10
6.1158653703
 20
3.4484366125
 30
0.0
 10
6.115783061
 20
3.4484162802
 30
0.0
 10
6.1154545148
 20
3.448335286
 30
0.0
 10
6.1147166382
 20
3.4481546214
 30
0.0
 10
6.1134897095
 20
3.4478560153
 30
0.0
 10
6.111776985
 20
3.4474419904
 30
0.0
 10
6.1095833983
 20
3.4469155753
 30
0.0
 10
6.1069152021
 20
3.4462830957
 30
0.0
 10
6.103780357
 20
3.4455509443
 30
0.0
 10
6.1001873156
 20
3.4447258073
 30
0.0
 10
6.0961457221
 20
3.4438146741
 30
0.0
 10
6.0916661845
 20
3.442826991
 30
0.0
 10
6.0867605461
 20
3.4417724057
 30
0.0
 10
6.0814410184
 20
3.4406606939
 30
0.0
 10
6.0757205387
 20
3.4395017627
 30
0.0
 10
6.0673376977
 20
3.4378616419
 30
0.0
 10
6.0559651367
 20
3.4357670465
 30
0.0
 10
6.0413089686
 20
3.4333121101
 30
0.0
 10
6.0282878512
 20
3.431369918
 30
0.0
 10
6.0172861041
 20
3.4298922243
 30
0.0
 10
6.0086438205
 20
3.4288206981
 30
0.0
 10
5.9997655456
 20
3.4278144874
 30
0.0
 10
5.9906714345
 20
3.426884035
 30
0.0
 10
5.9813825384
 20
3.4260398415
 30
0.0
 10
5.9719212556
 20
3.4252891298
 30
0.0
 10
5.9623108082
 20
3.4246392457
 30
0.0
 10
5.9525746878
 20
3.4240975127
 30
0.0
 10
5.9427369487
 20
3.4236714017
 30
0.0
 10
5.9328225323
 20
3.4233636497
 30
0.0
 10
5.9228568929
 20
3.4231768758
 30
0.0
 10
5.9128656057
 20
3.4231137482
 30
0.0
 10
5.9028743029
 20
3.4231768909
 30
0.0
 10
5.8929086217
 20
3.4233636499
 30
0.0
 10
5.8829941527
 20
3.4236713838
 30
0.0
 10
5.873156364
 20
3.4240974962
 30
0.0
 10
5.8634202029
 20
3.4246392354
 30
0.0
 10
5.8538097234
 20
3.4252891134
 30
0.0
 10
5.8443484184
 20
3.4260398183
 30
0.0
 10
5.8350595104
 20
3.4268840137
 30
0.0
 10
5.8259653939
 20
3.4278144696
 30
0.0
 10
5.8170871179
 20
3.4288206755
 30
0.0
 10
5.8084448411
 20
3.4298921949
 30
0.0
 10
5.7974431206
 20
3.4313698842
 30
0.0
 10
5.7844220366
 20
3.4333120696
 30
0.0
 10
5.769765874
 20
3.4357669956
 30
0.0
 10
5.7583932849
 20
3.4378615981
 30
0.0
 10
5.7500103915
 20
3.4395017273
 30
0.0
 10
5.7442898667
 20
3.4406606629
 30
0.0
 10
5.7389703015
 20
3.4417723795
 30
0.0
 10
5.7340646334
 20
3.4428269722
 30
0.0
 10
5.729585073
 20
3.4438146623
 30
0.0
 10
5.7255434629
 20
3.4447257986
 30
0.0
 10
5.7219504095
 20
3.4455509367
 30
0.0
 10
5.7188155551
 20
3.4462830907
 30
0.0
 10
5.7161473516
 20
3.4469155728
 30
0.0
 10
5.71395376
 20
3.4474419894
 30
0.0
 10
5.7122410327
 20
3.4478560147
 30
0.0
 10
5.7110141029
 20
3.4481546212
 30
0.0
 10
5.710276226
 20
3.4483352859
 30
0.0
 10
5.7099476797
 20
3.4484162802
 30
0.0
 10
5.7098653703
 20
3.4484366125
 30
0.0
  0
SPLINE
  5
2B8
100
AcDbEntity
  8
0
100
AcDbSpline
 62
7
  6
CONTINUOUS
 70
0
 71
3
 72
39
 73
35
 74
0
 42
0.0000001
 43
0.0000001
 44
0.0000000001
 40
0.0
 40
0.0
 40
0.0
 40
0.0
 40
0.0102306021
 40
0.0401840907
 40
0.0879201932
 40
0.1508841349
 40
0.187236501
 40
0.2263872731
 40
0.2679992338
 40
0.3117250236
 40
0.3342678468
 40
0.3571994911
 40
0.3804696147
 40
0.4040258561
 40
0.427813869
 40
0.4517775008
 40
0.4758591172
 40
0.4999999999
 40
0.5241408827
 40
0.5482224991
 40
0.5721861308
 40
0.5959741438
 40
0.6195303852
 40
0.6428005088
 40
0.6657321531
 40
0.6882749762
 40
0.7320007661
 40
0.7736127268
 40
0.8127634989
 40
0.8491158649
 40
0.9120798067
 40
0.9598159092
 40
0.9897693979
 40
1.0
 40
1.0
 40
1.0
 40
1.0
 10
4.4489952916
 20
5.2814366125
 30
0.0
 10
4.4502500636
 20
5.2819295604
 30
0.0
 10
4.4551840712
 20
5.2838519163
 30
0.0
 10
4.4660263797
 20
5.2879366078
 30
0.0
 10
4.4835169853
 20
5.2940763048
 30
0.0
 10
4.5020184293
 20
5.2998585179
 30
0.0
 10
4.5196101987
 20
5.3047086499
 30
0.0
 10
4.5345951738
 20
5.3084084762
 30
0.0
 10
4.5506352982
 20
5.3118590139
 30
0.0
 10
4.5646281942
 20
5.3143851003
 30
0.0
 10
4.5762480191
 20
5.3161618462
 30
0.0
 10
4.5852273963
 20
5.3173629746
 30
0.0
 10
4.5943610349
 20
5.3184052167
 30
0.0
 10
4.6036259909
 20
5.3192761878
 30
0.0
 10
4.6129979149
 20
5.3199652534
 30
0.0
 10
4.6224512558
 20
5.3204638138
 30
0.0
 10
4.631959465
 20
5.3207655382
 30
0.0
 10
4.6414952916
 20
5.3208665485
 30
0.0
 10
4.6510311182
 20
5.3207655382
 30
0.0
 10
4.6605393274
 20
5.3204638138
 30
0.0
 10
4.6699926683
 20
5.3199652534
 30
0.0
 10
4.6793645923
 20
5.3192761878
 30
0.0
 10
4.6886295483
 20
5.3184052167
 30
0.0
 10
4.6977631869
 20
5.3173629746
 30
0.0
 10
4.7067425641
 20
5.3161618462
 30
0.0
 10
4.7183623889
 20
5.3143851003
 30
0.0
 10
4.732355285
 20
5.3118590139
 30
0.0
 10
4.7483954093
 20
5.3084084762
 30
0.0
 10
4.7633803844
 20
5.3047086499
 30
0.0
 10
4.7809721539
 20
5.2998585179
 30
0.0
 10
4.7994735979
 20
5.2940763048
 30
0.0
 10
4.8169642035
 20
5.2879366079
 30
0.0
 10
4.827806512
 20
5.2838519163
 30
0.0
 10
4.8327405197
 20
5.2819295604
 30
0.0
 10
4.8339952916
 20
5.2814366125
 30
0.0
  0
SPLINE
  5
2B9
100
AcDbEntity
  8
0
100
AcDbSpline
 62
6
  6
CONTINUOUS
 70
0
 71
3
 72
18
 73
14
 74
0
 42
0.0000001
 43
0.0000001
 44
0.0000000001
 40
0.0
 40
0.0
 40
0.0
 40
0.0
 40
0.1305594938
 40
0.260614005
 40
0.3896550766
 40
0.5171528516
 40
0.642551404
 40
0.7042877969
 40
0.7652727914
 40
0.8254243336
 40
0.8846564479
 40
0.9428794254
 40
1.0
 40
1.0
 40
1.0
 40
1.0
 10
5.1094952916
 20
5.9903997539
 30
0.0
 10
5.1125256006
 20
5.9903997539
 30
0.0
 10
5.1185762412
 20
5.9905903903
 30
0.0
 10
5.1275854935
 20
5.9914446543
 30
0.0
 10
5.136453101
 20
5.9928547314
 30
0.0
 10
5.1451076814
 20
5.9948006959
 30
0.0
 10
5.1521206003
 20
5.9968573534
 30
0.0
 10
5.1575611198
 20
5.998748317
 30
0.0
 10
5.1615227817
 20
6.0002741342
 30
0.0
 10
5.1653772754
 20
6.001909794
 30
0.0
 10
5.1691151841
 20
6.0036499756
 30
0.0
 10
5.1727266917
 20
6.0054889384
 30
0.0
 10
5.17506726
 20
6.0067899906
 30
0.0
 10
5.1762135662
 20
6.0074560771
 30
0.0
  0
SPLINE
  5
2BA
100
AcDbEntity
  8
0
100
AcDbSpline
 62
7
  6
CONTINUOUS
 70
0
 71
3
 72
33
 73
29
 74
0
 42
0.0000001
 43
0.0000001
 44
0.0000000001
 40
0.0
 40
0.0
 40
0.0
 40
0.0
 40
0.0618472869
 40
0.0921250301
 40
0.1220167509
 40
0.1515665426
 40
0.1808210877
 40
0.2098287287
 40
0.238639554
 40
0.2673055946
 40
0.295880494
 40
0.3244188595
 40
0.3529757415
 40
0.381606153
 40
0.4103647012
 40
0.4393049443
 40
0.4684791772
 40
0.497937841
 40
0.5277291928
 40
0.5578992128
 40
0.5884909413
 40
0.6510834128
 40
0.7158078067
 40
0.7490509823
 40
0.7829110857
 40
0.8525547578
 40
0.9248873276
 40
1.0
 40
1.0
 40
1.0
 40
1.0
 10
5.1898859912
 20
6.0469973932
 30
0.0
 10
5.1903172639
 20
6.046228021
 30
0.0
 10
5.1909129267
 20
6.0450545853
 30
0.0
 10
5.1915947143
 20
6.0434531688
 30
0.0
 10
5.1920416797
 20
6.0422537694
 30
0.0
 10
5.1924273895
 20
6.0410486277
 30
0.0
 10
5.1927514887
 20
6.0398384968
 30
0.0
 10
5.1930136882
 20
6.0386242308
 30
0.0
 10
5.1932137091
 20
6.0374066787
 30
0.0
 10
5.1933513028
 20
6.0361867034
 30
0.0
 10
5.1934263358
 20
6.0349651751
 30
0.0
 10
5.1934386466
 20
6.0337429596
 30
0.0
 10
5.1933881826
 20
6.0325209325
 30
0.0
 10
5.1932749248
 20
6.0312999682
 30
0.0
 10
5.1930988683
 20
6.0300809493
 30
0.0
 10
5.192860131
 20
6.0288647465
 30
0.0
 10
5.1925588069
 20
6.0276522414
 30
0.0
 10
5.1921950824
 20
6.0264443038
 30
0.0
 10
5.1917692005
 20
6.0252418014
 30
0.0
 10
5.1912813874
 20
6.0240455915
 30
0.0
 10
5.1905433536
 20
6.0224481752
 30
0.0
 10
5.1894625932
 20
6.0204690885
 30
0.0
 10
5.188200299
 20
6.0185556378
 30
0.0
 10
5.1870759615
 20
6.0170484394
 30
0.0
 10
5.1858518736
 20
6.0155298032
 30
0.0
 10
5.1841723276
 20
6.0136647324
 30
0.0
 10
5.1819497912
 20
6.0115066654
 30
0.0
 10
5.1803520626
 20
6.0101373846
 30
0.0
 10
5.1795193199
 20
6.0094636134
 30
0.0
  0
SPLINE
  5
2BB
100
AcDbEntity
  8
0
100
AcDbSpline
 62
7
  6
CONTINUOUS
 70
0
 71
3
 72
23
 73
19
 74
0
 42
0.0000001
 43
0.0000001
 44
0.0000000001
 40
0.0
 40
0.0
 40
0.0
 40
0.0
 40
0.0584127257
 40
0.1162725323
 40
0.1738322024
 40
0.231348515
 40
0.289078065
 40
0.3472724111
 40
0.406173786
 40
0.4660115274
 40
0.5269988061
 40
0.5893308315
 40
0.6531831345
 40
0.7187112737
 40
0.786050623
 40
0.8553168804
 40
0.9266070389
 40
1.0
 40
1.0
 40
1.0
 40
1.0
 10
5.0359304131
 20
6.0262639059
 30
0.0
 10
5.0358323941
 20
6.025865151
 30
0.0
 10
5.0356662097
 20
6.0250639515
 30
0.0
 10
5.035508479
 20
6.0238510568
 30
0.0
 10
5.0354437862
 20
6.0226358893
 30
0.0
 10
5.0354721719
 20
6.0214202666
 30
0.0
 10
5.0355933822
 20
6.0202058972
 30
0.0
 10
5.0358071512
 20
6.0189945061
 30
0.0
 10
5.0361129663
 20
6.0177877692
 30
0.0
 10
5.0365102905
 20
6.016587351
 30
0.0
 10
5.0369983862
 20
6.0153948547
 30
0.0
 10
5.0375764789
 20
6.0142118715
 30
0.0
 10
5.0382436406
 20
6.0130399349
 30
0.0
 10
5.0389988861
 20
6.0118805633
 30
0.0
 10
5.039841115
 20
6.0107352366
 30
0.0
 10
5.0407691522
 20
6.0096054
 30
0.0
 10
5.0417817061
 20
6.0084925165
 30
0.0
 10
5.0425015732
 20
6.0077734079
 30
0.0
 10
5.0428745801
 20
6.0074169645
 30
0.0
  0
SPLINE
  5
2BC
100
AcDbEntity
  8
0
100
AcDbSpline
 62
6
  6
CONTINUOUS
 70
0
 71
3
 72
19
 73
15
 74
0
 42
0.0000001
 43
0.0000001
 44
0.0000000001
 40
0.0
 40
0.0
 40
0.0
 40
0.0
 40
0.0549688463
 40
0.1111862545
 40
0.22716183
 40
0.2868396091
 40
0.3475823796
 40
0.4093406457
 40
0.47205489
 40
0.6000921003
 40
0.7311661444
 40
0.7976635619
 40
0.8646911029
 40
1.0
 40
1.0
 40
1.0
 40
1.0
 10
5.0532692485
 20
6.0087573926
 30
0.0
 10
5.0539384855
 20
6.0084283129
 30
0.0
 10
5.0553026469
 20
6.007783773
 30
0.0
 10
5.0581272092
 20
6.0065500116
 30
0.0
 10
5.061063381
 20
6.0054154894
 30
0.0
 10
5.064098477
 20
6.0043781986
 30
0.0
 10
5.0664573621
 20
6.0036392106
 30
0.0
 10
5.0688735532
 20
6.0029480777
 30
0.0
 10
5.0721894775
 20
6.0020861506
 30
0.0
 10
5.0764535729
 20
6.0011393672
 30
0.0
 10
5.0808066697
 20
6.0003783875
 30
0.0
 10
5.0843615698
 20
5.9998768577
 30
0.0
 10
5.0879835515
 20
5.9994460691
 30
0.0
 10
5.0907196619
 20
5.9992104519
 30
0.0
 10
5.0925515764
 20
5.9990918065
 30
0.0
  0
SPLINE
  5
2BD
100
AcDbEntity
  8
0
100
AcDbSpline
 62
6
  6
CONTINUOUS
 70
0
 71
3
 72
38
 73
34
 74
0
 42
0.0000001
 43
0.0000001
 44
0.0000000001
 40
0.0
 40
0.0
 40
0.0
 40
0.0
 40
0.0264999268
 40
0.0539567085
 40
0.0823231132
 40
0.111552916
 40
0.1416010911
 40
0.172417126
 40
0.2039398737
 40
0.2361037368
 40
0.2688392783
 40
0.3020735585
 40
0.3357314329
 40
0.3697340588
 40
0.4040010571
 40
0.4384505445
 40
0.5075570246
 40
0.5420539407
 40
0.5763996297
 40
0.6105118663
 40
0.6443095524
 40
0.6777131964
 40
0.7106463778
 40
0.7430345439
 40
0.7748074157
 40
0.8058984622
 40
0.8362451443
 40
0.8657916155
 40
0.8944864061
 40
0.9222862019
 40
0.9491550808
 40
0.9750650958
 40
1.0
 40
1.0
 40
1.0
 40
1.0
 10
5.1642082496
 20
6.0546455809
 30
0.0
 10
5.1633057377
 20
6.055173105
 30
0.0
 10
5.1614404352
 20
6.0562004073
 30
0.0
 10
5.1585252325
 20
6.0576337585
 30
0.0
 10
5.1554518305
 20
6.0589822055
 30
0.0
 10
5.1522307455
 20
6.0602410012
 30
0.0
 10
5.1488723201
 20
6.0614064164
 30
0.0
 10
5.1453870487
 20
6.0624745542
 30
0.0
 10
5.1417861491
 20
6.0634423395
 30
0.0
 10
5.1380811983
 20
6.0643063663
 30
0.0
 10
5.1342841764
 20
6.0650638708
 30
0.0
 10
5.1304073223
 20
6.0657125844
 30
0.0
 10
5.1264630649
 20
6.0662501272
 30
0.0
 10
5.1224641563
 20
6.0666750923
 30
0.0
 10
5.1184234006
 20
6.0669858715
 30
0.0
 10
5.112992248
 20
6.0672469836
 30
0.0
 10
5.1075428595
 20
6.0672761139
 30
0.0
 10
5.1021042364
 20
6.0670735069
 30
0.0
 10
5.0980510597
 20
6.0668061471
 30
0.0
 10
5.0940348127
 20
6.0664242468
 30
0.0
 10
5.0900683595
 20
6.0659291589
 30
0.0
 10
5.0861645249
 20
6.0653222
 30
0.0
 10
5.0823358374
 20
6.0646056619
 30
0.0
 10
5.0785946576
 20
6.0637815919
 30
0.0
 10
5.0749530179
 20
6.0628527418
 30
0.0
 10
5.071422601
 20
6.0618222134
 30
0.0
 10
5.0680148337
 20
6.0606930319
 30
0.0
 10
5.064740569
 20
6.0594691818
 30
0.0
 10
5.0616103997
 20
6.0581542888
 30
0.0
 10
5.0586343464
 20
6.0567526895
 30
0.0
 10
5.0558218605
 20
6.0552689282
 30
0.0
 10
5.0531822046
 20
6.0537075092
 30
0.0
 10
5.0515106985
 20
6.0525967266
 30
0.0
 10
5.0507075503
 20
6.0520288389
 30
0.0
  0
SPLINE
  5
2BE
100
AcDbEntity
  8
0
100
AcDbSpline
 62
6
  6
CONTINUOUS
 70
0
 71
3
 72
40
 73
36
 74
0
 42
0.0000001
 43
0.0000001
 44
0.0000000001
 40
0.0
 40
0.0
 40
0.0
 40
0.0
 40
0.0409572443
 40
0.0807149637
 40
0.1192532543
 40
0.1565579819
 40
0.1926326104
 40
0.2274997851
 40
0.2611902203
 40
0.2937437379
 40
0.3252120069
 40
0.3556574278
 40
0.3851535694
 40
0.3995748772
 40
0.4137934574
 40
0.4416715541
 40
0.4689079706
 40
0.4956292445
 40
0.5219733761
 40
0.5480856461
 40
0.574115263
 40
0.6002131041
 40
0.6265277963
 40
0.6532018383
 40
0.6803696933
 40
0.7081549994
 40
0.736668091
 40
0.766006693
 40
0.7962561054
 40
0.8274869064
 40
0.859756668
 40
0.8931123687
 40
0.9275902484
 40
0.9632143004
 40
1.0
 40
1.0
 40
1.0
 40
1.0
 10
5.0532692485
 20
6.0087573926
 30
0.0
 10
5.0526237594
 20
6.0090893841
 30
0.0
 10
5.0513631174
 20
6.0097662112
 30
0.0
 10
5.0495397224
 20
6.010835826
 30
0.0
 10
5.0478149658
 20
6.0119425718
 30
0.0
 10
5.046192228
 20
6.0130842054
 30
0.0
 10
5.0446743581
 20
6.0142585038
 30
0.0
 10
5.0432635807
 20
6.0154631246
 30
0.0
 10
5.0419619509
 20
6.0166959364
 30
0.0
 10
5.0407715261
 20
6.0179548596
 30
0.0
 10
5.0396939846
 20
6.0192375403
 30
0.0
 10
5.0387309397
 20
6.0205415703
 30
0.0
 10
5.038019842
 20
6.021652511
 30
0.0
 10
5.0375115505
 20
6.022548947
 30
0.0
 10
5.0370494229
 20
6.0234378118
 30
0.0
 10
5.0365435918
 20
6.024559032
 30
0.0
 10
5.036051998
 20
6.025925125
 30
0.0
 10
5.0356807282
 20
6.0273006938
 30
0.0
 10
5.035430224
 20
6.0286830997
 30
0.0
 10
5.0353006168
 20
6.0300697583
 30
0.0
 10
5.035292074
 20
6.0314580875
 30
0.0
 10
5.0354046225
 20
6.0328454519
 30
0.0
 10
5.0356375448
 20
6.0342292728
 30
0.0
 10
5.0359901182
 20
6.0356070574
 30
0.0
 10
5.0364616551
 20
6.0369762941
 30
0.0
 10
5.0370510572
 20
6.0383345652
 30
0.0
 10
5.0377568548
 20
6.0396796316
 30
0.0
 10
5.0385776714
 20
6.041009241
 30
0.0
 10
5.0395121224
 20
6.0423210711
 30
0.0
 10
5.0405583283
 20
6.0436130579
 30
0.0
 10
5.0417143433
 20
6.0448831596
 30
0.0
 10
5.0429782437
 20
6.046129257
 30
0.0
 10
5.0443479673
 20
6.0473492398
 30
0.0
 10
5.0458210243
 20
6.048541256
 30
0.0
 10
5.0468537624
 20
6.0493037767
 30
0.0
 10
5.0473860533
 20
6.0496801818
 30
0.0
  0
SPLINE
  5
2BF
100
AcDbEntity
  8
0
100
AcDbSpline
 62
7
  6
CONTINUOUS
 70
0
 71
3
 72
39
 73
35
 74
0
 42
0.0000001
 43
0.0000001
 44
0.0000000001
 40
0.0
 40
0.0
 40
0.0
 40
0.0
 40
0.0102306021
 40
0.0401840907
 40
0.0879201932
 40
0.1508841349
 40
0.187236501
 40
0.2263872731
 40
0.2679992338
 40
0.3117250236
 40
0.3342678468
 40
0.3571994911
 40
0.3804696147
 40
0.4040258561
 40
0.427813869
 40
0.4517775008
 40
0.4758591172
 40
0.4999999999
 40
0.5241408827
 40
0.5482224991
 40
0.5721861308
 40
0.5959741438
 40
0.6195303852
 40
0.6428005088
 40
0.6657321531
 40
0.6882749762
 40
0.7320007661
 40
0.7736127268
 40
0.8127634989
 40
0.8491158649
 40
0.9120798067
 40
0.9598159092
 40
0.9897693979
 40
1.0
 40
1.0
 40
1.0
 40
1.0
 10
4.1313653703
 20
2.1314366125
 30
0.0
 10
4.1326201423
 20
2.1319295604
 30
0.0
 10
4.13755415
 20
2.1338519163
 30
0.0
 10
4.1483964584
 20
2.1379366078
 30
0.0
 10
4.165887064
 20
2.1440763048
 30
0.0
 10
4.184388508
 20
2.1498585179
 30
0.0
 10
4.2019802775
 20
2.1547086499
 30
0.0
 10
4.2169652526
 20
2.1584084762
 30
0.0
 10
4.2330053769
 20
2.1618590139
 30
0.0
 10
4.246998273
 20
2.1643851003
 30
0.0
 10
4.2586180978
 20
2.1661618462
 30
0.0
 10
4.267597475
 20
2.1673629746
 30
0.0
 10
4.2767311137
 20
2.1684052167
 30
0.0
 10
4.2859960696
 20
2.1692761878
 30
0.0
 10
4.2953679936
 20
2.1699652534
 30
0.0
 10
4.3048213345
 20
2.1704638138
 30
0.0
 10
4.3143295437
 20
2.1707655382
 30
0.0
 10
4.3238653703
 20
2.1708665485
 30
0.0
 10
4.3334011969
 20
2.1707655382
 30
0.0
 10
4.3429094061
 20
2.1704638138
 30
0.0
 10
4.352362747
 20
2.1699652534
 30
0.0
 10
4.361734671
 20
2.1692761878
 30
0.0
 10
4.370999627
 20
2.1684052167
 30
0.0
 10
4.3801332656
 20
2.1673629746
 30
0.0
 10
4.3891126428
 20
2.1661618462
 30
0.0
 10
4.4007324677
 20
2.1643851003
 30
0.0
 10
4.4147253637
 20
2.1618590139
 30
0.0
 10
4.4307654881
 20
2.1584084762
 30
0.0
 10
4.4457504632
 20
2.1547086499
 30
0.0
 10
4.4633422326
 20
2.1498585179
 30
0.0
 10
4.4818436766
 20
2.1440763048
 30
0.0
 10
4.4993342822
 20
2.1379366079
 30
0.0
 10
4.5101765907
 20
2.1338519163
 30
0.0
 10
4.5151105984
 20
2.1319295604
 30
0.0
 10
4.5163653703
 20
2.1314366125
 30
0.0
  0
SPLINE
  5
2C0
100
AcDbEntity
  8
0
100
AcDbSpline
 62
6
  6
CONTINUOUS
 70
0
 71
3
 72
18
 73
14
 74
0
 42
0.0000001
 43
0.0000001
 44
0.0000000001
 40
0.0
 40
0.0
 40
0.0
 40
0.0
 40
0.1305594938
 40
0.260614005
 40
0.3896550766
 40
0.5171528516
 40
0.642551404
 40
0.7042877969
 40
0.7652727914
 40
0.8254243336
 40
0.8846564479
 40
0.9428794254
 40
1.0
 40
1.0
 40
1.0
 40
1.0
 10
4.7918653703
 20
2.8403997539
 30
0.0
 10
4.7948956794
 20
2.8403997539
 30
0.0
 10
4.8009463199
 20
2.8405903903
 30
0.0
 10
4.8099555723
 20
2.8414446543
 30
0.0
 10
4.8188231797
 20
2.8428547314
 30
0.0
 10
4.8274777601
 20
2.8448006959
 30
0.0
 10
4.834490679
 20
2.8468573534
 30
0.0
 10
4.8399311986
 20
2.848748317
 30
0.0
 10
4.8438928605
 20
2.8502741342
 30
0.0
 10
4.8477473542
 20
2.851909794
 30
0.0
 10
4.8514852628
 20
2.8536499756
 30
0.0
 10
4.8550967705
 20
2.8554889384
 30
0.0
 10
4.8574373388
 20
2.8567899906
 30
0.0
 10
4.8585836449
 20
2.8574560771
 30
0.0
  0
SPLINE
  5
2C1
100
AcDbEntity
  8
0
100
AcDbSpline
 62
7
  6
CONTINUOUS
 70
0
 71
3
 72
33
 73
29
 74
0
 42
0.0000001
 43
0.0000001
 44
0.0000000001
 40
0.0
 40
0.0
 40
0.0
 40
0.0
 40
0.0618472869
 40
0.0921250301
 40
0.1220167509
 40
0.1515665426
 40
0.1808210877
 40
0.2098287287
 40
0.238639554
 40
0.2673055946
 40
0.295880494
 40
0.3244188595
 40
0.3529757415
 40
0.381606153
 40
0.4103647012
 40
0.4393049443
 40
0.4684791772
 40
0.497937841
 40
0.5277291928
 40
0.5578992128
 40
0.5884909413
 40
0.6510834128
 40
0.7158078067
 40
0.7490509823
 40
0.7829110857
 40
0.8525547578
 40
0.9248873276
 40
1.0
 40
1.0
 40
1.0
 40
1.0
 10
4.8722560699
 20
2.8969973932
 30
0.0
 10
4.8726873426
 20
2.896228021
 30
0.0
 10
4.8732830054
 20
2.8950545853
 30
0.0
 10
4.8739647931
 20
2.8934531688
 30
0.0
 10
4.8744117584
 20
2.8922537694
 30
0.0
 10
4.8747974682
 20
2.8910486277
 30
0.0
 10
4.8751215674
 20
2.8898384968
 30
0.0
 10
4.8753837669
 20
2.8886242308
 30
0.0
 10
4.8755837878
 20
2.8874066787
 30
0.0
 10
4.8757213816
 20
2.8861867034
 30
0.0
 10
4.8757964146
 20
2.8849651751
 30
0.0
 10
4.8758087254
 20
2.8837429596
 30
0.0
 10
4.8757582613
 20
2.8825209325
 30
0.0
 10
4.8756450036
 20
2.8812999682
 30
0.0
 10
4.8754689471
 20
2.8800809493
 30
0.0
 10
4.8752302098
 20
2.8788647465
 30
0.0
 10
4.8749288856
 20
2.8776522414
 30
0.0
 10
4.8745651612
 20
2.8764443038
 30
0.0
 10
4.8741392792
 20
2.8752418014
 30
0.0
 10
4.8736514661
 20
2.8740455915
 30
0.0
 10
4.8729134324
 20
2.8724481752
 30
0.0
 10
4.871832672
 20
2.8704690885
 30
0.0
 10
4.8705703777
 20
2.8685556378
 30
0.0
 10
4.8694460402
 20
2.8670484394
 30
0.0
 10
4.8682219524
 20
2.8655298032
 30
0.0
 10
4.8665424064
 20
2.8636647324
 30
0.0
 10
4.8643198699
 20
2.8615066654
 30
0.0
 10
4.8627221413
 20
2.8601373846
 30
0.0
 10
4.8618893987
 20
2.8594636134
 30
0.0
  0
SPLINE
  5
2C2
100
AcDbEntity
  8
0
100
AcDbSpline
 62
7
  6
CONTINUOUS
 70
0
 71
3
 72
23
 73
19
 74
0
 42
0.0000001
 43
0.0000001
 44
0.0000000001
 40
0.0
 40
0.0
 40
0.0
 40
0.0
 40
0.0584127257
 40
0.1162725323
 40
0.1738322024
 40
0.231348515
 40
0.289078065
 40
0.3472724111
 40
0.406173786
 40
0.4660115274
 40
0.5269988061
 40
0.5893308315
 40
0.6531831345
 40
0.7187112737
 40
0.786050623
 40
0.8553168804
 40
0.9266070389
 40
1.0
 40
1.0
 40
1.0
 40
1.0
 10
4.7183004918
 20
2.8762639059
 30
0.0
 10
4.7182024728
 20
2.875865151
 30
0.0
 10
4.7180362884
 20
2.8750639515
 30
0.0
 10
4.7178785578
 20
2.8738510568
 30
0.0
 10
4.717813865
 20
2.8726358893
 30
0.0
 10
4.7178422506
 20
2.8714202666
 30
0.0
 10
4.717963461
 20
2.8702058972
 30
0.0
 10
4.7181772299
 20
2.8689945061
 30
0.0
 10
4.718483045
 20
2.8677877692
 30
0.0
 10
4.7188803693
 20
2.866587351
 30
0.0
 10
4.719368465
 20
2.8653948547
 30
0.0
 10
4.7199465576
 20
2.8642118715
 30
0.0
 10
4.7206137193
 20
2.8630399349
 30
0.0
 10
4.7213689649
 20
2.8618805633
 30
0.0
 10
4.7222111937
 20
2.8607352366
 30
0.0
 10
4.723139231
 20
2.8596054
 30
0.0
 10
4.7241517849
 20
2.8584925165
 30
0.0
 10
4.7248716519
 20
2.8577734079
 30
0.0
 10
4.7252446589
 20
2.8574169645
 30
0.0
  0
SPLINE
  5
2C3
100
AcDbEntity
  8
0
100
AcDbSpline
 62
6
  6
CONTINUOUS
 70
0
 71
3
 72
19
 73
15
 74
0
 42
0.0000001
 43
0.0000001
 44
0.0000000001
 40
0.0
 40
0.0
 40
0.0
 40
0.0
 40
0.0549688463
 40
0.1111862545
 40
0.22716183
 40
0.2868396091
 40
0.3475823796
 40
0.4093406457
 40
0.47205489
 40
0.6000921003
 40
0.7311661444
 40
0.7976635619
 40
0.8646911029
 40
1.0
 40
1.0
 40
1.0
 40
1.0
 10
4.7356393272
 20
2.8587573926
 30
0.0
 10
4.7363085642
 20
2.8584283129
 30
0.0
 10
4.7376727257
 20
2.857783773
 30
0.0
 10
4.7404972879
 20
2.8565500116
 30
0.0
 10
4.7434334598
 20
2.8554154894
 30
0.0
 10
4.7464685557
 20
2.8543781986
 30
0.0
 10
4.7488274408
 20
2.8536392106
 30
0.0
 10
4.7512436319
 20
2.8529480777
 30
0.0
 10
4.7545595562
 20
2.8520861506
 30
0.0
 10
4.7588236516
 20
2.8511393672
 30
0.0
 10
4.7631767484
 20
2.8503783875
 30
0.0
 10
4.7667316485
 20
2.8498768577
 30
0.0
 10
4.7703536303
 20
2.8494460691
 30
0.0
 10
4.7730897406
 20
2.8492104519
 30
0.0
 10
4.7749216551
 20
2.8490918065
 30
0.0
  0
SPLINE
  5
2C4
100
AcDbEntity
  8
0
100
AcDbSpline
 62
6
  6
CONTINUOUS
 70
0
 71
3
 72
38
 73
34
 74
0
 42
0.0000001
 43
0.0000001
 44
0.0000000001
 40
0.0
 40
0.0
 40
0.0
 40
0.0
 40
0.0264999268
 40
0.0539567085
 40
0.0823231132
 40
0.111552916
 40
0.1416010911
 40
0.172417126
 40
0.2039398737
 40
0.2361037368
 40
0.2688392783
 40
0.3020735585
 40
0.3357314329
 40
0.3697340588
 40
0.4040010571
 40
0.4384505445
 40
0.5075570246
 40
0.5420539407
 40
0.5763996297
 40
0.6105118663
 40
0.6443095524
 40
0.6777131964
 40
0.7106463778
 40
0.7430345439
 40
0.7748074157
 40
0.8058984622
 40
0.8362451443
 40
0.8657916155
 40
0.8944864061
 40
0.9222862019
 40
0.9491550808
 40
0.9750650958
 40
1.0
 40
1.0
 40
1.0
 40
1.0
 10
4.8465783284
 20
2.9046455809
 30
0.0
 10
4.8456758164
 20
2.905173105
 30
0.0
 10
4.8438105139
 20
2.9062004073
 30
0.0
 10
4.8408953112
 20
2.9076337585
 30
0.0
 10
4.8378219093
 20
2.9089822055
 30
0.0
 10
4.8346008242
 20
2.9102410012
 30
0.0
 10
4.8312423988
 20
2.9114064164
 30
0.0
 10
4.8277571275
 20
2.9124745542
 30
0.0
 10
4.8241562278
 20
2.9134423395
 30
0.0
 10
4.820451277
 20
2.9143063663
 30
0.0
 10
4.8166542551
 20
2.9150638708
 30
0.0
 10
4.812777401
 20
2.9157125844
 30
0.0
 10
4.8088331437
 20
2.9162501272
 30
0.0
 10
4.8048342351
 20
2.9166750923
 30
0.0
 10
4.8007934793
 20
2.9169858715
 30
0.0
 10
4.7953623267
 20
2.9172469836
 30
0.0
 10
4.7899129383
 20
2.9172761139
 30
0.0
 10
4.7844743152
 20
2.9170735069
 30
0.0
 10
4.7804211384
 20
2.9168061471
 30
0.0
 10
4.7764048915
 20
2.9164242468
 30
0.0
 10
4.7724384383
 20
2.9159291589
 30
0.0
 10
4.7685346036
 20
2.9153222
 30
0.0
 10
4.7647059161
 20
2.9146056619
 30
0.0
 10
4.7609647363
 20
2.9137815919
 30
0.0
 10
4.7573230967
 20
2.9128527418
 30
0.0
 10
4.7537926798
 20
2.9118222134
 30
0.0
 10
4.7503849124
 20
2.9106930319
 30
0.0
 10
4.7471106477
 20
2.9094691818
 30
0.0
 10
4.7439804785
 20
2.9081542888
 30
0.0
 10
4.7410044252
 20
2.9067526895
 30
0.0
 10
4.7381919393
 20
2.9052689282
 30
0.0
 10
4.7355522833
 20
2.9037075092
 30
0.0
 10
4.7338807773
 20
2.9025967266
 30
0.0
 10
4.7330776291
 20
2.9020288389
 30
0.0
  0
SPLINE
  5
2C5
100
AcDbEntity
  8
0
100
AcDbSpline
 62
6
  6
CONTINUOUS
 70
0
 71
3
 72
40
 73
36
 74
0
 42
0.0000001
 43
0.0000001
 44
0.0000000001
 40
0.0
 40
0.0
 40
0.0
 40
0.0
 40
0.0409572443
 40
0.0807149637
 40
0.1192532543
 40
0.1565579819
 40
0.1926326104
 40
0.2274997851
 40
0.2611902203
 40
0.2937437379
 40
0.3252120069
 40
0.3556574278
 40
0.3851535694
 40
0.3995748772
 40
0.4137934574
 40
0.4416715541
 40
0.4689079706
 40
0.4956292445
 40
0.5219733761
 40
0.5480856461
 40
0.574115263
 40
0.6002131041
 40
0.6265277963
 40
0.6532018383
 40
0.6803696933
 40
0.7081549994
 40
0.736668091
 40
0.766006693
 40
0.7962561054
 40
0.8274869064
 40
0.859756668
 40
0.8931123687
 40
0.9275902484
 40
0.9632143004
 40
1.0
 40
1.0
 40
1.0
 40
1.0
 10
4.7356393272
 20
2.8587573926
 30
0.0
 10
4.7349938382
 20
2.8590893841
 30
0.0
 10
4.7337331961
 20
2.8597662112
 30
0.0
 10
4.7319098012
 20
2.860835826
 30
0.0
 10
4.7301850446
 20
2.8619425718
 30
0.0
 10
4.7285623067
 20
2.8630842054
 30
0.0
 10
4.7270444368
 20
2.8642585038
 30
0.0
 10
4.7256336595
 20
2.8654631246
 30
0.0
 10
4.7243320296
 20
2.8666959364
 30
0.0
 10
4.7231416048
 20
2.8679548596
 30
0.0
 10
4.7220640634
 20
2.8692375403
 30
0.0
 10
4.7211010185
 20
2.8705415703
 30
0.0
 10
4.7203899207
 20
2.871652511
 30
0.0
 10
4.7198816292
 20
2.872548947
 30
0.0
 10
4.7194195017
 20
2.8734378118
 30
0.0
 10
4.7189136705
 20
2.874559032
 30
0.0
 10
4.7184220767
 20
2.875925125
 30
0.0
 10
4.718050807
 20
2.8773006938
 30
0.0
 10
4.7178003027
 20
2.8786830997
 30
0.0
 10
4.7176706955
 20
2.8800697583
 30
0.0
 10
4.7176621527
 20
2.8814580875
 30
0.0
 10
4.7177747012
 20
2.8828454519
 30
0.0
 10
4.7180076235
 20
2.8842292728
 30
0.0
 10
4.718360197
 20
2.8856070574
 30
0.0
 10
4.7188317339
 20
2.8869762941
 30
0.0
 10
4.7194211359
 20
2.8883345652
 30
0.0
 10
4.7201269336
 20
2.8896796316
 30
0.0
 10
4.7209477502
 20
2.891009241
 30
0.0
 10
4.7218822011
 20
2.8923210711
 30
0.0
 10
4.722928407
 20
2.8936130579
 30
0.0
 10
4.7240844221
 20
2.8948831596
 30
0.0
 10
4.7253483224
 20
2.896129257
 30
0.0
 10
4.7267180461
 20
2.8973492398
 30
0.0
 10
4.7281911031
 20
2.898541256
 30
0.0
 10
4.7292238411
 20
2.8993037767
 30
0.0
 10
4.729756132
 20
2.8996801818
 30
0.0
  0
SPLINE
  5
2C6
100
AcDbEntity
  8
0
100
AcDbSpline
 62
6
  6
CONTINUOUS
 70
0
 71
3
 72
67
 73
63
 74
0
 42
0.0000001
 43
0.0000001
 44
0.0000000001
 40
0.0
 40
0.0
 40
0.0
 40
0.0
 40
0.0100513792
 40
0.0198626096
 40
0.0294603734
 40
0.0388700938
 40
0.0481143991
 40
0.0572088564
 40
0.0661669004
 40
0.0750013742
 40
0.0923428572
 40
0.1093040533
 40
0.1259427625
 40
0.1423040787
 40
0.1584257909
 40
0.1743360616
 40
0.1900594409
 40
0.2056186395
 40
0.2210336608
 40
0.2363195704
 40
0.2514896443
 40
0.2665562883
 40
0.2815307346
 40
0.2964222912
 40
0.3112394592
 40
0.3259902514
 40
0.3553201714
 40
0.3844643596
 40
0.4134672397
 40
0.4423671083
 40
0.4711999159
 40
0.5
 40
0.5288000841
 40
0.5576328917
 40
0.5865327603
 40
0.6155356404
 40
0.6446798286
 40
0.6740097486
 40
0.6887605408
 40
0.7035777088
 40
0.7184692654
 40
0.7334437117
 40
0.7485103557
 40
0.7636804296
 40
0.7789663392
 40
0.7943813605
 40
0.8099405591
 40
0.8256639384
 40
0.8415742091
 40
0.8576959213
 40
0.8740572375
 40
0.8906959467
 40
0.9076571428
 40
0.9249986258
 40
0.9338330996
 40
0.9427911436
 40
0.9518856009
 40
0.9611299062
 40
0.9705396266
 40
0.9801373904
 40
0.9899486208
 40
1.0
 40
1.0
 40
1.0
 40
1.0
 10
6.0615819058
 20
4.9446666125
 30
0.0
 10
6.0608105984
 20
4.9446666125
 30
0.0
 10
6.0592863371
 20
4.9446864397
 30
0.0
 10
6.0570271066
 20
4.9447735096
 30
0.0
 10
6.0548198247
 20
4.9449125746
 30
0.0
 10
6.0526597087
 20
4.9450986823
 30
0.0
 10
6.0505424831
 20
4.9453267803
 30
0.0
 10
6.0484648329
 20
4.9455943194
 30
0.0
 10
6.0464240644
 20
4.9458987428
 30
0.0
 10
6.0437654904
 20
4.9463475452
 30
0.0
 10
6.0405168909
 20
4.9469870971
 30
0.0
 10
6.0367090111
 20
4.9478737859
 30
0.0
 10
6.0330040247
 20
4.9488618091
 30
0.0
 10
6.0293922732
 20
4.9499424735
 30
0.0
 10
6.0258654753
 20
4.95110673
 30
0.0
 10
6.0224176631
 20
4.9523496702
 30
0.0
 10
6.0190436248
 20
4.9536662282
 30
0.0
 10
6.015738331
 20
4.9550512625
 30
0.0
 10
6.0124970036
 20
4.956499495
 30
0.0
 10
6.0093164971
 20
4.9580083752
 30
0.0
 10
6.0061940483
 20
4.9595752217
 30
0.0
 10
6.0031269739
 20
4.9611973111
 30
0.0
 10
6.0001126709
 20
4.9628718687
 30
0.0
 10
5.9971493605
 20
4.964597328
 30
0.0
 10
5.9942353798
 20
4.9663720758
 30
0.0
 10
5.9904211946
 20
4.968797145
 30
0.0
 10
5.9857649526
 20
4.9719449424
 30
0.0
 10
5.9803432627
 20
4.9759052261
 30
0.0
 10
5.9750897045
 20
4.9800327351
 30
0.0
 10
5.9700009457
 20
4.984324769
 30
0.0
 10
5.9650740037
 20
4.9887784024
 30
0.0
 10
5.9603059486
 20
4.9933906553
 30
0.0
 10
5.9556936957
 20
4.9981587104
 30
0.0
 10
5.9512400623
 20
5.0030856524
 30
0.0
 10
5.9469480284
 20
5.0081744112
 30
0.0
 10
5.9428205193
 20
5.0134279694
 30
0.0
 10
5.9388602357
 20
5.0188496593
 30
0.0
 10
5.9357124383
 20
5.0235059013
 30
0.0
 10
5.9332873691
 20
5.0273200865
 30
0.0
 10
5.9315126213
 20
5.0302340672
 30
0.0
 10
5.929787162
 20
5.0331973776
 30
0.0
 10
5.9281126044
 20
5.0362116806
 30
0.0
 10
5.926490515
 20
5.039278755
 30
0.0
 10
5.9249236684
 20
5.0424012038
 30
0.0
 10
5.9234147883
 20
5.0455817103
 30
0.0
 10
5.9219665558
 20
5.0488230377
 30
0.0
 10
5.9205815215
 20
5.0521283315
 30
0.0
 10
5.9192649635
 20
5.0555023698
 30
0.0
 10
5.9180220233
 20
5.058950182
 30
0.0
 10
5.9168577668
 20
5.0624769799
 30
0.0
 10
5.9157771024
 20
5.0660887314
 30
0.0
 10
5.9147890792
 20
5.0697937178
 30
0.0
 10
5.9139023903
 20
5.0736015976
 30
0.0
 10
5.9132628385
 20
5.0768501971
 30
0.0
 10
5.9128140361
 20
5.0795087711
 30
0.0
 10
5.9125096127
 20
5.0815495396
 30
0.0
 10
5.9122420736
 20
5.0836271898
 30
0.0
 10
5.9120139756
 20
5.0857444154
 30
0.0
 10
5.9118278678
 20
5.0879045314
 30
0.0
 10
5.9116888029
 20
5.0901118133
 30
0.0
 10
5.911601733
 20
5.0923710438
 30
0.0
 10
5.9115819058
 20
5.0938953051
 30
0.0
 10
5.9115819058
 20
5.0946666125
 30
0.0
  0
SPLINE
  5
2C7
100
AcDbEntity
  8
0
100
AcDbSpline
 62
6
  6
CONTINUOUS
 70
0
 71
3
 72
67
 73
63
 74
0
 42
0.0000001
 43
0.0000001
 44
0.0000000001
 40
0.0
 40
0.0
 40
0.0
 40
0.0
 40
0.0100513792
 40
0.0198626096
 40
0.0294603734
 40
0.0388700938
 40
0.0481143991
 40
0.0572088564
 40
0.0661669004
 40
0.0750013742
 40
0.0923428572
 40
0.1093040533
 40
0.1259427625
 40
0.1423040787
 40
0.1584257909
 40
0.1743360616
 40
0.1900594409
 40
0.2056186395
 40
0.2210336608
 40
0.2363195704
 40
0.2514896443
 40
0.2665562883
 40
0.2815307346
 40
0.2964222912
 40
0.3112394592
 40
0.3259902514
 40
0.3553201714
 40
0.3844643596
 40
0.4134672397
 40
0.4423671083
 40
0.4711999159
 40
0.5
 40
0.5288000841
 40
0.5576328917
 40
0.5865327603
 40
0.6155356404
 40
0.6446798286
 40
0.6740097486
 40
0.6887605408
 40
0.7035777088
 40
0.7184692654
 40
0.7334437117
 40
0.7485103557
 40
0.7636804296
 40
0.7789663392
 40
0.7943813605
 40
0.8099405591
 40
0.8256639384
 40
0.8415742091
 40
0.8576959213
 40
0.8740572375
 40
0.8906959467
 40
0.9076571428
 40
0.9249986258
 40
0.9338330996
 40
0.9427911436
 40
0.9518856009
 40
0.9611299062
 40
0.9705396266
 40
0.9801373904
 40
0.9899486208
 40
1.0
 40
1.0
 40
1.0
 40
1.0
 10
6.0615819058
 20
6.5982066125
 30
0.0
 10
6.0608105984
 20
6.5982066125
 30
0.0
 10
6.0592863371
 20
6.5981867853
 30
0.0
 10
6.0570271066
 20
6.5980997154
 30
0.0
 10
6.0548198247
 20
6.5979606504
 30
0.0
 10
6.0526597087
 20
6.5977745427
 30
0.0
 10
6.0505424831
 20
6.5975464446
 30
0.0
 10
6.0484648329
 20
6.5972789056
 30
0.0
 10
6.0464240644
 20
6.5969744822
 30
0.0
 10
6.0437654904
 20
6.5965256798
 30
0.0
 10
6.0405168909
 20
6.5958861279
 30
0.0
 10
6.0367090111
 20
6.594999439
 30
0.0
 10
6.0330040247
 20
6.5940114159
 30
0.0
 10
6.0293922732
 20
6.5929307515
 30
0.0
 10
6.0258654753
 20
6.591766495
 30
0.0
 10
6.0224176631
 20
6.5905235548
 30
0.0
 10
6.0190436248
 20
6.5892069968
 30
0.0
 10
6.015738331
 20
6.5878219625
 30
0.0
 10
6.0124970036
 20
6.5863737299
 30
0.0
 10
6.0093164971
 20
6.5848648498
 30
0.0
 10
6.0061940483
 20
6.5832980033
 30
0.0
 10
6.0031269739
 20
6.5816759138
 30
0.0
 10
6.0001126709
 20
6.5800013563
 30
0.0
 10
5.9971493605
 20
6.578275897
 30
0.0
 10
5.9942353798
 20
6.5765011491
 30
0.0
 10
5.9904211946
 20
6.57407608
 30
0.0
 10
5.9857649526
 20
6.5709282825
 30
0.0
 10
5.9803432627
 20
6.5669679989
 30
0.0
 10
5.9750897045
 20
6.5628404899
 30
0.0
 10
5.9700009457
 20
6.5585484559
 30
0.0
 10
5.9650740037
 20
6.5540948226
 30
0.0
 10
5.9603059486
 20
6.5494825697
 30
0.0
 10
5.9556936957
 20
6.5447145146
 30
0.0
 10
5.9512400623
 20
6.5397875725
 30
0.0
 10
5.9469480284
 20
6.5346988138
 30
0.0
 10
5.9428205193
 20
6.5294452556
 30
0.0
 10
5.9388602357
 20
6.5240235657
 30
0.0
 10
5.9357124383
 20
6.5193673236
 30
0.0
 10
5.9332873691
 20
6.5155531385
 30
0.0
 10
5.9315126213
 20
6.5126391578
 30
0.0
 10
5.929787162
 20
6.5096758474
 30
0.0
 10
5.9281126044
 20
6.5066615444
 30
0.0
 10
5.926490515
 20
6.50359447
 30
0.0
 10
5.9249236684
 20
6.5004720211
 30
0.0
 10
5.9234147883
 20
6.4972915147
 30
0.0
 10
5.9219665558
 20
6.4940501873
 30
0.0
 10
5.9205815215
 20
6.4907448934
 30
0.0
 10
5.9192649635
 20
6.4873708552
 30
0.0
 10
5.9180220233
 20
6.483923043
 30
0.0
 10
5.9168577668
 20
6.4803962451
 30
0.0
 10
5.9157771024
 20
6.4767844936
 30
0.0
 10
5.9147890792
 20
6.4730795072
 30
0.0
 10
5.9139023903
 20
6.4692716274
 30
0.0
 10
5.9132628385
 20
6.4660230278
 30
0.0
 10
5.9128140361
 20
6.4633644539
 30
0.0
 10
5.9125096127
 20
6.4613236853
 30
0.0
 10
5.9122420736
 20
6.4592460352
 30
0.0
 10
5.9120139756
 20
6.4571288095
 30
0.0
 10
5.9118278678
 20
6.4549686936
 30
0.0
 10
5.9116888029
 20
6.4527614117
 30
0.0
 10
5.911601733
 20
6.4505021812
 30
0.0
 10
5.9115819058
 20
6.4489779199
 30
0.0
 10
5.9115819058
 20
6.4482066125
 30
0.0
  0
SPLINE
  5
2C8
100
AcDbEntity
  8
0
100
AcDbSpline
 62
6
  6
CONTINUOUS
 70
0
 71
3
 72
21
 73
17
 74
0
 42
0.0000001
 43
0.0000001
 44
0.0000000001
 40
0.0
 40
0.0
 40
0.0
 40
0.0
 40
0.0551851146
 40
0.1118856968
 40
0.1699701071
 40
0.2293109298
 40
0.2897860997
 40
0.3512793174
 40
0.4136798751
 40
0.4768823424
 40
0.540786143
 40
0.6052950423
 40
0.7357389306
 40
0.8015185311
 40
0.8675470887
 40
1.0
 40
1.0
 40
1.0
 40
1.0
 10
5.0355273163
 20
6.0121003967
 30
0.0
 10
5.0367024966
 20
6.0112694171
 30
0.0
 10
5.0391262696
 20
6.0096421412
 30
0.0
 10
5.0429154284
 20
6.0073386779
 30
0.0
 10
5.0468948626
 20
6.0051475731
 30
0.0
 10
5.0510492143
 20
6.0030784131
 30
0.0
 10
5.0553637858
 20
6.0011400394
 30
0.0
 10
5.0598242908
 20
5.9993407026
 30
0.0
 10
5.0644168473
 20
5.9976880503
 30
0.0
 10
5.0691278363
 20
5.9961891532
 30
0.0
 10
5.073944006
 20
5.9948504599
 30
0.0
 10
5.0805116027
 20
5.993281317
 30
0.0
 10
5.0872091347
 20
5.9920636879
 30
0.0
 10
5.0939960593
 20
5.9912046709
 30
0.0
 10
5.1008615777
 20
5.9905857929
 30
0.0
 10
5.1060407534
 20
5.9903997539
 30
0.0
 10
5.1094952916
 20
5.9903997539
 30
0.0
  0
SPLINE
  5
2C9
100
AcDbEntity
  8
0
100
AcDbSpline
 62
6
  6
CONTINUOUS
 70
0
 71
3
 72
21
 73
17
 74
0
 42
0.0000001
 43
0.0000001
 44
0.0000000001
 40
0.0
 40
0.0
 40
0.0
 40
0.0
 40
0.0551851146
 40
0.1118856968
 40
0.1699701071
 40
0.2293109298
 40
0.2897860997
 40
0.3512793174
 40
0.4136798751
 40
0.4768823424
 40
0.540786143
 40
0.6052950423
 40
0.7357389306
 40
0.8015185311
 40
0.8675470887
 40
1.0
 40
1.0
 40
1.0
 40
1.0
 10
4.717897395
 20
2.8621003967
 30
0.0
 10
4.7190725754
 20
2.8612694171
 30
0.0
 10
4.7214963483
 20
2.8596421412
 30
0.0
 10
4.7252855071
 20
2.8573386779
 30
0.0
 10
4.7292649413
 20
2.8551475731
 30
0.0
 10
4.7334192931
 20
2.8530784131
 30
0.0
 10
4.7377338645
 20
2.8511400394
 30
0.0
 10
4.7421943695
 20
2.8493407026
 30
0.0
 10
4.746786926
 20
2.8476880503
 30
0.0
 10
4.751497915
 20
2.8461891532
 30
0.0
 10
4.7563140847
 20
2.8448504599
 30
0.0
 10
4.7628816815
 20
2.843281317
 30
0.0
 10
4.7695792134
 20
2.8420636879
 30
0.0
 10
4.7763661381
 20
2.8412046709
 30
0.0
 10
4.7832316564
 20
2.8405857929
 30
0.0
 10
4.7884108321
 20
2.8403997539
 30
0.0
 10
4.7918653703
 20
2.8403997539
 30
0.0
  0
SPLINE
  5
2CA
100
AcDbEntity
  8
0
100
AcDbSpline
 62
6
  6
CONTINUOUS
 70
0
 71
3
 72
35
 73
31
 74
0
 42
0.0000001
 43
0.0000001
 44
0.0000000001
 40
0.0
 40
0.0
 40
0.0
 40
0.0
 40
0.0389471598
 40
0.0779747838
 40
0.1559288898
 40
0.2332894896
 40
0.3095161628
 40
0.3470386021
 40
0.3840795849
 40
0.4205774995
 40
0.4564736396
 40
0.491711256
 40
0.5262376652
 40
0.5600033611
 40
0.5929627225
 40
0.6250756122
 40
0.6563059171
 40
0.6866249075
 40
0.7160097472
 40
0.7444452093
 40
0.7719238854
 40
0.7984472464
 40
0.8240264588
 40
0.8486837047
 40
0.8724530838
 40
0.917497733
 40
0.9389389741
 40
0.9597665035
 40
0.9800835431
 40
1.0
 40
1.0
 40
1.0
 40
1.0
 10
5.1033859353
 20
5.9988429071
 30
0.0
 10
5.1044472251
 20
5.9987928798
 30
0.0
 10
5.1065733424
 20
5.9987190347
 30
0.0
 10
5.1108271427
 20
5.9986756532
 30
0.0
 10
5.1161292386
 20
5.998816379
 30
0.0
 10
5.1224299167
 20
5.9992952484
 30
0.0
 10
5.1276043651
 20
5.9999520124
 30
0.0
 10
5.1316619076
 20
6.0006307428
 30
0.0
 10
5.1346360025
 20
6.0012106965
 30
0.0
 10
5.1375496441
 20
6.0018628996
 30
0.0
 10
5.1403958924
 20
6.0025856335
 30
0.0
 10
5.1431678698
 20
6.0033773208
 30
0.0
 10
5.1458589299
 20
6.0042359606
 30
0.0
 10
5.1484626023
 20
6.0051594801
 30
0.0
 10
5.1509725794
 20
6.0061457666
 30
0.0
 10
5.1533828787
 20
6.0071922686
 30
0.0
 10
5.1556876507
 20
6.0082966429
 30
0.0
 10
5.1578814268
 20
6.0094561218
 30
0.0
 10
5.1599589552
 20
6.0106680164
 30
0.0
 10
5.1619153055
 20
6.0119294262
 30
0.0
 10
5.163745815
 20
6.013237386
 30
0.0
 10
5.1654461355
 20
6.0145888395
 30
0.0
 10
5.1670121597
 20
6.0159805651
 30
0.0
 10
5.1684402965
 20
6.0174095555
 30
0.0
 10
5.1701251371
 20
6.0193249136
 30
0.0
 10
5.1715630993
 20
6.0213366902
 30
0.0
 10
5.1727073315
 20
6.0234282979
 30
0.0
 10
5.1733993979
 20
6.0249914949
 30
0.0
 10
5.1739369855
 20
6.0265703514
 30
0.0
 10
5.1741936731
 20
6.0276394599
 30
0.0
 10
5.1742948656
 20
6.0281732688
 30
0.0
  0
SPLINE
  5
2CB
100
AcDbEntity
  8
0
100
AcDbSpline
 62
6
  6
CONTINUOUS
 70
0
 71
3
 72
23
 73
19
 74
0
 42
0.0000001
 43
0.0000001
 44
0.0000000001
 40
0.0
 40
0.0
 40
0.0
 40
0.0
 40
0.0593208019
 40
0.1171934142
 40
0.1740303072
 40
0.2302831793
 40
0.2864089021
 40
0.3428604106
 40
0.4000714632
 40
0.4584429146
 40
0.5183329345
 40
0.5800520518
 40
0.6438607456
 40
0.7099663025
 40
0.7785312943
 40
0.8496839124
 40
0.9235031183
 40
1.0
 40
1.0
 40
1.0
 40
1.0
 10
5.1742948656
 20
6.0281732688
 30
0.0
 10
5.1745498519
 20
6.0287275467
 30
0.0
 10
5.1750035378
 20
6.0298465781
 30
0.0
 10
5.1755111653
 20
6.0315659801
 30
0.0
 10
5.1758356922
 20
6.0332973296
 30
0.0
 10
5.1759771887
 20
6.0350351297
 30
0.0
 10
5.1759364228
 20
6.0367742289
 30
0.0
 10
5.1757148089
 20
6.0385094654
 30
0.0
 10
5.1753143628
 20
6.0402358988
 30
0.0
 10
5.1747376022
 20
6.0419488273
 30
0.0
 10
5.1739875157
 20
6.0436438274
 30
0.0
 10
5.1730674143
 20
6.0453167243
 30
0.0
 10
5.1719808792
 20
6.0469634969
 30
0.0
 10
5.1707319166
 20
6.0485804049
 30
0.0
 10
5.1693245642
 20
6.0501638007
 30
0.0
 10
5.1677631793
 20
6.0517102708
 30
0.0
 10
5.1660526228
 20
6.0532161629
 30
0.0
 10
5.1648379383
 20
6.0541738779
 30
0.0
 10
5.1642082496
 20
6.0546455809
 30
0.0
  0
SPLINE
  5
2CC
100
AcDbEntity
  8
0
100
AcDbSpline
 62
6
  6
CONTINUOUS
 70
0
 71
3
 72
65
 73
61
 74
0
 42
0.0000001
 43
0.0000001
 44
0.0000000001
 40
0.0
 40
0.0
 40
0.0
 40
0.0
 40
0.0112691408
 40
0.0226966411
 40
0.0343222428
 40
0.0461827224
 40
0.0583133599
 40
0.0707463625
 40
0.0966151413
 40
0.1101012054
 40
0.1239697853
 40
0.1382299802
 40
0.1528862269
 40
0.1679397569
 40
0.1833890758
 40
0.1992286975
 40
0.2154502292
 40
0.2320434092
 40
0.2489952182
 40
0.2662899539
 40
0.2839105507
 40
0.3018382414
 40
0.3200518882
 40
0.3385292353
 40
0.3572470588
 40
0.3761803688
 40
0.3953031562
 40
0.4340070109
 40
0.4731378659
 40
0.4927922588
 40
0.5124655385
 40
0.5321276687
 40
0.5517485337
 40
0.5712980829
 40
0.5907462037
 40
0.6292160185
 40
0.6669257754
 40
0.6854254518
 40
0.703651096
 40
0.7391715483
 40
0.7564197515
 40
0.7732945391
 40
0.7897737427
 40
0.8058377125
 40
0.8214683668
 40
0.8366487931
 40
0.8513649369
 40
0.8656055794
 40
0.8793612855
 40
0.8926257549
 40
0.9053970828
 40
0.9176763487
 40
0.9294684499
 40
0.9407842848
 40
0.9516396666
 40
0.9620556256
 40
0.9720605969
 40
0.9816901651
 40
0.9909865954
 40
1.0
 40
1.0
 40
1.0
 40
1.0
 10
5.1742948656
 20
6.0281732688
 30
0.0
 10
5.1742017388
 20
6.0276166996
 30
0.0
 10
5.1739697374
 20
6.0265027031
 30
0.0
 10
5.173491184
 20
6.0248503685
 30
0.0
 10
5.1728812418
 20
6.0232102246
 30
0.0
 10
5.1721410152
 20
6.021585986
 30
0.0
 10
5.171272252
 20
6.0199806285
 30
0.0
 10
5.1699278359
 20
6.0178411204
 30
0.0
 10
5.1683441957
 20
6.0157785814
 30
0.0
 10
5.1665541915
 20
6.0138029253
 30
0.0
 10
5.1650760718
 20
6.0123326063
 30
0.0
 10
5.1634842272
 20
6.0108974827
 30
0.0
 10
5.1617820122
 20
6.0094997252
 30
0.0
 10
5.1599729288
 20
6.0081417777
 30
0.0
 10
5.1580605244
 20
6.0068261513
 30
0.0
 10
5.1560488078
 20
6.0055549869
 30
0.0
 10
5.1539419372
 20
6.0043303862
 30
0.0
 10
5.1517441129
 20
6.0031545994
 30
0.0
 10
5.149459836
 20
6.0020296119
 30
0.0
 10
5.1470938551
 20
6.0009571657
 30
0.0
 10
5.1446509522
 20
5.9999391407
 30
0.0
 10
5.1421360761
 20
5.9989773227
 30
0.0
 10
5.1395544456
 20
5.9980730957
 30
0.0
 10
5.1369113279
 20
5.9972279278
 30
0.0
 10
5.1342120754
 20
5.9964433202
 30
0.0
 10
5.131462241
 20
5.9957203241
 30
0.0
 10
5.1277211283
 20
5.9948363812
 30
0.0
 10
5.1229560811
 20
5.993894765
 30
0.0
 10
5.1181258875
 20
5.9931741595
 30
0.0
 10
5.1142221492
 20
5.9927282548
 30
0.0
 10
5.1112801807
 20
5.9924596992
 30
0.0
 10
5.1083345921
 20
5.9922577091
 30
0.0
 10
5.1053913896
 20
5.99212245
 30
0.0
 10
5.1024565914
 20
5.9920536403
 30
0.0
 10
5.0985771065
 20
5.9920501394
 30
0.0
 10
5.0937893579
 20
5.9922083078
 30
0.0
 10
5.0890612685
 20
5.9925837256
 30
0.0
 10
5.0853583774
 20
5.9930131715
 30
0.0
 10
5.0817757645
 20
5.9935179432
 30
0.0
 10
5.0782745818
 20
5.9941455147
 30
0.0
 10
5.0748692579
 20
5.994899374
 30
0.0
 10
5.0724110383
 20
5.9955155962
 30
0.0
 10
5.0700287712
 20
5.9961866621
 30
0.0
 10
5.0677272644
 20
5.9969106952
 30
0.0
 10
5.0655111854
 20
5.9976857325
 30
0.0
 10
5.0633851153
 20
5.9985099442
 30
0.0
 10
5.0613533918
 20
5.9993812501
 30
0.0
 10
5.0594200757
 20
6.000297334
 30
0.0
 10
5.0575891443
 20
6.001256026
 30
0.0
 10
5.0558643937
 20
6.0022551085
 30
0.0
 10
5.0542492152
 20
6.0032919932
 30
0.0
 10
5.052746884
 20
6.0043642181
 30
0.0
 10
5.0513606071
 20
6.0054694399
 30
0.0
 10
5.0500930983
 20
6.006604925
 30
0.0
 10
5.0489468797
 20
6.0077679931
 30
0.0
 10
5.0479245177
 20
6.0089561534
 30
0.0
 10
5.0470281516
 20
6.010166628
 30
0.0
 10
5.0462595458
 20
6.0113966004
 30
0.0
 10
5.0456206582
 20
6.0126431934
 30
0.0
 10
5.0452776239
 20
6.0134951862
 30
0.0
 10
5.045129542
 20
6.0139215525
 30
0.0
  0
SPLINE
  5
2CD
100
AcDbEntity
  8
0
100
AcDbSpline
 62
6
  6
CONTINUOUS
 70
0
 71
3
 72
11
 73
7
 74
0
 42
0.0000001
 43
0.0000001
 44
0.0000000001
 40
0.0
 40
0.0
 40
0.0
 40
0.0
 40
0.2467697264
 40
0.4960939713
 40
0.7473696627
 40
1.0
 40
1.0
 40
1.0
 40
1.0
 10
4.7690702461
 20
2.9233579825
 30
0.0
 10
4.7709964932
 20
2.923493489
 30
0.0
 10
4.7748710953
 20
2.9237358438
 30
0.0
 10
4.7807127466
 20
2.9240176925
 30
0.0
 10
4.786603459
 20
2.9242231202
 30
0.0
 10
4.7905457432
 20
2.9243105611
 30
0.0
 10
4.7925223555
 20
2.9243423299
 30
0.0
  0
SPLINE
  5
2CE
100
AcDbEntity
  8
0
100
AcDbSpline
 62
6
  6
CONTINUOUS
 70
0
 71
3
 72
63
 73
59
 74
0
 42
0.0000001
 43
0.0000001
 44
0.0000000001
 40
0.0
 40
0.0
 40
0.0
 40
0.0
 40
0.0434600108
 40
0.0863145048
 40
0.1284485351
 40
0.1697553798
 40
0.2101280499
 40
0.2494637478
 40
0.2687119854
 40
0.2876640696
 40
0.3063082697
 40
0.3246332962
 40
0.342628109
 40
0.3602823466
 40
0.3775860442
 40
0.394530029
 40
0.4111059141
 40
0.4273062029
 40
0.4431246894
 40
0.4585563297
 40
0.4735978926
 40
0.4882478433
 40
0.5025070139
 40
0.516378693
 40
0.5298691961
 40
0.5429881812
 40
0.5557491062
 40
0.5681696593
 40
0.5802720822
 40
0.5920835307
 40
0.6036361597
 40
0.6149671851
 40
0.6261185565
 40
0.6371365019
 40
0.6480706755
 40
0.658973107
 40
0.6698969563
 40
0.6808950568
 40
0.6920186937
 40
0.7033161313
 40
0.7148318783
 40
0.7266055398
 40
0.7510476151
 40
0.7637808744
 40
0.7768780233
 40
0.790352874
 40
0.8042145859
 40
0.8184685093
 40
0.833116353
 40
0.848156885
 40
0.8635862466
 40
0.8793984123
 40
0.8955856362
 40
0.9121386344
 40
0.9290471395
 40
0.9462998531
 40
0.9638850123
 40
1.0
 40
1.0
 40
1.0
 40
1.0
 10
4.7690702461
 20
2.9233579825
 30
0.0
 10
4.7672953308
 20
2.9232538544
 30
0.0
 10
4.7637717334
 20
2.9230202097
 30
0.0
 10
4.7585345372
 20
2.9225864455
 30
0.0
 10
4.7533934956
 20
2.9220682057
 30
0.0
 10
4.7483643081
 20
2.9214617294
 30
0.0
 10
4.7434627028
 20
2.9207627441
 30
0.0
 10
4.7394693626
 20
2.9200945937
 30
0.0
 10
4.7363521305
 20
2.9195070364
 30
0.0
 10
4.7340732211
 20
2.9190432603
 30
0.0
 10
4.7318386072
 20
2.9185525438
 30
0.0
 10
4.7296504487
 20
2.9180342215
 30
0.0
 10
4.7275109484
 20
2.9174876073
 30
0.0
 10
4.7254223516
 20
2.9169120287
 30
0.0
 10
4.7233869424
 20
2.916306812
 30
0.0
 10
4.7214070535
 20
2.9156712901
 30
0.0
 10
4.7194850591
 20
2.9150048186
 30
0.0
 10
4.7176233755
 20
2.9143067707
 30
0.0
 10
4.7158244689
 20
2.9135765435
 30
0.0
 10
4.7140908283
 20
2.9128135902
 30
0.0
 10
4.7124250013
 20
2.9120173735
 30
0.0
 10
4.7108295322
 20
2.9111874592
 30
0.0
 10
4.7093070235
 20
2.9103234169
 30
0.0
 10
4.7078600493
 20
2.9094249519
 30
0.0
 10
4.7064912253
 20
2.9084917906
 30
0.0
 10
4.7052031181
 20
2.9075238101
 30
0.0
 10
4.7039983041
 20
2.9065209451
 30
0.0
 10
4.7028792904
 20
2.9054832879
 30
0.0
 10
4.7018485514
 20
2.9044110339
 30
0.0
 10
4.700908466
 20
2.903304549
 30
0.0
 10
4.7000613309
 20
2.9021643466
 30
0.0
 10
4.6993093017
 20
2.9009911358
 30
0.0
 10
4.6986543991
 20
2.8997858069
 30
0.0
 10
4.6980984237
 20
2.8985494737
 30
0.0
 10
4.697642992
 20
2.8972834407
 30
0.0
 10
4.6972893927
 20
2.8959892388
 30
0.0
 10
4.6970387033
 20
2.8946685649
 30
0.0
 10
4.6968915715
 20
2.8933233029
 30
0.0
 10
4.6968484519
 20
2.891955455
 30
0.0
 10
4.6969093069
 20
2.89056716
 30
0.0
 10
4.6970739813
 20
2.8891605646
 30
0.0
 10
4.697435458
 20
2.8872403141
 30
0.0
 10
4.6980032473
 20
2.8853134136
 30
0.0
 10
4.698754609
 20
2.8833981678
 30
0.0
 10
4.6994241987
 20
2.8819352676
 30
0.0
 10
4.7001903314
 20
2.8804684617
 30
0.0
 10
4.7010510354
 20
2.8789999867
 30
0.0
 10
4.7020042592
 20
2.8775323281
 30
0.0
 10
4.7030477171
 20
2.8760678172
 30
0.0
 10
4.7041791121
 20
2.8746088363
 30
0.0
 10
4.7053959671
 20
2.8731576497
 30
0.0
 10
4.7066958179
 20
2.8717165334
 30
0.0
 10
4.7080760804
 20
2.8702876478
 30
0.0
 10
4.7095342013
 20
2.8688731374
 30
0.0
 10
4.7110675562
 20
2.867475047
 30
0.0
 10
4.7126735852
 20
2.8660953567
 30
0.0
 10
4.7149282604
 20
2.864266763
 30
0.0
 10
4.7166910391
 20
2.8629534208
 30
0.0
 10
4.717897395
 20
2.8621003967
 30
0.0
  0
SPLINE
  5
2CF
100
AcDbEntity
  8
0
100
AcDbSpline
 62
6
  6
CONTINUOUS
 70
0
 71
3
 72
15
 73
11
 74
0
 42
0.0000001
 43
0.0000001
 44
0.0000000001
 40
0.0
 40
0.0
 40
0.0
 40
0.0
 40
0.1280801764
 40
0.2558335462
 40
0.382965924
 40
0.5092071949
 40
0.6342854135
 40
0.7579388214
 40
0.8799258942
 40
1.0
 40
1.0
 40
1.0
 40
1.0
 10
4.7925223555
 20
2.9243423299
 30
0.0
 10
4.7938504003
 20
2.9243397043
 30
0.0
 10
4.7965030976
 20
2.9243185721
 30
0.0
 10
4.8004733201
 20
2.9242390373
 30
0.0
 10
4.8044232185
 20
2.9241113566
 30
0.0
 10
4.8083434843
 20
2.923935056
 30
0.0
 10
4.8122250974
 20
2.9237094657
 30
0.0
 10
4.8160592633
 20
2.9234337647
 30
0.0
 10
4.8198373372
 20
2.9231069676
 30
0.0
 10
4.822334398
 20
2.922852145
 30
0.0
 10
4.8235719038
 20
2.922715443
 30
0.0
  0
SPLINE
  5
2D0
100
AcDbEntity
  8
0
100
AcDbSpline
 62
6
  6
CONTINUOUS
 70
0
 71
3
 72
23
 73
19
 74
0
 42
0.0000001
 43
0.0000001
 44
0.0000000001
 40
0.0
 40
0.0
 40
0.0
 40
0.0
 40
0.0761084415
 40
0.1508736937
 40
0.2241492543
 40
0.2958062227
 40
0.3657210589
 40
0.4337835192
 40
0.4998960207
 40
0.5639757071
 40
0.6259562132
 40
0.6857896989
 40
0.7434492001
 40
0.7989312274
 40
0.8522588036
 40
0.903483268
 40
0.9526913132
 40
1.0
 40
1.0
 40
1.0
 40
1.0
 10
4.8235719038
 20
2.922715443
 30
0.0
 10
4.8249722381
 20
2.9224336036
 30
0.0
 10
4.8277400773
 20
2.9218335452
 30
0.0
 10
4.8318224742
 20
2.9208150176
 30
0.0
 10
4.8357896624
 20
2.9196883438
 30
0.0
 10
4.8396301187
 20
2.9184568268
 30
0.0
 10
4.8433328367
 20
2.917123975
 30
0.0
 10
4.8468871429
 20
2.915693632
 30
0.0
 10
4.8502828245
 20
2.9141698967
 30
0.0
 10
4.8535101258
 20
2.9125571325
 30
0.0
 10
4.8565597808
 20
2.9108599437
 30
0.0
 10
4.8594230369
 20
2.9090831566
 30
0.0
 10
4.862091674
 20
2.9072318029
 30
0.0
 10
4.8645580373
 20
2.905311095
 30
0.0
 10
4.8668150014
 20
2.9033264324
 30
0.0
 10
4.8688561187
 20
2.9012832868
 30
0.0
 10
4.8706752272
 20
2.8991875303
 30
0.0
 10
4.8717568079
 20
2.8977316262
 30
0.0
 10
4.8722560699
 20
2.8969973932
 30
0.0
  0
SPLINE
  5
2D1
100
AcDbEntity
  8
0
100
AcDbSpline
 62
6
  6
CONTINUOUS
 70
0
 71
3
 72
15
 73
11
 74
0
 42
0.0000001
 43
0.0000001
 44
0.0000000001
 40
0.0
 40
0.0
 40
0.0
 40
0.0
 40
0.1243413705
 40
0.2495528592
 40
0.375295444
 40
0.5012323352
 40
0.6270171535
 40
0.7523035877
 40
0.876745324
 40
1.0
 40
1.0
 40
1.0
 40
1.0
 10
4.7690702461
 20
2.9233579825
 30
0.0
 10
4.7707360635
 20
2.9232699142
 30
0.0
 10
4.7740768706
 20
2.9230419206
 30
0.0
 10
4.7790879651
 20
2.9225450949
 30
0.0
 10
4.7841025192
 20
2.9218901478
 30
0.0
 10
4.789101497
 20
2.9210758866
 30
0.0
 10
4.7940655778
 20
2.9201016267
 30
0.0
 10
4.7989750353
 20
2.9189672961
 30
0.0
 10
4.8038097488
 20
2.9176734523
 30
0.0
 10
4.806987866
 20
2.9166997198
 30
0.0
 10
4.8085594722
 20
2.9161855888
 30
0.0
  0
SPLINE
  5
2D2
100
AcDbEntity
  8
0
100
AcDbSpline
 62
6
  6
CONTINUOUS
 70
0
 71
3
 72
35
 73
31
 74
0
 42
0.0000001
 43
0.0000001
 44
0.0000000001
 40
0.0
 40
0.0
 40
0.0
 40
0.0
 40
0.0761127347
 40
0.1519174431
 40
0.2269868761
 40
0.264117611
 40
0.3009103082
 40
0.3373162945
 40
0.3732887435
 40
0.4087827067
 40
0.4437554008
 40
0.4781665196
 40
0.5119783203
 40
0.5451561148
 40
0.5776684157
 40
0.6094872332
 40
0.6405886003
 40
0.6709526721
 40
0.7005643182
 40
0.7294135111
 40
0.7574956074
 40
0.7848121083
 40
0.8113709037
 40
0.8371868545
 40
0.8622824193
 40
0.9104203202
 40
0.9335703429
 40
0.9561723815
 40
0.9782912618
 40
1.0
 40
1.0
 40
1.0
 40
1.0
 10
4.7925223555
 20
2.9243423299
 30
0.0
 10
4.7950089388
 20
2.924206568
 30
0.0
 10
4.7999668281
 20
2.9238268994
 30
0.0
 10
4.8073417377
 20
2.9229326722
 30
0.0
 10
4.8134108933
 20
2.9219165294
 30
0.0
 10
4.8181877995
 20
2.9209425627
 30
0.0
 10
4.8217069179
 20
2.9201368763
 30
0.0
 10
4.825168506
 20
2.9192545481
 30
0.0
 10
4.8285659203
 20
2.9182969272
 30
0.0
 10
4.8318926071
 20
2.9172654819
 30
0.0
 10
4.8351421596
 20
2.9161618307
 30
0.0
 10
4.8383083246
 20
2.9149877496
 30
0.0
 10
4.8413849989
 20
2.9137451086
 30
0.0
 10
4.8443662663
 20
2.9124359487
 30
0.0
 10
4.8472463898
 20
2.9110624184
 30
0.0
 10
4.8500198213
 20
2.9096267726
 30
0.0
 10
4.8526812374
 20
2.9081314224
 30
0.0
 10
4.8552255105
 20
2.906578846
 30
0.0
 10
4.8576477491
 20
2.9049716513
 30
0.0
 10
4.8599433038
 20
2.903312553
 30
0.0
 10
4.8621077374
 20
2.9016043263
 30
0.0
 10
4.8641369058
 20
2.899849863
 30
0.0
 10
4.8660268529
 20
2.8980521701
 30
0.0
 10
4.867774038
 20
2.8962141018
 30
0.0
 10
4.8698789772
 20
2.893748716
 30
0.0
 10
4.8717242583
 20
2.8911802659
 30
0.0
 10
4.8732699469
 20
2.8885234459
 30
0.0
 10
4.874257229
 20
2.8865323338
 30
0.0
 10
4.8750852553
 20
2.8845209021
 30
0.0
 10
4.8755337125
 20
2.8831572163
 30
0.0
 10
4.8757298303
 20
2.8824745535
 30
0.0
  0
SPLINE
  5
2D3
100
AcDbEntity
  8
0
100
AcDbSpline
 62
6
  6
CONTINUOUS
 70
0
 71
3
 72
35
 73
31
 74
0
 42
0.0000001
 43
0.0000001
 44
0.0000000001
 40
0.0
 40
0.0
 40
0.0
 40
0.0
 40
0.0389471598
 40
0.0779747838
 40
0.1559288898
 40
0.2332894896
 40
0.3095161628
 40
0.3470386021
 40
0.3840795849
 40
0.4205774995
 40
0.4564736396
 40
0.491711256
 40
0.5262376652
 40
0.5600033611
 40
0.5929627225
 40
0.6250756122
 40
0.6563059171
 40
0.6866249075
 40
0.7160097472
 40
0.7444452093
 40
0.7719238854
 40
0.7984472464
 40
0.8240264588
 40
0.8486837047
 40
0.8724530838
 40
0.917497733
 40
0.9389389741
 40
0.9597665035
 40
0.9800835431
 40
1.0
 40
1.0
 40
1.0
 40
1.0
 10
4.7857560141
 20
2.8488429071
 30
0.0
 10
4.7868173038
 20
2.8487928798
 30
0.0
 10
4.7889434211
 20
2.8487190347
 30
0.0
 10
4.7931972215
 20
2.8486756532
 30
0.0
 10
4.7984993173
 20
2.848816379
 30
0.0
 10
4.8047999954
 20
2.8492952484
 30
0.0
 10
4.8099744438
 20
2.8499520124
 30
0.0
 10
4.8140319864
 20
2.8506307428
 30
0.0
 10
4.8170060813
 20
2.8512106965
 30
0.0
 10
4.8199197229
 20
2.8518628996
 30
0.0
 10
4.8227659712
 20
2.8525856335
 30
0.0
 10
4.8255379485
 20
2.8533773208
 30
0.0
 10
4.8282290086
 20
2.8542359606
 30
0.0
 10
4.8308326811
 20
2.8551594801
 30
0.0
 10
4.8333426582
 20
2.8561457666
 30
0.0
 10
4.8357529574
 20
2.8571922686
 30
0.0
 10
4.8380577295
 20
2.8582966429
 30
0.0
 10
4.8402515055
 20
2.8594561218
 30
0.0
 10
4.8423290339
 20
2.8606680164
 30
0.0
 10
4.8442853842
 20
2.8619294262
 30
0.0
 10
4.8461158937
 20
2.863237386
 30
0.0
 10
4.8478162143
 20
2.8645888395
 30
0.0
 10
4.8493822385
 20
2.8659805651
 30
0.0
 10
4.8508103752
 20
2.8674095555
 30
0.0
 10
4.8524952159
 20
2.8693249136
 30
0.0
 10
4.853933178
 20
2.8713366902
 30
0.0
 10
4.8550774103
 20
2.8734282979
 30
0.0
 10
4.8557694766
 20
2.8749914949
 30
0.0
 10
4.8563070643
 20
2.8765703514
 30
0.0
 10
4.8565637518
 20
2.8776394599
 30
0.0
 10
4.8566649444
 20
2.8781732688
 30
0.0
  0
SPLINE
  5
2D4
100
AcDbEntity
  8
0
100
AcDbSpline
 62
6
  6
CONTINUOUS
 70
0
 71
3
 72
23
 73
19
 74
0
 42
0.0000001
 43
0.0000001
 44
0.0000000001
 40
0.0
 40
0.0
 40
0.0
 40
0.0
 40
0.0593208019
 40
0.1171934142
 40
0.1740303072
 40
0.2302831793
 40
0.2864089021
 40
0.3428604106
 40
0.4000714632
 40
0.4584429146
 40
0.5183329345
 40
0.5800520518
 40
0.6438607456
 40
0.7099663025
 40
0.7785312943
 40
0.8496839124
 40
0.9235031183
 40
1.0
 40
1.0
 40
1.0
 40
1.0
 10
4.8566649444
 20
2.8781732688
 30
0.0
 10
4.8569199306
 20
2.8787275467
 30
0.0
 10
4.8573736166
 20
2.8798465781
 30
0.0
 10
4.857881244
 20
2.8815659801
 30
0.0
 10
4.8582057709
 20
2.8832973296
 30
0.0
 10
4.8583472674
 20
2.8850351297
 30
0.0
 10
4.8583065015
 20
2.8867742289
 30
0.0
 10
4.8580848877
 20
2.8885094654
 30
0.0
 10
4.8576844416
 20
2.8902358988
 30
0.0
 10
4.857107681
 20
2.8919488273
 30
0.0
 10
4.8563575944
 20
2.8936438274
 30
0.0
 10
4.8554374931
 20
2.8953167243
 30
0.0
 10
4.8543509579
 20
2.8969634969
 30
0.0
 10
4.8531019953
 20
2.8985804049
 30
0.0
 10
4.8516946429
 20
2.9001638007
 30
0.0
 10
4.850133258
 20
2.9017102708
 30
0.0
 10
4.8484227015
 20
2.9032161629
 30
0.0
 10
4.847208017
 20
2.9041738779
 30
0.0
 10
4.8465783284
 20
2.9046455809
 30
0.0
  0
SPLINE
  5
2D5
100
AcDbEntity
  8
0
100
AcDbSpline
 62
6
  6
CONTINUOUS
 70
0
 71
3
 72
65
 73
61
 74
0
 42
0.0000001
 43
0.0000001
 44
0.0000000001
 40
0.0
 40
0.0
 40
0.0
 40
0.0
 40
0.0112691408
 40
0.0226966411
 40
0.0343222428
 40
0.0461827224
 40
0.0583133599
 40
0.0707463625
 40
0.0966151413
 40
0.1101012054
 40
0.1239697853
 40
0.1382299802
 40
0.1528862269
 40
0.1679397569
 40
0.1833890758
 40
0.1992286975
 40
0.2154502292
 40
0.2320434092
 40
0.2489952182
 40
0.2662899539
 40
0.2839105507
 40
0.3018382414
 40
0.3200518882
 40
0.3385292353
 40
0.3572470588
 40
0.3761803688
 40
0.3953031562
 40
0.4340070109
 40
0.4731378659
 40
0.4927922588
 40
0.5124655385
 40
0.5321276687
 40
0.5517485337
 40
0.5712980829
 40
0.5907462037
 40
0.6292160185
 40
0.6669257754
 40
0.6854254518
 40
0.703651096
 40
0.7391715483
 40
0.7564197515
 40
0.7732945391
 40
0.7897737427
 40
0.8058377125
 40
0.8214683668
 40
0.8366487931
 40
0.8513649369
 40
0.8656055794
 40
0.8793612855
 40
0.8926257549
 40
0.9053970828
 40
0.9176763487
 40
0.9294684499
 40
0.9407842848
 40
0.9516396666
 40
0.9620556256
 40
0.9720605969
 40
0.9816901651
 40
0.9909865954
 40
1.0
 40
1.0
 40
1.0
 40
1.0
 10
4.8566649444
 20
2.8781732688
 30
0.0
 10
4.8565718176
 20
2.8776166996
 30
0.0
 10
4.8563398161
 20
2.8765027031
 30
0.0
 10
4.8558612628
 20
2.8748503685
 30
0.0
 10
4.8552513206
 20
2.8732102246
 30
0.0
 10
4.854511094
 20
2.871585986
 30
0.0
 10
4.8536423307
 20
2.8699806285
 30
0.0
 10
4.8522979147
 20
2.8678411204
 30
0.0
 10
4.8507142745
 20
2.8657785814
 30
0.0
 10
4.8489242703
 20
2.8638029253
 30
0.0
 10
4.8474461506
 20
2.8623326063
 30
0.0
 10
4.8458543059
 20
2.8608974827
 30
0.0
 10
4.844152091
 20
2.8594997252
 30
0.0
 10
4.8423430075
 20
2.8581417777
 30
0.0
 10
4.8404306031
 20
2.8568261513
 30
0.0
 10
4.8384188865
 20
2.8555549869
 30
0.0
 10
4.836312016
 20
2.8543303862
 30
0.0
 10
4.8341141916
 20
2.8531545994
 30
0.0
 10
4.8318299148
 20
2.8520296119
 30
0.0
 10
4.8294639338
 20
2.8509571657
 30
0.0
 10
4.8270210309
 20
2.8499391407
 30
0.0
 10
4.8245061549
 20
2.8489773227
 30
0.0
 10
4.8219245244
 20
2.8480730957
 30
0.0
 10
4.8192814066
 20
2.8472279278
 30
0.0
 10
4.8165821541
 20
2.8464433202
 30
0.0
 10
4.8138323197
 20
2.8457203241
 30
0.0
 10
4.8100912071
 20
2.8448363812
 30
0.0
 10
4.8053261598
 20
2.843894765
 30
0.0
 10
4.8004959663
 20
2.8431741595
 30
0.0
 10
4.796592228
 20
2.8427282548
 30
0.0
 10
4.7936502595
 20
2.8424596992
 30
0.0
 10
4.7907046708
 20
2.8422577091
 30
0.0
 10
4.7877614683
 20
2.84212245
 30
0.0
 10
4.7848266701
 20
2.8420536403
 30
0.0
 10
4.7809471852
 20
2.8420501394
 30
0.0
 10
4.7761594366
 20
2.8422083078
 30
0.0
 10
4.7714313472
 20
2.8425837256
 30
0.0
 10
4.7677284562
 20
2.8430131715
 30
0.0
 10
4.7641458433
 20
2.8435179432
 30
0.0
 10
4.7606446606
 20
2.8441455147
 30
0.0
 10
4.7572393367
 20
2.844899374
 30
0.0
 10
4.7547811171
 20
2.8455155962
 30
0.0
 10
4.75239885
 20
2.8461866621
 30
0.0
 10
4.7500973432
 20
2.8469106952
 30
0.0
 10
4.7478812642
 20
2.8476857325
 30
0.0
 10
4.7457551941
 20
2.8485099442
 30
0.0
 10
4.7437234705
 20
2.8493812501
 30
0.0
 10
4.7417901544
 20
2.850297334
 30
0.0
 10
4.7399592231
 20
2.851256026
 30
0.0
 10
4.7382344724
 20
2.8522551085
 30
0.0
 10
4.736619294
 20
2.8532919932
 30
0.0
 10
4.7351169628
 20
2.8543642181
 30
0.0
 10
4.7337306859
 20
2.8554694399
 30
0.0
 10
4.7324631771
 20
2.856604925
 30
0.0
 10
4.7313169584
 20
2.8577679931
 30
0.0
 10
4.7302945964
 20
2.8589561534
 30
0.0
 10
4.7293982303
 20
2.860166628
 30
0.0
 10
4.7286296245
 20
2.8613966004
 30
0.0
 10
4.727990737
 20
2.8626431934
 30
0.0
 10
4.7276477027
 20
2.8634951862
 30
0.0
 10
4.7274996207
 20
2.8639215525
 30
0.0
  0
SPLINE
  5
2D6
100
AcDbEntity
  8
0
100
AcDbSpline
 62
6
  6
CONTINUOUS
 70
0
 71
3
 72
64
 73
60
 74
0
 42
0.0000001
 43
0.0000001
 44
0.0000000001
 40
0.0
 40
0.0
 40
0.0
 40
0.0
 40
0.0369352586
 40
0.0549471517
 40
0.0726390887
 40
0.090000184
 40
0.1070199117
 40
0.1236886134
 40
0.1399973789
 40
0.1559385482
 40
0.1715058284
 40
0.1866946305
 40
0.2015024706
 40
0.215929181
 40
0.2299774836
 40
0.2436531722
 40
0.2569657076
 40
0.2699284117
 40
0.2825589449
 40
0.2948794561
 40
0.3069168096
 40
0.3187025485
 40
0.3302727437
 40
0.3416676075
 40
0.3529308834
 40
0.3641090418
 40
0.3752502695
 40
0.386403379
 40
0.3976166449
 40
0.4089367327
 40
0.4204077134
 40
0.432070314
 40
0.4439613273
 40
0.4561133152
 40
0.4685544168
 40
0.4813084606
 40
0.4943950175
 40
0.5078298103
 40
0.5216248258
 40
0.5357889038
 40
0.5503278121
 40
0.5652448616
 40
0.5805410018
 40
0.5962152509
 40
0.6122649745
 40
0.6286859542
 40
0.6454729225
 40
0.6626193416
 40
0.6801179501
 40
0.6979606403
 40
0.716138626
 40
0.7346427134
 40
0.7534630495
 40
0.7920106599
 40
0.8316975314
 40
0.8724343503
 40
0.9141274122
 40
0.9566834288
 40
1.0
 40
1.0
 40
1.0
 40
1.0
 10
5.1834632668
 20
6.0121003969
 30
0.0
 10
5.1846072291
 20
6.012909301
 30
0.0
 10
5.1862811479
 20
6.0141531175
 30
0.0
 10
5.1884276374
 20
6.0158811642
 30
0.0
 10
5.1899615886
 20
6.0171849492
 30
0.0
 10
5.1914307916
 20
6.0185056189
 30
0.0
 10
5.1928330704
 20
6.0198415016
 30
0.0
 10
5.1941661881
 20
6.0211908763
 30
0.0
 10
5.1954279693
 20
6.0225519339
 30
0.0
 10
5.1966162016
 20
6.0239228583
 30
0.0
 10
5.1977287662
 20
6.0253017339
 30
0.0
 10
5.1987635308
 20
6.0266866501
 30
0.0
 10
5.1997184848
 20
6.0280756086
 30
0.0
 10
5.2005916438
 20
6.0294666189
 30
0.0
 10
5.2013811658
 20
6.0308576293
 30
0.0
 10
5.2020852856
 20
6.0322465959
 30
0.0
 10
5.2027023958
 20
6.0336314461
 30
0.0
 10
5.2032310202
 20
6.0350101184
 30
0.0
 10
5.2036698529
 20
6.0363805536
 30
0.0
 10
5.204017772
 20
6.0377407113
 30
0.0
 10
5.2042738384
 20
6.0390885783
 30
0.0
 10
5.2044373455
 20
6.0404221734
 30
0.0
 10
5.2045077844
 20
6.0417395628
 30
0.0
 10
5.2044849214
 20
6.0430388662
 30
0.0
 10
5.204368735
 20
6.0443182733
 30
0.0
 10
5.20415951
 20
6.0455760633
 30
0.0
 10
5.2038577433
 20
6.0468106145
 30
0.0
 10
5.2034642453
 20
6.0480204436
 30
0.0
 10
5.2029800071
 20
6.0492041931
 30
0.0
 10
5.2024063123
 20
6.0503606894
 30
0.0
 10
5.2017445633
 20
6.0514888884
 30
0.0
 10
5.2009964178
 20
6.0525879588
 30
0.0
 10
5.2001635813
 20
6.0536571697
 30
0.0
 10
5.1992479776
 20
6.0546960157
 30
0.0
 10
5.1982515195
 20
6.0557040447
 30
0.0
 10
5.1971763044
 20
6.0566810316
 30
0.0
 10
5.1960243826
 20
6.0576267612
 30
0.0
 10
5.1947979496
 20
6.0585412326
 30
0.0
 10
5.1934991438
 20
6.0594244362
 30
0.0
 10
5.1921301966
 20
6.0602765384
 30
0.0
 10
5.1906932946
 20
6.0610977122
 30
0.0
 10
5.189190658
 20
6.0618882429
 30
0.0
 10
5.1876244837
 20
6.0626484579
 30
0.0
 10
5.1859969517
 20
6.063378731
 30
0.0
 10
5.1843102323
 20
6.064079504
 30
0.0
 10
5.1825664518
 20
6.0647512265
 30
0.0
 10
5.1807677237
 20
6.065394408
 30
0.0
 10
5.1789161146
 20
6.0660095658
 30
0.0
 10
5.1770136641
 20
6.0665972432
 30
0.0
 10
5.175062374
 20
6.0671580017
 30
0.0
 10
5.1730642092
 20
6.067692407
 30
0.0
 10
5.1710210985
 20
6.0682010363
 30
0.0
 10
5.168217241
 20
6.0688507667
 30
0.0
 10
5.1646119132
 20
6.0695989459
 30
0.0
 10
5.1601694733
 20
6.07039612
 30
0.0
 10
5.1555912178
 20
6.0711039725
 30
0.0
 10
5.1508908636
 20
6.0717266296
 30
0.0
 10
5.1460820154
 20
6.0722678578
 30
0.0
 10
5.1428388717
 20
6.0725742495
 30
0.0
 10
5.1412018251
 20
6.072715443
 30
0.0
  0
LINE
  5
2D7
100
AcDbEntity
  8
0
100
AcDbLine
 62
6
  6
CONTINUOUS
 10
5.1691684298
 20
6.0514027183
 11
5.1748610074
 21
6.0469423205
  0
SPLINE
  5
2D8
100
AcDbEntity
  8
0
100
AcDbSpline
 62
6
  6
CONTINUOUS
 70
0
 71
3
 72
21
 73
17
 74
0
 42
0.0000001
 43
0.0000001
 44
0.0000000001
 40
0.0
 40
0.0
 40
0.0
 40
0.0
 40
0.140639183
 40
0.2090344643
 40
0.2761633581
 40
0.4067020924
 40
0.470215555
 40
0.5326145322
 40
0.593955089
 40
0.6543026734
 40
0.7137289684
 40
0.7723106129
 40
0.8301323178
 40
0.8872884173
 40
0.9438772671
 40
1.0
 40
1.0
 40
1.0
 40
1.0
 10
5.1748610074
 20
6.0469423205
 30
0.0
 10
5.1759229463
 20
6.0460170877
 30
0.0
 10
5.1774577706
 20
6.0445903019
 30
0.0
 10
5.1793802079
 20
6.0426013156
 30
0.0
 10
5.1811609377
 20
6.0406185851
 30
0.0
 10
5.182797971
 20
6.0385743811
 30
0.0
 10
5.1842768998
 20
6.0364739139
 30
0.0
 10
5.1852911572
 20
6.0348958599
 30
0.0
 10
5.1862195135
 20
6.0333023852
 30
0.0
 10
5.1870613755
 20
6.0316950642
 30
0.0
 10
5.1878161979
 20
6.0300754841
 30
0.0
 10
5.1884834292
 20
6.0284451653
 30
0.0
 10
5.1890626204
 20
6.026805605
 30
0.0
 10
5.1895536113
 20
6.0251582887
 30
0.0
 10
5.1899562338
 20
6.0235047122
 30
0.0
 10
5.1901663726
 20
6.022395056
 30
0.0
 10
5.1902564503
 20
6.021840267
 30
0.0
  0
SPLINE
  5
2D9
100
AcDbEntity
  8
0
100
AcDbSpline
 62
6
  6
CONTINUOUS
 70
0
 71
3
 72
38
 73
34
 74
0
 42
0.0000001
 43
0.0000001
 44
0.0000000001
 40
0.0
 40
0.0
 40
0.0
 40
0.0
 40
0.0372858393
 40
0.0734969204
 40
0.1086455965
 40
0.1427507952
 40
0.1758400473
 40
0.2079526667
 40
0.2391371613
 40
0.2694515404
 40
0.2989662368
 40
0.327763426
 40
0.3559351068
 40
0.3835837486
 40
0.4108223443
 40
0.4377710291
 40
0.4645555199
 40
0.4913054334
 40
0.5181507613
 40
0.5452194665
 40
0.5726355407
 40
0.6005155345
 40
0.6289673679
 40
0.6580900335
 40
0.6879707904
 40
0.7186841316
 40
0.7828312465
 40
0.8163899868
 40
0.8509814934
 40
0.8866339631
 40
0.9233588822
 40
0.9611512713
 40
1.0
 40
1.0
 40
1.0
 40
1.0
 10
5.0507075503
 20
6.0520288389
 30
0.0
 10
5.0501568943
 20
6.0516394826
 30
0.0
 10
5.0490865619
 20
6.0508503066
 30
0.0
 10
5.0475556452
 20
6.0496172799
 30
0.0
 10
5.0461250999
 20
6.0483543143
 30
0.0
 10
5.044797314
 20
6.0470634103
 30
0.0
 10
5.0435745853
 20
6.0457464908
 30
0.0
 10
5.0424587872
 20
6.0444057751
 30
0.0
 10
5.0414517078
 20
6.0430434115
 30
0.0
 10
5.0405551899
 20
6.0416614594
 30
0.0
 10
5.0397707625
 20
6.0402621393
 30
0.0
 10
5.0390996164
 20
6.038847777
 30
0.0
 10
5.0385429894
 20
6.0374206227
 30
0.0
 10
5.038102109
 20
6.0359829539
 30
0.0
 10
5.0377775859
 20
6.0345372389
 30
0.0
 10
5.0375699721
 20
6.0330858996
 30
0.0
 10
5.0374798891
 20
6.0316313782
 30
0.0
 10
5.0375075024
 20
6.0301761999
 30
0.0
 10
5.0376525463
 20
6.028722859
 30
0.0
 10
5.0379148119
 20
6.0272738248
 30
0.0
 10
5.0382940077
 20
6.0258316087
 30
0.0
 10
5.0387891905
 20
6.0243985817
 30
0.0
 10
5.0393994181
 20
6.0229770641
 30
0.0
 10
5.0401237823
 20
6.021569461
 30
0.0
 10
5.0409610084
 20
6.020178009
 30
0.0
 10
5.042243933
 20
6.018320567
 30
0.0
 10
5.0437347352
 20
6.0165317106
 30
0.0
 10
5.0454055358
 20
6.0148178027
 30
0.0
 10
5.0467817797
 20
6.0135394856
 30
0.0
 10
5.0482599458
 20
6.0122901235
 30
0.0
 10
5.049837498
 20
6.0110716888
 30
0.0
 10
5.051511285
 20
6.0098863026
 30
0.0
 10
5.0526734102
 20
6.0091298508
 30
0.0
 10
5.0532692485
 20
6.0087573926
 30
0.0
  0
SPLINE
  5
2DA
100
AcDbEntity
  8
0
100
AcDbSpline
 62
6
  6
CONTINUOUS
 70
0
 71
3
 72
64
 73
60
 74
0
 42
0.0000001
 43
0.0000001
 44
0.0000000001
 40
0.0
 40
0.0
 40
0.0
 40
0.0
 40
0.0369352586
 40
0.0549471517
 40
0.0726390887
 40
0.090000184
 40
0.1070199117
 40
0.1236886134
 40
0.1399973789
 40
0.1559385482
 40
0.1715058284
 40
0.1866946305
 40
0.2015024706
 40
0.215929181
 40
0.2299774836
 40
0.2436531722
 40
0.2569657076
 40
0.2699284117
 40
0.2825589449
 40
0.2948794561
 40
0.3069168096
 40
0.3187025485
 40
0.3302727437
 40
0.3416676075
 40
0.3529308834
 40
0.3641090418
 40
0.3752502695
 40
0.386403379
 40
0.3976166449
 40
0.4089367327
 40
0.4204077134
 40
0.432070314
 40
0.4439613273
 40
0.4561133152
 40
0.4685544168
 40
0.4813084606
 40
0.4943950175
 40
0.5078298103
 40
0.5216248258
 40
0.5357889038
 40
0.5503278121
 40
0.5652448616
 40
0.5805410018
 40
0.5962152509
 40
0.6122649745
 40
0.6286859542
 40
0.6454729225
 40
0.6626193416
 40
0.6801179501
 40
0.6979606403
 40
0.716138626
 40
0.7346427134
 40
0.7534630495
 40
0.7920106599
 40
0.8316975314
 40
0.8724343503
 40
0.9141274122
 40
0.9566834288
 40
1.0
 40
1.0
 40
1.0
 40
1.0
 10
4.8658333455
 20
2.8621003969
 30
0.0
 10
4.8669773078
 20
2.862909301
 30
0.0
 10
4.8686512267
 20
2.8641531175
 30
0.0
 10
4.8707977162
 20
2.8658811642
 30
0.0
 10
4.8723316673
 20
2.8671849492
 30
0.0
 10
4.8738008704
 20
2.8685056189
 30
0.0
 10
4.8752031491
 20
2.8698415016
 30
0.0
 10
4.8765362668
 20
2.8711908763
 30
0.0
 10
4.8777980481
 20
2.8725519339
 30
0.0
 10
4.8789862804
 20
2.8739228583
 30
0.0
 10
4.880098845
 20
2.8753017339
 30
0.0
 10
4.8811336096
 20
2.8766866501
 30
0.0
 10
4.8820885635
 20
2.8780756086
 30
0.0
 10
4.8829617226
 20
2.8794666189
 30
0.0
 10
4.8837512445
 20
2.8808576293
 30
0.0
 10
4.8844553644
 20
2.8822465959
 30
0.0
 10
4.8850724745
 20
2.8836314461
 30
0.0
 10
4.8856010989
 20
2.8850101184
 30
0.0
 10
4.8860399316
 20
2.8863805536
 30
0.0
 10
4.8863878507
 20
2.8877407113
 30
0.0
 10
4.8866439172
 20
2.8890885783
 30
0.0
 10
4.8868074243
 20
2.8904221734
 30
0.0
 10
4.8868778632
 20
2.8917395628
 30
0.0
 10
4.8868550001
 20
2.8930388662
 30
0.0
 10
4.8867388138
 20
2.8943182733
 30
0.0
 10
4.8865295887
 20
2.8955760633
 30
0.0
 10
4.8862278221
 20
2.8968106145
 30
0.0
 10
4.885834324
 20
2.8980204436
 30
0.0
 10
4.8853500859
 20
2.8992041931
 30
0.0
 10
4.884776391
 20
2.9003606894
 30
0.0
 10
4.8841146421
 20
2.9014888884
 30
0.0
 10
4.8833664966
 20
2.9025879588
 30
0.0
 10
4.88253366
 20
2.9036571697
 30
0.0
 10
4.8816180563
 20
2.9046960157
 30
0.0
 10
4.8806215982
 20
2.9057040447
 30
0.0
 10
4.8795463831
 20
2.9066810316
 30
0.0
 10
4.8783944613
 20
2.9076267612
 30
0.0
 10
4.8771680283
 20
2.9085412326
 30
0.0
 10
4.8758692225
 20
2.9094244362
 30
0.0
 10
4.8745002753
 20
2.9102765384
 30
0.0
 10
4.8730633733
 20
2.9110977122
 30
0.0
 10
4.8715607368
 20
2.9118882429
 30
0.0
 10
4.8699945624
 20
2.9126484579
 30
0.0
 10
4.8683670304
 20
2.913378731
 30
0.0
 10
4.866680311
 20
2.914079504
 30
0.0
 10
4.8649365306
 20
2.9147512265
 30
0.0
 10
4.8631378024
 20
2.915394408
 30
0.0
 10
4.8612861933
 20
2.9160095658
 30
0.0
 10
4.8593837428
 20
2.9165972432
 30
0.0
 10
4.8574324527
 20
2.9171580017
 30
0.0
 10
4.855434288
 20
2.917692407
 30
0.0
 10
4.8533911772
 20
2.9182010363
 30
0.0
 10
4.8505873197
 20
2.9188507667
 30
0.0
 10
4.8469819919
 20
2.9195989459
 30
0.0
 10
4.842539552
 20
2.92039612
 30
0.0
 10
4.8379612966
 20
2.9211039725
 30
0.0
 10
4.8332609424
 20
2.9217266296
 30
0.0
 10
4.8284520941
 20
2.9222678578
 30
0.0
 10
4.8252089504
 20
2.9225742495
 30
0.0
 10
4.8235719038
 20
2.922715443
 30
0.0
  0
LINE
  5
2DB
100
AcDbEntity
  8
0
100
AcDbLine
 62
6
  6
CONTINUOUS
 10
4.8515385085
 20
2.9014027183
 11
4.8572310861
 21
2.8969423205
  0
SPLINE
  5
2DC
100
AcDbEntity
  8
0
100
AcDbSpline
 62
6
  6
CONTINUOUS
 70
0
 71
3
 72
21
 73
17
 74
0
 42
0.0000001
 43
0.0000001
 44
0.0000000001
 40
0.0
 40
0.0
 40
0.0
 40
0.0
 40
0.140639183
 40
0.2090344643
 40
0.2761633581
 40
0.4067020924
 40
0.470215555
 40
0.5326145322
 40
0.593955089
 40
0.6543026734
 40
0.7137289684
 40
0.7723106129
 40
0.8301323178
 40
0.8872884173
 40
0.9438772671
 40
1.0
 40
1.0
 40
1.0
 40
1.0
 10
4.8572310861
 20
2.8969423205
 30
0.0
 10
4.8582930251
 20
2.8960170877
 30
0.0
 10
4.8598278494
 20
2.8945903019
 30
0.0
 10
4.8617502867
 20
2.8926013156
 30
0.0
 10
4.8635310165
 20
2.8906185851
 30
0.0
 10
4.8651680498
 20
2.8885743811
 30
0.0
 10
4.8666469785
 20
2.8864739139
 30
0.0
 10
4.8676612359
 20
2.8848958599
 30
0.0
 10
4.8685895922
 20
2.8833023852
 30
0.0
 10
4.8694314543
 20
2.8816950642
 30
0.0
 10
4.8701862766
 20
2.8800754841
 30
0.0
 10
4.8708535079
 20
2.8784451653
 30
0.0
 10
4.8714326992
 20
2.876805605
 30
0.0
 10
4.8719236901
 20
2.8751582887
 30
0.0
 10
4.8723263125
 20
2.8735047122
 30
0.0
 10
4.8725364514
 20
2.872395056
 30
0.0
 10
4.872626529
 20
2.871840267
 30
0.0
  0
SPLINE
  5
2DD
100
AcDbEntity
  8
0
100
AcDbSpline
 62
6
  6
CONTINUOUS
 70
0
 71
3
 72
38
 73
34
 74
0
 42
0.0000001
 43
0.0000001
 44
0.0000000001
 40
0.0
 40
0.0
 40
0.0
 40
0.0
 40
0.0372858393
 40
0.0734969204
 40
0.1086455965
 40
0.1427507952
 40
0.1758400473
 40
0.2079526667
 40
0.2391371613
 40
0.2694515404
 40
0.2989662368
 40
0.327763426
 40
0.3559351068
 40
0.3835837486
 40
0.4108223443
 40
0.4377710291
 40
0.4645555199
 40
0.4913054334
 40
0.5181507613
 40
0.5452194665
 40
0.5726355407
 40
0.6005155345
 40
0.6289673679
 40
0.6580900335
 40
0.6879707904
 40
0.7186841316
 40
0.7828312465
 40
0.8163899868
 40
0.8509814934
 40
0.8866339631
 40
0.9233588822
 40
0.9611512713
 40
1.0
 40
1.0
 40
1.0
 40
1.0
 10
4.7330776291
 20
2.9020288389
 30
0.0
 10
4.7325269731
 20
2.9016394826
 30
0.0
 10
4.7314566406
 20
2.9008503066
 30
0.0
 10
4.729925724
 20
2.8996172799
 30
0.0
 10
4.7284951787
 20
2.8983543143
 30
0.0
 10
4.7271673928
 20
2.8970634103
 30
0.0
 10
4.725944664
 20
2.8957464908
 30
0.0
 10
4.7248288659
 20
2.8944057751
 30
0.0
 10
4.7238217865
 20
2.8930434115
 30
0.0
 10
4.7229252687
 20
2.8916614594
 30
0.0
 10
4.7221408412
 20
2.8902621393
 30
0.0
 10
4.7214696952
 20
2.888847777
 30
0.0
 10
4.7209130682
 20
2.8874206227
 30
0.0
 10
4.7204721877
 20
2.8859829539
 30
0.0
 10
4.7201476647
 20
2.8845372389
 30
0.0
 10
4.7199400508
 20
2.8830858996
 30
0.0
 10
4.7198499678
 20
2.8816313782
 30
0.0
 10
4.7198775812
 20
2.8801761999
 30
0.0
 10
4.720022625
 20
2.878722859
 30
0.0
 10
4.7202848906
 20
2.8772738248
 30
0.0
 10
4.7206640864
 20
2.8758316087
 30
0.0
 10
4.7211592693
 20
2.8743985817
 30
0.0
 10
4.7217694969
 20
2.8729770641
 30
0.0
 10
4.7224938611
 20
2.871569461
 30
0.0
 10
4.7233310872
 20
2.870178009
 30
0.0
 10
4.7246140118
 20
2.868320567
 30
0.0
 10
4.726104814
 20
2.8665317106
 30
0.0
 10
4.7277756145
 20
2.8648178027
 30
0.0
 10
4.7291518584
 20
2.8635394856
 30
0.0
 10
4.7306300245
 20
2.8622901235
 30
0.0
 10
4.7322075768
 20
2.8610716888
 30
0.0
 10
4.7338813638
 20
2.8598863026
 30
0.0
 10
4.735043489
 20
2.8591298508
 30
0.0
 10
4.7356393272
 20
2.8587573926
 30
0.0
  0
SPLINE
  5
2DE
100
AcDbEntity
  8
0
100
AcDbSpline
 62
6
  6
CONTINUOUS
 70
0
 71
3
 72
11
 73
7
 74
0
 42
0.0000001
 43
0.0000001
 44
0.0000000001
 40
0.0
 40
0.0
 40
0.0
 40
0.0
 40
0.2467697264
 40
0.4960939713
 40
0.7473696627
 40
1.0
 40
1.0
 40
1.0
 40
1.0
 10
5.0867001674
 20
6.0733579825
 30
0.0
 10
5.0886264145
 20
6.073493489
 30
0.0
 10
5.0925010166
 20
6.0737358438
 30
0.0
 10
5.0983426678
 20
6.0740176925
 30
0.0
 10
5.1042333802
 20
6.0742231202
 30
0.0
 10
5.1081756644
 20
6.0743105611
 30
0.0
 10
5.1101522767
 20
6.0743423299
 30
0.0
  0
SPLINE
  5
2DF
100
AcDbEntity
  8
0
100
AcDbSpline
 62
6
  6
CONTINUOUS
 70
0
 71
3
 72
63
 73
59
 74
0
 42
0.0000001
 43
0.0000001
 44
0.0000000001
 40
0.0
 40
0.0
 40
0.0
 40
0.0
 40
0.0434600108
 40
0.0863145048
 40
0.1284485351
 40
0.1697553798
 40
0.2101280499
 40
0.2494637478
 40
0.2687119854
 40
0.2876640696
 40
0.3063082697
 40
0.3246332962
 40
0.342628109
 40
0.3602823466
 40
0.3775860442
 40
0.394530029
 40
0.4111059141
 40
0.4273062029
 40
0.4431246894
 40
0.4585563297
 40
0.4735978926
 40
0.4882478433
 40
0.5025070139
 40
0.516378693
 40
0.5298691961
 40
0.5429881812
 40
0.5557491062
 40
0.5681696593
 40
0.5802720822
 40
0.5920835307
 40
0.6036361597
 40
0.6149671851
 40
0.6261185565
 40
0.6371365019
 40
0.6480706755
 40
0.658973107
 40
0.6698969563
 40
0.6808950568
 40
0.6920186937
 40
0.7033161313
 40
0.7148318783
 40
0.7266055398
 40
0.7510476151
 40
0.7637808744
 40
0.7768780233
 40
0.790352874
 40
0.8042145859
 40
0.8184685093
 40
0.833116353
 40
0.848156885
 40
0.8635862466
 40
0.8793984123
 40
0.8955856362
 40
0.9121386344
 40
0.9290471395
 40
0.9462998531
 40
0.9638850123
 40
1.0
 40
1.0
 40
1.0
 40
1.0
 10
5.0867001674
 20
6.0733579825
 30
0.0
 10
5.0849252521
 20
6.0732538544
 30
0.0
 10
5.0814016547
 20
6.0730202097
 30
0.0
 10
5.0761644584
 20
6.0725864455
 30
0.0
 10
5.0710234168
 20
6.0720682057
 30
0.0
 10
5.0659942293
 20
6.0714617294
 30
0.0
 10
5.061092624
 20
6.0707627441
 30
0.0
 10
5.0570992839
 20
6.0700945937
 30
0.0
 10
5.0539820518
 20
6.0695070364
 30
0.0
 10
5.0517031424
 20
6.0690432603
 30
0.0
 10
5.0494685284
 20
6.0685525438
 30
0.0
 10
5.04728037
 20
6.0680342215
 30
0.0
 10
5.0451408697
 20
6.0674876073
 30
0.0
 10
5.0430522728
 20
6.0669120287
 30
0.0
 10
5.0410168636
 20
6.066306812
 30
0.0
 10
5.0390369748
 20
6.0656712901
 30
0.0
 10
5.0371149803
 20
6.0650048186
 30
0.0
 10
5.0352532968
 20
6.0643067707
 30
0.0
 10
5.0334543901
 20
6.0635765435
 30
0.0
 10
5.0317207496
 20
6.0628135902
 30
0.0
 10
5.0300549225
 20
6.0620173735
 30
0.0
 10
5.0284594535
 20
6.0611874592
 30
0.0
 10
5.0269369448
 20
6.0603234169
 30
0.0
 10
5.0254899705
 20
6.0594249519
 30
0.0
 10
5.0241211466
 20
6.0584917906
 30
0.0
 10
5.0228330393
 20
6.0575238101
 30
0.0
 10
5.0216282253
 20
6.0565209451
 30
0.0
 10
5.0205092116
 20
6.0554832879
 30
0.0
 10
5.0194784727
 20
6.0544110339
 30
0.0
 10
5.0185383873
 20
6.053304549
 30
0.0
 10
5.0176912522
 20
6.0521643466
 30
0.0
 10
5.0169392229
 20
6.0509911358
 30
0.0
 10
5.0162843203
 20
6.0497858069
 30
0.0
 10
5.0157283449
 20
6.0485494737
 30
0.0
 10
5.0152729133
 20
6.0472834407
 30
0.0
 10
5.014919314
 20
6.0459892388
 30
0.0
 10
5.0146686245
 20
6.0446685649
 30
0.0
 10
5.0145214928
 20
6.0433233029
 30
0.0
 10
5.0144783731
 20
6.041955455
 30
0.0
 10
5.0145392282
 20
6.04056716
 30
0.0
 10
5.0147039026
 20
6.0391605646
 30
0.0
 10
5.0150653793
 20
6.0372403141
 30
0.0
 10
5.0156331686
 20
6.0353134136
 30
0.0
 10
5.0163845303
 20
6.0333981678
 30
0.0
 10
5.0170541199
 20
6.0319352676
 30
0.0
 10
5.0178202527
 20
6.0304684617
 30
0.0
 10
5.0186809567
 20
6.0289999867
 30
0.0
 10
5.0196341804
 20
6.0275323281
 30
0.0
 10
5.0206776384
 20
6.0260678172
 30
0.0
 10
5.0218090333
 20
6.0246088363
 30
0.0
 10
5.0230258884
 20
6.0231576497
 30
0.0
 10
5.0243257392
 20
6.0217165334
 30
0.0
 10
5.0257060016
 20
6.0202876478
 30
0.0
 10
5.0271641226
 20
6.0188731374
 30
0.0
 10
5.0286974774
 20
6.017475047
 30
0.0
 10
5.0303035065
 20
6.0160953567
 30
0.0
 10
5.0325581816
 20
6.014266763
 30
0.0
 10
5.0343209603
 20
6.0129534208
 30
0.0
 10
5.0355273163
 20
6.0121003967
 30
0.0
  0
SPLINE
  5
2E0
100
AcDbEntity
  8
0
100
AcDbSpline
 62
6
  6
CONTINUOUS
 70
0
 71
3
 72
15
 73
11
 74
0
 42
0.0000001
 43
0.0000001
 44
0.0000000001
 40
0.0
 40
0.0
 40
0.0
 40
0.0
 40
0.1280801764
 40
0.2558335462
 40
0.382965924
 40
0.5092071949
 40
0.6342854135
 40
0.7579388214
 40
0.8799258942
 40
1.0
 40
1.0
 40
1.0
 40
1.0
 10
5.1101522767
 20
6.0743423299
 30
0.0
 10
5.1114803215
 20
6.0743397043
 30
0.0
 10
5.1141330189
 20
6.0743185721
 30
0.0
 10
5.1181032413
 20
6.0742390373
 30
0.0
 10
5.1220531398
 20
6.0741113566
 30
0.0
 10
5.1259734055
 20
6.073935056
 30
0.0
 10
5.1298550186
 20
6.0737094657
 30
0.0
 10
5.1336891846
 20
6.0734337647
 30
0.0
 10
5.1374672585
 20
6.0731069676
 30
0.0
 10
5.1399643192
 20
6.072852145
 30
0.0
 10
5.1412018251
 20
6.072715443
 30
0.0
  0
SPLINE
  5
2E1
100
AcDbEntity
  8
0
100
AcDbSpline
 62
6
  6
CONTINUOUS
 70
0
 71
3
 72
23
 73
19
 74
0
 42
0.0000001
 43
0.0000001
 44
0.0000000001
 40
0.0
 40
0.0
 40
0.0
 40
0.0
 40
0.0761084415
 40
0.1508736937
 40
0.2241492543
 40
0.2958062227
 40
0.3657210589
 40
0.4337835192
 40
0.4998960207
 40
0.5639757071
 40
0.6259562132
 40
0.6857896989
 40
0.7434492001
 40
0.7989312274
 40
0.8522588036
 40
0.903483268
 40
0.9526913132
 40
1.0
 40
1.0
 40
1.0
 40
1.0
 10
5.1412018251
 20
6.072715443
 30
0.0
 10
5.1426021593
 20
6.0724336036
 30
0.0
 10
5.1453699986
 20
6.0718335452
 30
0.0
 10
5.1494523955
 20
6.0708150176
 30
0.0
 10
5.1534195837
 20
6.0696883438
 30
0.0
 10
5.1572600399
 20
6.0684568268
 30
0.0
 10
5.1609627579
 20
6.067123975
 30
0.0
 10
5.1645170642
 20
6.065693632
 30
0.0
 10
5.1679127457
 20
6.0641698967
 30
0.0
 10
5.171140047
 20
6.0625571325
 30
0.0
 10
5.1741897021
 20
6.0608599437
 30
0.0
 10
5.1770529581
 20
6.0590831566
 30
0.0
 10
5.1797215953
 20
6.0572318029
 30
0.0
 10
5.1821879586
 20
6.055311095
 30
0.0
 10
5.1844449226
 20
6.0533264324
 30
0.0
 10
5.1864860399
 20
6.0512832868
 30
0.0
 10
5.1883051485
 20
6.0491875303
 30
0.0
 10
5.1893867291
 20
6.0477316262
 30
0.0
 10
5.1898859912
 20
6.0469973932
 30
0.0
  0
SPLINE
  5
2E2
100
AcDbEntity
  8
0
100
AcDbSpline
 62
6
  6
CONTINUOUS
 70
0
 71
3
 72
15
 73
11
 74
0
 42
0.0000001
 43
0.0000001
 44
0.0000000001
 40
0.0
 40
0.0
 40
0.0
 40
0.0
 40
0.1243413705
 40
0.2495528592
 40
0.375295444
 40
0.5012323352
 40
0.6270171535
 40
0.7523035877
 40
0.876745324
 40
1.0
 40
1.0
 40
1.0
 40
1.0
 10
5.0867001674
 20
6.0733579825
 30
0.0
 10
5.0883659848
 20
6.0732699142
 30
0.0
 10
5.0917067918
 20
6.0730419206
 30
0.0
 10
5.0967178864
 20
6.0725450949
 30
0.0
 10
5.1017324404
 20
6.0718901478
 30
0.0
 10
5.1067314183
 20
6.0710758866
 30
0.0
 10
5.111695499
 20
6.0701016267
 30
0.0
 10
5.1166049566
 20
6.0689672961
 30
0.0
 10
5.1214396701
 20
6.0676734523
 30
0.0
 10
5.1246177873
 20
6.0666997198
 30
0.0
 10
5.1261893934
 20
6.0661855888
 30
0.0
  0
SPLINE
  5
2E3
100
AcDbEntity
  8
0
100
AcDbSpline
 62
6
  6
CONTINUOUS
 70
0
 71
3
 72
35
 73
31
 74
0
 42
0.0000001
 43
0.0000001
 44
0.0000000001
 40
0.0
 40
0.0
 40
0.0
 40
0.0
 40
0.0761127347
 40
0.1519174431
 40
0.2269868761
 40
0.264117611
 40
0.3009103082
 40
0.3373162945
 40
0.3732887435
 40
0.4087827067
 40
0.4437554008
 40
0.4781665196
 40
0.5119783203
 40
0.5451561148
 40
0.5776684157
 40
0.6094872332
 40
0.6405886003
 40
0.6709526721
 40
0.7005643182
 40
0.7294135111
 40
0.7574956074
 40
0.7848121083
 40
0.8113709037
 40
0.8371868545
 40
0.8622824193
 40
0.9104203202
 40
0.9335703429
 40
0.9561723815
 40
0.9782912618
 40
1.0
 40
1.0
 40
1.0
 40
1.0
 10
5.1101522767
 20
6.0743423299
 30
0.0
 10
5.1126388601
 20
6.074206568
 30
0.0
 10
5.1175967493
 20
6.0738268994
 30
0.0
 10
5.124971659
 20
6.0729326722
 30
0.0
 10
5.1310408146
 20
6.0719165294
 30
0.0
 10
5.1358177208
 20
6.0709425627
 30
0.0
 10
5.1393368392
 20
6.0701368763
 30
0.0
 10
5.1427984272
 20
6.0692545481
 30
0.0
 10
5.1461958416
 20
6.0682969272
 30
0.0
 10
5.1495225284
 20
6.0672654819
 30
0.0
 10
5.1527720808
 20
6.0661618307
 30
0.0
 10
5.1559382459
 20
6.0649877496
 30
0.0
 10
5.1590149202
 20
6.0637451086
 30
0.0
 10
5.1619961875
 20
6.0624359487
 30
0.0
 10
5.1648763111
 20
6.0610624184
 30
0.0
 10
5.1676497426
 20
6.0596267726
 30
0.0
 10
5.1703111587
 20
6.0581314224
 30
0.0
 10
5.1728554318
 20
6.056578846
 30
0.0
 10
5.1752776704
 20
6.0549716513
 30
0.0
 10
5.177573225
 20
6.053312553
 30
0.0
 10
5.1797376586
 20
6.0516043263
 30
0.0
 10
5.1817668271
 20
6.049849863
 30
0.0
 10
5.1836567741
 20
6.0480521701
 30
0.0
 10
5.1854039593
 20
6.0462141018
 30
0.0
 10
5.1875088985
 20
6.043748716
 30
0.0
 10
5.1893541795
 20
6.0411802659
 30
0.0
 10
5.1908998682
 20
6.0385234459
 30
0.0
 10
5.1918871503
 20
6.0365323338
 30
0.0
 10
5.1927151766
 20
6.0345209021
 30
0.0
 10
5.1931636337
 20
6.0331572163
 30
0.0
 10
5.1933597515
 20
6.0324745535
 30
0.0
  0
ENDSEC
  0
SECTION
  2
OBJECTS
  0
DICTIONARY
  5
C
100
AcDbDictionary
280
0
281
1
  3
ACAD_GROUP
350
D
  3
ACAD_MLINESTYLE
350
17
  3
ACAD_LAYOUT
350
1A
  3
ACAD_PLOTSETTINGS
350
19
  3
ACAD_PLOTSTYLENAME
350
E
  0
DICTIONARY
  5
D
102
{ACAD_REACTORS
330
C
102
}
100
AcDbDictionary
280
0
281
1
  0
ACDBDICTIONARYWDFLT
  5
E
102
{ACAD_REACTORS
330
C
102
}
100
AcDbDictionary
281
1
  3
Normal
350
F
100
AcDbDictionaryWithDefault
340
F
  0
DICTIONARY
  5
17
102
{ACAD_REACTORS
330
C
102
}
100
AcDbDictionary
280
0
281
1
  3
Standard
350
18
  0
DICTIONARY
  5
19
102
{ACAD_REACTORS
330
C
102
}
100
AcDbDictionary
281
1
  0
DICTIONARY
  5
1A
102
{ACAD_REACTORS
330
C
102
}
100
AcDbDictionary
281
1
  3
Model
350
2E4
  3
Layout1
350
2E5
  0
ACDBPLACEHOLDER
  5
F
102
{ACAD_REACTORS
330
E
102
}
  0
MLINESTYLE
  5
18
102
{ACAD_REACTORS
330
17
102
}
100
AcDbMlineStyle
  2
STANDARD
 70
0
  3

 62
256
 51
90.0
 52
90.0
 71
2
 49
0.5
 62
256
  6
BYLAYER
 49
-0.5
 62
256
  6
BYLAYER
  0
LAYOUT
  5
2E4
102
{ACAD_REACTORS
330
1A
102
}
100
AcDbPlotSettings
  1

  2
none_device
  4
ISO_A4_(297.00_x_210.00_MM)
  6

 40
0.0
 41
0.0
 42
0.0
 43
0.0
 44
297.0
 45
210.0
 46
0.0
 47
0.0
 48
0.0
 49
0.0
140
0.0
141
0.0
142
1.0
143
1.0
 70
1024
 72
0
 73
0
 74
0
  7

 75
0
147
1.0
148
0.0
149
0.0
100
AcDbLayout
  1
Model
 70
0
 71
0
 10
0.0
 20
0.0
 11
11.6929133858
 21
8.2677165354
 12
0.0
 22
0.0
 32
0.0
 14
0.0
 24
0.0
 34
0.0
 15
0.0
 25
0.0
 35
0.0
146
0.0
 13
0.0
 23
0.0
 33
0.0
 16
1.0
 26
0.0
 36
0.0
 17
0.0
 27
1.0
 37
0.0
 76
0
330
202
345
0
346
0
  0
LAYOUT
  5
2E5
102
{ACAD_REACTORS
330
1A
102
}
100
AcDbPlotSettings
  1

  2
none_device
  4
ISO_A4_(297.00_x_210.00_MM)
  6

 40
0.0
 41
0.0
 42
0.0
 43
0.0
 44
297.0
 45
210.0
 46
0.0
 47
0.0
 48
0.0
 49
0.0
140
0.0
141
0.0
142
1.0
143
1.0
 70
0
 72
0
 73
0
 74
0
  7

 75
0
147
1.0
148
0.0
149
0.0
100
AcDbLayout
  1
Layout1
 70
0
 71
1
 10
0.0
 20
0.0
 11
11.6929133858
 21
8.2677165354
 12
0.0
 22
0.0
 32
0.0
 14
0.0
 24
0.0
 34
0.0
 15
0.0
 25
0.0
 35
0.0
146
0.0
 13
0.0
 23
0.0
 33
0.0
 16
1.0
 26
0.0
 36
0.0
 17
0.0
 27
1.0
 37
0.0
 76
0
330
203
345
0
346
0
  0
ENDSEC
  0
EOF
