999
DXF file: 3-1203TR_TOP.dxf
999
Pro/ENGINEER 2014000 by Parametric Technology Corporation
  0
SECTION
  2
HEADER
  9
$ACADVER
  1
AC1015
  9
$DWGCODEPAGE
  3
ANSI_1252
  9
$EXTMAX
 10
11.6929133858
 20
8.2677165354
 30
0.0
  9
$EXTMIN
 10
0.0
 20
0.0
 30
0.0
  9
$LIMMIN
 10
0.0
 20
0.0
  9
$LIMMAX
 10
11.6929133858
 20
8.2677165354
  9
$VIEWCTR
 10
5.8464566929
 20
4.1338582677
  9
$VIEWSIZE
 40
8.2677165354
  9
$CLAYER
  8
0
  9
$LTSCALE
 40
0.6431102362
  9
$CELTYPE
  6
BYLAYER
  9
$DIMSCALE
 40
1.0
  9
$DIMASZ
 40
0.1
  9
$DIMEXO
 40
0.0625
  9
$DIMDLI
 40
0.4443307087
  9
$DIMEXE
 40
0.125
  9
$DIMCEN
 40
0.1052362205
  9
$DIMLFAC
 40
1.0
  9
$DIMBLK
  1
_FILLED
  9
$DIMTXT
 40
0.08
  9
$DIMTOL
 70
1
  9
$DIMLIM
 70
0
  9
$DIMTFAC
 40
1.0
  9
$DIMTP
 40
0.001
  9
$DIMTM
 40
0.001
  9
$DIMGAP
 40
0.09
  9
$DIMDSEP
 70
46
  9
$PDMODE
 70
3
  9
$PDSIZE
 40
0.06
  9
$HANDSEED
  5
29C
  9
$TILEMODE
 70
1
  9
$MEASUREMENT
 70
0
  9
$INSUNITS
 70
1
  0
ENDSEC
  0
SECTION
  2
CLASSES
  0
CLASS
  1
ACDBDICTIONARYWDFLT
  2
AcDbDictionaryWithDefault
  3
AutoCAD 2000
 90
0
280
0
281
0
  0
CLASS
  1
ACDBPLACEHOLDER
  2
AcDbPlaceHolder
  3
AutoCAD 2000
 90
0
280
0
281
0
  0
CLASS
  1
LAYOUT
  2
AcDbLayout
  3
AutoCAD 2000
 90
0
280
0
281
0
  0
ENDSEC
  0
SECTION
  2
TABLES
  0
TABLE
  2
VPORT
  5
8
100
AcDbSymbolTable
 70
2
  0
VPORT
  5
1F4
100
AcDbSymbolTableRecord
100
AcDbViewportTableRecord
  2
*ACTIVE
 70
0
 10
0.0
 20
0.0
 11
1.0
 21
1.0
 12
5.8464566929
 22
4.1338582677
 13
0.0
 23
0.0
 14
1.0
 24
1.0
 15
0.0
 25
0.0
 16
0.0
 26
0.0
 36
1.0
 17
0.0
 27
0.0
 37
0.0
 40
8.2677165354
 41
1.4142857143
 42
50.0
 43
0.0
 44
0.0
 50
0.0
 51
0.0
 71
0
 72
100
 73
1
 74
1
 75
0
 76
0
 77
0
 78
0
  0
ENDTAB
  0
TABLE
  2
LTYPE
  5
5
100
AcDbSymbolTable
 70
6
  0
LTYPE
  5
14
100
AcDbSymbolTableRecord
100
AcDbLinetypeTableRecord
  2
BYBLOCK
 70
0
  3

 72
65
 73
0
 40
0.0
  0
LTYPE
  5
15
100
AcDbSymbolTableRecord
100
AcDbLinetypeTableRecord
  2
BYLAYER
 70
0
  3

 72
65
 73
0
 40
0.0
  0
LTYPE
  5
16
100
AcDbSymbolTableRecord
100
AcDbLinetypeTableRecord
  2
CONTINUOUS
 70
64
  3
Solid line
 72
65
 73
0
 40
0.0
  0
LTYPE
  5
1F5
100
AcDbSymbolTableRecord
100
AcDbLinetypeTableRecord
  2
CENTER
 70
64
  3
____ _ ____ _ ____ _ ____ _ ____ _ ____ _ ____
 72
65
 73
4
 40
0.6
 49
0.375
 74
0
 49
-0.075
 74
0
 49
0.075
 74
0
 49
-0.075
 74
0
  0
LTYPE
  5
1F6
100
AcDbSymbolTableRecord
100
AcDbLinetypeTableRecord
  2
HIDDEN
 70
64
  3
- - - - - - - - - - - - - - - - - - - -
 72
65
 73
2
 40
0.2
 49
0.1
 74
0
 49
-0.1
 74
0
  0
LTYPE
  5
1F7
100
AcDbSymbolTableRecord
100
AcDbLinetypeTableRecord
  2
PHANTOM
 70
64
  3
_____ _ _ _____ _ _ _____ _ _ _____
 72
65
 73
6
 40
0.8
 49
0.45
 74
0
 49
-0.05
 74
0
 49
0.1
 74
0
 49
-0.05
 74
0
 49
0.1
 74
0
 49
-0.05
 74
0
  0
LTYPE
  5
1F8
100
AcDbSymbolTableRecord
100
AcDbLinetypeTableRecord
  2
DOT
 70
64
  3
. . . . . . . . . . . . . . . . . . . .
 72
65
 73
2
 40
0.2
 49
0.1
 74
0
 49
-0.1
 74
0
  0
LTYPE
  5
1F9
100
AcDbSymbolTableRecord
100
AcDbLinetypeTableRecord
  2
DASHED
 70
64
  3
- - - - - - - - - - - - - - - - - - - -
 72
65
 73
2
 40
0.2
 49
0.1
 74
0
 49
-0.1
 74
0
  0
ENDTAB
  0
TABLE
  2
LAYER
  5
2
100
AcDbSymbolTable
 70
36
  0
LAYER
  5
10
100
AcDbSymbolTableRecord
100
AcDbLayerTableRecord
  2
0
 70
0
 62
7
  6
CONTINUOUS
370
-3
390
F
  0
LAYER
  5
1FA
100
AcDbSymbolTableRecord
100
AcDbLayerTableRecord
  2
DEFAULT_1
 70
0
 62
7
  6
CENTER
370
-3
390
F
  0
LAYER
  5
1FB
100
AcDbSymbolTableRecord
100
AcDbLayerTableRecord
  2
DEFAULT_2
 70
0
 62
8
  6
HIDDEN
370
-3
390
F
  0
LAYER
  5
1FC
100
AcDbSymbolTableRecord
100
AcDbLayerTableRecord
  2
DEFAULT_3
 70
0
 62
7
  6
PHANTOM
370
-3
390
F
  0
LAYER
  5
1FD
100
AcDbSymbolTableRecord
100
AcDbLayerTableRecord
  2
DEFAULT_COORDINATE_SYSTEM
 70
0
 62
7
  6
CONTINUOUS
370
-3
390
F
  0
LAYER
  5
1FE
100
AcDbSymbolTableRecord
100
AcDbLayerTableRecord
  2
DEFAULT_DATUM_AXES
 70
0
 62
7
  6
CONTINUOUS
370
-3
390
F
  0
LAYER
  5
1FF
100
AcDbSymbolTableRecord
100
AcDbLayerTableRecord
  2
DEFAULT_DATUM_PLANES
 70
0
 62
7
  6
CONTINUOUS
370
-3
390
F
  0
ENDTAB
  0
TABLE
  2
STYLE
  5
3
100
AcDbSymbolTable
 70
1
  0
STYLE
  5
11
100
AcDbSymbolTableRecord
100
AcDbTextStyleTableRecord
  2
STANDARD
 70
0
 40
0.0
 41
0.8
 50
0.0
 71
0
 42
0.2
  3
txt
  4

  0
STYLE
  5
200
100
AcDbSymbolTableRecord
100
AcDbTextStyleTableRecord
  2
TEXTSTYLE_1
 70
0
 40
0.0
 41
0.8
 50
0.0
 71
0
 42
0.2
  3
gdt
  4

  0
ENDTAB
  0
TABLE
  2
VIEW
  5
6
100
AcDbSymbolTable
 70
0
  0
ENDTAB
  0
TABLE
  2
UCS
  5
7
100
AcDbSymbolTable
 70
0
  0
ENDTAB
  0
TABLE
  2
APPID
  5
9
100
AcDbSymbolTable
 70
1
  0
APPID
  5
201
100
AcDbSymbolTableRecord
100
AcDbRegAppTableRecord
  2
ACAD
 70
0
  0
ENDTAB
  0
TABLE
  2
BLOCK_RECORD
  5
1
100
AcDbSymbolTable
 70
0
  0
BLOCK_RECORD
  5
202
100
AcDbSymbolTableRecord
100
AcDbBlockTableRecord
  2
*Model_Space
  0
BLOCK_RECORD
  5
203
100
AcDbSymbolTableRecord
100
AcDbBlockTableRecord
  2
*Paper_Space
  0
ENDTAB
  0
TABLE
  2
DIMSTYLE
  5
A
100
AcDbSymbolTable
 70
1
100
AcDbDimStyleTable
 71
0
  0
DIMSTYLE
105
204
100
AcDbSymbolTableRecord
100
AcDbDimStyleTableRecord
  2
STANDARD
 70
0
  3

  4

 40
1.0
 41
0.1
 42
0.0625
 43
0.38
 44
0.125
 45
0.0
 46
0.0
 47
0.001
 48
0.001
140
0.08
141
0.09
142
0.0
143
25.4
144
1.0
145
0.0
146
1.0
147
0.09
 71
1.0
 72
0.0
 73
1
 74
1
 75
0
 76
0
 77
0
 78
4
170
0
171
2
172
0
173
0
174
0
175
0
176
0
177
0
178
0
270
2
271
3
272
3
273
2
274
2
275
0
280
0
281
0
282
0
283
1
284
4
285
0
286
0
287
3
288
0
340
11
278
46
  0
ENDTAB
  0
ENDSEC
  0
SECTION
  2
BLOCKS
  0
BLOCK
  5
20
100
AcDbEntity
  8
0
100
AcDbBlockBegin
  2
*Model_Space
 70
0
 10
0.0
 20
0.0
 30
0.0
  3
*Model_Space
  1

  0
ENDBLK
  5
21
100
AcDbEntity
  8
0
100
AcDbBlockEnd
  0
BLOCK
  5
1C
100
AcDbEntity
  8
0
100
AcDbBlockBegin
  2
*Paper_Space
 70
0
 10
0.0
 20
0.0
 30
0.0
  3
*Paper_Space
  1

  0
ENDBLK
  5
1D
100
AcDbEntity
  8
0
100
AcDbBlockEnd
  0
ENDSEC
  0
SECTION
  2
ENTITIES
  0
LINE
  5
205
100
AcDbEntity
  8
0
100
AcDbLine
 62
6
  6
CONTINUOUS
 10
2.4827286698
 20
5.7427898485
 11
2.4827286698
 21
5.5677898485
  0
LINE
  5
206
100
AcDbEntity
  8
0
100
AcDbLine
 62
6
  6
CONTINUOUS
 10
5.5360286698
 20
2.1830733131
 11
6.5160286698
 21
2.1830733131
  0
LINE
  5
207
100
AcDbEntity
  8
0
100
AcDbLine
 62
6
  6
CONTINUOUS
 10
4.6765386788
 20
5.3753133875
 11
4.6778753936
 21
5.3242663095
  0
LINE
  5
208
100
AcDbEntity
  8
0
100
AcDbLine
 62
6
  6
CONTINUOUS
 10
5.5360286698
 20
2.5007032343
 11
6.5160286698
 21
2.5007032343
  0
LINE
  5
209
100
AcDbEntity
  8
0
100
AcDbLine
 62
6
  6
CONTINUOUS
 10
5.1990286698
 20
3.7309675208
 11
5.1990286698
 21
5.1240733131
  0
LINE
  5
20A
100
AcDbEntity
  8
0
100
AcDbLine
 62
6
  6
CONTINUOUS
 10
5.1992586698
 20
5.3947898485
 11
5.1992586698
 21
4.2327898485
  0
LINE
  5
20B
100
AcDbEntity
  8
0
100
AcDbLine
 62
6
  6
CONTINUOUS
 10
5.5360286698
 20
3.1257032343
 11
6.5160286698
 21
3.1257032343
  0
LINE
  5
20C
100
AcDbEntity
  8
0
100
AcDbLine
 62
9
  6
CONTINUOUS
 10
5.7135286698
 20
3.1680733131
 11
5.6760347873
 21
3.1680733131
  0
LINE
  5
20D
100
AcDbEntity
  8
0
100
AcDbLine
 62
6
  6
CONTINUOUS
 10
5.6760286698
 20
3.1680733131
 11
5.6760347873
 21
3.1680733131
  0
LINE
  5
20E
100
AcDbEntity
  8
0
100
AcDbLine
 62
9
  6
CONTINUOUS
 10
6.3385286698
 20
3.1680733131
 11
6.3759863419
 21
3.1680733131
  0
LINE
  5
20F
100
AcDbEntity
  8
0
100
AcDbLine
 62
6
  6
CONTINUOUS
 10
6.3759863419
 20
3.1680733131
 11
6.3760286698
 21
3.1680733131
  0
LINE
  5
210
100
AcDbEntity
  8
0
100
AcDbLine
 62
9
  6
CONTINUOUS
 10
6.4178187664
 20
3.1807985392
 11
6.3385286698
 21
3.1807985392
  0
LINE
  5
211
100
AcDbEntity
  8
0
100
AcDbLine
 62
9
  6
CONTINUOUS
 10
5.7135286698
 20
3.1807985325
 11
5.6342385731
 21
3.1807985392
  0
LINE
  5
212
100
AcDbEntity
  8
0
100
AcDbLine
 62
6
  6
CONTINUOUS
 10
5.271602176
 20
3.5959992509
 11
5.2686171458
 21
3.6099293918
  0
LINE
  5
213
100
AcDbEntity
  8
0
100
AcDbLine
 62
6
  6
CONTINUOUS
 10
5.3785286698
 20
4.0827898485
 11
5.3785286698
 21
3.9004947212
  0
LINE
  5
214
100
AcDbEntity
  8
0
100
AcDbLine
 62
9
  6
CONTINUOUS
 10
6.4355875039
 20
3.2018820987
 11
6.3385286698
 21
3.2018820982
  0
LINE
  5
215
100
AcDbEntity
  8
0
100
AcDbLine
 62
9
  6
CONTINUOUS
 10
5.7135286698
 20
3.2018820973
 11
5.6164698356
 21
3.2018820987
  0
LINE
  5
216
100
AcDbEntity
  8
0
100
AcDbLine
 62
6
  6
CONTINUOUS
 10
5.8564974198
 20
3.2416407343
 11
5.8955599198
 21
3.2416407343
  0
LINE
  5
217
100
AcDbEntity
  8
0
100
AcDbLine
 62
6
  6
CONTINUOUS
 10
6.1564974198
 20
3.2416407343
 11
6.1955599198
 21
3.2416407343
  0
LINE
  5
218
100
AcDbEntity
  8
0
100
AcDbLine
 62
6
  6
CONTINUOUS
 10
6.2150911698
 20
3.2807032343
 11
6.1775911698
 21
3.2807032343
  0
LINE
  5
219
100
AcDbEntity
  8
0
100
AcDbLine
 62
6
  6
CONTINUOUS
 10
5.8369661698
 20
3.2807032343
 11
5.8744661698
 21
3.2807032343
  0
LINE
  5
21A
100
AcDbEntity
  8
0
100
AcDbLine
 62
6
  6
CONTINUOUS
 10
6.1955599198
 20
3.3197657343
 11
6.1564974198
 21
3.3197657343
  0
LINE
  5
21B
100
AcDbEntity
  8
0
100
AcDbLine
 62
6
  6
CONTINUOUS
 10
5.8955599198
 20
3.3197657343
 11
5.8564974198
 21
3.3197657343
  0
LINE
  5
21C
100
AcDbEntity
  8
0
100
AcDbLine
 62
6
  6
CONTINUOUS
 10
5.7135286698
 20
3.4357032343
 11
6.3385286698
 21
3.4357032343
  0
LINE
  5
21D
100
AcDbEntity
  8
0
100
AcDbLine
 62
6
  6
CONTINUOUS
 10
5.2473606932
 20
3.6442656979
 11
5.2366758493
 21
3.6527874352
  0
LINE
  5
21E
100
AcDbEntity
  8
0
100
AcDbLine
 62
6
  6
CONTINUOUS
 10
5.5360286698
 20
3.1257032343
 11
5.5360286698
 21
2.1830733131
  0
LINE
  5
21F
100
AcDbEntity
  8
0
100
AcDbLine
 62
6
  6
CONTINUOUS
 10
5.7135286698
 20
3.4357032343
 11
5.7135286698
 21
3.1257032343
  0
LINE
  5
220
100
AcDbEntity
  8
0
100
AcDbLine
 62
9
  6
CONTINUOUS
 10
6.349172874
 20
3.4857032343
 11
5.7028844655
 21
3.4857032343
  0
LINE
  5
221
100
AcDbEntity
  8
0
100
AcDbLine
 62
9
  6
CONTINUOUS
 10
6.3859297862
 20
3.5099257375
 11
5.6661275533
 21
3.5099257375
  0
LINE
  5
222
100
AcDbEntity
  8
0
100
AcDbLine
 62
9
  6
CONTINUOUS
 10
5.3095089011
 20
3.5436638083
 11
5.6506336415
 21
3.5436638069
  0
LINE
  5
223
100
AcDbEntity
  8
0
100
AcDbLine
 62
9
  6
CONTINUOUS
 10
6.4014236962
 20
3.5436638027
 11
6.7425484385
 21
3.5436638083
  0
LINE
  5
224
100
AcDbEntity
  8
0
100
AcDbLine
 62
9
  6
CONTINUOUS
 10
5.271602176
 20
3.5959992509
 11
5.6224139449
 21
3.5959992494
  0
LINE
  5
225
100
AcDbEntity
  8
0
100
AcDbLine
 62
9
  6
CONTINUOUS
 10
6.4296433923
 20
3.595999246
 11
6.7804551635
 21
3.5959992509
  0
LINE
  5
226
100
AcDbEntity
  8
0
100
AcDbLine
 62
9
  6
CONTINUOUS
 10
6.7834401937
 20
3.6099293918
 11
6.4380927931
 21
3.6099293875
  0
LINE
  5
227
100
AcDbEntity
  8
0
100
AcDbLine
 62
9
  6
CONTINUOUS
 10
5.6139645456
 20
3.6099293894
 11
5.2686171458
 21
3.6099293918
  0
LINE
  5
228
100
AcDbEntity
  8
0
100
AcDbLine
 62
9
  6
CONTINUOUS
 10
6.8046966463
 20
3.6442656979
 11
6.460741779
 21
3.6442656865
  0
LINE
  5
229
100
AcDbEntity
  8
0
100
AcDbLine
 62
9
  6
CONTINUOUS
 10
5.5913155573
 20
3.6442656905
 11
5.2473606932
 21
3.6442656979
  0
LINE
  5
22A
100
AcDbEntity
  8
0
100
AcDbLine
 62
9
  6
CONTINUOUS
 10
6.8153814902
 20
3.6527874352
 11
6.4668443841
 21
3.6527874352
  0
LINE
  5
22B
100
AcDbEntity
  8
0
100
AcDbLine
 62
9
  6
CONTINUOUS
 10
5.5852129556
 20
3.6527874352
 11
5.2366758493
 21
3.6527874352
  0
LINE
  5
22C
100
AcDbEntity
  8
0
100
AcDbLine
 62
6
  6
CONTINUOUS
 10
5.8369661698
 20
3.2807032343
 11
5.8564974198
 21
3.2416407343
  0
LINE
  5
22D
100
AcDbEntity
  8
0
100
AcDbLine
 62
6
  6
CONTINUOUS
 10
5.8744661698
 20
3.2807032343
 11
5.8939974198
 21
3.2416407343
  0
LINE
  5
22E
100
AcDbEntity
  8
0
100
AcDbLine
 62
6
  6
CONTINUOUS
 10
5.9150911698
 20
3.2807032343
 11
5.8955599198
 21
3.3197657343
  0
LINE
  5
22F
100
AcDbEntity
  8
0
100
AcDbLine
 62
6
  6
CONTINUOUS
 10
5.8410286698
 20
3.4857032343
 11
5.8410286698
 21
3.4357032343
  0
LINE
  5
230
100
AcDbEntity
  8
0
100
AcDbLine
 62
9
  6
CONTINUOUS
 10
5.1990286698
 20
3.7309675208
 11
5.5204605678
 21
3.7309675208
  0
LINE
  5
231
100
AcDbEntity
  8
0
100
AcDbLine
 62
9
  6
CONTINUOUS
 10
6.5315967723
 20
3.7309675206
 11
6.8530286698
 21
3.7309675208
  0
LINE
  5
232
100
AcDbEntity
  8
0
100
AcDbLine
 62
9
  6
CONTINUOUS
 10
5.4194790643
 20
3.8197906687
 11
6.6325782753
 21
3.8197906687
  0
LINE
  5
233
100
AcDbEntity
  8
0
100
AcDbLine
 62
9
  6
CONTINUOUS
 10
5.3785286698
 20
3.9004947212
 11
6.6735286698
 21
3.9004947212
  0
LINE
  5
234
100
AcDbEntity
  8
0
100
AcDbLine
 62
6
  6
CONTINUOUS
 10
6.1369661698
 20
3.2807032343
 11
6.1564974198
 21
3.2416407343
  0
LINE
  5
235
100
AcDbEntity
  8
0
100
AcDbLine
 62
6
  6
CONTINUOUS
 10
6.1775911698
 20
3.2807032343
 11
6.1580599198
 21
3.3197657343
  0
LINE
  5
236
100
AcDbEntity
  8
0
100
AcDbLine
 62
6
  6
CONTINUOUS
 10
6.2150911698
 20
3.2807032343
 11
6.1955599198
 21
3.3197657343
  0
LINE
  5
237
100
AcDbEntity
  8
0
100
AcDbLine
 62
6
  6
CONTINUOUS
 10
6.2110286698
 20
3.4857032343
 11
6.2110286698
 21
3.4357032343
  0
LINE
  5
238
100
AcDbEntity
  8
0
100
AcDbLine
 62
6
  6
CONTINUOUS
 10
5.8564974198
 20
3.3197657343
 11
5.8369661698
 21
3.2807032343
  0
LINE
  5
239
100
AcDbEntity
  8
0
100
AcDbLine
 62
6
  6
CONTINUOUS
 10
5.8939974198
 20
3.3197657343
 11
5.8744661698
 21
3.2807032343
  0
LINE
  5
23A
100
AcDbEntity
  8
0
100
AcDbLine
 62
6
  6
CONTINUOUS
 10
5.8955599198
 20
3.2416407343
 11
5.9150911698
 21
3.2807032343
  0
LINE
  5
23B
100
AcDbEntity
  8
0
100
AcDbLine
 62
6
  6
CONTINUOUS
 10
6.7027986698
 20
4.0827898485
 11
5.3492586698
 21
4.0827898485
  0
LINE
  5
23C
100
AcDbEntity
  8
0
100
AcDbLine
 62
9
  6
CONTINUOUS
 10
6.8527986698
 20
4.2327898485
 11
5.1992586698
 21
4.2327898485
  0
LINE
  5
23D
100
AcDbEntity
  8
0
100
AcDbLine
 62
6
  6
CONTINUOUS
 10
6.3385286698
 20
3.4357032343
 11
6.3385286698
 21
3.1257032343
  0
LINE
  5
23E
100
AcDbEntity
  8
0
100
AcDbLine
 62
6
  6
CONTINUOUS
 10
6.5160286698
 20
3.1257032343
 11
6.5160286698
 21
2.1830733131
  0
LINE
  5
23F
100
AcDbEntity
  8
0
100
AcDbLine
 62
6
  6
CONTINUOUS
 10
6.1564974198
 20
3.3197657343
 11
6.1369661698
 21
3.2807032343
  0
LINE
  5
240
100
AcDbEntity
  8
0
100
AcDbLine
 62
6
  6
CONTINUOUS
 10
6.1580599198
 20
3.2416407343
 11
6.1775911698
 21
3.2807032343
  0
LINE
  5
241
100
AcDbEntity
  8
0
100
AcDbLine
 62
6
  6
CONTINUOUS
 10
6.1955599198
 20
3.2416407343
 11
6.2150911698
 21
3.2807032343
  0
LINE
  5
242
100
AcDbEntity
  8
0
100
AcDbLine
 62
6
  6
CONTINUOUS
 10
6.6735286698
 20
4.0827898485
 11
6.6735286698
 21
3.9004947212
  0
LINE
  5
243
100
AcDbEntity
  8
0
100
AcDbLine
 62
6
  6
CONTINUOUS
 10
6.8527986698
 20
5.3947898485
 11
6.8527986698
 21
4.2327898485
  0
LINE
  5
244
100
AcDbEntity
  8
0
100
AcDbLine
 62
6
  6
CONTINUOUS
 10
6.8530286698
 20
3.7309675208
 11
6.8530286698
 21
5.1240733131
  0
LINE
  5
245
100
AcDbEntity
  8
0
100
AcDbLine
 62
6
  6
CONTINUOUS
 10
6.7804551635
 20
3.5959992509
 11
6.7834401937
 21
3.6099293918
  0
LINE
  5
246
100
AcDbEntity
  8
0
100
AcDbLine
 62
6
  6
CONTINUOUS
 10
6.8046966463
 20
3.6442656979
 11
6.8153814902
 21
3.6527874352
  0
LINE
  5
247
100
AcDbEntity
  8
0
100
AcDbLine
 62
6
  6
CONTINUOUS
 10
7.3755186607
 20
5.3753133875
 11
7.3741819459
 21
5.3242663095
  0
LINE
  5
248
100
AcDbEntity
  8
0
100
AcDbLine
 62
6
  6
CONTINUOUS
 10
7.3541887994
 20
5.3047898485
 11
6.8527986698
 21
5.3047898485
  0
LINE
  5
249
100
AcDbEntity
  8
0
100
AcDbLine
 62
6
  6
CONTINUOUS
 10
5.1992586698
 20
5.3047898485
 11
4.6978685401
 21
5.3047898485
  0
LINE
  5
24A
100
AcDbEntity
  8
0
100
AcDbLine
 62
9
  6
CONTINUOUS
 10
7.3741819459
 20
5.3242663095
 11
6.8527986698
 21
5.3242663095
  0
LINE
  5
24B
100
AcDbEntity
  8
0
100
AcDbLine
 62
9
  6
CONTINUOUS
 10
5.1992586698
 20
5.3242663095
 11
4.6778753936
 21
5.3242663095
  0
LINE
  5
24C
100
AcDbEntity
  8
0
100
AcDbLine
 62
9
  6
CONTINUOUS
 10
7.3755186607
 20
5.3753133875
 11
6.8527986698
 21
5.3753133875
  0
LINE
  5
24D
100
AcDbEntity
  8
0
100
AcDbLine
 62
9
  6
CONTINUOUS
 10
5.1992586698
 20
5.3753133875
 11
4.6765386788
 21
5.3753133875
  0
LINE
  5
24E
100
AcDbEntity
  8
0
100
AcDbLine
 62
6
  6
CONTINUOUS
 10
2.7930286698
 20
5.3947898485
 11
9.2590286698
 21
5.3947898485
  0
LINE
  5
24F
100
AcDbEntity
  8
0
100
AcDbLine
 62
9
  6
CONTINUOUS
 10
2.7459121021
 20
5.4101367044
 11
9.3061452375
 21
5.4101367044
  0
LINE
  5
250
100
AcDbEntity
  8
0
100
AcDbLine
 62
9
  6
CONTINUOUS
 10
2.5517375923
 20
5.4885484691
 11
9.5003197473
 21
5.4885484691
  0
LINE
  5
251
100
AcDbEntity
  8
0
100
AcDbLine
 62
9
  6
CONTINUOUS
 10
2.4827286698
 20
5.5677898485
 11
9.5693286698
 21
5.5677898485
  0
LINE
  5
252
100
AcDbEntity
  8
0
100
AcDbLine
 62
6
  6
CONTINUOUS
 10
2.4827286698
 20
5.7427898485
 11
9.5693286698
 21
5.7427898485
  0
LINE
  5
253
100
AcDbEntity
  8
0
100
AcDbLine
 62
6
  6
CONTINUOUS
 10
6.4995799219
 20
5.8077898485
 11
5.5524774177
 21
5.8077898485
  0
LINE
  5
254
100
AcDbEntity
  8
0
100
AcDbLine
 62
6
  6
CONTINUOUS
 10
9.5693286698
 20
5.7427898485
 11
9.5693286698
 21
5.5677898485
  0
ARC
  5
255
100
AcDbEntity
  8
0
100
AcDbCircle
 62
6
  6
CONTINUOUS
 10
6.0260286698
 20
3.9184126545
 40
1.5
100
AcDbArc
 50
250.9334198993
 51
289.0665801007
  0
ARC
  5
256
100
AcDbEntity
  8
0
100
AcDbCircle
 62
6
  6
CONTINUOUS
 10
6.0260286698
 20
3.6007827332
 40
1.5
100
AcDbArc
 50
250.9334198993
 51
289.0665801007
  0
ARC
  5
257
100
AcDbEntity
  8
0
100
AcDbCircle
 62
6
  6
CONTINUOUS
 10
4.9310286698
 20
2.8950084958
 40
0.751
100
AcDbArc
 50
24.1181733655
 51
59.7371069019
  0
ARC
  5
258
100
AcDbEntity
  8
0
100
AcDbCircle
 62
6
  6
CONTINUOUS
 10
7.1210286698
 20
2.8950084958
 40
0.751
100
AcDbArc
 50
120.2628930981
 51
155.8818266345
  0
ARC
  5
259
100
AcDbEntity
  8
0
100
AcDbCircle
 62
6
  6
CONTINUOUS
 10
7.0760408125
 20
3.2137032343
 40
0.751
100
AcDbArc
 50
126.1922176694
 51
156.7691079294
  0
ARC
  5
25A
100
AcDbEntity
  8
0
100
AcDbCircle
 62
6
  6
CONTINUOUS
 10
4.976016527
 20
3.2137032343
 40
0.751
100
AcDbArc
 50
23.2308920706
 51
53.8077823306
  0
ARC
  5
25B
100
AcDbEntity
  8
0
100
AcDbCircle
 62
6
  6
CONTINUOUS
 10
2.4926605506
 20
5.0626260546
 40
0.43
100
AcDbArc
 50
53.916964529
 51
82.1032437574
  0
ARC
  5
25C
100
AcDbEntity
  8
0
100
AcDbCircle
 62
6
  6
CONTINUOUS
 10
9.5593967889
 20
5.0626260546
 40
0.43
100
AcDbArc
 50
97.8967562426
 51
126.083035471
  0
ARC
  5
25D
100
AcDbEntity
  8
0
100
AcDbCircle
 62
6
  6
CONTINUOUS
 10
5.8269486027
 20
3.2890317647
 40
0.1224801095
100
AcDbArc
 50
345.2789662184
 51
356.4089414004
  0
ARC
  5
25E
100
AcDbEntity
  8
0
100
AcDbCircle
 62
6
  6
CONTINUOUS
 10
6.2251087368
 20
3.2890317646
 40
0.1224801095
100
AcDbArc
 50
183.5910585974
 51
194.7210337794
  0
ARC
  5
25F
100
AcDbEntity
  8
0
100
AcDbCircle
 62
6
  6
CONTINUOUS
 10
6.5735286698
 20
3.9004947212
 40
0.1
100
AcDbArc
 50
306.1922176694
 51
360.0
  0
ARC
  5
260
100
AcDbEntity
  8
0
100
AcDbCircle
 62
6
  6
CONTINUOUS
 10
6.7530286698
 20
3.7309675208
 40
0.1
100
AcDbArc
 50
308.5742429229
 51
360.0
  0
ARC
  5
261
100
AcDbEntity
  8
0
100
AcDbCircle
 62
6
  6
CONTINUOUS
 10
5.4785286698
 20
3.9004947212
 40
0.1
100
AcDbArc
 50
180.0
 51
233.8077823306
  0
ARC
  5
262
100
AcDbEntity
  8
0
100
AcDbCircle
 62
6
  6
CONTINUOUS
 10
5.2990286698
 20
3.7309675208
 40
0.1
100
AcDbArc
 50
180.0
 51
231.425757077
  0
ARC
  5
263
100
AcDbEntity
  8
0
100
AcDbCircle
 62
7
  6
CONTINUOUS
 10
6.1525060877
 20
3.2855883069
 40
0.090216615
100
AcDbArc
 50
346.0407635915
 51
356.8960152461
  0
ARC
  5
264
100
AcDbEntity
  8
0
100
AcDbCircle
 62
6
  6
CONTINUOUS
 10
2.5627286698
 20
5.5677898485
 40
0.08
100
AcDbArc
 50
180.0
 51
262.1032437574
  0
ARC
  5
265
100
AcDbEntity
  8
0
100
AcDbCircle
 62
6
  6
CONTINUOUS
 10
9.4893286698
 20
5.5677898485
 40
0.08
100
AcDbArc
 50
277.8967562426
 51
360.0
  0
ARC
  5
266
100
AcDbEntity
  8
0
100
AcDbCircle
 62
6
  6
CONTINUOUS
 10
2.7930286698
 20
5.4747898485
 40
0.08
100
AcDbArc
 50
233.916964529
 51
270.0
  0
ARC
  5
267
100
AcDbEntity
  8
0
100
AcDbCircle
 62
6
  6
CONTINUOUS
 10
9.2590286698
 20
5.4747898485
 40
0.08
100
AcDbArc
 50
270.0
 51
306.083035471
  0
ARC
  5
268
100
AcDbEntity
  8
0
100
AcDbCircle
 62
6
  6
CONTINUOUS
 10
5.3498263691
 20
3.612761578
 40
0.08
100
AcDbArc
 50
192.094757077
 51
239.7371069019
  0
ARC
  5
269
100
AcDbEntity
  8
0
100
AcDbCircle
 62
6
  6
CONTINUOUS
 10
6.7022309704
 20
3.612761578
 40
0.08
100
AcDbArc
 50
300.2628930981
 51
347.905242923
  0
ARC
  5
26A
100
AcDbEntity
  8
0
100
AcDbCircle
 62
6
  6
CONTINUOUS
 10
6.3760286698
 20
3.2430560105
 40
0.0749826974
100
AcDbArc
 50
270.0
 51
303.871340548
  0
ARC
  5
26B
100
AcDbEntity
  8
0
100
AcDbCircle
 62
6
  6
CONTINUOUS
 10
5.6760286698
 20
3.2430560105
 40
0.0749826974
100
AcDbArc
 50
236.128659452
 51
270.0
  0
ARC
  5
26C
100
AcDbEntity
  8
0
100
AcDbCircle
 62
6
  6
CONTINUOUS
 10
6.8421083386
 20
3.5973576465
 40
0.06
100
AcDbArc
 50
128.574242923
 51
167.905242923
  0
ARC
  5
26D
100
AcDbEntity
  8
0
100
AcDbCircle
 62
6
  6
CONTINUOUS
 10
5.2099490009
 20
3.5973576465
 40
0.06
100
AcDbArc
 50
12.094757077
 51
51.425757077
  0
ARC
  5
26E
100
AcDbEntity
  8
0
100
AcDbCircle
 62
6
  6
CONTINUOUS
 10
5.6621050664
 20
3.2223130975
 40
0.05
100
AcDbArc
 50
204.1181733656
 51
236.1286594521
  0
ARC
  5
26F
100
AcDbEntity
  8
0
100
AcDbCircle
 62
6
  6
CONTINUOUS
 10
6.3899522732
 20
3.2223130975
 40
0.05
100
AcDbArc
 50
303.871340548
 51
335.8818266345
  0
ARC
  5
270
100
AcDbEntity
  8
0
100
AcDbCircle
 62
6
  6
CONTINUOUS
 10
6.349172874
 20
3.5257032343
 40
0.04
100
AcDbArc
 50
270.0
 51
336.7691079294
  0
ARC
  5
271
100
AcDbEntity
  8
0
100
AcDbCircle
 62
6
  6
CONTINUOUS
 10
5.7028844655
 20
3.5257032343
 40
0.04
100
AcDbArc
 50
203.2308920706
 51
270.0
  0
ARC
  5
272
100
AcDbEntity
  8
0
100
AcDbCircle
 62
6
  6
CONTINUOUS
 10
4.6565455323
 20
5.3747898485
 40
0.02
100
AcDbArc
 50
1.5
 51
90.0
  0
ARC
  5
273
100
AcDbEntity
  8
0
100
AcDbCircle
 62
6
  6
CONTINUOUS
 10
7.3955118072
 20
5.3747898485
 40
0.02
100
AcDbArc
 50
90.0
 51
178.5
  0
ARC
  5
274
100
AcDbEntity
  8
0
100
AcDbCircle
 62
6
  6
CONTINUOUS
 10
7.3541887994
 20
5.3247898485
 40
0.02
100
AcDbArc
 50
270.0
 51
358.5
  0
ARC
  5
275
100
AcDbEntity
  8
0
100
AcDbCircle
 62
6
  6
CONTINUOUS
 10
4.6978685401
 20
5.3247898485
 40
0.02
100
AcDbArc
 50
181.5
 51
270.0
  0
SPLINE
  5
276
100
AcDbEntity
  8
0
100
AcDbSpline
 62
6
  6
CONTINUOUS
 70
0
 71
3
 72
11
 73
7
 74
0
 42
0.0000001
 43
0.0000001
 44
0.0000000001
 40
0.0
 40
0.0
 40
0.0
 40
0.0
 40
0.1234929133
 40
0.5388801486
 40
0.7864547302
 40
1.0
 40
1.0
 40
1.0
 40
1.0
 10
5.640143703
 20
5.7427876843
 30
0.0
 10
5.6406229807
 20
5.7478657662
 30
0.0
 10
5.6357895012
 20
5.7699983038
 30
0.0
 10
5.5954536679
 20
5.7677404697
 30
0.0
 10
5.5723889926
 20
5.7930321115
 30
0.0
 10
5.5598917173
 20
5.8048196898
 30
0.0
 10
5.5524774177
 20
5.8077898485
 30
0.0
  0
SPLINE
  5
277
100
AcDbEntity
  8
0
100
AcDbSpline
 62
6
  6
CONTINUOUS
 70
0
 71
3
 72
11
 73
7
 74
0
 42
0.0000001
 43
0.0000001
 44
0.0000000001
 40
0.0
 40
0.0
 40
0.0
 40
0.0
 40
0.2135393218
 40
0.4611070076
 40
0.8764826729
 40
1.0
 40
1.0
 40
1.0
 40
1.0
 10
6.4995799219
 20
5.8077898485
 30
0.0
 10
6.4921656223
 20
5.8048196898
 30
0.0
 10
6.479668347
 20
5.7930321115
 30
0.0
 10
6.4566036716
 20
5.7677404697
 30
0.0
 10
6.4162664097
 20
5.7699983838
 30
0.0
 10
6.4114338593
 20
5.7478634781
 30
0.0
 10
6.4119139611
 20
5.7427842481
 30
0.0
  0
SPLINE
  5
278
100
AcDbEntity
  8
0
100
AcDbSpline
 62
6
  6
CONTINUOUS
 70
0
 71
3
 72
67
 73
63
 74
0
 42
0.0000001
 43
0.0000001
 44
0.0000000001
 40
0.0
 40
0.0
 40
0.0
 40
0.0
 40
0.0100513792
 40
0.0198626096
 40
0.0294603734
 40
0.0388700938
 40
0.0481143991
 40
0.0572088564
 40
0.0661669004
 40
0.0750013742
 40
0.0923428572
 40
0.1093040533
 40
0.1259427625
 40
0.1423040787
 40
0.1584257909
 40
0.1743360616
 40
0.1900594409
 40
0.2056186395
 40
0.2210336608
 40
0.2363195704
 40
0.2514896443
 40
0.2665562883
 40
0.2815307346
 40
0.2964222912
 40
0.3112394592
 40
0.3259902514
 40
0.3553201714
 40
0.3844643596
 40
0.4134672397
 40
0.4423671083
 40
0.4711999159
 40
0.5
 40
0.5288000841
 40
0.5576328917
 40
0.5865327603
 40
0.6155356404
 40
0.6446798286
 40
0.6740097486
 40
0.6887605408
 40
0.7035777088
 40
0.7184692654
 40
0.7334437117
 40
0.7485103557
 40
0.7636804296
 40
0.7789663392
 40
0.7943813605
 40
0.8099405591
 40
0.8256639384
 40
0.8415742091
 40
0.8576959213
 40
0.8740572375
 40
0.8906959467
 40
0.9076571428
 40
0.9249986258
 40
0.9338330996
 40
0.9427911436
 40
0.9518856009
 40
0.9611299062
 40
0.9705396266
 40
0.9801373904
 40
0.9899486208
 40
1.0
 40
1.0
 40
1.0
 40
1.0
 10
5.3492586698
 20
4.0827898485
 30
0.0
 10
5.3484873623
 20
4.0827898485
 30
0.0
 10
5.3469631011
 20
4.0828096757
 30
0.0
 10
5.3447038705
 20
4.0828967456
 30
0.0
 10
5.3424965887
 20
4.0830358106
 30
0.0
 10
5.3403364727
 20
4.0832219183
 30
0.0
 10
5.3382192471
 20
4.0834500164
 30
0.0
 10
5.3361415969
 20
4.0837175554
 30
0.0
 10
5.3341008283
 20
4.0840219788
 30
0.0
 10
5.3314422544
 20
4.0844707812
 30
0.0
 10
5.3281936548
 20
4.0851103331
 30
0.0
 10
5.3243857751
 20
4.085997022
 30
0.0
 10
5.3206807887
 20
4.0869850451
 30
0.0
 10
5.3170690372
 20
4.0880657095
 30
0.0
 10
5.3135422393
 20
4.089229966
 30
0.0
 10
5.3100944271
 20
4.0904729062
 30
0.0
 10
5.3067203888
 20
4.0917894642
 30
0.0
 10
5.303415095
 20
4.0931744985
 30
0.0
 10
5.3001737676
 20
4.094622731
 30
0.0
 10
5.2969932611
 20
4.0961316112
 30
0.0
 10
5.2938708122
 20
4.0976984577
 30
0.0
 10
5.2908037379
 20
4.0993205471
 30
0.0
 10
5.2877894349
 20
4.1009951047
 30
0.0
 10
5.2848261245
 20
4.102720564
 30
0.0
 10
5.2819121438
 20
4.1044953118
 30
0.0
 10
5.2780979586
 20
4.106920381
 30
0.0
 10
5.2734417165
 20
4.1100681784
 30
0.0
 10
5.2680200267
 20
4.1140284621
 30
0.0
 10
5.2627664685
 20
4.1181559711
 30
0.0
 10
5.2576777097
 20
4.122448005
 30
0.0
 10
5.2527507677
 20
4.1269016384
 30
0.0
 10
5.2479827126
 20
4.1315138913
 30
0.0
 10
5.2433704597
 20
4.1362819464
 30
0.0
 10
5.2389168263
 20
4.1412088884
 30
0.0
 10
5.2346247924
 20
4.1462976472
 30
0.0
 10
5.2304972833
 20
4.1515512054
 30
0.0
 10
5.2265369997
 20
4.1569728953
 30
0.0
 10
5.2233892023
 20
4.1616291374
 30
0.0
 10
5.2209641331
 20
4.1654433225
 30
0.0
 10
5.2191893853
 20
4.1683573032
 30
0.0
 10
5.217463926
 20
4.1713206136
 30
0.0
 10
5.2157893684
 20
4.1743349166
 30
0.0
 10
5.2141672789
 20
4.177401991
 30
0.0
 10
5.2126004324
 20
4.1805244399
 30
0.0
 10
5.2110915523
 20
4.1837049463
 30
0.0
 10
5.2096433198
 20
4.1869462737
 30
0.0
 10
5.2082582854
 20
4.1902515676
 30
0.0
 10
5.2069417274
 20
4.1936256058
 30
0.0
 10
5.2056987873
 20
4.197073418
 30
0.0
 10
5.2045345308
 20
4.2006002159
 30
0.0
 10
5.2034538663
 20
4.2042119674
 30
0.0
 10
5.2024658432
 20
4.2079169538
 30
0.0
 10
5.2015791543
 20
4.2117248336
 30
0.0
 10
5.2009396025
 20
4.2149734331
 30
0.0
 10
5.2004908
 20
4.2176320071
 30
0.0
 10
5.2001863767
 20
4.2196727757
 30
0.0
 10
5.1999188376
 20
4.2217504258
 30
0.0
 10
5.1996907396
 20
4.2238676514
 30
0.0
 10
5.1995046318
 20
4.2260277674
 30
0.0
 10
5.1993655669
 20
4.2282350493
 30
0.0
 10
5.199278497
 20
4.2304942798
 30
0.0
 10
5.1992586698
 20
4.2320185411
 30
0.0
 10
5.1992586698
 20
4.2327898485
 30
0.0
  0
SPLINE
  5
279
100
AcDbEntity
  8
0
100
AcDbSpline
 62
6
  6
CONTINUOUS
 70
0
 71
3
 72
67
 73
63
 74
0
 42
0.0000001
 43
0.0000001
 44
0.0000000001
 40
0.0
 40
0.0
 40
0.0
 40
0.0
 40
0.0100513792
 40
0.0198626096
 40
0.0294603734
 40
0.0388700938
 40
0.0481143991
 40
0.0572088564
 40
0.0661669004
 40
0.0750013742
 40
0.0923428572
 40
0.1093040533
 40
0.1259427625
 40
0.1423040787
 40
0.1584257909
 40
0.1743360616
 40
0.1900594409
 40
0.2056186395
 40
0.2210336608
 40
0.2363195704
 40
0.2514896443
 40
0.2665562883
 40
0.2815307346
 40
0.2964222912
 40
0.3112394592
 40
0.3259902514
 40
0.3553201714
 40
0.3844643596
 40
0.4134672397
 40
0.4423671083
 40
0.4711999159
 40
0.5
 40
0.5288000841
 40
0.5576328917
 40
0.5865327603
 40
0.6155356404
 40
0.6446798286
 40
0.6740097486
 40
0.6887605408
 40
0.7035777088
 40
0.7184692654
 40
0.7334437117
 40
0.7485103557
 40
0.7636804296
 40
0.7789663392
 40
0.7943813605
 40
0.8099405591
 40
0.8256639384
 40
0.8415742091
 40
0.8576959213
 40
0.8740572375
 40
0.8906959467
 40
0.9076571428
 40
0.9249986258
 40
0.9338330996
 40
0.9427911436
 40
0.9518856009
 40
0.9611299062
 40
0.9705396266
 40
0.9801373904
 40
0.9899486208
 40
1.0
 40
1.0
 40
1.0
 40
1.0
 10
6.7027986698
 20
4.0827898485
 30
0.0
 10
6.7035699772
 20
4.0827898485
 30
0.0
 10
6.7050942384
 20
4.0828096757
 30
0.0
 10
6.707353469
 20
4.0828967456
 30
0.0
 10
6.7095607508
 20
4.0830358106
 30
0.0
 10
6.7117208668
 20
4.0832219183
 30
0.0
 10
6.7138380924
 20
4.0834500164
 30
0.0
 10
6.7159157426
 20
4.0837175554
 30
0.0
 10
6.7179565112
 20
4.0840219788
 30
0.0
 10
6.7206150851
 20
4.0844707812
 30
0.0
 10
6.7238636847
 20
4.0851103331
 30
0.0
 10
6.7276715645
 20
4.085997022
 30
0.0
 10
6.7313765509
 20
4.0869850451
 30
0.0
 10
6.7349883023
 20
4.0880657095
 30
0.0
 10
6.7385151002
 20
4.089229966
 30
0.0
 10
6.7419629124
 20
4.0904729062
 30
0.0
 10
6.7453369507
 20
4.0917894642
 30
0.0
 10
6.7486422446
 20
4.0931744985
 30
0.0
 10
6.7518835719
 20
4.094622731
 30
0.0
 10
6.7550640784
 20
4.0961316112
 30
0.0
 10
6.7581865273
 20
4.0976984577
 30
0.0
 10
6.7612536017
 20
4.0993205471
 30
0.0
 10
6.7642679047
 20
4.1009951047
 30
0.0
 10
6.7672312151
 20
4.102720564
 30
0.0
 10
6.7701451958
 20
4.1044953118
 30
0.0
 10
6.7739593809
 20
4.106920381
 30
0.0
 10
6.778615623
 20
4.1100681784
 30
0.0
 10
6.7840373128
 20
4.1140284621
 30
0.0
 10
6.789290871
 20
4.1181559711
 30
0.0
 10
6.7943796298
 20
4.122448005
 30
0.0
 10
6.7993065718
 20
4.1269016384
 30
0.0
 10
6.804074627
 20
4.1315138913
 30
0.0
 10
6.8086868799
 20
4.1362819464
 30
0.0
 10
6.8131405132
 20
4.1412088884
 30
0.0
 10
6.8174325472
 20
4.1462976472
 30
0.0
 10
6.8215600562
 20
4.1515512054
 30
0.0
 10
6.8255203398
 20
4.1569728953
 30
0.0
 10
6.8286681372
 20
4.1616291374
 30
0.0
 10
6.8310932064
 20
4.1654433225
 30
0.0
 10
6.8328679543
 20
4.1683573032
 30
0.0
 10
6.8345934135
 20
4.1713206136
 30
0.0
 10
6.8362679711
 20
4.1743349166
 30
0.0
 10
6.8378900606
 20
4.177401991
 30
0.0
 10
6.8394569071
 20
4.1805244399
 30
0.0
 10
6.8409657872
 20
4.1837049463
 30
0.0
 10
6.8424140198
 20
4.1869462737
 30
0.0
 10
6.8437990541
 20
4.1902515676
 30
0.0
 10
6.8451156121
 20
4.1936256058
 30
0.0
 10
6.8463585522
 20
4.197073418
 30
0.0
 10
6.8475228087
 20
4.2006002159
 30
0.0
 10
6.8486034732
 20
4.2042119674
 30
0.0
 10
6.8495914963
 20
4.2079169538
 30
0.0
 10
6.8504781852
 20
4.2117248336
 30
0.0
 10
6.8511177371
 20
4.2149734331
 30
0.0
 10
6.8515665395
 20
4.2176320071
 30
0.0
 10
6.8518709629
 20
4.2196727757
 30
0.0
 10
6.8521385019
 20
4.2217504258
 30
0.0
 10
6.8523665999
 20
4.2238676514
 30
0.0
 10
6.8525527077
 20
4.2260277674
 30
0.0
 10
6.8526917727
 20
4.2282350493
 30
0.0
 10
6.8527788426
 20
4.2304942798
 30
0.0
 10
6.8527986698
 20
4.2320185411
 30
0.0
 10
6.8527986698
 20
4.2327898485
 30
0.0
  0
SPLINE
  5
27A
100
AcDbEntity
  8
0
100
AcDbSpline
 62
6
  6
CONTINUOUS
 70
0
 71
3
 72
15
 73
11
 74
0
 42
0.0000001
 43
0.0000001
 44
0.0000000001
 40
0.0
 40
0.0
 40
0.0
 40
0.0
 40
0.1246416398
 40
0.2494359763
 40
0.3743472045
 40
0.4993600142
 40
0.6244514509
 40
0.7495994945
 40
0.8747922014
 40
1.0
 40
1.0
 40
1.0
 40
1.0
 10
5.9430388131
 20
3.3124097678
 30
0.0
 10
5.9435311188
 20
3.3111821492
 30
0.0
 10
5.944460291
 20
3.3087024987
 30
0.0
 10
5.9456820875
 20
3.3049212054
 30
0.0
 10
5.9467286231
 20
3.3010835139
 30
0.0
 10
5.9475960766
 20
3.2971981959
 30
0.0
 10
5.9482811978
 20
3.2932740516
 30
0.0
 10
5.9487814346
 20
3.2893201232
 30
0.0
 10
5.9490948086
 20
3.2853458605
 30
0.0
 10
5.9491783752
 20
3.2826888405
 30
0.0
 10
5.9491887298
 20
3.2813602195
 30
0.0
  0
SPLINE
  5
27B
100
AcDbEntity
  8
0
100
AcDbSpline
 62
6
  6
CONTINUOUS
 70
0
 71
3
 72
15
 73
11
 74
0
 42
0.0000001
 43
0.0000001
 44
0.0000000001
 40
0.0
 40
0.0
 40
0.0
 40
0.0
 40
0.1252077986
 40
0.2504005055
 40
0.3755485491
 40
0.5006399858
 40
0.6256527955
 40
0.7505640237
 40
0.8753583602
 40
1.0
 40
1.0
 40
1.0
 40
1.0
 10
6.1028686097
 20
3.2813602195
 30
0.0
 10
6.1028789644
 20
3.2826888405
 30
0.0
 10
6.1029625309
 20
3.2853458605
 30
0.0
 10
6.1032759049
 20
3.2893201232
 30
0.0
 10
6.1037761417
 20
3.2932740516
 30
0.0
 10
6.1044612629
 20
3.2971981959
 30
0.0
 10
6.1053287164
 20
3.3010835139
 30
0.0
 10
6.106375252
 20
3.3049212054
 30
0.0
 10
6.1075970485
 20
3.3087024987
 30
0.0
 10
6.1085262207
 20
3.3111821492
 30
0.0
 10
6.1090185264
 20
3.3124097678
 30
0.0
  0
SPLINE
  5
27C
100
AcDbEntity
  8
0
100
AcDbSpline
 62
6
  6
CONTINUOUS
 70
0
 71
3
 72
23
 73
19
 74
0
 42
0.0000001
 43
0.0000001
 44
0.0000000001
 40
0.0
 40
0.0
 40
0.0
 40
0.0
 40
0.0657402614
 40
0.1311295477
 40
0.1961314669
 40
0.2607209648
 40
0.3248731389
 40
0.3885691968
 40
0.4517949237
 40
0.5145413091
 40
0.576804716
 40
0.6385870424
 40
0.6998958665
 40
0.760744496
 40
0.8211522022
 40
0.8811425432
 40
0.9407481258
 40
1.0
 40
1.0
 40
1.0
 40
1.0
 10
6.1090185264
 20
3.3124097678
 30
0.0
 10
6.1095094244
 20
3.3138179598
 30
0.0
 10
6.1105563811
 20
3.3166037427
 30
0.0
 10
6.1123232928
 20
3.3206888985
 30
0.0
 10
6.114277883
 20
3.3246587322
 30
0.0
 10
6.1164144062
 20
3.3285016164
 30
0.0
 10
6.1187267762
 20
3.332206507
 30
0.0
 10
6.1212083126
 20
3.3357626736
 30
0.0
 10
6.1238518766
 20
3.3391598391
 30
0.0
 10
6.1266498508
 20
3.3423881759
 30
0.0
 10
6.1295941725
 20
3.3454383395
 30
0.0
 10
6.1326763566
 20
3.3483014927
 30
0.0
 10
6.135887517
 20
3.3509693314
 30
0.0
 10
6.1392183965
 20
3.3534341238
 30
0.0
 10
6.1426593606
 20
3.3556886882
 30
0.0
 10
6.1462005396
 20
3.3577265455
 30
0.0
 10
6.1498315026
 20
3.3595416209
 30
0.0
 10
6.1523122356
 20
3.3606027484
 30
0.0
 10
6.1535633886
 20
3.3610939339
 30
0.0
  0
SPLINE
  5
27D
100
AcDbEntity
  8
0
100
AcDbSpline
 62
7
  6
CONTINUOUS
 70
0
 71
3
 72
39
 73
35
 74
0
 42
0.0000001
 43
0.0000001
 44
0.0000000001
 40
0.0
 40
0.0
 40
0.0
 40
0.0
 40
0.0293874837
 40
0.0586369216
 40
0.0877779319
 40
0.116845485
 40
0.1458740421
 40
0.1748996052
 40
0.2039583004
 40
0.2330859328
 40
0.2623174115
 40
0.2916861632
 40
0.3212235779
 40
0.3509585331
 40
0.3809170036
 40
0.4111216027
 40
0.4415913293
 40
0.4723413578
 40
0.5033829111
 40
0.5347231963
 40
0.5663653503
 40
0.5983084394
 40
0.6305475837
 40
0.663074134
 40
0.6958758578
 40
0.7289371497
 40
0.7622392648
 40
0.7957605648
 40
0.8294768531
 40
0.8633616871
 40
0.897386938
 40
0.9315222327
 40
0.9657377792
 40
1.0
 40
1.0
 40
1.0
 40
1.0
 10
6.1535633886
 20
3.3610939339
 30
0.0
 10
6.1548747048
 20
3.3615571518
 30
0.0
 10
6.1575223222
 20
3.3623959382
 30
0.0
 10
6.1615598333
 20
3.3633851933
 30
0.0
 10
6.1656399866
 20
3.3640984483
 30
0.0
 10
6.1697486656
 20
3.364532682
 30
0.0
 10
6.1738719616
 20
3.3646857993
 30
0.0
 10
6.1779956705
 20
3.3645566758
 30
0.0
 10
6.1821055395
 20
3.3641451274
 30
0.0
 10
6.1861872585
 20
3.3634519533
 30
0.0
 10
6.1902265269
 20
3.3624789245
 30
0.0
 10
6.1942091029
 20
3.3612287885
 30
0.0
 10
6.1981208545
 20
3.3597052699
 30
0.0
 10
6.2019478118
 20
3.3579130621
 30
0.0
 10
6.2056762171
 20
3.3558578236
 30
0.0
 10
6.2092925768
 20
3.3535461693
 30
0.0
 10
6.2127837054
 20
3.3509856498
 30
0.0
 10
6.2161367774
 20
3.3481847335
 30
0.0
 10
6.2193393746
 20
3.3451527825
 30
0.0
 10
6.2223795335
 20
3.34190003
 30
0.0
 10
6.2252457875
 20
3.3384375546
 30
0.0
 10
6.227927215
 20
3.3347772567
 30
0.0
 10
6.2304134811
 20
3.330931821
 30
0.0
 10
6.2326948801
 20
3.326914678
 30
0.0
 10
6.2347623783
 20
3.3227399631
 30
0.0
 10
6.2366076521
 20
3.3184224764
 30
0.0
 10
6.2382231248
 20
3.3139776388
 30
0.0
 10
6.2396020046
 20
3.309421446
 30
0.0
 10
6.2407383196
 20
3.304770418
 30
0.0
 10
6.2416269582
 20
3.300041529
 30
0.0
 10
6.2422636603
 20
3.2952521987
 30
0.0
 10
6.2426451257
 20
3.2904200814
 30
0.0
 10
6.2427689041
 20
3.2855634345
 30
0.0
 10
6.2426787046
 20
3.2823222428
 30
0.0
 10
6.2425903465
 20
3.2807032343
 30
0.0
  0
SPLINE
  5
27E
100
AcDbEntity
  8
0
100
AcDbSpline
 62
7
  6
CONTINUOUS
 70
0
 71
3
 72
30
 73
26
 74
0
 42
0.0000001
 43
0.0000001
 44
0.0000000001
 40
0.0
 40
0.0
 40
0.0
 40
0.0
 40
0.0296023898
 40
0.0592153434
 40
0.0888543674
 40
0.1185346746
 40
0.1482710104
 40
0.1780775262
 40
0.2079676934
 40
0.2379541463
 40
0.2680486367
 40
0.2982619115
 40
0.3286036565
 40
0.3590824443
 40
0.3897056607
 40
0.4204795062
 40
0.4824837657
 40
0.5451345051
 40
0.6084368639
 40
0.672376979
 40
0.7369231255
 40
0.8020272272
 40
0.8676266335
 40
0.9336461311
 40
1.0
 40
1.0
 40
1.0
 40
1.0
 10
6.1738545403
 20
3.2066697093
 30
0.0
 10
6.174785348
 20
3.2066584501
 30
0.0
 10
6.1766481426
 20
3.206680586
 30
0.0
 10
6.1794382819
 20
3.206847415
 30
0.0
 10
6.1822197855
 20
3.2071473888
 30
0.0
 10
6.184987717
 20
3.2075796815
 30
0.0
 10
6.1877372915
 20
3.2081433071
 30
0.0
 10
6.1904637557
 20
3.2088370223
 30
0.0
 10
6.1931624393
 20
3.2096593385
 30
0.0
 10
6.1958287245
 20
3.2106086103
 30
0.0
 10
6.1984581083
 20
3.2116828854
 30
0.0
 10
6.2010461379
 20
3.2128801026
 30
0.0
 10
6.2035884988
 20
3.2141979097
 30
0.0
 10
6.2060809357
 20
3.2156338061
 30
0.0
 10
6.2085193748
 20
3.2171851268
 30
0.0
 10
6.2117007761
 20
3.2194087643
 30
0.0
 10
6.2155230181
 20
3.2224652303
 30
0.0
 10
6.219819202
 20
3.2265339136
 30
0.0
 10
6.2238103246
 20
3.2309843055
 30
0.0
 10
6.22747128
 20
3.2357848044
 30
0.0
 10
6.2307797467
 20
3.2409020476
 30
0.0
 10
6.2337158686
 20
3.2463008477
 30
0.0
 10
6.2362624896
 20
3.251944688
 30
0.0
 10
6.2384050242
 20
3.257795328
 30
0.0
 10
6.2395540651
 20
3.2618005202
 30
0.0
 10
6.2400583893
 20
3.2638252167
 30
0.0
  0
SPLINE
  5
27F
100
AcDbEntity
  8
0
100
AcDbSpline
 62
6
  6
CONTINUOUS
 70
0
 71
3
 72
23
 73
19
 74
0
 42
0.0000001
 43
0.0000001
 44
0.0000000001
 40
0.0
 40
0.0
 40
0.0
 40
0.0
 40
0.0592518742
 40
0.1188574568
 40
0.1788477978
 40
0.239255504
 40
0.3001041335
 40
0.3614129576
 40
0.423195284
 40
0.4854586909
 40
0.5482050763
 40
0.6114308032
 40
0.6751268611
 40
0.7392790352
 40
0.8038685331
 40
0.8688704523
 40
0.9342597386
 40
1.0
 40
1.0
 40
1.0
 40
1.0
 10
5.8984939509
 20
3.3610939339
 30
0.0
 10
5.8997451039
 20
3.3606027484
 30
0.0
 10
5.9022258369
 20
3.3595416209
 30
0.0
 10
5.9058568
 20
3.3577265455
 30
0.0
 10
5.9093979789
 20
3.3556886882
 30
0.0
 10
5.912838943
 20
3.3534341238
 30
0.0
 10
5.9161698225
 20
3.3509693314
 30
0.0
 10
5.9193809829
 20
3.3483014927
 30
0.0
 10
5.922463167
 20
3.3454383395
 30
0.0
 10
5.9254074887
 20
3.3423881759
 30
0.0
 10
5.9282054629
 20
3.3391598391
 30
0.0
 10
5.9308490269
 20
3.3357626736
 30
0.0
 10
5.9333305633
 20
3.332206507
 30
0.0
 10
5.9356429334
 20
3.3285016164
 30
0.0
 10
5.9377794565
 20
3.3246587322
 30
0.0
 10
5.9397340467
 20
3.3206888985
 30
0.0
 10
5.9415009584
 20
3.3166037427
 30
0.0
 10
5.9425479152
 20
3.3138179598
 30
0.0
 10
5.9430388131
 20
3.3124097678
 30
0.0
  0
SPLINE
  5
280
100
AcDbEntity
  8
0
100
AcDbSpline
 62
7
  6
CONTINUOUS
 70
0
 71
3
 72
39
 73
35
 74
0
 42
0.0000001
 43
0.0000001
 44
0.0000000001
 40
0.0
 40
0.0
 40
0.0
 40
0.0
 40
0.0342622208
 40
0.0684777673
 40
0.102613062
 40
0.1366383129
 40
0.1705231469
 40
0.2042394352
 40
0.2377607352
 40
0.2710628503
 40
0.3041241422
 40
0.336925866
 40
0.3694524163
 40
0.4016915606
 40
0.4336346497
 40
0.4652768037
 40
0.4966170889
 40
0.5276586422
 40
0.5584086707
 40
0.5888783973
 40
0.6190829964
 40
0.6490414669
 40
0.6787764221
 40
0.7083138368
 40
0.7376825885
 40
0.7669140672
 40
0.7960416996
 40
0.8251003948
 40
0.8541259579
 40
0.883154515
 40
0.9122220681
 40
0.9413630784
 40
0.9706125163
 40
1.0
 40
1.0
 40
1.0
 40
1.0
 10
5.809466993
 20
3.2807032343
 30
0.0
 10
5.8093786349
 20
3.2823222428
 30
0.0
 10
5.8092884354
 20
3.2855634345
 30
0.0
 10
5.8094122138
 20
3.2904200814
 30
0.0
 10
5.8097936793
 20
3.2952521987
 30
0.0
 10
5.8104303814
 20
3.300041529
 30
0.0
 10
5.8113190199
 20
3.304770418
 30
0.0
 10
5.8124553349
 20
3.309421446
 30
0.0
 10
5.8138342147
 20
3.3139776388
 30
0.0
 10
5.8154496874
 20
3.3184224764
 30
0.0
 10
5.8172949612
 20
3.3227399631
 30
0.0
 10
5.8193624594
 20
3.326914678
 30
0.0
 10
5.8216438585
 20
3.330931821
 30
0.0
 10
5.8241301245
 20
3.3347772567
 30
0.0
 10
5.8268115521
 20
3.3384375546
 30
0.0
 10
5.829677806
 20
3.34190003
 30
0.0
 10
5.832717965
 20
3.3451527825
 30
0.0
 10
5.8359205621
 20
3.3481847335
 30
0.0
 10
5.8392736341
 20
3.3509856498
 30
0.0
 10
5.8427647627
 20
3.3535461693
 30
0.0
 10
5.8463811224
 20
3.3558578236
 30
0.0
 10
5.8501095277
 20
3.3579130621
 30
0.0
 10
5.8539364851
 20
3.3597052699
 30
0.0
 10
5.8578482366
 20
3.3612287885
 30
0.0
 10
5.8618308126
 20
3.3624789245
 30
0.0
 10
5.8658700811
 20
3.3634519533
 30
0.0
 10
5.8699518
 20
3.3641451274
 30
0.0
 10
5.874061669
 20
3.3645566758
 30
0.0
 10
5.878185378
 20
3.3646857993
 30
0.0
 10
5.8823086739
 20
3.364532682
 30
0.0
 10
5.8864173529
 20
3.3640984483
 30
0.0
 10
5.8904975062
 20
3.3633851933
 30
0.0
 10
5.8945350173
 20
3.3623959382
 30
0.0
 10
5.8971826347
 20
3.3615571518
 30
0.0
 10
5.8984939509
 20
3.3610939339
 30
0.0
  0
SPLINE
  5
281
100
AcDbEntity
  8
0
100
AcDbSpline
 62
7
  6
CONTINUOUS
 70
0
 71
3
 72
52
 73
48
 74
0
 42
0.0000001
 43
0.0000001
 44
0.0000000001
 40
0.0
 40
0.0
 40
0.0
 40
0.0
 40
0.0333723179
 40
0.0667152397
 40
0.0999824546
 40
0.1331288132
 40
0.1661122536
 40
0.182533157
 40
0.1988992505
 40
0.2314457976
 40
0.2637283659
 40
0.2797661731
 40
0.2957301966
 40
0.3116187434
 40
0.3274305992
 40
0.3588158551
 40
0.3898921051
 40
0.4206681488
 40
0.4511613237
 40
0.4813973638
 40
0.4964327479
 40
0.5114171226
 40
0.5263558301
 40
0.5412545881
 40
0.5561194802
 40
0.5709568808
 40
0.5857734353
 40
0.6005759884
 40
0.6153715376
 40
0.6301671836
 40
0.6449700471
 40
0.659787251
 40
0.6746258034
 40
0.6894926045
 40
0.7043943204
 40
0.7193373875
 40
0.7343279137
 40
0.7493716492
 40
0.7644739471
 40
0.7796396818
 40
0.8101713381
 40
0.8410028057
 40
0.8721536731
 40
0.9036338105
 40
0.9354431448
 40
0.9675717181
 40
1.0
 40
1.0
 40
1.0
 40
1.0
 10
5.809466993
 20
3.2807032343
 30
0.0
 10
5.8095758938
 20
3.2787078181
 30
0.0
 10
5.8099249977
 20
3.2747246495
 30
0.0
 10
5.8108413979
 20
3.2688038677
 30
0.0
 10
5.8121472274
 20
3.2629701009
 30
0.0
 10
5.8138367121
 20
3.257258245
 30
0.0
 10
5.8155604844
 20
3.252620724
 30
0.0
 10
5.8171234045
 20
3.2490049212
 30
0.0
 10
5.818800698
 20
3.2454696661
 30
0.0
 10
5.8211162097
 20
3.2411893978
 30
0.0
 10
5.8237236132
 20
3.2371034179
 30
0.0
 10
5.8259712297
 20
3.2339773597
 30
0.0
 10
5.8277313511
 20
3.2317124295
 30
0.0
 10
5.8295669059
 20
3.2295257915
 30
0.0
 10
5.8321048305
 20
3.2267266258
 30
0.0
 10
5.835452069
 20
3.2234381892
 30
0.0
 10
5.8397361342
 20
3.2198487419
 30
0.0
 10
5.844253533
 20
3.2166485576
 30
0.0
 10
5.8489772593
 20
3.2138593569
 30
0.0
 10
5.853070868
 20
3.2118892996
 30
0.0
 10
5.8564178448
 20
3.2105388429
 30
0.0
 10
5.8589568792
 20
3.2096410678
 30
0.0
 10
5.8615251164
 20
3.2088583441
 30
0.0
 10
5.8641186287
 20
3.2081920498
 30
0.0
 10
5.8667333808
 20
3.2076434995
 30
0.0
 10
5.869365287
 20
3.207213761
 30
0.0
 10
5.872010213
 20
3.2069037381
 30
0.0
 10
5.874663983
 20
3.2067141565
 30
0.0
 10
5.8773223824
 20
3.2066455008
 30
0.0
 10
5.8799811688
 20
3.2066981378
 30
0.0
 10
5.8826360793
 20
3.2068721327
 30
0.0
 10
5.8852828285
 20
3.2071674683
 30
0.0
 10
5.8879171348
 20
3.2075838043
 30
0.0
 10
5.8905347001
 20
3.2081207078
 30
0.0
 10
5.8931312486
 20
3.2087774533
 30
0.0
 10
5.8957025047
 20
3.2095531679
 30
0.0
 10
5.8982442228
 20
3.2104467548
 30
0.0
 10
5.9007521752
 20
3.2114568859
 30
0.0
 10
5.9032222163
 20
3.2125821236
 30
0.0
 10
5.9064662749
 20
3.2142369598
 30
0.0
 10
5.910407571
 20
3.2165875697
 30
0.0
 10
5.9149079418
 20
3.219829516
 30
0.0
 10
5.9191601734
 20
3.2234786179
 30
0.0
 10
5.9231346397
 20
3.227510704
 30
0.0
 10
5.9268037761
 20
3.2318990035
 30
0.0
 10
5.9301415209
 20
3.2366134417
 30
0.0
 10
5.9321218533
 20
3.2399388756
 30
0.0
 10
5.9330501619
 20
3.241644468
 30
0.0
  0
SPLINE
  5
282
100
AcDbEntity
  8
0
100
AcDbSpline
 62
6
  6
CONTINUOUS
 70
0
 71
3
 72
37
 73
33
 74
0
 42
0.0000001
 43
0.0000001
 44
0.0000000001
 40
0.0
 40
0.0
 40
0.0
 40
0.0
 40
0.0331417091
 40
0.066315294
 40
0.0994867356
 40
0.1326315572
 40
0.1657334742
 40
0.1987757772
 40
0.2317391159
 40
0.2646040974
 40
0.3299542185
 40
0.3624234015
 40
0.3947308357
 40
0.4587930228
 40
0.4905427519
 40
0.5220875099
 40
0.5534206785
 40
0.5845372937
 40
0.6154351572
 40
0.6461140517
 40
0.6765761088
 40
0.7068255392
 40
0.7368687097
 40
0.7667139773
 40
0.7963720287
 40
0.8258556513
 40
0.8551789315
 40
0.8843569535
 40
0.9134080979
 40
0.9423544029
 40
0.9712149725
 40
1.0
 40
1.0
 40
1.0
 40
1.0
 10
5.8199079259
 20
3.2868125906
 30
0.0
 10
5.8198213633
 20
3.2857523675
 30
0.0
 10
5.8196934239
 20
3.2836269301
 30
0.0
 10
5.8196369671
 20
3.2804332872
 30
0.0
 10
5.819716244
 20
3.2772399644
 30
0.0
 10
5.8199311339
 20
3.2740552179
 30
0.0
 10
5.8202809437
 20
3.2708866104
 30
0.0
 10
5.820765012
 20
3.2677416333
 30
0.0
 10
5.8213819526
 20
3.2646276553
 30
0.0
 10
5.8223779306
 20
3.2605357145
 30
0.0
 10
5.8236344096
 20
3.2565270428
 30
0.0
 10
5.8251456261
 20
3.2526321185
 30
0.0
 10
5.8268119369
 20
3.2488461678
 30
0.0
 10
5.8287213767
 20
3.2451964252
 30
0.0
 10
5.8308631496
 20
3.2417133286
 30
0.0
 10
5.832573819
 20
3.239202194
 30
0.0
 10
5.834388934
 20
3.236790949
 30
0.0
 10
5.836304385
 20
3.2344854828
 30
0.0
 10
5.8383153855
 20
3.2322912501
 30
0.0
 10
5.8404171967
 20
3.2302135795
 30
0.0
 10
5.8426047387
 20
3.2282574239
 30
0.0
 10
5.8448727863
 20
3.2264274903
 30
0.0
 10
5.8472158985
 20
3.2247281732
 30
0.0
 10
5.8496284613
 20
3.2231635577
 30
0.0
 10
5.8521047018
 20
3.2217374107
 30
0.0
 10
5.8546386949
 20
3.2204531949
 30
0.0
 10
5.8572243161
 20
3.219314024
 30
0.0
 10
5.8598553106
 20
3.2183226112
 30
0.0
 10
5.8625254485
 20
3.2174814389
 30
0.0
 10
5.8652283796
 20
3.2167924818
 30
0.0
 10
5.8679571899
 20
3.2162576332
 30
0.0
 10
5.8697911727
 20
3.2160041793
 30
0.0
 10
5.8707096026
 20
3.2159036603
 30
0.0
  0
SPLINE
  5
283
100
AcDbEntity
  8
0
100
AcDbSpline
 62
7
  6
CONTINUOUS
 70
0
 71
3
 72
21
 73
17
 74
0
 42
0.0000001
 43
0.0000001
 44
0.0000000001
 40
0.0
 40
0.0
 40
0.0
 40
0.0
 40
0.0600611597
 40
0.1205535754
 40
0.1814465936
 40
0.2427240702
 40
0.3043785282
 40
0.3663957491
 40
0.4287516875
 40
0.4914209149
 40
0.554374921
 40
0.6175841225
 40
0.7445867773
 40
0.8721651692
 40
0.936088821
 40
1.0
 40
1.0
 40
1.0
 40
1.0
 10
5.8370803186
 20
3.3369292775
 30
0.0
 10
5.8363770835
 20
3.3361035841
 30
0.0
 10
5.8350051813
 20
3.3344120734
 30
0.0
 10
5.83306339
 20
3.3317714746
 30
0.0
 10
5.8312358947
 20
3.3290240184
 30
0.0
 10
5.829528058
 20
3.3261761668
 30
0.0
 10
5.8279446652
 20
3.3232342177
 30
0.0
 10
5.8264903466
 20
3.3202047641
 30
0.0
 10
5.8251693952
 20
3.3170949043
 30
0.0
 10
5.823986278
 20
3.3139120071
 30
0.0
 10
5.8229446334
 20
3.3106637941
 30
0.0
 10
5.8217478665
 20
3.3062502091
 30
0.0
 10
5.8206253865
 20
3.3006138673
 30
0.0
 10
5.8200186271
 20
3.2948858113
 30
0.0
 10
5.8198489559
 20
3.2902754279
 30
0.0
 10
5.8198703631
 20
3.2879660802
 30
0.0
 10
5.8199079259
 20
3.2868125906
 30
0.0
  0
SPLINE
  5
284
100
AcDbEntity
  8
0
100
AcDbSpline
 62
7
  6
CONTINUOUS
 70
0
 71
3
 72
70
 73
66
 74
0
 42
0.0000001
 43
0.0000001
 44
0.0000000001
 40
0.0
 40
0.0
 40
0.0
 40
0.0
 40
0.0155364685
 40
0.0309791485
 40
0.0463222831
 40
0.0615645056
 40
0.0767122155
 40
0.0917731887
 40
0.106755342
 40
0.1216663526
 40
0.1365144208
 40
0.1513092686
 40
0.166061393
 40
0.1807815831
 40
0.1954812115
 40
0.2101715963
 40
0.2248640889
 40
0.2395701747
 40
0.2543008595
 40
0.2690668401
 40
0.2838783431
 40
0.2987447731
 40
0.3136749177
 40
0.3286766615
 40
0.3437568718
 40
0.3589215628
 40
0.3741755941
 40
0.3895227429
 40
0.4049658125
 40
0.4205063808
 40
0.4361449827
 40
0.4518811788
 40
0.4677133687
 40
0.4836390219
 40
0.4996547388
 40
0.5157561064
 40
0.54818618
 40
0.5645105217
 40
0.5808954949
 40
0.5973333752
 40
0.613815812
 40
0.6303340774
 40
0.6468792577
 40
0.6634420087
 40
0.6800128191
 40
0.6965822645
 40
0.7131406761
 40
0.7296784285
 40
0.7461862596
 40
0.7626548413
 40
0.779075082
 40
0.7954384843
 40
0.8117366425
 40
0.8279616045
 40
0.8441063592
 40
0.8601641703
 40
0.8761287862
 40
0.8919946764
 40
0.9077566219
 40
0.9234105108
 40
0.9389547934
 40
0.9543887415
 40
0.9697110324
 40
0.9849166448
 40
1.0
 40
1.0
 40
1.0
 40
1.0
 10
5.8370803186
 20
3.3369292775
 30
0.0
 10
5.8379346936
 20
3.337763807
 30
0.0
 10
5.8396825267
 20
3.3393832414
 30
0.0
 10
5.8424210346
 20
3.3416618436
 30
0.0
 10
5.8452604321
 20
3.3437759962
 30
0.0
 10
5.8481923876
 20
3.3457190428
 30
0.0
 10
5.8512083968
 20
3.3474864036
 30
0.0
 10
5.8543005825
 20
3.3490735706
 30
0.0
 10
5.8574606508
 20
3.35047665
 30
0.0
 10
5.8606798844
 20
3.3516925625
 30
0.0
 10
5.8639497384
 20
3.3527178626
 30
0.0
 10
5.8672613406
 20
3.3535502932
 30
0.0
 10
5.8706058304
 20
3.3541883321
 30
0.0
 10
5.8739744716
 20
3.3546301769
 30
0.0
 10
5.8773583349
 20
3.3548754296
 30
0.0
 10
5.8807486013
 20
3.3549239588
 30
0.0
 10
5.884136454
 20
3.3547755628
 30
0.0
 10
5.8875131532
 20
3.3544315563
 30
0.0
 10
5.8908700739
 20
3.3538931855
 30
0.0
 10
5.8941985895
 20
3.3531619266
 30
0.0
 10
5.8974903928
 20
3.3522406207
 30
0.0
 10
5.9007371881
 20
3.3511318411
 30
0.0
 10
5.9039307902
 20
3.3498386725
 30
0.0
 10
5.9070634893
 20
3.3483652963
 30
0.0
 10
5.9101274708
 20
3.3467155613
 30
0.0
 10
5.913115222
 20
3.3448940235
 30
0.0
 10
5.9160197519
 20
3.3429060271
 30
0.0
 10
5.9188338795
 20
3.3407566126
 30
0.0
 10
5.9215509464
 20
3.3384516164
 30
0.0
 10
5.9241647767
 20
3.3359973837
 30
0.0
 10
5.9266689702
 20
3.3334000299
 30
0.0
 10
5.9290578549
 20
3.33066646
 30
0.0
 10
5.9313261567
 20
3.3278038542
 30
0.0
 10
5.9334683704
 20
3.3248192879
 30
0.0
 10
5.9354799603
 20
3.321720393
 30
0.0
 10
5.9379876589
 20
3.3174373062
 30
0.0
 10
5.9402097334
 20
3.3129652767
 30
0.0
 10
5.9421358508
 20
3.3083418778
 30
0.0
 10
5.9434343519
 20
3.3047926116
 30
0.0
 10
5.9445809354
 20
3.3011787934
 30
0.0
 10
5.9455734603
 20
3.2975090278
 30
0.0
 10
5.9464096654
 20
3.2937920863
 30
0.0
 10
5.9470884259
 20
3.2900369378
 30
0.0
 10
5.947608628
 20
3.2862524901
 30
0.0
 10
5.9479691803
 20
3.2824476451
 30
0.0
 10
5.9481701027
 20
3.2786313856
 30
0.0
 10
5.9482113801
 20
3.2748126042
 30
0.0
 10
5.9480930573
 20
3.2710001749
 30
0.0
 10
5.9478162655
 20
3.2672028951
 30
0.0
 10
5.9473820626
 20
3.2634294668
 30
0.0
 10
5.9467915884
 20
3.2596885535
 30
0.0
 10
5.9460470389
 20
3.2559885964
 30
0.0
 10
5.9451505104
 20
3.2523379418
 30
0.0
 10
5.9441041764
 20
3.2487448645
 30
0.0
 10
5.9429111943
 20
3.2452172714
 30
0.0
 10
5.9415746077
 20
3.2417629791
 30
0.0
 10
5.9400975458
 20
3.2383897549
 30
0.0
 10
5.9384841425
 20
3.2351048853
 30
0.0
 10
5.9367384045
 20
3.2319155693
 30
0.0
 10
5.9348642881
 20
3.2288288246
 30
0.0
 10
5.9328664426
 20
3.2258509765
 30
0.0
 10
5.9307494234
 20
3.222988254
 30
0.0
 10
5.9285180999
 20
3.2202471352
 30
0.0
 10
5.9261787744
 20
3.2176337434
 30
0.0
 10
5.9245445002
 20
3.2159738122
 30
0.0
 10
5.923711251
 20
3.2151675213
 30
0.0
  0
SPLINE
  5
285
100
AcDbEntity
  8
0
100
AcDbSpline
 62
6
  6
CONTINUOUS
 70
0
 71
3
 72
37
 73
33
 74
0
 42
0.0000001
 43
0.0000001
 44
0.0000000001
 40
0.0
 40
0.0
 40
0.0
 40
0.0
 40
0.0331417091
 40
0.066315294
 40
0.0994867356
 40
0.1326315572
 40
0.1657334742
 40
0.1987757772
 40
0.2317391159
 40
0.2646040974
 40
0.3299542185
 40
0.3624234015
 40
0.3947308357
 40
0.4587930228
 40
0.4905427519
 40
0.5220875099
 40
0.5534206785
 40
0.5845372937
 40
0.6154351572
 40
0.6461140517
 40
0.6765761088
 40
0.7068255392
 40
0.7368687097
 40
0.7667139773
 40
0.7963720287
 40
0.8258556513
 40
0.8551789315
 40
0.8843569535
 40
0.9134080979
 40
0.9423544029
 40
0.9712149725
 40
1.0
 40
1.0
 40
1.0
 40
1.0
 10
6.2321494136
 20
3.2745938781
 30
0.0
 10
6.2322359763
 20
3.2756541011
 30
0.0
 10
6.2323639156
 20
3.2777795386
 30
0.0
 10
6.2324203724
 20
3.2809731815
 30
0.0
 10
6.2323410955
 20
3.2841665042
 30
0.0
 10
6.2321262056
 20
3.2873512507
 30
0.0
 10
6.2317763958
 20
3.2905198582
 30
0.0
 10
6.2312923276
 20
3.2936648354
 30
0.0
 10
6.230675387
 20
3.2967788133
 30
0.0
 10
6.229679409
 20
3.3008707542
 30
0.0
 10
6.22842293
 20
3.3048794259
 30
0.0
 10
6.2269117135
 20
3.3087743502
 30
0.0
 10
6.2252454026
 20
3.3125603009
 30
0.0
 10
6.2233359629
 20
3.3162100434
 30
0.0
 10
6.22119419
 20
3.3196931401
 30
0.0
 10
6.2194835205
 20
3.3222042747
 30
0.0
 10
6.2176684055
 20
3.3246155196
 30
0.0
 10
6.2157529546
 20
3.3269209859
 30
0.0
 10
6.213741954
 20
3.3291152185
 30
0.0
 10
6.2116401428
 20
3.3311928892
 30
0.0
 10
6.2094526009
 20
3.3331490448
 30
0.0
 10
6.2071845533
 20
3.3349789784
 30
0.0
 10
6.2048414411
 20
3.3366782955
 30
0.0
 10
6.2024288782
 20
3.338242911
 30
0.0
 10
6.1999526378
 20
3.339669058
 30
0.0
 10
6.1974186447
 20
3.3409532738
 30
0.0
 10
6.1948330235
 20
3.3420924447
 30
0.0
 10
6.1922020289
 20
3.3430838575
 30
0.0
 10
6.1895318911
 20
3.3439250298
 30
0.0
 10
6.1868289599
 20
3.3446139869
 30
0.0
 10
6.1841001496
 20
3.3451488355
 30
0.0
 10
6.1822661669
 20
3.3454022894
 30
0.0
 10
6.1813477369
 20
3.3455028084
 30
0.0
  0
SPLINE
  5
286
100
AcDbEntity
  8
0
100
AcDbSpline
 62
6
  6
CONTINUOUS
 70
0
 71
3
 72
21
 73
17
 74
0
 42
0.0000001
 43
0.0000001
 44
0.0000000001
 40
0.0
 40
0.0
 40
0.0
 40
0.0
 40
0.0600611597
 40
0.1205535754
 40
0.1814465936
 40
0.2427240702
 40
0.3043785282
 40
0.3663957491
 40
0.4287516875
 40
0.4914209149
 40
0.554374921
 40
0.6175841225
 40
0.7445867773
 40
0.8721651692
 40
0.936088821
 40
1.0
 40
1.0
 40
1.0
 40
1.0
 10
6.2149770209
 20
3.2244771912
 30
0.0
 10
6.215680256
 20
3.2253028846
 30
0.0
 10
6.2170521582
 20
3.2269943953
 30
0.0
 10
6.2189939495
 20
3.2296349941
 30
0.0
 10
6.2208214448
 20
3.2323824503
 30
0.0
 10
6.2225292816
 20
3.2352303019
 30
0.0
 10
6.2241126743
 20
3.238172251
 30
0.0
 10
6.2255669929
 20
3.2412017046
 30
0.0
 10
6.2268879443
 20
3.2443115643
 30
0.0
 10
6.2280710615
 20
3.2474944616
 30
0.0
 10
6.2291127061
 20
3.2507426745
 30
0.0
 10
6.230309473
 20
3.2551562595
 30
0.0
 10
6.231431953
 20
3.2607926014
 30
0.0
 10
6.2320387124
 20
3.2665206574
 30
0.0
 10
6.2322083836
 20
3.2711310408
 30
0.0
 10
6.2321869764
 20
3.2734403884
 30
0.0
 10
6.2321494136
 20
3.2745938781
 30
0.0
  0
SPLINE
  5
287
100
AcDbEntity
  8
0
100
AcDbSpline
 62
6
  6
CONTINUOUS
 70
0
 71
3
 72
64
 73
60
 74
0
 42
0.0000001
 43
0.0000001
 44
0.0000000001
 40
0.0
 40
0.0
 40
0.0
 40
0.0
 40
0.031123989
 40
0.0465783607
 40
0.0619544342
 40
0.0772523979
 40
0.0924763574
 40
0.107630868
 40
0.1227207398
 40
0.1377506149
 40
0.1527250653
 40
0.1676488751
 40
0.1825274102
 40
0.197366839
 40
0.2121734428
 40
0.2269536173
 40
0.2417140965
 40
0.2564617137
 40
0.2712032025
 40
0.2859453246
 40
0.3006949993
 40
0.3154589454
 40
0.3302436465
 40
0.3450554851
 40
0.3599006537
 40
0.374784936
 40
0.3897137816
 40
0.4046923863
 40
0.4197254969
 40
0.4348173634
 40
0.4499718422
 40
0.4651923793
 40
0.4804818463
 40
0.4958426041
 40
0.5112765965
 40
0.5267852542
 40
0.5423694267
 40
0.5580294858
 40
0.5737653937
 40
0.5895765792
 40
0.605461948
 40
0.6214199928
 40
0.6374488373
 40
0.6535461205
 40
0.669709044
 40
0.702214083
 40
0.734940026
 40
0.7678527909
 40
0.8009144468
 40
0.8340836487
 40
0.8673168959
 40
0.8839455784
 40
0.900573326
 40
0.9171943743
 40
0.9338028948
 40
0.9503932523
 40
0.9669599355
 40
0.9834973668
 40
1.0
 40
1.0
 40
1.0
 40
1.0
 10
6.2149770209
 20
3.2244771912
 30
0.0
 10
6.2136608119
 20
3.2231915552
 30
0.0
 10
6.2116115335
 20
3.2213463335
 30
0.0
 10
6.2087421857
 20
3.2190691026
 30
0.0
 10
6.2065364728
 20
3.2174642397
 30
0.0
 10
6.2042762895
 20
3.2159616447
 30
0.0
 10
6.2019654221
 20
3.2145633096
 30
0.0
 10
6.1996075094
 20
3.2132712464
 30
0.0
 10
6.1972061776
 20
3.2120874913
 30
0.0
 10
6.1947653537
 20
3.2110136245
 30
0.0
 10
6.1922890341
 20
3.2100511109
 30
0.0
 10
6.1897811845
 20
3.2092014767
 30
0.0
 10
6.1872457831
 20
3.2084661223
 30
0.0
 10
6.1846869449
 20
3.2078457822
 30
0.0
 10
6.1821087041
 20
3.2073412108
 30
0.0
 10
6.1795150751
 20
3.2069532319
 30
0.0
 10
6.1769101326
 20
3.2066822566
 30
0.0
 10
6.1742979563
 20
3.2065283087
 30
0.0
 10
6.1716825901
 20
3.2064914768
 30
0.0
 10
6.1690680814
 20
3.2065718881
 30
0.0
 10
6.1664584524
 20
3.2067690252
 30
0.0
 10
6.1638576721
 20
3.2070822675
 30
0.0
 10
6.1612697053
 20
3.2075110534
 30
0.0
 10
6.1586985079
 20
3.2080546906
 30
0.0
 10
6.1561479004
 20
3.2087118894
 30
0.0
 10
6.1536216803
 20
3.2094814126
 30
0.0
 10
6.15112367
 20
3.2103620827
 30
0.0
 10
6.148657582
 20
3.2113523643
 30
0.0
 10
6.1462269661
 20
3.2124503592
 30
0.0
 10
6.1438353804
 20
3.2136542371
 30
0.0
 10
6.1414864206
 20
3.2149622064
 30
0.0
 10
6.1391834227
 20
3.2163719786
 30
0.0
 10
6.1369296255
 20
3.2178811453
 30
0.0
 10
6.1347282895
 20
3.2194873401
 30
0.0
 10
6.1325826707
 20
3.221188156
 30
0.0
 10
6.1304956608
 20
3.2229807104
 30
0.0
 10
6.1284701415
 20
3.22486214
 30
0.0
 10
6.1265090285
 20
3.2268296105
 30
0.0
 10
6.1246151129
 20
3.228880135
 30
0.0
 10
6.1227908305
 20
3.2310103963
 30
0.0
 10
6.1210386515
 20
3.233217127
 30
0.0
 10
6.1193610943
 20
3.2354970893
 30
0.0
 10
6.1177604008
 20
3.2378468043
 30
0.0
 10
6.1162385288
 20
3.2402626736
 30
0.0
 10
6.1143137423
 20
3.2435730623
 30
0.0
 10
6.1121165763
 20
3.2478585423
 30
0.0
 10
6.1098295047
 20
3.2531953419
 30
0.0
 10
6.1078986897
 20
3.25870602
 30
0.0
 10
6.1063325255
 20
3.264358292
 30
0.0
 10
6.1051388921
 20
3.2701199391
 30
0.0
 10
6.1044580564
 20
3.2749847261
 30
0.0
 10
6.1041033472
 20
3.2788998202
 30
0.0
 10
6.1039322919
 20
3.281843923
 30
0.0
 10
6.103856312
 20
3.2847907868
 30
0.0
 10
6.1038754455
 20
3.2877363668
 30
0.0
 10
6.1039894628
 20
3.2906765788
 30
0.0
 10
6.1041978158
 20
3.2936074091
 30
0.0
 10
6.1045000013
 20
3.2965248115
 30
0.0
 10
6.1047640296
 20
3.2984604707
 30
0.0
 10
6.1049115481
 20
3.2994248137
 30
0.0
  0
SPLINE
  5
288
100
AcDbEntity
  8
0
100
AcDbSpline
 62
7
  6
CONTINUOUS
 70
0
 71
3
 72
14
 73
10
 74
0
 42
0.0000001
 43
0.0000001
 44
0.0000000001
 40
0.0
 40
0.0
 40
0.0
 40
0.0
 40
0.2530986057
 40
0.3789951056
 40
0.5043811804
 40
0.6292141323
 40
0.7534535293
 40
0.8770605941
 40
1.0
 40
1.0
 40
1.0
 40
1.0
 10
5.8142911096
 20
3.2658343994
 30
0.0
 10
5.8145708612
 20
3.2636631405
 30
0.0
 10
5.8151051043
 20
3.260425077
 30
0.0
 10
5.8160457526
 20
3.2561643351
 30
0.0
 10
5.8168614522
 20
3.2530142015
 30
0.0
 10
5.8177869519
 20
3.2499095925
 30
0.0
 10
5.8188204163
 20
3.2468554322
 30
0.0
 10
5.8199600634
 20
3.2438568424
 30
0.0
 10
5.820791757
 20
3.2418925343
 30
0.0
 10
5.8212247494
 20
3.2409213016
 30
0.0
  0
SPLINE
  5
289
100
AcDbEntity
  8
0
100
AcDbSpline
 62
6
  6
CONTINUOUS
 70
0
 71
3
 72
23
 73
19
 74
0
 42
0.0000001
 43
0.0000001
 44
0.0000000001
 40
0.0
 40
0.0
 40
0.0
 40
0.0
 40
0.0620383989
 40
0.1238977034
 40
0.1856244668
 40
0.2472802944
 40
0.3089204566
 40
0.3706001348
 40
0.4323737045
 40
0.4942931941
 40
0.5564076714
 40
0.6187632537
 40
0.6814023457
 40
0.7443608245
 40
0.8076715911
 40
0.8713715431
 40
0.9354835658
 40
1.0
 40
1.0
 40
1.0
 40
1.0
 10
5.8707096026
 20
3.2159036603
 30
0.0
 10
5.8716820023
 20
3.2156453907
 30
0.0
 10
5.8736402192
 20
3.2151885766
 30
0.0
 10
5.876609838
 20
3.2146841708
 30
0.0
 10
5.8795985632
 20
3.2143619087
 30
0.0
 10
5.8825977206
 20
3.2142214334
 30
0.0
 10
5.8855991149
 20
3.2142619046
 30
0.0
 10
5.8885945871
 20
3.2144819953
 30
0.0
 10
5.8915761963
 20
3.2148799285
 30
0.0
 10
5.8945361972
 20
3.215453514
 30
0.0
 10
5.8974670638
 20
3.2162001078
 30
0.0
 10
5.900361495
 20
3.2171167013
 30
0.0
 10
5.9032123615
 20
3.2181999706
 30
0.0
 10
5.9060128402
 20
3.2194460445
 30
0.0
 10
5.9087563696
 20
3.2208509971
 30
0.0
 10
5.9114367349
 20
3.2224104951
 30
0.0
 10
5.914047436
 20
3.2241197265
 30
0.0
 10
5.9157322657
 20
3.2253515601
 30
0.0
 10
5.9165609923
 20
3.2259902763
 30
0.0
  0
SPLINE
  5
28A
100
AcDbEntity
  8
0
100
AcDbSpline
 62
6
  6
CONTINUOUS
 70
0
 71
3
 72
41
 73
37
 74
0
 42
0.0000001
 43
0.0000001
 44
0.0000000001
 40
0.0
 40
0.0
 40
0.0
 40
0.0
 40
0.0299689223
 40
0.0602068719
 40
0.07542175
 40
0.0906965106
 40
0.1214205667
 40
0.1523774622
 40
0.1835586614
 40
0.2149483843
 40
0.2465282976
 40
0.2782786783
 40
0.3101781377
 40
0.3422037529
 40
0.3743305438
 40
0.4065326727
 40
0.4226549793
 40
0.438786034
 40
0.4710581166
 40
0.5033241811
 40
0.5355566792
 40
0.5677285765
 40
0.5998135932
 40
0.6317861554
 40
0.6636223355
 40
0.6952994412
 40
0.726796754
 40
0.7580958105
 40
0.7891801306
 40
0.820036385
 40
0.8506535944
 40
0.8810241106
 40
0.9111435127
 40
0.9410104045
 40
0.9706273918
 40
1.0
 40
1.0
 40
1.0
 40
1.0
 10
5.9165609923
 20
3.2259902763
 30
0.0
 10
5.9174869722
 20
3.2269049193
 30
0.0
 10
5.9192929613
 20
3.2287981956
 30
0.0
 10
5.9214138079
 20
3.2312968738
 30
0.0
 10
5.9230331455
 20
3.2333789873
 30
0.0
 10
5.9246051557
 20
3.2355232837
 30
0.0
 10
5.926466585
 20
3.2383013748
 30
0.0
 10
5.92852369
 20
3.2417725719
 30
0.0
 10
5.9304016475
 20
3.2453765191
 30
0.0
 10
5.9320945644
 20
3.2491006812
 30
0.0
 10
5.9335960952
 20
3.2529325746
 30
0.0
 10
5.9349014474
 20
3.2568589533
 30
0.0
 10
5.9360061763
 20
3.2608664881
 30
0.0
 10
5.9369062957
 20
3.2649416096
 30
0.0
 10
5.9375992273
 20
3.2690702892
 30
0.0
 10
5.938001427
 20
3.2725426825
 30
0.0
 10
5.9382176873
 20
3.275333857
 30
0.0
 10
5.9383634368
 20
3.2781326444
 30
0.0
 10
5.938412685
 20
3.2816373655
 30
0.0
 10
5.9382591039
 20
3.2858390287
 30
0.0
 10
5.9378936873
 20
3.2900232847
 30
0.0
 10
5.9373171343
 20
3.2941757635
 30
0.0
 10
5.9365319969
 20
3.298282424
 30
0.0
 10
5.9355404666
 20
3.302329208
 30
0.0
 10
5.934346131
 20
3.3063023664
 30
0.0
 10
5.9329531305
 20
3.3101884221
 30
0.0
 10
5.9313658215
 20
3.3139739881
 30
0.0
 10
5.9295901254
 20
3.3176463954
 30
0.0
 10
5.9276315227
 20
3.3211928793
 30
0.0
 10
5.9254970623
 20
3.3246015439
 30
0.0
 10
5.9231938442
 20
3.3278607088
 30
0.0
 10
5.9207295504
 20
3.3309591278
 30
0.0
 10
5.91811292
 20
3.3338865184
 30
0.0
 10
5.9153523283
 20
3.3366324891
 30
0.0
 10
5.91245775
 20
3.3391879441
 30
0.0
 10
5.9104365577
 20
3.3407652252
 30
0.0
 10
5.9094071014
 20
3.3415185425
 30
0.0
  0
SPLINE
  5
28B
100
AcDbEntity
  8
0
100
AcDbSpline
 62
6
  6
CONTINUOUS
 70
0
 71
3
 72
35
 73
31
 74
0
 42
0.0000001
 43
0.0000001
 44
0.0000000001
 40
0.0
 40
0.0
 40
0.0
 40
0.0
 40
0.0638035054
 40
0.0954715018
 40
0.1269894287
 40
0.1583665632
 40
0.1896128648
 40
0.2207391222
 40
0.2517572749
 40
0.2826799773
 40
0.3135203656
 40
0.3442922753
 40
0.3750102389
 40
0.4056889857
 40
0.4363434979
 40
0.4669891261
 40
0.4976411857
 40
0.5283147966
 40
0.5590250579
 40
0.5897869787
 40
0.6206150498
 40
0.6515233205
 40
0.6825253954
 40
0.7136335273
 40
0.7448588919
 40
0.7762120183
 40
0.8077036567
 40
0.8711327444
 40
0.9352325175
 40
1.0
 40
1.0
 40
1.0
 40
1.0
 10
5.9094071014
 20
3.3415185425
 30
0.0
 10
5.9080544722
 20
3.3425083455
 30
0.0
 10
5.9059689184
 20
3.3439081682
 30
0.0
 10
5.9030874391
 20
3.3455905242
 30
0.0
 10
5.9008905984
 20
3.3467519288
 30
0.0
 10
5.8986565092
 20
3.3478142558
 30
0.0
 10
5.8963884452
 20
3.3487759912
 30
0.0
 10
5.8940897582
 20
3.3496354905
 30
0.0
 10
5.8917639094
 20
3.3503914747
 30
0.0
 10
5.8894144458
 20
3.3510429767
 30
0.0
 10
5.8870448759
 20
3.3515889789
 30
0.0
 10
5.8846587164
 20
3.3520284359
 30
0.0
 10
5.8822595931
 20
3.3523608582
 30
0.0
 10
5.8798511146
 20
3.3525858374
 30
0.0
 10
5.8774368831
 20
3.3527029075
 30
0.0
 10
5.8750205326
 20
3.3527117611
 30
0.0
 10
5.8726057021
 20
3.3526126159
 30
0.0
 10
5.8701960113
 20
3.3524056389
 30
0.0
 10
5.8677951
 20
3.3520909374
 30
0.0
 10
5.8654065766
 20
3.3516690316
 30
0.0
 10
5.863033992
 20
3.3511407146
 30
0.0
 10
5.8606809035
 20
3.3505067204
 30
0.0
 10
5.8583509175
 20
3.3497677932
 30
0.0
 10
5.8560474972
 20
3.3489252649
 30
0.0
 10
5.8537741143
 20
3.3479805146
 30
0.0
 10
5.8515341896
 20
3.3469348314
 30
0.0
 10
5.8485901529
 20
3.3454045554
 30
0.0
 10
5.84500832
 20
3.3432443585
 30
0.0
 10
5.8409089573
 20
3.3402835391
 30
0.0
 10
5.8383301971
 20
3.3380836821
 30
0.0
 10
5.8370803186
 20
3.3369292775
 30
0.0
  0
SPLINE
  5
28C
100
AcDbEntity
  8
0
100
AcDbSpline
 62
6
  6
CONTINUOUS
 70
0
 71
3
 72
25
 73
21
 74
0
 42
0.0000001
 43
0.0000001
 44
0.0000000001
 40
0.0
 40
0.0
 40
0.0
 40
0.0
 40
0.0671870676
 40
0.1004962002
 40
0.1336083373
 40
0.1992256234
 40
0.2640670193
 40
0.3281716663
 40
0.3915808986
 40
0.454337253
 40
0.5164907315
 40
0.5781017223
 40
0.6392329263
 40
0.6999528149
 40
0.7603307109
 40
0.8204468097
 40
0.8504370755
 40
0.8803930202
 40
0.9402242404
 40
1.0
 40
1.0
 40
1.0
 40
1.0
 10
5.9165609923
 20
3.2259902763
 30
0.0
 10
5.9159069673
 20
3.224944851
 30
0.0
 10
5.9148824886
 20
3.2234093063
 30
0.0
 10
5.9134315111
 20
3.2214320658
 30
0.0
 10
5.9119397715
 20
3.2195217472
 30
0.0
 10
5.9099859774
 20
3.217239709
 30
0.0
 10
5.9075011617
 20
3.2146719323
 30
0.0
 10
5.9048927393
 20
3.2122893828
 30
0.0
 10
5.902170864
 20
3.2100978281
 30
0.0
 10
5.8993457617
 20
3.2081024503
 30
0.0
 10
5.8964276125
 20
3.2063080087
 30
0.0
 10
5.8934269238
 20
3.2047179964
 30
0.0
 10
5.8903538088
 20
3.2033358769
 30
0.0
 10
5.8872187876
 20
3.202163676
 30
0.0
 10
5.8840320048
 20
3.2012034555
 30
0.0
 10
5.8813390646
 20
3.200580225
 30
0.0
 10
5.8791701301
 20
3.2001888787
 30
0.0
 10
5.8769947555
 20
3.1998691599
 30
0.0
 10
5.8742606555
 20
3.1996025368
 30
0.0
 10
5.8720648061
 20
3.199530886
 30
0.0
 10
5.8709676818
 20
3.199530361
 30
0.0
  0
SPLINE
  5
28D
100
AcDbEntity
  8
0
100
AcDbSpline
 62
6
  6
CONTINUOUS
 70
0
 71
3
 72
23
 73
19
 74
0
 42
0.0000001
 43
0.0000001
 44
0.0000000001
 40
0.0
 40
0.0
 40
0.0
 40
0.0
 40
0.0620383989
 40
0.1238977034
 40
0.1856244668
 40
0.2472802944
 40
0.3089204566
 40
0.3706001348
 40
0.4323737045
 40
0.4942931941
 40
0.5564076714
 40
0.6187632537
 40
0.6814023457
 40
0.7443608245
 40
0.8076715911
 40
0.8713715431
 40
0.9354835658
 40
1.0
 40
1.0
 40
1.0
 40
1.0
 10
6.1813477369
 20
3.3455028084
 30
0.0
 10
6.1803753373
 20
3.345761078
 30
0.0
 10
6.1784171203
 20
3.346217892
 30
0.0
 10
6.1754475015
 20
3.3467222979
 30
0.0
 10
6.1724587763
 20
3.34704456
 30
0.0
 10
6.1694596189
 20
3.3471850353
 30
0.0
 10
6.1664582246
 20
3.347144564
 30
0.0
 10
6.1634627524
 20
3.3469244734
 30
0.0
 10
6.1604811432
 20
3.3465265401
 30
0.0
 10
6.1575211423
 20
3.3459529546
 30
0.0
 10
6.1545902758
 20
3.3452063609
 30
0.0
 10
6.1516958445
 20
3.3442897674
 30
0.0
 10
6.148844978
 20
3.3432064981
 30
0.0
 10
6.1460444993
 20
3.3419604242
 30
0.0
 10
6.1433009699
 20
3.3405554716
 30
0.0
 10
6.1406206046
 20
3.3389959735
 30
0.0
 10
6.1380099035
 20
3.3372867421
 30
0.0
 10
6.1363250739
 20
3.3360549085
 30
0.0
 10
6.1354963472
 20
3.3354161923
 30
0.0
  0
SPLINE
  5
28E
100
AcDbEntity
  8
0
100
AcDbSpline
 62
6
  6
CONTINUOUS
 70
0
 71
3
 72
70
 73
66
 74
0
 42
0.0000001
 43
0.0000001
 44
0.0000000001
 40
0.0
 40
0.0
 40
0.0
 40
0.0
 40
0.0155171373
 40
0.0311516457
 40
0.0468961462
 40
0.0627443458
 40
0.0786942861
 40
0.094744176
 40
0.1108908756
 40
0.1271287825
 40
0.1434514492
 40
0.1598520565
 40
0.1763232793
 40
0.1928573425
 40
0.2094460047
 40
0.2260803484
 40
0.2427511659
 40
0.259449068
 40
0.2761643441
 40
0.2928871848
 40
0.3096078083
 40
0.3263163365
 40
0.3430029808
 40
0.3596582428
 40
0.3762727628
 40
0.3928374623
 40
0.4093438105
 40
0.4257836163
 40
0.4584255991
 40
0.4746224078
 40
0.490725919
 40
0.5067314221
 40
0.5226348581
 40
0.5384330337
 40
0.5541239274
 40
0.5697062697
 40
0.5851798146
 40
0.600545557
 40
0.6158052943
 40
0.6309619414
 40
0.6460196101
 40
0.6609831992
 40
0.6758587163
 40
0.6906531943
 40
0.7053743543
 40
0.7200308823
 40
0.7346321901
 40
0.7491881877
 40
0.7637094671
 40
0.7782069546
 40
0.7926918086
 40
0.8071754477
 40
0.8216691639
 40
0.8361841767
 40
0.8507315953
 40
0.8653220713
 40
0.8799658634
 40
0.8946722733
 40
0.9094495651
 40
0.9243055709
 40
0.9392485345
 40
0.9542863302
 40
0.9694250722
 40
0.9846641452
 40
1.0
 40
1.0
 40
1.0
 40
1.0
 10
6.1354963472
 20
3.3354161923
 30
0.0
 10
6.1347268781
 20
3.334656144
 30
0.0
 10
6.1332196087
 20
3.3330918337
 30
0.0
 10
6.1310673713
 20
3.3306301313
 30
0.0
 10
6.1290206826
 20
3.3280503962
 30
0.0
 10
6.1270853216
 20
3.3253590542
 30
0.0
 10
6.1252655948
 20
3.3225628137
 30
0.0
 10
6.1235656606
 20
3.3196680396
 30
0.0
 10
6.121989565
 20
3.3166813318
 30
0.0
 10
6.1205406879
 20
3.3136098691
 30
0.0
 10
6.1192226413
 20
3.3104608504
 30
0.0
 10
6.1180387455
 20
3.3072416697
 30
0.0
 10
6.1169914288
 20
3.3039600478
 30
0.0
 10
6.1160833428
 20
3.3006236249
 30
0.0
 10
6.1153167216
 20
3.2972402405
 30
0.0
 10
6.1146930399
 20
3.2938179346
 30
0.0
 10
6.1142140306
 20
3.2903647156
 30
0.0
 10
6.1138808595
 20
3.2868887308
 30
0.0
 10
6.1136940034
 20
3.2833981904
 30
0.0
 10
6.1136542066
 20
3.2799012925
 30
0.0
 10
6.113761522
 20
3.2764062896
 30
0.0
 10
6.1140154344
 20
3.2729213972
 30
0.0
 10
6.1144156858
 20
3.2694548448
 30
0.0
 10
6.1149612192
 20
3.2660148033
 30
0.0
 10
6.1156505442
 20
3.2626093217
 30
0.0
 10
6.1164823811
 20
3.2592465253
 30
0.0
 10
6.1174546419
 20
3.2559341883
 30
0.0
 10
6.1189311027
 20
3.2516065404
 30
0.0
 10
6.120681588
 20
3.2473991062
 30
0.0
 10
6.1226966172
 20
3.2433445427
 30
0.0
 10
6.1243302147
 20
3.2403990509
 30
0.0
 10
6.1260856457
 20
3.2375485764
 30
0.0
 10
6.1279588038
 20
3.2347996989
 30
0.0
 10
6.1299455638
 20
3.2321591409
 30
0.0
 10
6.1320409656
 20
3.2296329215
 30
0.0
 10
6.1342401176
 20
3.2272270095
 30
0.0
 10
6.1365380773
 20
3.2249473159
 30
0.0
 10
6.1389291579
 20
3.2227989586
 30
0.0
 10
6.1414078164
 20
3.2207870777
 30
0.0
 10
6.1439683757
 20
3.2189166573
 30
0.0
 10
6.1466045618
 20
3.217191802
 30
0.0
 10
6.1493102757
 20
3.2156167303
 30
0.0
 10
6.1520792247
 20
3.2141953684
 30
0.0
 10
6.1549046927
 20
3.2129307293
 30
0.0
 10
6.1577801284
 20
3.2118260274
 30
0.0
 10
6.160698766
 20
3.2108840195
 30
0.0
 10
6.1636535965
 20
3.2101065752
 30
0.0
 10
6.1666377293
 20
3.2094958318
 30
0.0
 10
6.1696440921
 20
3.2090532937
 30
0.0
 10
6.1726655354
 20
3.2087796645
 30
0.0
 10
6.1756949555
 20
3.2086759493
 30
0.0
 10
6.1787251537
 20
3.2087423488
 30
0.0
 10
6.1817489804
 20
3.2089783947
 30
0.0
 10
6.1847592591
 20
3.2093839091
 30
0.0
 10
6.1877488703
 20
3.2099578025
 30
0.0
 10
6.1907108255
 20
3.2106984889
 30
0.0
 10
6.1936380142
 20
3.2116046187
 30
0.0
 10
6.1965235298
 20
3.2126737787
 30
0.0
 10
6.1993605951
 20
3.2139032103
 30
0.0
 10
6.2021423863
 20
3.2152903586
 30
0.0
 10
6.2048625677
 20
3.2168318464
 30
0.0
 10
6.2075149612
 20
3.2185241333
 30
0.0
 10
6.210092959
 20
3.2203634824
 30
0.0
 10
6.2125901245
 20
3.2223445698
 30
0.0
 10
6.2141917869
 20
3.2237519384
 30
0.0
 10
6.2149770209
 20
3.2244771912
 30
0.0
  0
SPLINE
  5
28F
100
AcDbEntity
  8
0
100
AcDbSpline
 62
6
  6
CONTINUOUS
 70
0
 71
3
 72
25
 73
21
 74
0
 42
0.0000001
 43
0.0000001
 44
0.0000000001
 40
0.0
 40
0.0
 40
0.0
 40
0.0
 40
0.0671870676
 40
0.1004962002
 40
0.1336083373
 40
0.1992256234
 40
0.2640670193
 40
0.3281716663
 40
0.3915808986
 40
0.454337253
 40
0.5164907315
 40
0.5781017223
 40
0.6392329263
 40
0.6999528149
 40
0.7603307109
 40
0.8204468097
 40
0.8504370755
 40
0.8803930202
 40
0.9402242404
 40
1.0
 40
1.0
 40
1.0
 40
1.0
 10
6.1354963472
 20
3.3354161923
 30
0.0
 10
6.1361503722
 20
3.3364616177
 30
0.0
 10
6.1371748509
 20
3.3379971624
 30
0.0
 10
6.1386258284
 20
3.3399744029
 30
0.0
 10
6.140117568
 20
3.3418847215
 30
0.0
 10
6.1420713621
 20
3.3441667596
 30
0.0
 10
6.1445561778
 20
3.3467345363
 30
0.0
 10
6.1471646002
 20
3.3491170859
 30
0.0
 10
6.1498864755
 20
3.3513086405
 30
0.0
 10
6.1527115778
 20
3.3533040183
 30
0.0
 10
6.1556297271
 20
3.35509846
 30
0.0
 10
6.1586304157
 20
3.3566884722
 30
0.0
 10
6.1617035307
 20
3.3580705918
 30
0.0
 10
6.164838552
 20
3.3592427926
 30
0.0
 10
6.1680253347
 20
3.3602030132
 30
0.0
 10
6.1707182749
 20
3.3608262437
 30
0.0
 10
6.1728872094
 20
3.3612175899
 30
0.0
 10
6.1750625841
 20
3.3615373088
 30
0.0
 10
6.177796684
 20
3.3618039318
 30
0.0
 10
6.1799925334
 20
3.3618755826
 30
0.0
 10
6.1810896577
 20
3.3618761077
 30
0.0
  0
SPLINE
  5
290
100
AcDbEntity
  8
0
100
AcDbSpline
 62
6
  6
CONTINUOUS
 70
0
 71
3
 72
27
 73
23
 74
0
 42
0.0000001
 43
0.0000001
 44
0.0000000001
 40
0.0
 40
0.0
 40
0.0
 40
0.0
 40
0.0286185911
 40
0.0574135658
 40
0.1155472075
 40
0.1744575451
 40
0.2341687236
 40
0.2946861279
 40
0.3559971204
 40
0.3869470665
 40
0.4180830063
 40
0.4493988066
 40
0.4808875229
 40
0.544341461
 40
0.6083842509
 40
0.6406063414
 40
0.6729444068
 40
0.7379126577
 40
0.8032030751
 40
0.8687157473
 40
0.9343487062
 40
1.0
 40
1.0
 40
1.0
 40
1.0
 10
6.2048871394
 20
3.3562594066
 30
0.0
 10
6.2057179367
 20
3.355748073
 30
0.0
 10
6.2073623723
 20
3.3546854967
 30
0.0
 10
6.2105758177
 20
3.3524062384
 30
0.0
 10
6.214442452
 20
3.3492712552
 30
0.0
 10
6.2187947657
 20
3.3450951254
 30
0.0
 10
6.2228471938
 20
3.3405182382
 30
0.0
 10
6.2265730956
 20
3.3355695975
 30
0.0
 10
6.2293773967
 20
3.3311746724
 30
0.0
 10
6.2314363984
 20
3.3275058338
 30
0.0
 10
6.2328900332
 20
3.3246723256
 30
0.0
 10
6.234245608
 20
3.3217703623
 30
0.0
 10
6.2359233659
 20
3.317806098
 30
0.0
 10
6.2377620468
 20
3.3127027513
 30
0.0
 10
6.2392391282
 20
3.3074575003
 30
0.0
 10
6.2402040686
 20
3.3031804309
 30
0.0
 10
6.2410249583
 20
3.298841287
 30
0.0
 10
6.241770456
 20
3.2933442311
 30
0.0
 10
6.2422106253
 20
3.2866802498
 30
0.0
 10
6.242193953
 20
3.2799788869
 30
0.0
 10
6.2417193622
 20
3.2732823674
 30
0.0
 10
6.2410984274
 20
3.2688462886
 30
0.0
 10
6.2407123955
 20
3.266641928
 30
0.0
  0
SPLINE
  5
291
100
AcDbEntity
  8
0
100
AcDbSpline
 62
6
  6
CONTINUOUS
 70
0
 71
3
 72
27
 73
23
 74
0
 42
0.0000001
 43
0.0000001
 44
0.0000000001
 40
0.0
 40
0.0
 40
0.0
 40
0.0
 40
0.0286185911
 40
0.0574135658
 40
0.1155472075
 40
0.1744575451
 40
0.2341687236
 40
0.2946861279
 40
0.3559971204
 40
0.3869470665
 40
0.4180830063
 40
0.4493988066
 40
0.4808875229
 40
0.544341461
 40
0.6083842509
 40
0.6406063414
 40
0.6729444068
 40
0.7379126577
 40
0.8032030751
 40
0.8687157473
 40
0.9343487062
 40
1.0
 40
1.0
 40
1.0
 40
1.0
 10
5.8471702002
 20
3.3562594066
 30
0.0
 10
5.8463394028
 20
3.355748073
 30
0.0
 10
5.8446949672
 20
3.3546854967
 30
0.0
 10
5.8414815218
 20
3.3524062384
 30
0.0
 10
5.8376148875
 20
3.3492712552
 30
0.0
 10
5.8332625738
 20
3.3450951254
 30
0.0
 10
5.8292101457
 20
3.3405182382
 30
0.0
 10
5.825484244
 20
3.3355695975
 30
0.0
 10
5.8226799429
 20
3.3311746724
 30
0.0
 10
5.8206209411
 20
3.3275058338
 30
0.0
 10
5.8191673063
 20
3.3246723256
 30
0.0
 10
5.8178117315
 20
3.3217703623
 30
0.0
 10
5.8161339736
 20
3.317806098
 30
0.0
 10
5.8142952927
 20
3.3127027513
 30
0.0
 10
5.8128182113
 20
3.3074575003
 30
0.0
 10
5.8118532709
 20
3.3031804309
 30
0.0
 10
5.8110323813
 20
3.298841287
 30
0.0
 10
5.8102868836
 20
3.2933442311
 30
0.0
 10
5.8098467143
 20
3.2866802498
 30
0.0
 10
5.8098633866
 20
3.2799788869
 30
0.0
 10
5.8103379774
 20
3.2732823674
 30
0.0
 10
5.8109589121
 20
3.2688462886
 30
0.0
 10
5.8113449441
 20
3.266641928
 30
0.0
  0
SPLINE
  5
292
100
AcDbEntity
  8
0
100
AcDbSpline
 62
6
  6
CONTINUOUS
 70
0
 71
3
 72
55
 73
51
 74
0
 42
0.0000001
 43
0.0000001
 44
0.0000000001
 40
0.0
 40
0.0
 40
0.0
 40
0.0
 40
0.0334705339
 40
0.0668591198
 40
0.1001404913
 40
0.1332828682
 40
0.166248807
 40
0.1989940996
 40
0.2314680425
 40
0.2636144734
 40
0.2953745221
 40
0.3110962474
 40
0.326700772
 40
0.3421824713
 40
0.3575368764
 40
0.372760915
 40
0.3878533078
 40
0.402814871
 40
0.417648716
 40
0.4323604501
 40
0.4469582808
 40
0.4614529396
 40
0.4758575029
 40
0.4901871774
 40
0.504458895
 40
0.5186908035
 40
0.5329017757
 40
0.547110988
 40
0.5613373436
 40
0.5755989855
 40
0.5899130586
 40
0.6042953888
 40
0.6187601449
 40
0.6333198567
 40
0.6479853424
 40
0.6627655197
 40
0.6776676501
 40
0.6926972867
 40
0.7078582623
 40
0.7231529929
 40
0.7385823261
 40
0.7541457749
 40
0.7698415779
 40
0.8016124709
 40
0.8338627959
 40
0.8665391341
 40
0.8995741624
 40
0.9328891174
 40
0.966395608
 40
1.0
 40
1.0
 40
1.0
 40
1.0
 10
5.9430388131
 20
3.3124097678
 30
0.0
 10
5.9422655874
 20
3.314879269
 30
0.0
 10
5.9405388764
 20
3.3197573392
 30
0.0
 10
5.9374200746
 20
3.3268509947
 30
0.0
 10
5.9337925982
 20
3.3336704161
 30
0.0
 10
5.9296772288
 20
3.3401684643
 30
0.0
 10
5.9250974879
 20
3.3462967904
 30
0.0
 10
5.9200803747
 20
3.3520044213
 30
0.0
 10
5.914657024
 20
3.3572376986
 30
0.0
 10
5.9088645363
 20
3.3619398558
 30
0.0
 10
5.9037469956
 20
3.3653794868
 30
0.0
 10
5.8995129643
 20
3.3678039498
 30
0.0
 10
5.8962866075
 20
3.3694465758
 30
0.0
 10
5.8930071781
 20
3.3709122466
 30
0.0
 10
5.8896831041
 20
3.3721942971
 30
0.0
 10
5.8863234639
 20
3.3732865224
 30
0.0
 10
5.8829378013
 20
3.3741833922
 30
0.0
 10
5.8795360639
 20
3.3748801355
 30
0.0
 10
5.8761284983
 20
3.3753728784
 30
0.0
 10
5.8727255346
 20
3.3756588263
 30
0.0
 10
5.8693376281
 20
3.3757363023
 30
0.0
 10
5.8659751093
 20
3.3756047952
 30
0.0
 10
5.8626480326
 20
3.375264983
 30
0.0
 10
5.8593660155
 20
3.3747187789
 30
0.0
 10
5.8561381059
 20
3.3739692086
 30
0.0
 10
5.8529726811
 20
3.3730203125
 30
0.0
 10
5.8498773595
 20
3.3718770453
 30
0.0
 10
5.8468589245
 20
3.3705451842
 30
0.0
 10
5.8439233309
 20
3.3690311055
 30
0.0
 10
5.8410757199
 20
3.3673416445
 30
0.0
 10
5.8383204112
 20
3.3654840155
 30
0.0
 10
5.8356609777
 20
3.3634656368
 30
0.0
 10
5.8331003343
 20
3.361293998
 30
0.0
 10
5.8306407649
 20
3.3589766271
 30
0.0
 10
5.828284022
 20
3.3565209848
 30
0.0
 10
5.8260314233
 20
3.3539343916
 30
0.0
 10
5.8238838793
 20
3.3512240389
 30
0.0
 10
5.8218420012
 20
3.3483969238
 30
0.0
 10
5.8199061465
 20
3.345459854
 30
0.0
 10
5.8180764643
 20
3.3424194529
 30
0.0
 10
5.8163529708
 20
3.3392821605
 30
0.0
 10
5.8147355324
 20
3.3360542025
 30
0.0
 10
5.8127121716
 20
3.331620064
 30
0.0
 10
5.8104510976
 20
3.3258810062
 30
0.0
 10
5.8081694132
 20
3.3187566124
 30
0.0
 10
5.8063057002
 20
3.3114110324
 30
0.0
 10
5.8048580969
 20
3.3038888569
 30
0.0
 10
5.8038251051
 20
3.2962340387
 30
0.0
 10
5.8032056858
 20
3.2884909474
 30
0.0
 10
5.8030681515
 20
3.2833013071
 30
0.0
 10
5.8030681515
 20
3.2807032343
 30
0.0
  0
SPLINE
  5
293
100
AcDbEntity
  8
0
100
AcDbSpline
 62
6
  6
CONTINUOUS
 70
0
 71
3
 72
54
 73
50
 74
0
 42
0.0000001
 43
0.0000001
 44
0.0000000001
 40
0.0
 40
0.0
 40
0.0
 40
0.0
 40
0.0342832043
 40
0.0685158237
 40
0.1026444544
 40
0.1366215412
 40
0.1703998491
 40
0.2039363181
 40
0.2371917808
 40
0.2701318103
 40
0.3027273255
 40
0.3349551683
 40
0.3667987234
 40
0.3982485439
 40
0.4293030097
 40
0.4446856304
 40
0.4599728489
 40
0.4902667699
 40
0.5202148758
 40
0.5350728536
 40
0.5498592626
 40
0.5645802943
 40
0.5792430319
 40
0.5938550002
 40
0.6084244951
 40
0.6229602116
 40
0.6374714564
 40
0.651967803
 40
0.6664592424
 40
0.6809558111
 40
0.6954677349
 40
0.710004999
 40
0.7245775244
 40
0.7391946853
 40
0.7538655281
 40
0.7685982847
 40
0.7834006081
 40
0.7982791566
 40
0.8132398069
 40
0.8282873645
 40
0.8434257397
 40
0.8586577859
 40
0.8739854604
 40
0.889409742
 40
0.9049308206
 40
0.920548024
 40
0.9362600729
 40
0.9679550088
 40
1.0
 40
1.0
 40
1.0
 40
1.0
 10
5.8030681515
 20
3.2807032343
 30
0.0
 10
5.8030681515
 20
3.2788300413
 30
0.0
 10
5.8031397353
 20
3.2750860222
 30
0.0
 10
5.8034619421
 20
3.2694855947
 30
0.0
 10
5.8039991607
 20
3.2639183754
 30
0.0
 10
5.8047515773
 20
3.2584011634
 30
0.0
 10
5.8057195933
 20
3.2529504544
 30
0.0
 10
5.8069036678
 20
3.2475828507
 30
0.0
 10
5.8083044077
 20
3.2423149404
 30
0.0
 10
5.8099225267
 20
3.2371634172
 30
0.0
 10
5.81175883
 20
3.2321451522
 30
0.0
 10
5.8138141604
 20
3.2272773178
 30
0.0
 10
5.816089354
 20
3.2225774618
 30
0.0
 10
5.8185850101
 20
3.218063815
 30
0.0
 10
5.8208561191
 20
3.2144616168
 30
0.0
 10
5.8227839686
 20
3.2116938178
 30
0.0
 10
5.8247729657
 20
3.2090212693
 30
0.0
 10
5.8273960756
 20
3.2058312371
 30
0.0
 10
5.830216163
 20
3.2028454031
 30
0.0
 10
5.8325783671
 20
3.2006035142
 30
0.0
 10
5.8343982071
 20
3.1990012595
 30
0.0
 10
5.8362698855
 20
3.1974767097
 30
0.0
 10
5.8381925103
 20
3.1960326918
 30
0.0
 10
5.8401649402
 20
3.194671968
 30
0.0
 10
5.8421859137
 20
3.1933973571
 30
0.0
 10
5.8442539212
 20
3.1922115387
 30
0.0
 10
5.8463672986
 20
3.191117221
 30
0.0
 10
5.8485241182
 20
3.1901169105
 30
0.0
 10
5.8507222797
 20
3.1892131089
 30
0.0
 10
5.8529594105
 20
3.1884080355
 30
0.0
 10
5.8552329624
 20
3.1877038805
 30
0.0
 10
5.8575401211
 20
3.1871024561
 30
0.0
 10
5.8598779063
 20
3.1866055323
 30
0.0
 10
5.8622431007
 20
3.1862144064
 30
0.0
 10
5.8646323402
 20
3.1859303232
 30
0.0
 10
5.8670420778
 20
3.1857539899
 30
0.0
 10
5.8694686471
 20
3.1856860369
 30
0.0
 10
5.8719082706
 20
3.1857265488
 30
0.0
 10
5.8743570901
 20
3.1858754867
 30
0.0
 10
5.8768112103
 20
3.186132321
 30
0.0
 10
5.8792667073
 20
3.1864963398
 30
0.0
 10
5.8817196838
 20
3.1869664393
 30
0.0
 10
5.8841662739
 20
3.1875412857
 30
0.0
 10
5.8866026878
 20
3.1882192673
 30
0.0
 10
5.889025217
 20
3.1889985195
 30
0.0
 10
5.8914302964
 20
3.189877019
 30
0.0
 10
5.8946180759
 20
3.1911812853
 30
0.0
 10
5.8985410321
 20
3.1930498499
 30
0.0
 10
5.9015730792
 20
3.1947698067
 30
0.0
 10
5.9030657258
 20
3.1956850422
 30
0.0
  0
SPLINE
  5
294
100
AcDbEntity
  8
0
100
AcDbSpline
 62
6
  6
CONTINUOUS
 70
0
 71
3
 72
8
 73
4
 74
0
 42
0.0000001
 43
0.0000001
 44
0.0000000001
 40
0.0
 40
0.0
 40
0.0
 40
0.0
 40
1.0
 40
1.0
 40
1.0
 40
1.0
 10
5.9030657258
 20
3.1956850422
 30
0.0
 10
5.9030720167
 20
3.1956889008
 30
0.0
 10
5.9030783077
 20
3.1956927594
 30
0.0
 10
5.9030845986
 20
3.1956966181
 30
0.0
  0
SPLINE
  5
295
100
AcDbEntity
  8
0
100
AcDbSpline
 62
6
  6
CONTINUOUS
 70
0
 71
3
 72
22
 73
18
 74
0
 42
0.0000001
 43
0.0000001
 44
0.0000000001
 40
0.0
 40
0.0
 40
0.0
 40
0.0
 40
0.0602299527
 40
0.1209442436
 40
0.1820981306
 40
0.2436468858
 40
0.3677163187
 40
0.4301989467
 40
0.4929185855
 40
0.5558432467
 40
0.6189441893
 40
0.6821957615
 40
0.7455753459
 40
0.8090624839
 40
0.872638335
 40
0.9362913376
 40
1.0
 40
1.0
 40
1.0
 40
1.0
 10
5.9030845986
 20
3.1956966181
 30
0.0
 10
5.9044063277
 20
3.1965075757
 30
0.0
 10
5.9070118984
 20
3.198216498
 30
0.0
 10
5.9107786412
 20
3.2010118582
 30
0.0
 10
5.9144091748
 20
3.2040356269
 30
0.0
 10
5.9190649168
 20
3.208362285
 30
0.0
 10
5.923393639
 20
3.2130779848
 30
0.0
 10
5.9273663049
 20
3.2181207739
 30
0.0
 10
5.9301730406
 20
3.2220707565
 30
0.0
 10
5.9327925409
 20
3.2261659301
 30
0.0
 10
5.9352189935
 20
3.2303941746
 30
0.0
 10
5.9374468624
 20
3.2347434532
 30
0.0
 10
5.9394710974
 20
3.239202065
 30
0.0
 10
5.9412870384
 20
3.2437584555
 30
0.0
 10
5.942890527
 20
3.2484013485
 30
0.0
 10
5.9442776465
 20
3.2531192345
 30
0.0
 10
5.9450557547
 20
3.2563060724
 30
0.0
 10
5.9454077277
 20
3.2579081101
 30
0.0
  0
SPLINE
  5
296
100
AcDbEntity
  8
0
100
AcDbSpline
 62
6
  6
CONTINUOUS
 70
0
 71
3
 72
22
 73
18
 74
0
 42
0.0000001
 43
0.0000001
 44
0.0000000001
 40
0.0
 40
0.0
 40
0.0
 40
0.0
 40
0.0637086624
 40
0.127361665
 40
0.1909375161
 40
0.2544246541
 40
0.3178042385
 40
0.3810558107
 40
0.4441567533
 40
0.5070814145
 40
0.5698010533
 40
0.6322836813
 40
0.7563531142
 40
0.8179018694
 40
0.8790557564
 40
0.9397700473
 40
1.0
 40
1.0
 40
1.0
 40
1.0
 10
6.1066496118
 20
3.2579081101
 30
0.0
 10
6.1070015848
 20
3.2563060724
 30
0.0
 10
6.107779693
 20
3.2531192345
 30
0.0
 10
6.1091668125
 20
3.2484013485
 30
0.0
 10
6.1107703012
 20
3.2437584555
 30
0.0
 10
6.1125862422
 20
3.239202065
 30
0.0
 10
6.1146104771
 20
3.2347434532
 30
0.0
 10
6.116838346
 20
3.2303941746
 30
0.0
 10
6.1192647986
 20
3.2261659301
 30
0.0
 10
6.121884299
 20
3.2220707565
 30
0.0
 10
6.1246910346
 20
3.2181207739
 30
0.0
 10
6.1286637005
 20
3.2130779848
 30
0.0
 10
6.1329924227
 20
3.208362285
 30
0.0
 10
6.1376481647
 20
3.2040356269
 30
0.0
 10
6.1412786983
 20
3.2010118582
 30
0.0
 10
6.1450454411
 20
3.198216498
 30
0.0
 10
6.1476510118
 20
3.1965075757
 30
0.0
 10
6.1489727409
 20
3.1956966181
 30
0.0
  0
SPLINE
  5
297
100
AcDbEntity
  8
0
100
AcDbSpline
 62
6
  6
CONTINUOUS
 70
0
 71
3
 72
8
 73
4
 74
0
 42
0.0000001
 43
0.0000001
 44
0.0000000001
 40
0.0
 40
0.0
 40
0.0
 40
0.0
 40
1.0
 40
1.0
 40
1.0
 40
1.0
 10
6.1489727409
 20
3.1956966181
 30
0.0
 10
6.1489790318
 20
3.1956927594
 30
0.0
 10
6.1489853228
 20
3.1956889008
 30
0.0
 10
6.1489916137
 20
3.1956850422
 30
0.0
  0
SPLINE
  5
298
100
AcDbEntity
  8
0
100
AcDbSpline
 62
6
  6
CONTINUOUS
 70
0
 71
3
 72
54
 73
50
 74
0
 42
0.0000001
 43
0.0000001
 44
0.0000000001
 40
0.0
 40
0.0
 40
0.0
 40
0.0
 40
0.0320449912
 40
0.0637399271
 40
0.079451976
 40
0.0950691794
 40
0.110590258
 40
0.1260145396
 40
0.1413422141
 40
0.1565742603
 40
0.1717126355
 40
0.1867601931
 40
0.2017208434
 40
0.2165993919
 40
0.2314017153
 40
0.2461344719
 40
0.2608053147
 40
0.2754224756
 40
0.289995001
 40
0.3045322651
 40
0.3190441889
 40
0.3335407576
 40
0.348032197
 40
0.3625285436
 40
0.3770397884
 40
0.3915755049
 40
0.4061449998
 40
0.4207569681
 40
0.4354197057
 40
0.4501407374
 40
0.4649271464
 40
0.4797851242
 40
0.5097332301
 40
0.5400271511
 40
0.5553143696
 40
0.5706969903
 40
0.6017514561
 40
0.6332012766
 40
0.6650448317
 40
0.6972726745
 40
0.7298681897
 40
0.7628082192
 40
0.7960636819
 40
0.8296001509
 40
0.8633784588
 40
0.8973555456
 40
0.9314841763
 40
0.9657167957
 40
1.0
 40
1.0
 40
1.0
 40
1.0
 10
6.1489916137
 20
3.1956850422
 30
0.0
 10
6.1504842603
 20
3.1947698067
 30
0.0
 10
6.1535163074
 20
3.1930498499
 30
0.0
 10
6.1574392636
 20
3.1911812853
 30
0.0
 10
6.1606270431
 20
3.189877019
 30
0.0
 10
6.1630321226
 20
3.1889985195
 30
0.0
 10
6.1654546518
 20
3.1882192673
 30
0.0
 10
6.1678910656
 20
3.1875412857
 30
0.0
 10
6.1703376557
 20
3.1869664393
 30
0.0
 10
6.1727906322
 20
3.1864963398
 30
0.0
 10
6.1752461292
 20
3.186132321
 30
0.0
 10
6.1777002494
 20
3.1858754867
 30
0.0
 10
6.1801490689
 20
3.1857265488
 30
0.0
 10
6.1825886924
 20
3.1856860369
 30
0.0
 10
6.1850152618
 20
3.1857539899
 30
0.0
 10
6.1874249994
 20
3.1859303232
 30
0.0
 10
6.1898142389
 20
3.1862144064
 30
0.0
 10
6.1921794332
 20
3.1866055323
 30
0.0
 10
6.1945172184
 20
3.1871024561
 30
0.0
 10
6.1968243771
 20
3.1877038805
 30
0.0
 10
6.199097929
 20
3.1884080355
 30
0.0
 10
6.2013350599
 20
3.1892131089
 30
0.0
 10
6.2035332213
 20
3.1901169105
 30
0.0
 10
6.2056900409
 20
3.191117221
 30
0.0
 10
6.2078034183
 20
3.1922115387
 30
0.0
 10
6.2098714259
 20
3.1933973571
 30
0.0
 10
6.2118923993
 20
3.194671968
 30
0.0
 10
6.2138648292
 20
3.1960326918
 30
0.0
 10
6.215787454
 20
3.1974767097
 30
0.0
 10
6.2176591324
 20
3.1990012595
 30
0.0
 10
6.2194789724
 20
3.2006035142
 30
0.0
 10
6.2218411765
 20
3.2028454031
 30
0.0
 10
6.2246612639
 20
3.2058312371
 30
0.0
 10
6.2272843738
 20
3.2090212693
 30
0.0
 10
6.229273371
 20
3.2116938178
 30
0.0
 10
6.2312012204
 20
3.2144616168
 30
0.0
 10
6.2334723294
 20
3.218063815
 30
0.0
 10
6.2359679855
 20
3.2225774618
 30
0.0
 10
6.2382431792
 20
3.2272773178
 30
0.0
 10
6.2402985095
 20
3.2321451522
 30
0.0
 10
6.2421348128
 20
3.2371634172
 30
0.0
 10
6.2437529318
 20
3.2423149404
 30
0.0
 10
6.2451536717
 20
3.2475828507
 30
0.0
 10
6.2463377462
 20
3.2529504544
 30
0.0
 10
6.2473057622
 20
3.2584011634
 30
0.0
 10
6.2480581788
 20
3.2639183754
 30
0.0
 10
6.2485953975
 20
3.2694855947
 30
0.0
 10
6.2489176042
 20
3.2750860222
 30
0.0
 10
6.248989188
 20
3.2788300413
 30
0.0
 10
6.248989188
 20
3.2807032343
 30
0.0
  0
SPLINE
  5
299
100
AcDbEntity
  8
0
100
AcDbSpline
 62
6
  6
CONTINUOUS
 70
0
 71
3
 72
55
 73
51
 74
0
 42
0.0000001
 43
0.0000001
 44
0.0000000001
 40
0.0
 40
0.0
 40
0.0
 40
0.0
 40
0.033604392
 40
0.0671108826
 40
0.1004258376
 40
0.1334608659
 40
0.1661372041
 40
0.1983875291
 40
0.2301584221
 40
0.2458542251
 40
0.2614176739
 40
0.2768470071
 40
0.2921417377
 40
0.3073027133
 40
0.3223323499
 40
0.3372344803
 40
0.3520146576
 40
0.3666801433
 40
0.3812398551
 40
0.3957046112
 40
0.4100869414
 40
0.4244010145
 40
0.4386626564
 40
0.452889012
 40
0.4670982243
 40
0.4813091965
 40
0.495541105
 40
0.5098128226
 40
0.5241424971
 40
0.5385470604
 40
0.5530417192
 40
0.5676395499
 40
0.582351284
 40
0.597185129
 40
0.6121466922
 40
0.627239085
 40
0.6424631236
 40
0.6578175287
 40
0.673299228
 40
0.6889037526
 40
0.7046254779
 40
0.7363855266
 40
0.7685319575
 40
0.8010059004
 40
0.833751193
 40
0.8667171318
 40
0.8998595087
 40
0.9331408802
 40
0.9665294661
 40
1.0
 40
1.0
 40
1.0
 40
1.0
 10
6.248989188
 20
3.2807032343
 30
0.0
 10
6.248989188
 20
3.2833013071
 30
0.0
 10
6.2488516538
 20
3.2884909474
 30
0.0
 10
6.2482322344
 20
3.2962340387
 30
0.0
 10
6.2471992426
 20
3.3038888569
 30
0.0
 10
6.2457516394
 20
3.3114110324
 30
0.0
 10
6.2438879263
 20
3.3187566124
 30
0.0
 10
6.241606242
 20
3.3258810062
 30
0.0
 10
6.2393451679
 20
3.331620064
 30
0.0
 10
6.2373218071
 20
3.3360542025
 30
0.0
 10
6.2357043688
 20
3.3392821605
 30
0.0
 10
6.2339808752
 20
3.3424194529
 30
0.0
 10
6.2321511931
 20
3.345459854
 30
0.0
 10
6.2302153383
 20
3.3483969238
 30
0.0
 10
6.2281734602
 20
3.3512240389
 30
0.0
 10
6.2260259162
 20
3.3539343916
 30
0.0
 10
6.2237733176
 20
3.3565209848
 30
0.0
 10
6.2214165746
 20
3.3589766271
 30
0.0
 10
6.2189570052
 20
3.361293998
 30
0.0
 10
6.2163963619
 20
3.3634656368
 30
0.0
 10
6.2137369283
 20
3.3654840155
 30
0.0
 10
6.2109816196
 20
3.3673416445
 30
0.0
 10
6.2081340086
 20
3.3690311055
 30
0.0
 10
6.205198415
 20
3.3705451842
 30
0.0
 10
6.20217998
 20
3.3718770453
 30
0.0
 10
6.1990846584
 20
3.3730203125
 30
0.0
 10
6.1959192336
 20
3.3739692086
 30
0.0
 10
6.192691324
 20
3.3747187789
 30
0.0
 10
6.189409307
 20
3.375264983
 30
0.0
 10
6.1860822302
 20
3.3756047952
 30
0.0
 10
6.1827197115
 20
3.3757363023
 30
0.0
 10
6.1793318049
 20
3.3756588263
 30
0.0
 10
6.1759288413
 20
3.3753728784
 30
0.0
 10
6.1725212756
 20
3.3748801355
 30
0.0
 10
6.1691195382
 20
3.3741833922
 30
0.0
 10
6.1657338756
 20
3.3732865224
 30
0.0
 10
6.1623742354
 20
3.3721942971
 30
0.0
 10
6.1590501614
 20
3.3709122466
 30
0.0
 10
6.155770732
 20
3.3694465758
 30
0.0
 10
6.1525443752
 20
3.3678039498
 30
0.0
 10
6.1483103439
 20
3.3653794868
 30
0.0
 10
6.1431928032
 20
3.3619398558
 30
0.0
 10
6.1374003155
 20
3.3572376986
 30
0.0
 10
6.1319769648
 20
3.3520044213
 30
0.0
 10
6.1269598517
 20
3.3462967904
 30
0.0
 10
6.1223801107
 20
3.3401684643
 30
0.0
 10
6.1182647413
 20
3.3336704161
 30
0.0
 10
6.1146372649
 20
3.3268509947
 30
0.0
 10
6.1115184631
 20
3.3197573392
 30
0.0
 10
6.1097917521
 20
3.314879269
 30
0.0
 10
6.1090185264
 20
3.3124097678
 30
0.0
  0
ENDSEC
  0
SECTION
  2
OBJECTS
  0
DICTIONARY
  5
C
100
AcDbDictionary
280
0
281
1
  3
ACAD_GROUP
350
D
  3
ACAD_MLINESTYLE
350
17
  3
ACAD_LAYOUT
350
1A
  3
ACAD_PLOTSETTINGS
350
19
  3
ACAD_PLOTSTYLENAME
350
E
  0
DICTIONARY
  5
D
102
{ACAD_REACTORS
330
C
102
}
100
AcDbDictionary
280
0
281
1
  0
ACDBDICTIONARYWDFLT
  5
E
102
{ACAD_REACTORS
330
C
102
}
100
AcDbDictionary
281
1
  3
Normal
350
F
100
AcDbDictionaryWithDefault
340
F
  0
DICTIONARY
  5
17
102
{ACAD_REACTORS
330
C
102
}
100
AcDbDictionary
280
0
281
1
  3
Standard
350
18
  0
DICTIONARY
  5
19
102
{ACAD_REACTORS
330
C
102
}
100
AcDbDictionary
281
1
  0
DICTIONARY
  5
1A
102
{ACAD_REACTORS
330
C
102
}
100
AcDbDictionary
281
1
  3
Model
350
29A
  3
Layout1
350
29B
  0
ACDBPLACEHOLDER
  5
F
102
{ACAD_REACTORS
330
E
102
}
  0
MLINESTYLE
  5
18
102
{ACAD_REACTORS
330
17
102
}
100
AcDbMlineStyle
  2
STANDARD
 70
0
  3

 62
256
 51
90.0
 52
90.0
 71
2
 49
0.5
 62
256
  6
BYLAYER
 49
-0.5
 62
256
  6
BYLAYER
  0
LAYOUT
  5
29A
102
{ACAD_REACTORS
330
1A
102
}
100
AcDbPlotSettings
  1

  2
none_device
  4
ISO_A4_(297.00_x_210.00_MM)
  6

 40
0.0
 41
0.0
 42
0.0
 43
0.0
 44
297.0
 45
210.0
 46
0.0
 47
0.0
 48
0.0
 49
0.0
140
0.0
141
0.0
142
1.0
143
1.0
 70
1024
 72
0
 73
0
 74
0
  7

 75
0
147
1.0
148
0.0
149
0.0
100
AcDbLayout
  1
Model
 70
0
 71
0
 10
0.0
 20
0.0
 11
11.6929133858
 21
8.2677165354
 12
0.0
 22
0.0
 32
0.0
 14
0.0
 24
0.0
 34
0.0
 15
0.0
 25
0.0
 35
0.0
146
0.0
 13
0.0
 23
0.0
 33
0.0
 16
1.0
 26
0.0
 36
0.0
 17
0.0
 27
1.0
 37
0.0
 76
0
330
202
345
0
346
0
  0
LAYOUT
  5
29B
102
{ACAD_REACTORS
330
1A
102
}
100
AcDbPlotSettings
  1

  2
none_device
  4
ISO_A4_(297.00_x_210.00_MM)
  6

 40
0.0
 41
0.0
 42
0.0
 43
0.0
 44
297.0
 45
210.0
 46
0.0
 47
0.0
 48
0.0
 49
0.0
140
0.0
141
0.0
142
1.0
143
1.0
 70
0
 72
0
 73
0
 74
0
  7

 75
0
147
1.0
148
0.0
149
0.0
100
AcDbLayout
  1
Layout1
 70
0
 71
1
 10
0.0
 20
0.0
 11
11.6929133858
 21
8.2677165354
 12
0.0
 22
0.0
 32
0.0
 14
0.0
 24
0.0
 34
0.0
 15
0.0
 25
0.0
 35
0.0
146
0.0
 13
0.0
 23
0.0
 33
0.0
 16
1.0
 26
0.0
 36
0.0
 17
0.0
 27
1.0
 37
0.0
 76
0
330
203
345
0
346
0
  0
ENDSEC
  0
EOF
