999
DXF file: 3-1203TS_TOP.dxf
999
Pro/ENGINEER 2014000 by Parametric Technology Corporation
  0
SECTION
  2
HEADER
  9
$ACADVER
  1
AC1015
  9
$DWGCODEPAGE
  3
ANSI_1252
  9
$EXTMAX
 10
11.6929133858
 20
8.2677165354
 30
0.0
  9
$EXTMIN
 10
0.0
 20
0.0
 30
0.0
  9
$LIMMIN
 10
0.0
 20
0.0
  9
$LIMMAX
 10
11.6929133858
 20
8.2677165354
  9
$VIEWCTR
 10
5.8464566929
 20
4.1338582677
  9
$VIEWSIZE
 40
8.2677165354
  9
$CLAYER
  8
0
  9
$LTSCALE
 40
0.6431102362
  9
$CELTYPE
  6
BYLAYER
  9
$DIMSCALE
 40
1.0
  9
$DIMASZ
 40
0.1
  9
$DIMEXO
 40
0.0625
  9
$DIMDLI
 40
0.4443307087
  9
$DIMEXE
 40
0.125
  9
$DIMCEN
 40
0.1052362205
  9
$DIMLFAC
 40
1.0
  9
$DIMBLK
  1
_FILLED
  9
$DIMTXT
 40
0.08
  9
$DIMTOL
 70
1
  9
$DIMLIM
 70
0
  9
$DIMTFAC
 40
1.0
  9
$DIMTP
 40
0.001
  9
$DIMTM
 40
0.001
  9
$DIMGAP
 40
0.09
  9
$DIMDSEP
 70
46
  9
$PDMODE
 70
3
  9
$PDSIZE
 40
0.06
  9
$HANDSEED
  5
357
  9
$TILEMODE
 70
1
  9
$MEASUREMENT
 70
0
  9
$INSUNITS
 70
1
  0
ENDSEC
  0
SECTION
  2
CLASSES
  0
CLASS
  1
ACDBDICTIONARYWDFLT
  2
AcDbDictionaryWithDefault
  3
AutoCAD 2000
 90
0
280
0
281
0
  0
CLASS
  1
ACDBPLACEHOLDER
  2
AcDbPlaceHolder
  3
AutoCAD 2000
 90
0
280
0
281
0
  0
CLASS
  1
LAYOUT
  2
AcDbLayout
  3
AutoCAD 2000
 90
0
280
0
281
0
  0
ENDSEC
  0
SECTION
  2
TABLES
  0
TABLE
  2
VPORT
  5
8
100
AcDbSymbolTable
 70
2
  0
VPORT
  5
1F4
100
AcDbSymbolTableRecord
100
AcDbViewportTableRecord
  2
*ACTIVE
 70
0
 10
0.0
 20
0.0
 11
1.0
 21
1.0
 12
5.8464566929
 22
4.1338582677
 13
0.0
 23
0.0
 14
1.0
 24
1.0
 15
0.0
 25
0.0
 16
0.0
 26
0.0
 36
1.0
 17
0.0
 27
0.0
 37
0.0
 40
8.2677165354
 41
1.4142857143
 42
50.0
 43
0.0
 44
0.0
 50
0.0
 51
0.0
 71
0
 72
100
 73
1
 74
1
 75
0
 76
0
 77
0
 78
0
  0
ENDTAB
  0
TABLE
  2
LTYPE
  5
5
100
AcDbSymbolTable
 70
6
  0
LTYPE
  5
14
100
AcDbSymbolTableRecord
100
AcDbLinetypeTableRecord
  2
BYBLOCK
 70
0
  3

 72
65
 73
0
 40
0.0
  0
LTYPE
  5
15
100
AcDbSymbolTableRecord
100
AcDbLinetypeTableRecord
  2
BYLAYER
 70
0
  3

 72
65
 73
0
 40
0.0
  0
LTYPE
  5
16
100
AcDbSymbolTableRecord
100
AcDbLinetypeTableRecord
  2
CONTINUOUS
 70
64
  3
Solid line
 72
65
 73
0
 40
0.0
  0
LTYPE
  5
1F5
100
AcDbSymbolTableRecord
100
AcDbLinetypeTableRecord
  2
CENTER
 70
64
  3
____ _ ____ _ ____ _ ____ _ ____ _ ____ _ ____
 72
65
 73
4
 40
0.6
 49
0.375
 74
0
 49
-0.075
 74
0
 49
0.075
 74
0
 49
-0.075
 74
0
  0
LTYPE
  5
1F6
100
AcDbSymbolTableRecord
100
AcDbLinetypeTableRecord
  2
HIDDEN
 70
64
  3
- - - - - - - - - - - - - - - - - - - -
 72
65
 73
2
 40
0.2
 49
0.1
 74
0
 49
-0.1
 74
0
  0
LTYPE
  5
1F7
100
AcDbSymbolTableRecord
100
AcDbLinetypeTableRecord
  2
PHANTOM
 70
64
  3
_____ _ _ _____ _ _ _____ _ _ _____
 72
65
 73
6
 40
0.8
 49
0.45
 74
0
 49
-0.05
 74
0
 49
0.1
 74
0
 49
-0.05
 74
0
 49
0.1
 74
0
 49
-0.05
 74
0
  0
LTYPE
  5
1F8
100
AcDbSymbolTableRecord
100
AcDbLinetypeTableRecord
  2
DOT
 70
64
  3
. . . . . . . . . . . . . . . . . . . .
 72
65
 73
2
 40
0.2
 49
0.1
 74
0
 49
-0.1
 74
0
  0
LTYPE
  5
1F9
100
AcDbSymbolTableRecord
100
AcDbLinetypeTableRecord
  2
DASHED
 70
64
  3
- - - - - - - - - - - - - - - - - - - -
 72
65
 73
2
 40
0.2
 49
0.1
 74
0
 49
-0.1
 74
0
  0
ENDTAB
  0
TABLE
  2
LAYER
  5
2
100
AcDbSymbolTable
 70
36
  0
LAYER
  5
10
100
AcDbSymbolTableRecord
100
AcDbLayerTableRecord
  2
0
 70
0
 62
7
  6
CONTINUOUS
370
-3
390
F
  0
LAYER
  5
1FA
100
AcDbSymbolTableRecord
100
AcDbLayerTableRecord
  2
DEFAULT_1
 70
0
 62
7
  6
CENTER
370
-3
390
F
  0
LAYER
  5
1FB
100
AcDbSymbolTableRecord
100
AcDbLayerTableRecord
  2
DEFAULT_2
 70
0
 62
8
  6
HIDDEN
370
-3
390
F
  0
LAYER
  5
1FC
100
AcDbSymbolTableRecord
100
AcDbLayerTableRecord
  2
DEFAULT_3
 70
0
 62
7
  6
PHANTOM
370
-3
390
F
  0
LAYER
  5
1FD
100
AcDbSymbolTableRecord
100
AcDbLayerTableRecord
  2
DEFAULT_COORDINATE_SYSTEM
 70
0
 62
7
  6
CONTINUOUS
370
-3
390
F
  0
LAYER
  5
1FE
100
AcDbSymbolTableRecord
100
AcDbLayerTableRecord
  2
DEFAULT_DATUM_AXES
 70
0
 62
7
  6
CONTINUOUS
370
-3
390
F
  0
LAYER
  5
1FF
100
AcDbSymbolTableRecord
100
AcDbLayerTableRecord
  2
DEFAULT_DATUM_PLANES
 70
0
 62
7
  6
CONTINUOUS
370
-3
390
F
  0
ENDTAB
  0
TABLE
  2
STYLE
  5
3
100
AcDbSymbolTable
 70
1
  0
STYLE
  5
11
100
AcDbSymbolTableRecord
100
AcDbTextStyleTableRecord
  2
STANDARD
 70
0
 40
0.0
 41
0.8
 50
0.0
 71
0
 42
0.2
  3
txt
  4

  0
STYLE
  5
200
100
AcDbSymbolTableRecord
100
AcDbTextStyleTableRecord
  2
TEXTSTYLE_1
 70
0
 40
0.0
 41
0.8
 50
0.0
 71
0
 42
0.2
  3
gdt
  4

  0
ENDTAB
  0
TABLE
  2
VIEW
  5
6
100
AcDbSymbolTable
 70
0
  0
ENDTAB
  0
TABLE
  2
UCS
  5
7
100
AcDbSymbolTable
 70
0
  0
ENDTAB
  0
TABLE
  2
APPID
  5
9
100
AcDbSymbolTable
 70
1
  0
APPID
  5
201
100
AcDbSymbolTableRecord
100
AcDbRegAppTableRecord
  2
ACAD
 70
0
  0
ENDTAB
  0
TABLE
  2
BLOCK_RECORD
  5
1
100
AcDbSymbolTable
 70
0
  0
BLOCK_RECORD
  5
202
100
AcDbSymbolTableRecord
100
AcDbBlockTableRecord
  2
*Model_Space
  0
BLOCK_RECORD
  5
203
100
AcDbSymbolTableRecord
100
AcDbBlockTableRecord
  2
*Paper_Space
  0
ENDTAB
  0
TABLE
  2
DIMSTYLE
  5
A
100
AcDbSymbolTable
 70
1
100
AcDbDimStyleTable
 71
0
  0
DIMSTYLE
105
204
100
AcDbSymbolTableRecord
100
AcDbDimStyleTableRecord
  2
STANDARD
 70
0
  3

  4

 40
1.0
 41
0.1
 42
0.0625
 43
0.38
 44
0.125
 45
0.0
 46
0.0
 47
0.001
 48
0.001
140
0.08
141
0.09
142
0.0
143
25.4
144
1.0
145
0.0
146
1.0
147
0.09
 71
1.0
 72
0.0
 73
1
 74
1
 75
0
 76
0
 77
0
 78
4
170
0
171
2
172
0
173
0
174
0
175
0
176
0
177
0
178
0
270
2
271
3
272
3
273
2
274
2
275
0
280
0
281
0
282
0
283
1
284
4
285
0
286
0
287
3
288
0
340
11
278
46
  0
ENDTAB
  0
ENDSEC
  0
SECTION
  2
BLOCKS
  0
BLOCK
  5
20
100
AcDbEntity
  8
0
100
AcDbBlockBegin
  2
*Model_Space
 70
0
 10
0.0
 20
0.0
 30
0.0
  3
*Model_Space
  1

  0
ENDBLK
  5
21
100
AcDbEntity
  8
0
100
AcDbBlockEnd
  0
BLOCK
  5
1C
100
AcDbEntity
  8
0
100
AcDbBlockBegin
  2
*Paper_Space
 70
0
 10
0.0
 20
0.0
 30
0.0
  3
*Paper_Space
  1

  0
ENDBLK
  5
1D
100
AcDbEntity
  8
0
100
AcDbBlockEnd
  0
ENDSEC
  0
SECTION
  2
ENTITIES
  0
LINE
  5
205
100
AcDbEntity
  8
0
100
AcDbLine
 62
6
  6
CONTINUOUS
 10
3.075330578
 20
5.3690962164
 11
3.075330578
 21
5.6190962164
  0
LINE
  5
206
100
AcDbEntity
  8
0
100
AcDbLine
 62
6
  6
CONTINUOUS
 10
3.200330578
 20
5.3690962164
 11
3.200330578
 21
5.3060962164
  0
LINE
  5
207
100
AcDbEntity
  8
0
100
AcDbLine
 62
9
  6
CONTINUOUS
 10
3.495330578
 20
5.3060962164
 11
3.495330578
 21
5.6190962164
  0
LINE
  5
208
100
AcDbEntity
  8
0
100
AcDbLine
 62
9
  6
CONTINUOUS
 10
3.535330578
 20
5.3060962164
 11
3.535330578
 21
5.6190962164
  0
LINE
  5
209
100
AcDbEntity
  8
0
100
AcDbLine
 62
6
  6
CONTINUOUS
 10
3.575330578
 20
5.3690962164
 11
3.575330578
 21
5.6190962164
  0
LINE
  5
20A
100
AcDbEntity
  8
0
100
AcDbLine
 62
6
  6
CONTINUOUS
 10
3.700330578
 20
5.3690962164
 11
3.700330578
 21
5.3060962164
  0
LINE
  5
20B
100
AcDbEntity
  8
0
100
AcDbLine
 62
9
  6
CONTINUOUS
 10
3.995330578
 20
5.3060962164
 11
3.995330578
 21
5.6190962164
  0
LINE
  5
20C
100
AcDbEntity
  8
0
100
AcDbLine
 62
6
  6
CONTINUOUS
 10
5.335330578
 20
2.059379681
 11
6.315330578
 21
2.059379681
  0
LINE
  5
20D
100
AcDbEntity
  8
0
100
AcDbLine
 62
6
  6
CONTINUOUS
 10
4.474830578
 20
5.2260962164
 11
4.474830578
 21
5.3060962164
  0
LINE
  5
20E
100
AcDbEntity
  8
0
100
AcDbLine
 62
6
  6
CONTINUOUS
 10
5.335330578
 20
2.3770096023
 11
6.315330578
 21
2.3770096023
  0
LINE
  5
20F
100
AcDbEntity
  8
0
100
AcDbLine
 62
6
  6
CONTINUOUS
 10
4.554830578
 20
5.1880962164
 11
4.554830578
 21
5.2260962164
  0
LINE
  5
210
100
AcDbEntity
  8
0
100
AcDbLine
 62
7
  6
CONTINUOUS
 10
4.6889732555
 20
5.1859830826
 11
4.6889802919
 21
5.1863218278
  0
LINE
  5
211
100
AcDbEntity
  8
0
100
AcDbLine
 62
7
  6
CONTINUOUS
 10
4.6948536458
 20
5.1859718192
 11
4.6948581126
 21
5.18618686
  0
LINE
  5
212
100
AcDbEntity
  8
0
100
AcDbLine
 62
7
  6
CONTINUOUS
 10
4.7094949013
 20
5.1856880735
 11
4.7094982791
 21
5.1858506894
  0
LINE
  5
213
100
AcDbEntity
  8
0
100
AcDbLine
 62
7
  6
CONTINUOUS
 10
4.8397107226
 20
5.184158633
 11
4.8397162909
 21
5.184426704
  0
LINE
  5
214
100
AcDbEntity
  8
0
100
AcDbLine
 62
6
  6
CONTINUOUS
 10
4.998330578
 20
3.6072738887
 11
4.998330578
 21
5.000379681
  0
LINE
  5
215
100
AcDbEntity
  8
0
100
AcDbLine
 62
6
  6
CONTINUOUS
 10
4.998560578
 20
5.3060962164
 11
4.998560578
 21
4.1440962164
  0
LINE
  5
216
100
AcDbEntity
  8
0
100
AcDbLine
 62
6
  6
CONTINUOUS
 10
5.177830578
 20
3.9940962164
 11
5.177830578
 21
3.7768010891
  0
LINE
  5
217
100
AcDbEntity
  8
0
100
AcDbLine
 62
6
  6
CONTINUOUS
 10
5.335330578
 20
3.0020096023
 11
6.315330578
 21
3.0020096023
  0
LINE
  5
218
100
AcDbEntity
  8
0
100
AcDbLine
 62
9
  6
CONTINUOUS
 10
5.512830578
 20
3.044379681
 11
5.4753366955
 21
3.044379681
  0
LINE
  5
219
100
AcDbEntity
  8
0
100
AcDbLine
 62
6
  6
CONTINUOUS
 10
5.475330578
 20
3.044379681
 11
5.4753366955
 21
3.044379681
  0
LINE
  5
21A
100
AcDbEntity
  8
0
100
AcDbLine
 62
6
  6
CONTINUOUS
 10
6.1753244605
 20
3.044379681
 11
6.175330578
 21
3.044379681
  0
LINE
  5
21B
100
AcDbEntity
  8
0
100
AcDbLine
 62
9
  6
CONTINUOUS
 10
6.137830578
 20
3.044379681
 11
6.1753244605
 21
3.044379681
  0
LINE
  5
21C
100
AcDbEntity
  8
0
100
AcDbLine
 62
9
  6
CONTINUOUS
 10
5.512830578
 20
3.0571049004
 11
5.4335404813
 21
3.0571049071
  0
LINE
  5
21D
100
AcDbEntity
  8
0
100
AcDbLine
 62
9
  6
CONTINUOUS
 10
6.2171206747
 20
3.0571049071
 11
6.137830578
 21
3.0571049071
  0
LINE
  5
21E
100
AcDbEntity
  8
0
100
AcDbLine
 62
9
  6
CONTINUOUS
 10
6.2348894121
 20
3.0781884666
 11
6.137830578
 21
3.0781884661
  0
LINE
  5
21F
100
AcDbEntity
  8
0
100
AcDbLine
 62
9
  6
CONTINUOUS
 10
5.512830578
 20
3.0781884652
 11
5.4157717438
 21
3.0781884666
  0
LINE
  5
220
100
AcDbEntity
  8
0
100
AcDbLine
 62
6
  6
CONTINUOUS
 10
5.655799328
 20
3.1179471023
 11
5.694861828
 21
3.1179471023
  0
LINE
  5
221
100
AcDbEntity
  8
0
100
AcDbLine
 62
6
  6
CONTINUOUS
 10
5.955799328
 20
3.1179471023
 11
5.994861828
 21
3.1179471023
  0
LINE
  5
222
100
AcDbEntity
  8
0
100
AcDbLine
 62
6
  6
CONTINUOUS
 10
6.014393078
 20
3.1570096023
 11
5.976893078
 21
3.1570096023
  0
LINE
  5
223
100
AcDbEntity
  8
0
100
AcDbLine
 62
6
  6
CONTINUOUS
 10
5.636268078
 20
3.1570096023
 11
5.673768078
 21
3.1570096023
  0
LINE
  5
224
100
AcDbEntity
  8
0
100
AcDbLine
 62
6
  6
CONTINUOUS
 10
5.994861828
 20
3.1960721023
 11
5.955799328
 21
3.1960721023
  0
LINE
  5
225
100
AcDbEntity
  8
0
100
AcDbLine
 62
6
  6
CONTINUOUS
 10
5.694861828
 20
3.1960721023
 11
5.655799328
 21
3.1960721023
  0
LINE
  5
226
100
AcDbEntity
  8
0
100
AcDbLine
 62
6
  6
CONTINUOUS
 10
5.0466626014
 20
3.5205720658
 11
5.0359777575
 21
3.5290938031
  0
LINE
  5
227
100
AcDbEntity
  8
0
100
AcDbLine
 62
6
  6
CONTINUOUS
 10
5.0709040842
 20
3.4723056188
 11
5.067919054
 21
3.4862357598
  0
LINE
  5
228
100
AcDbEntity
  8
0
100
AcDbLine
 62
6
  6
CONTINUOUS
 10
5.335330578
 20
3.0020096023
 11
5.335330578
 21
2.059379681
  0
LINE
  5
229
100
AcDbEntity
  8
0
100
AcDbLine
 62
6
  6
CONTINUOUS
 10
5.512830578
 20
3.3120096023
 11
6.137830578
 21
3.3120096023
  0
LINE
  5
22A
100
AcDbEntity
  8
0
100
AcDbLine
 62
9
  6
CONTINUOUS
 10
6.1484747823
 20
3.3620096023
 11
5.5021863737
 21
3.3620096023
  0
LINE
  5
22B
100
AcDbEntity
  8
0
100
AcDbLine
 62
9
  6
CONTINUOUS
 10
6.1852316944
 20
3.3862321054
 11
5.4654294615
 21
3.3862321054
  0
LINE
  5
22C
100
AcDbEntity
  8
0
100
AcDbLine
 62
9
  6
CONTINUOUS
 10
5.1088108093
 20
3.4199701762
 11
5.4499355497
 21
3.4199701748
  0
LINE
  5
22D
100
AcDbEntity
  8
0
100
AcDbLine
 62
9
  6
CONTINUOUS
 10
6.2007256044
 20
3.4199701706
 11
6.5418503467
 21
3.4199701762
  0
LINE
  5
22E
100
AcDbEntity
  8
0
100
AcDbLine
 62
6
  6
CONTINUOUS
 10
5.636268078
 20
3.1570096023
 11
5.655799328
 21
3.1179471023
  0
LINE
  5
22F
100
AcDbEntity
  8
0
100
AcDbLine
 62
6
  6
CONTINUOUS
 10
5.673768078
 20
3.1570096023
 11
5.693299328
 21
3.1179471023
  0
LINE
  5
230
100
AcDbEntity
  8
0
100
AcDbLine
 62
6
  6
CONTINUOUS
 10
5.512830578
 20
3.3120096023
 11
5.512830578
 21
3.0020096023
  0
LINE
  5
231
100
AcDbEntity
  8
0
100
AcDbLine
 62
9
  6
CONTINUOUS
 10
6.2289453005
 20
3.4723056139
 11
6.5797570718
 21
3.4723056188
  0
LINE
  5
232
100
AcDbEntity
  8
0
100
AcDbLine
 62
9
  6
CONTINUOUS
 10
5.0709040842
 20
3.4723056188
 11
5.4217158532
 21
3.4723056174
  0
LINE
  5
233
100
AcDbEntity
  8
0
100
AcDbLine
 62
9
  6
CONTINUOUS
 10
6.582742102
 20
3.4862357598
 11
6.2373947013
 21
3.4862357554
  0
LINE
  5
234
100
AcDbEntity
  8
0
100
AcDbLine
 62
9
  6
CONTINUOUS
 10
5.4132664538
 20
3.4862357573
 11
5.067919054
 21
3.4862357598
  0
LINE
  5
235
100
AcDbEntity
  8
0
100
AcDbLine
 62
9
  6
CONTINUOUS
 10
6.6039985545
 20
3.5205720658
 11
6.2600436873
 21
3.5205720544
  0
LINE
  5
236
100
AcDbEntity
  8
0
100
AcDbLine
 62
9
  6
CONTINUOUS
 10
5.3906174655
 20
3.5205720584
 11
5.0466626014
 21
3.5205720658
  0
LINE
  5
237
100
AcDbEntity
  8
0
100
AcDbLine
 62
9
  6
CONTINUOUS
 10
6.6146833984
 20
3.5290938031
 11
6.2661462923
 21
3.5290938031
  0
LINE
  5
238
100
AcDbEntity
  8
0
100
AcDbLine
 62
9
  6
CONTINUOUS
 10
5.3845148638
 20
3.5290938031
 11
5.0359777575
 21
3.5290938031
  0
LINE
  5
239
100
AcDbEntity
  8
0
100
AcDbLine
 62
9
  6
CONTINUOUS
 10
4.998330578
 20
3.6072738887
 11
5.3197624761
 21
3.6072738887
  0
LINE
  5
23A
100
AcDbEntity
  8
0
100
AcDbLine
 62
9
  6
CONTINUOUS
 10
6.3308986806
 20
3.6072738885
 11
6.652330578
 21
3.6072738887
  0
LINE
  5
23B
100
AcDbEntity
  8
0
100
AcDbLine
 62
6
  6
CONTINUOUS
 10
5.714393078
 20
3.1570096023
 11
5.694861828
 21
3.1960721023
  0
LINE
  5
23C
100
AcDbEntity
  8
0
100
AcDbLine
 62
6
  6
CONTINUOUS
 10
5.936268078
 20
3.1570096023
 11
5.955799328
 21
3.1179471023
  0
LINE
  5
23D
100
AcDbEntity
  8
0
100
AcDbLine
 62
6
  6
CONTINUOUS
 10
5.640330578
 20
3.3620096023
 11
5.640330578
 21
3.3120096023
  0
LINE
  5
23E
100
AcDbEntity
  8
0
100
AcDbLine
 62
9
  6
CONTINUOUS
 10
5.2187809725
 20
3.6960970366
 11
6.4318801835
 21
3.6960970366
  0
LINE
  5
23F
100
AcDbEntity
  8
0
100
AcDbLine
 62
9
  6
CONTINUOUS
 10
5.177830578
 20
3.7768010891
 11
6.472830578
 21
3.7768010891
  0
LINE
  5
240
100
AcDbEntity
  8
0
100
AcDbLine
 62
6
  6
CONTINUOUS
 10
5.976893078
 20
3.1570096023
 11
5.957361828
 21
3.1960721023
  0
LINE
  5
241
100
AcDbEntity
  8
0
100
AcDbLine
 62
6
  6
CONTINUOUS
 10
6.014393078
 20
3.1570096023
 11
5.994861828
 21
3.1960721023
  0
LINE
  5
242
100
AcDbEntity
  8
0
100
AcDbLine
 62
6
  6
CONTINUOUS
 10
6.010330578
 20
3.3620096023
 11
6.010330578
 21
3.3120096023
  0
LINE
  5
243
100
AcDbEntity
  8
0
100
AcDbLine
 62
6
  6
CONTINUOUS
 10
5.655799328
 20
3.1960721023
 11
5.636268078
 21
3.1570096023
  0
LINE
  5
244
100
AcDbEntity
  8
0
100
AcDbLine
 62
6
  6
CONTINUOUS
 10
5.693299328
 20
3.1960721023
 11
5.673768078
 21
3.1570096023
  0
LINE
  5
245
100
AcDbEntity
  8
0
100
AcDbLine
 62
6
  6
CONTINUOUS
 10
5.694861828
 20
3.1179471023
 11
5.714393078
 21
3.1570096023
  0
LINE
  5
246
100
AcDbEntity
  8
0
100
AcDbLine
 62
6
  6
CONTINUOUS
 10
6.502100578
 20
3.9940962164
 11
5.148560578
 21
3.9940962164
  0
LINE
  5
247
100
AcDbEntity
  8
0
100
AcDbLine
 62
6
  6
CONTINUOUS
 10
6.137830578
 20
3.3120096023
 11
6.137830578
 21
3.0020096023
  0
LINE
  5
248
100
AcDbEntity
  8
0
100
AcDbLine
 62
6
  6
CONTINUOUS
 10
5.955799328
 20
3.1960721023
 11
5.936268078
 21
3.1570096023
  0
LINE
  5
249
100
AcDbEntity
  8
0
100
AcDbLine
 62
6
  6
CONTINUOUS
 10
5.957361828
 20
3.1179471023
 11
5.976893078
 21
3.1570096023
  0
LINE
  5
24A
100
AcDbEntity
  8
0
100
AcDbLine
 62
9
  6
CONTINUOUS
 10
6.652100578
 20
4.1440962164
 11
4.998560578
 21
4.1440962164
  0
LINE
  5
24B
100
AcDbEntity
  8
0
100
AcDbLine
 62
6
  6
CONTINUOUS
 10
6.315330578
 20
3.0020096023
 11
6.315330578
 21
2.059379681
  0
LINE
  5
24C
100
AcDbEntity
  8
0
100
AcDbLine
 62
6
  6
CONTINUOUS
 10
6.472830578
 20
3.9940962164
 11
6.472830578
 21
3.7768010891
  0
LINE
  5
24D
100
AcDbEntity
  8
0
100
AcDbLine
 62
6
  6
CONTINUOUS
 10
5.994861828
 20
3.1179471023
 11
6.014393078
 21
3.1570096023
  0
LINE
  5
24E
100
AcDbEntity
  8
0
100
AcDbLine
 62
6
  6
CONTINUOUS
 10
6.652100578
 20
5.3060962164
 11
6.652100578
 21
4.1440962164
  0
LINE
  5
24F
100
AcDbEntity
  8
0
100
AcDbLine
 62
6
  6
CONTINUOUS
 10
6.652330578
 20
3.6072738887
 11
6.652330578
 21
5.000379681
  0
LINE
  5
250
100
AcDbEntity
  8
0
100
AcDbLine
 62
6
  6
CONTINUOUS
 10
6.5797570718
 20
3.4723056188
 11
6.582742102
 21
3.4862357598
  0
LINE
  5
251
100
AcDbEntity
  8
0
100
AcDbLine
 62
6
  6
CONTINUOUS
 10
6.6039985545
 20
3.5205720658
 11
6.6146833984
 21
3.5290938031
  0
LINE
  5
252
100
AcDbEntity
  8
0
100
AcDbLine
 62
6
  6
CONTINUOUS
 10
7.095830578
 20
5.1880962164
 11
7.095830578
 21
5.2260962164
  0
LINE
  5
253
100
AcDbEntity
  8
0
100
AcDbLine
 62
6
  6
CONTINUOUS
 10
7.175830578
 20
5.2260962164
 11
7.175830578
 21
5.3060962164
  0
LINE
  5
254
100
AcDbEntity
  8
0
100
AcDbLine
 62
6
  6
CONTINUOUS
 10
6.775330578
 20
5.1810962164
 11
7.095830578
 21
5.1880962164
  0
LINE
  5
255
100
AcDbEntity
  8
0
100
AcDbLine
 62
6
  6
CONTINUOUS
 10
4.998560578
 20
5.1810962164
 11
4.875330578
 21
5.1810962164
  0
LINE
  5
256
100
AcDbEntity
  8
0
100
AcDbLine
 62
6
  6
CONTINUOUS
 10
6.652100578
 20
5.1810962164
 11
6.775330578
 21
5.1810962164
  0
LINE
  5
257
100
AcDbEntity
  8
0
100
AcDbLine
 62
6
  6
CONTINUOUS
 10
4.998560578
 20
5.1880962164
 11
4.554830578
 21
5.1880962164
  0
LINE
  5
258
100
AcDbEntity
  8
0
100
AcDbLine
 62
6
  6
CONTINUOUS
 10
6.652100578
 20
5.1880962164
 11
7.095830578
 21
5.1880962164
  0
LINE
  5
259
100
AcDbEntity
  8
0
100
AcDbLine
 62
6
  6
CONTINUOUS
 10
4.875330578
 20
5.1810962164
 11
4.554830578
 21
5.1880962164
  0
LINE
  5
25A
100
AcDbEntity
  8
0
100
AcDbLine
 62
6
  6
CONTINUOUS
 10
4.998560578
 20
5.2260962164
 11
4.4748673887
 21
5.2260962164
  0
LINE
  5
25B
100
AcDbEntity
  8
0
100
AcDbLine
 62
6
  6
CONTINUOUS
 10
6.652100578
 20
5.2260962164
 11
7.1757937673
 21
5.2260962164
  0
LINE
  5
25C
100
AcDbEntity
  8
0
100
AcDbLine
 62
6
  6
CONTINUOUS
 10
8.450330578
 20
5.3060962164
 11
3.200330578
 21
5.3060962164
  0
LINE
  5
25D
100
AcDbEntity
  8
0
100
AcDbLine
 62
6
  6
CONTINUOUS
 10
8.575330578
 20
5.3690962164
 11
3.075330578
 21
5.3690962164
  0
LINE
  5
25E
100
AcDbEntity
  8
0
100
AcDbLine
 62
6
  6
CONTINUOUS
 10
3.075330578
 20
5.6190962164
 11
8.575330578
 21
5.6190962164
  0
LINE
  5
25F
100
AcDbEntity
  8
0
100
AcDbLine
 62
9
  6
CONTINUOUS
 10
7.655330578
 20
5.3060962164
 11
7.655330578
 21
5.6190962164
  0
LINE
  5
260
100
AcDbEntity
  8
0
100
AcDbLine
 62
6
  6
CONTINUOUS
 10
6.2988818301
 20
5.6990962164
 11
5.3517793259
 21
5.6990962164
  0
LINE
  5
261
100
AcDbEntity
  8
0
100
AcDbLine
 62
6
  6
CONTINUOUS
 10
7.950330578
 20
5.3690962164
 11
7.950330578
 21
5.3060962164
  0
LINE
  5
262
100
AcDbEntity
  8
0
100
AcDbLine
 62
6
  6
CONTINUOUS
 10
8.075330578
 20
5.3690962164
 11
8.075330578
 21
5.6190962164
  0
LINE
  5
263
100
AcDbEntity
  8
0
100
AcDbLine
 62
9
  6
CONTINUOUS
 10
8.115330578
 20
5.3060962164
 11
8.115330578
 21
5.6190962164
  0
LINE
  5
264
100
AcDbEntity
  8
0
100
AcDbLine
 62
9
  6
CONTINUOUS
 10
8.155330578
 20
5.3060962164
 11
8.155330578
 21
5.6190962164
  0
LINE
  5
265
100
AcDbEntity
  8
0
100
AcDbLine
 62
6
  6
CONTINUOUS
 10
8.450330578
 20
5.3690962164
 11
8.450330578
 21
5.3060962164
  0
LINE
  5
266
100
AcDbEntity
  8
0
100
AcDbLine
 62
6
  6
CONTINUOUS
 10
8.575330578
 20
5.3690962164
 11
8.575330578
 21
5.6190962164
  0
ARC
  5
267
100
AcDbEntity
  8
0
100
AcDbCircle
 62
7
  6
CONTINUOUS
 10
4.6915657476
 20
-2.1256865332
 40
7.3116145275
100
AcDbArc
 50
88.7000288854
 51
89.1115364568
  0
ARC
  5
268
100
AcDbEntity
  8
0
100
AcDbCircle
 62
7
  6
CONTINUOUS
 10
4.7369110652
 20
-0.3694263036
 40
5.5545391968
100
AcDbArc
 50
88.7546941816
 51
89.1472561526
  0
ARC
  5
269
100
AcDbEntity
  8
0
100
AcDbCircle
 62
7
  6
CONTINUOUS
 10
4.7618341545
 20
1.1493403557
 40
4.035570844
100
AcDbArc
 50
89.1801532543
 51
89.8043220871
  0
ARC
  5
26A
100
AcDbEntity
  8
0
100
AcDbCircle
 62
7
  6
CONTINUOUS
 10
4.919358517
 20
8.5123450294
 40
3.3304352826
100
AcDbArc
 50
268.6291703946
 51
268.9714215867
  0
ARC
  5
26B
100
AcDbEntity
  8
0
100
AcDbCircle
 62
7
  6
CONTINUOUS
 10
4.926636399
 20
7.7231610609
 40
2.5409951483
100
AcDbArc
 50
269.188481695
 51
269.3221514296
  0
ARC
  5
26C
100
AcDbEntity
  8
0
100
AcDbCircle
 62
7
  6
CONTINUOUS
 10
4.9221853501
 20
7.4923051039
 40
2.3099770203
100
AcDbArc
 50
268.9620431743
 51
269.1197025712
  0
ARC
  5
26D
100
AcDbEntity
  8
0
100
AcDbCircle
 62
6
  6
CONTINUOUS
 10
4.7921162415
 20
7.1474215019
 40
1.9641484537
100
AcDbArc
 50
266.683363799
 51
266.9898521543
  0
ARC
  5
26E
100
AcDbEntity
  8
0
100
AcDbCircle
 62
7
  6
CONTINUOUS
 10
4.7126205797
 20
6.9857424751
 40
1.8006764622
100
AcDbArc
 50
267.4854572989
 51
267.8196397752
  0
ARC
  5
26F
100
AcDbEntity
  8
0
100
AcDbCircle
 62
7
  6
CONTINUOUS
 10
4.9149109213
 20
6.7092816503
 40
1.5270478935
100
AcDbArc
 50
269.3282163673
 51
269.5938784268
  0
ARC
  5
270
100
AcDbEntity
  8
0
100
AcDbCircle
 62
6
  6
CONTINUOUS
 10
5.825330578
 20
3.7947190224
 40
1.5
100
AcDbArc
 50
250.9334198993
 51
289.0665801007
  0
ARC
  5
271
100
AcDbEntity
  8
0
100
AcDbCircle
 62
6
  6
CONTINUOUS
 10
5.825330578
 20
3.4770891011
 40
1.5
100
AcDbArc
 50
250.9334198993
 51
289.0665801007
  0
ARC
  5
272
100
AcDbEntity
  8
0
100
AcDbCircle
 62
7
  6
CONTINUOUS
 10
4.9087525685
 20
6.6650146973
 40
1.4828543464
100
AcDbArc
 50
268.6687881269
 51
269.2985621792
  0
ARC
  5
273
100
AcDbEntity
  8
0
100
AcDbCircle
 62
7
  6
CONTINUOUS
 10
4.8388008137
 20
6.4416337951
 40
1.259156419
100
AcDbArc
 50
268.9037897045
 51
269.3969172873
  0
ARC
  5
274
100
AcDbEntity
  8
0
100
AcDbCircle
 62
7
  6
CONTINUOUS
 10
4.8551859772
 20
4.0202623736
 40
1.1634574644
100
AcDbArc
 50
87.7485248746
 51
88.1746119651
  0
ARC
  5
275
100
AcDbEntity
  8
0
100
AcDbCircle
 62
7
  6
CONTINUOUS
 10
4.911379284
 20
6.2411508184
 40
1.0589038104
100
AcDbArc
 50
269.6054247009
 51
269.7193533287
  0
ARC
  5
276
100
AcDbEntity
  8
0
100
AcDbCircle
 62
6
  6
CONTINUOUS
 10
4.730330578
 20
2.7713148637
 40
0.751
100
AcDbArc
 50
24.1181733655
 51
59.7371069019
  0
ARC
  5
277
100
AcDbEntity
  8
0
100
AcDbCircle
 62
6
  6
CONTINUOUS
 10
4.7753184352
 20
3.0900096023
 40
0.751
100
AcDbArc
 50
23.2308920706
 51
53.8077823306
  0
ARC
  5
278
100
AcDbEntity
  8
0
100
AcDbCircle
 62
7
  6
CONTINUOUS
 10
4.8712435943
 20
5.9069387849
 40
0.7245867044
100
AcDbArc
 50
269.0771607505
 51
269.9341922743
  0
ARC
  5
279
100
AcDbEntity
  8
0
100
AcDbCircle
 62
7
  6
CONTINUOUS
 10
4.8979430221
 20
5.5035824108
 40
0.3210945583
100
AcDbArc
 50
269.7177104467
 51
269.8413554596
  0
ARC
  5
27A
100
AcDbEntity
  8
0
100
AcDbCircle
 62
6
  6
CONTINUOUS
 10
5.6262505109
 20
3.1653381326
 40
0.1224801095
100
AcDbArc
 50
345.2789662184
 51
356.4089414004
  0
ARC
  5
27B
100
AcDbEntity
  8
0
100
AcDbCircle
 62
6
  6
CONTINUOUS
 10
5.277830578
 20
3.7768010891
 40
0.1
100
AcDbArc
 50
180.0
 51
233.8077823306
  0
ARC
  5
27C
100
AcDbEntity
  8
0
100
AcDbCircle
 62
6
  6
CONTINUOUS
 10
5.098330578
 20
3.6072738887
 40
0.1
100
AcDbArc
 50
180.0
 51
231.425757077
  0
ARC
  5
27D
100
AcDbEntity
  8
0
100
AcDbCircle
 62
6
  6
CONTINUOUS
 10
5.1491282773
 20
3.4890679459
 40
0.08
100
AcDbArc
 50
192.094757077
 51
239.7371069019
  0
ARC
  5
27E
100
AcDbEntity
  8
0
100
AcDbCircle
 62
6
  6
CONTINUOUS
 10
5.475330578
 20
3.1193623784
 40
0.0749826974
100
AcDbArc
 50
236.128659452
 51
270.0
  0
ARC
  5
27F
100
AcDbEntity
  8
0
100
AcDbCircle
 62
6
  6
CONTINUOUS
 10
5.0092509092
 20
3.4736640144
 40
0.06
100
AcDbArc
 50
12.094757077
 51
51.425757077
  0
ARC
  5
280
100
AcDbEntity
  8
0
100
AcDbCircle
 62
6
  6
CONTINUOUS
 10
5.4614069746
 20
3.0986194654
 40
0.05
100
AcDbArc
 50
204.1181733656
 51
236.1286594521
  0
ARC
  5
281
100
AcDbEntity
  8
0
100
AcDbCircle
 62
6
  6
CONTINUOUS
 10
5.5021863737
 20
3.4020096023
 40
0.04
100
AcDbArc
 50
203.2308920706
 51
270.0
  0
ARC
  5
282
100
AcDbEntity
  8
0
100
AcDbCircle
 62
7
  6
CONTINUOUS
 10
4.6864579459
 20
10.513291451
 40
5.326800843
100
AcDbArc
 50
270.3129485675
 51
270.5727537071
  0
ARC
  5
283
100
AcDbEntity
  8
0
100
AcDbCircle
 62
7
  6
CONTINUOUS
 10
4.7109758786
 20
10.3956693296
 40
5.2097412796
100
AcDbArc
 50
270.327021817
 51
270.5418575613
  0
ARC
  5
284
100
AcDbEntity
  8
0
100
AcDbCircle
 62
7
  6
CONTINUOUS
 10
4.9578561057
 20
9.7806108565
 40
4.5986822941
100
AcDbArc
 50
268.9625716248
 51
269.112794428
  0
ARC
  5
285
100
AcDbEntity
  8
0
100
AcDbCircle
 62
7
  6
CONTINUOUS
 10
4.8757730534
 20
9.7629194311
 40
4.5807343502
100
AcDbArc
 50
269.236200032
 51
269.3717538282
  0
ARC
  5
286
100
AcDbEntity
  8
0
100
AcDbCircle
 62
7
  6
CONTINUOUS
 10
4.8740964461
 20
9.5716359209
 40
4.389442992
100
AcDbArc
 50
269.7153053162
 51
269.9518956867
  0
ARC
  5
287
100
AcDbEntity
  8
0
100
AcDbCircle
 62
7
  6
CONTINUOUS
 10
6.9444876468
 20
-2.1588913079
 40
7.3439037957
100
AcDbArc
 50
90.7211106536
 51
90.9282722909
  0
ARC
  5
288
100
AcDbEntity
  8
0
100
AcDbCircle
 62
7
  6
CONTINUOUS
 10
6.9358194834
 20
-0.9610757124
 40
6.1459449899
100
AcDbArc
 50
90.7810329554
 51
91.0280532713
  0
ARC
  5
289
100
AcDbEntity
  8
0
100
AcDbCircle
 62
7
  6
CONTINUOUS
 10
7.0185604752
 20
-0.1390479883
 40
5.3261275273
100
AcDbArc
 50
90.8988908723
 51
91.2932463389
  0
ARC
  5
28A
100
AcDbEntity
  8
0
100
AcDbCircle
 62
7
  6
CONTINUOUS
 10
6.9119418353
 20
-0.0017620219
 40
5.1865310554
100
AcDbArc
 50
90.9548455129
 51
91.2904599274
  0
ARC
  5
28B
100
AcDbEntity
  8
0
100
AcDbCircle
 62
7
  6
CONTINUOUS
 10
6.9175576179
 20
0.0723736904
 40
5.1123342956
100
AcDbArc
 50
91.0312268976
 51
91.2828242137
  0
ARC
  5
28C
100
AcDbEntity
  8
0
100
AcDbCircle
 62
7
  6
CONTINUOUS
 10
6.880180485
 20
1.3535904857
 40
3.8308075397
100
AcDbArc
 50
91.2720696664
 51
91.5254547219
  0
ARC
  5
28D
100
AcDbEntity
  8
0
100
AcDbCircle
 62
7
  6
CONTINUOUS
 10
6.9815483789
 20
8.8730152033
 40
3.6865235398
100
AcDbArc
 50
270.1044901159
 51
270.4188239112
  0
ARC
  5
28E
100
AcDbEntity
  8
0
100
AcDbCircle
 62
7
  6
CONTINUOUS
 10
6.9782251844
 20
1.5534740479
 40
3.6331267922
100
AcDbArc
 50
91.2597239272
 51
91.5887887128
  0
ARC
  5
28F
100
AcDbEntity
  8
0
100
AcDbCircle
 62
7
  6
CONTINUOUS
 10
6.9566711242
 20
8.7915664754
 40
3.6056374073
100
AcDbArc
 50
270.1155518594
 51
270.3754711223
  0
ARC
  5
290
100
AcDbEntity
  8
0
100
AcDbCircle
 62
7
  6
CONTINUOUS
 10
6.763082786
 20
8.5682243052
 40
3.3861534693
100
AcDbArc
 50
270.9154191242
 51
271.1212767427
  0
ARC
  5
291
100
AcDbEntity
  8
0
100
AcDbCircle
 62
7
  6
CONTINUOUS
 10
6.9831408801
 20
2.1179435923
 40
3.0687124625
100
AcDbArc
 50
90.898345475
 51
91.2958235725
  0
ARC
  5
292
100
AcDbEntity
  8
0
100
AcDbCircle
 62
7
  6
CONTINUOUS
 10
6.8129250332
 20
8.2380354834
 40
3.0549527617
100
AcDbArc
 50
271.3884500782
 51
271.6663306476
  0
ARC
  5
293
100
AcDbEntity
  8
0
100
AcDbCircle
 62
7
  6
CONTINUOUS
 10
6.7662578919
 20
7.9194812989
 40
2.737512172
100
AcDbArc
 50
270.7436076868
 51
270.9538852155
  0
ARC
  5
294
100
AcDbEntity
  8
0
100
AcDbCircle
 62
7
  6
CONTINUOUS
 10
6.7465920552
 20
7.637411499
 40
2.455291485
100
AcDbArc
 50
270.6454871678
 51
270.9707461933
  0
ARC
  5
295
100
AcDbEntity
  8
0
100
AcDbCircle
 62
7
  6
CONTINUOUS
 10
6.964904365
 20
2.8870585102
 40
2.2993818205
100
AcDbArc
 50
91.2749241069
 51
91.6677126468
  0
ARC
  5
296
100
AcDbEntity
  8
0
100
AcDbCircle
 62
7
  6
CONTINUOUS
 10
6.8500590085
 20
3.0562036211
 40
2.1268793254
100
AcDbArc
 50
91.0394734947
 51
91.2966410107
  0
ARC
  5
297
100
AcDbEntity
  8
0
100
AcDbCircle
 62
7
  6
CONTINUOUS
 10
6.7747467267
 20
7.0313815833
 40
1.8486999494
100
AcDbArc
 50
271.8971073142
 51
272.3963021267
  0
ARC
  5
298
100
AcDbEntity
  8
0
100
AcDbCircle
 62
7
  6
CONTINUOUS
 10
6.8147367864
 20
6.6549910849
 40
1.4716063629
100
AcDbArc
 50
271.5257365749
 51
272.3788796486
  0
ARC
  5
299
100
AcDbEntity
  8
0
100
AcDbCircle
 62
7
  6
CONTINUOUS
 10
6.9374184663
 20
3.8194828827
 40
1.3665520892
100
AcDbArc
 50
91.6535437278
 51
92.3915250773
  0
ARC
  5
29A
100
AcDbEntity
  8
0
100
AcDbCircle
 62
6
  6
CONTINUOUS
 10
6.920330578
 20
2.7713148637
 40
0.751
100
AcDbArc
 50
120.2628930981
 51
155.8818266345
  0
ARC
  5
29B
100
AcDbEntity
  8
0
100
AcDbCircle
 62
6
  6
CONTINUOUS
 10
6.8753427207
 20
3.0900096023
 40
0.751
100
AcDbArc
 50
126.1922176694
 51
156.7691079294
  0
ARC
  5
29C
100
AcDbEntity
  8
0
100
AcDbCircle
 62
7
  6
CONTINUOUS
 10
6.8115411963
 20
5.3198493961
 40
0.137407243
100
AcDbArc
 50
270.1926699067
 51
270.3720874385
  0
ARC
  5
29D
100
AcDbEntity
  8
0
100
AcDbCircle
 62
6
  6
CONTINUOUS
 10
6.0244106451
 20
3.1653381326
 40
0.1224801095
100
AcDbArc
 50
183.5910585974
 51
194.7210337794
  0
ARC
  5
29E
100
AcDbEntity
  8
0
100
AcDbCircle
 62
6
  6
CONTINUOUS
 10
6.372830578
 20
3.7768010891
 40
0.1
100
AcDbArc
 50
306.1922176694
 51
360.0
  0
ARC
  5
29F
100
AcDbEntity
  8
0
100
AcDbCircle
 62
6
  6
CONTINUOUS
 10
6.552330578
 20
3.6072738887
 40
0.1
100
AcDbArc
 50
308.5742429229
 51
360.0
  0
ARC
  5
2A0
100
AcDbEntity
  8
0
100
AcDbCircle
 62
7
  6
CONTINUOUS
 10
5.9518079959
 20
3.1618946748
 40
0.090216615
100
AcDbArc
 50
346.0407635915
 51
356.8960152461
  0
ARC
  5
2A1
100
AcDbEntity
  8
0
100
AcDbCircle
 62
6
  6
CONTINUOUS
 10
6.5015328786
 20
3.4890679459
 40
0.08
100
AcDbArc
 50
300.2628930981
 51
347.905242923
  0
ARC
  5
2A2
100
AcDbEntity
  8
0
100
AcDbCircle
 62
6
  6
CONTINUOUS
 10
6.175330578
 20
3.1193623784
 40
0.0749826974
100
AcDbArc
 50
270.0
 51
303.871340548
  0
ARC
  5
2A3
100
AcDbEntity
  8
0
100
AcDbCircle
 62
6
  6
CONTINUOUS
 10
6.6414102468
 20
3.4736640144
 40
0.06
100
AcDbArc
 50
128.574242923
 51
167.905242923
  0
ARC
  5
2A4
100
AcDbEntity
  8
0
100
AcDbCircle
 62
6
  6
CONTINUOUS
 10
6.1892541814
 20
3.0986194654
 40
0.05
100
AcDbArc
 50
303.871340548
 51
335.8818266345
  0
ARC
  5
2A5
100
AcDbEntity
  8
0
100
AcDbCircle
 62
6
  6
CONTINUOUS
 10
6.1484747823
 20
3.4020096023
 40
0.04
100
AcDbArc
 50
270.0
 51
336.7691079294
  0
ARC
  5
2A6
100
AcDbEntity
  8
0
100
AcDbCircle
 62
7
  6
CONTINUOUS
 10
6.5390690542
 20
20.3769133288
 40
15.1970243948
100
AcDbArc
 50
271.1039780678
 51
271.2368136568
  0
ARC
  5
2A7
100
AcDbEntity
  8
0
100
AcDbCircle
 62
7
  6
CONTINUOUS
 10
6.6022011629
 20
16.8640846355
 40
11.6835746062
100
AcDbArc
 50
271.1270690089
 51
271.2991246138
  0
ARC
  5
2A8
100
AcDbEntity
  8
0
100
AcDbCircle
 62
7
  6
CONTINUOUS
 10
6.6732255584
 20
13.8629160881
 40
8.6815677691
100
AcDbArc
 50
271.279566599
 51
271.4106509846
  0
ARC
  5
2A9
100
AcDbEntity
  8
0
100
AcDbCircle
 62
7
  6
CONTINUOUS
 10
6.7497604119
 20
11.8148062772
 40
6.6323413516
100
AcDbArc
 50
271.314043975
 51
271.5524447326
  0
ARC
  5
2AA
100
AcDbEntity
  8
0
100
AcDbCircle
 62
7
  6
CONTINUOUS
 10
6.7937642486
 20
11.32745075
 40
6.1432168881
100
AcDbArc
 50
270.8080051082
 51
271.0568002347
  0
ARC
  5
2AB
100
AcDbEntity
  8
0
100
AcDbCircle
 62
7
  6
CONTINUOUS
 10
6.6888028305
 20
11.1542998881
 40
5.9726547914
100
AcDbArc
 50
270.9578568877
 51
271.1880032196
  0
ARC
  5
2AC
100
AcDbEntity
  8
0
100
AcDbCircle
 62
7
  6
CONTINUOUS
 10
6.7929843757
 20
11.1512890984
 40
5.9671005462
100
AcDbArc
 50
271.0954845107
 51
271.2967377408
  0
ARC
  5
2AD
100
AcDbEntity
  8
0
100
AcDbCircle
 62
7
  6
CONTINUOUS
 10
6.7980810082
 20
11.1325285454
 40
5.9483903345
100
AcDbArc
 50
271.0481056852
 51
271.2525765021
  0
ARC
  5
2AE
100
AcDbEntity
  8
0
100
AcDbCircle
 62
7
  6
CONTINUOUS
 10
6.8089652508
 20
10.5173395067
 40
5.3331050768
100
AcDbArc
 50
270.7648934428
 51
271.0520865457
  0
ARC
  5
2AF
100
AcDbEntity
  8
0
100
AcDbCircle
 62
7
  6
CONTINUOUS
 10
6.7221589988
 20
9.9846969066
 40
4.8025986824
100
AcDbArc
 50
271.360401842
 51
271.5721244612
  0
ARC
  5
2B0
100
AcDbEntity
  8
0
100
AcDbCircle
 62
7
  6
CONTINUOUS
 10
6.8353922515
 20
9.5350173424
 40
4.3504442473
100
AcDbArc
 50
271.2815309604
 51
271.4671648706
  0
ARC
  5
2B1
100
AcDbEntity
  8
0
100
AcDbCircle
 62
7
  6
CONTINUOUS
 10
6.7199551826
 20
9.2053735378
 40
4.0233649833
100
AcDbArc
 50
270.9777364728
 51
271.3200300062
  0
LINE
  5
2B2
100
AcDbEntity
  8
0
100
AcDbLine
 62
7
  6
CONTINUOUS
 10
6.8520615117
 20
5.1844308538
 11
6.8570879819
 21
5.1844940912
  0
LINE
  5
2B3
100
AcDbEntity
  8
0
100
AcDbLine
 62
7
  6
CONTINUOUS
 10
6.7655497465
 20
5.1826386349
 11
6.778200326
 21
5.1830401206
  0
SPLINE
  5
2B4
100
AcDbEntity
  8
0
100
AcDbSpline
 62
7
  6
CONTINUOUS
 70
0
 71
3
 72
54
 73
50
 74
0
 42
0.0000001
 43
0.0000001
 44
0.0000000001
 40
0.0
 40
0.0
 40
0.0
 40
0.0
 40
0.0443300088
 40
0.0858499301
 40
0.124471518
 40
0.1601066105
 40
0.1926671663
 40
0.2220653229
 40
0.2482134963
 40
0.2600416141
 40
0.2710246217
 40
0.281151759
 40
0.2904123577
 40
0.2987958824
 40
0.3062919973
 40
0.3128906797
 40
0.3185825376
 40
0.3233615124
 40
0.3272256771
 40
0.3288153185
 40
0.3301777674
 40
0.331315152
 40
0.3322317537
 40
0.3329366531
 40
0.3334513295
 40
0.3338324635
 40
0.3342053963
 40
0.3347028138
 40
0.3353893905
 40
0.3362905351
 40
0.337417718
 40
0.3387771023
 40
0.3403725075
 40
0.3442810631
 40
0.3491586441
 40
0.355015689
 40
0.3618607808
 40
0.3697015636
 40
0.3883981995
 40
0.4111596256
 40
0.4380372294
 40
0.4690784532
 40
0.5042791926
 40
0.5435907586
 40
0.5869627431
 40
0.6343445759
 40
0.7409349375
 40
0.8629557091
 40
1.0
 40
1.0
 40
1.0
 40
1.0
 10
6.7629299174
 20
5.1822306303
 30
0.0
 10
6.7628130559
 20
5.1822315997
 30
0.0
 10
6.7625867424
 20
5.1822336924
 30
0.0
 10
6.7622586243
 20
5.1822374724
 30
0.0
 10
6.7619534371
 20
5.1822418015
 30
0.0
 10
6.7616718807
 20
5.1822466881
 30
0.0
 10
6.7614146548
 20
5.182252139
 30
0.0
 10
6.7611824591
 20
5.1822581618
 30
0.0
 10
6.7610049312
 20
5.1822638304
 30
0.0
 10
6.7608759548
 20
5.1822687424
 30
0.0
 10
6.7607891998
 20
5.1822724528
 30
0.0
 10
6.7607092273
 20
5.1822763138
 30
0.0
 10
6.7606361243
 20
5.1822803259
 30
0.0
 10
6.7605699781
 20
5.1822844888
 30
0.0
 10
6.7605108751
 20
5.1822888012
 30
0.0
 10
6.7604589017
 20
5.1822932612
 30
0.0
 10
6.7604141345
 20
5.1822978626
 30
0.0
 10
6.760376639
 20
5.1823026038
 30
0.0
 10
6.7603499924
 20
5.1823068758
 30
0.0
 10
6.7603323877
 20
5.1823104922
 30
0.0
 10
6.7603219124
 20
5.1823130567
 30
0.0
 10
6.7603132829
 20
5.1823156523
 30
0.0
 10
6.7603064824
 20
5.182318264
 30
0.0
 10
6.760301498
 20
5.1823209264
 30
0.0
 10
6.7602981941
 20
5.1823236237
 30
0.0
 10
6.7602966755
 20
5.1823268624
 30
0.0
 10
6.7602977897
 20
5.1823302232
 30
0.0
 10
6.7603008287
 20
5.1823330813
 30
0.0
 10
6.7603055346
 20
5.1823359502
 30
0.0
 10
6.7603120958
 20
5.1823388482
 30
0.0
 10
6.7603205261
 20
5.1823418087
 30
0.0
 10
6.760330862
 20
5.1823448195
 30
0.0
 10
6.7603484198
 20
5.1823492021
 30
0.0
 10
6.7603752564
 20
5.1823546296
 30
0.0
 10
6.7604133348
 20
5.1823609938
 30
0.0
 10
6.7604592181
 20
5.1823675436
 30
0.0
 10
6.7605129561
 20
5.1823742776
 30
0.0
 10
6.7606004162
 20
5.1823840736
 30
0.0
 10
6.7607297931
 20
5.1823964934
 30
0.0
 10
6.7609093302
 20
5.1824113822
 30
0.0
 10
6.7611214558
 20
5.1824269619
 30
0.0
 10
6.7613664061
 20
5.1824432157
 30
0.0
 10
6.7616441595
 20
5.1824601294
 30
0.0
 10
6.7619544375
 20
5.182477691
 30
0.0
 10
6.7622968419
 20
5.1824958788
 30
0.0
 10
6.7628164385
 20
5.1825219754
 30
0.0
 10
6.763543246
 20
5.1825557588
 30
0.0
 10
6.7645063233
 20
5.1825971172
 30
0.0
 10
6.7651887375
 20
5.182624522
 30
0.0
 10
6.7655497465
 20
5.1826386349
 30
0.0
  0
LINE
  5
2B5
100
AcDbEntity
  8
0
100
AcDbLine
 62
7
  6
CONTINUOUS
 10
6.7886475677
 20
5.1824797062
 11
6.7881893791
 21
5.1824721308
  0
LINE
  5
2B6
100
AcDbEntity
  8
0
100
AcDbLine
 62
7
  6
CONTINUOUS
 10
6.7742524777
 20
5.1822760556
 11
6.7629299174
 21
5.1822306303
  0
LINE
  5
2B7
100
AcDbEntity
  8
0
100
AcDbLine
 62
7
  6
CONTINUOUS
 10
6.827755785
 20
5.1832560803
 11
6.8126343722
 21
5.1829289395
  0
LINE
  5
2B8
100
AcDbEntity
  8
0
100
AcDbLine
 62
7
  6
CONTINUOUS
 10
6.836178745
 20
5.1834519012
 11
6.827755785
 21
5.1832560803
  0
LINE
  5
2B9
100
AcDbEntity
  8
0
100
AcDbLine
 62
7
  6
CONTINUOUS
 10
6.9326902405
 20
5.1856612843
 11
6.9281118856
 21
5.185559608
  0
LINE
  5
2BA
100
AcDbEntity
  8
0
100
AcDbLine
 62
7
  6
CONTINUOUS
 10
6.8801596028
 20
5.1847097107
 11
6.8758192283
 21
5.184654042
  0
LINE
  5
2BB
100
AcDbEntity
  8
0
100
AcDbLine
 62
7
  6
CONTINUOUS
 10
6.9581574101
 20
5.1863347252
 11
6.9467812807
 21
5.1859994655
  0
SPLINE
  5
2BC
100
AcDbEntity
  8
0
100
AcDbSpline
 62
7
  6
CONTINUOUS
 70
0
 71
3
 72
58
 73
54
 74
0
 42
0.0000001
 43
0.0000001
 44
0.0000000001
 40
0.0
 40
0.0
 40
0.0
 40
0.0
 40
0.0913015636
 40
0.1334646776
 40
0.1731666547
 40
0.2103055365
 40
0.2447794283
 40
0.2764865256
 40
0.3053251559
 40
0.3311938489
 40
0.3539914581
 40
0.3642071714
 40
0.3736174667
 40
0.3822098869
 40
0.3899704159
 40
0.3968832375
 40
0.4029327437
 40
0.4081038847
 40
0.4123826585
 40
0.4141836931
 40
0.4157575763
 40
0.4171037625
 40
0.4182226755
 40
0.4191167092
 40
0.4197928554
 40
0.4200550486
 40
0.4202727505
 40
0.4206141673
 40
0.420966506
 40
0.4214708789
 40
0.4221853086
 40
0.4231315214
 40
0.4243199092
 40
0.4257567202
 40
0.4274463943
 40
0.4293924697
 40
0.4340655508
 40
0.4397975716
 40
0.4466077243
 40
0.4545141933
 40
0.4635346229
 40
0.4736863424
 40
0.4849864852
 40
0.4974519191
 40
0.5259186311
 40
0.5591316129
 40
0.5971270749
 40
0.6399408941
 40
0.6876087455
 40
0.7401661748
 40
0.7976486407
 40
0.8600915414
 40
1.0
 40
1.0
 40
1.0
 40
1.0
 10
6.9592778594
 20
5.1866469972
 30
0.0
 10
6.959493557
 20
5.1866455191
 30
0.0
 10
6.9598088619
 20
5.1866429928
 30
0.0
 10
6.9602179509
 20
5.1866386876
 30
0.0
 10
6.9604990799
 20
5.1866351892
 30
0.0
 10
6.9607620362
 20
5.1866313233
 30
0.0
 10
6.961006096
 20
5.1866270774
 30
0.0
 10
6.9612305353
 20
5.1866224399
 30
0.0
 10
6.9614346305
 20
5.1866174011
 30
0.0
 10
6.961617658
 20
5.1866119503
 30
0.0
 10
6.9617566783
 20
5.1866068953
 30
0.0
 10
6.9618568117
 20
5.1866025534
 30
0.0
 10
6.9619233998
 20
5.1865993048
 30
0.0
 10
6.9619841739
 20
5.186595944
 30
0.0
 10
6.9620390309
 20
5.1865924707
 30
0.0
 10
6.9620878587
 20
5.1865888847
 30
0.0
 10
6.9621305417
 20
5.1865851891
 30
0.0
 10
6.9621669633
 20
5.1865813847
 30
0.0
 10
6.9621933293
 20
5.1865779705
 30
0.0
 10
6.962211183
 20
5.1865750968
 30
0.0
 10
6.9622221473
 20
5.18657304
 30
0.0
 10
6.9622314615
 20
5.1865709577
 30
0.0
 10
6.9622391205
 20
5.1865688563
 30
0.0
 10
6.9622451119
 20
5.1865667314
 30
0.0
 10
6.9622490268
 20
5.186564831
 30
0.0
 10
6.962251236
 20
5.1865632017
 30
0.0
 10
6.9622525979
 20
5.1865618267
 30
0.0
 10
6.9622535194
 20
5.18655965
 30
0.0
 10
6.9622521442
 20
5.1865569042
 30
0.0
 10
6.9622491614
 20
5.1865546524
 30
0.0
 10
6.9622445925
 20
5.1865523143
 30
0.0
 10
6.9622382778
 20
5.1865499602
 30
0.0
 10
6.9622301903
 20
5.1865475421
 30
0.0
 10
6.9622202945
 20
5.186545083
 30
0.0
 10
6.9622085734
 20
5.1865425788
 30
0.0
 10
6.9621892781
 20
5.1865389616
 30
0.0
 10
6.9621604434
 20
5.1865344494
 30
0.0
 10
6.9621201185
 20
5.1865291342
 30
0.0
 10
6.9620721178
 20
5.1865236546
 30
0.0
 10
6.9620163219
 20
5.1865180107
 30
0.0
 10
6.9619526109
 20
5.1865122056
 30
0.0
 10
6.9618808663
 20
5.1865062393
 30
0.0
 10
6.9618009698
 20
5.1865001109
 30
0.0
 10
6.9616778818
 20
5.1864913307
 30
0.0
 10
6.961503072
 20
5.1864800707
 30
0.0
 10
6.9612679813
 20
5.1864664209
 30
0.0
 10
6.9609989793
 20
5.1864521179
 30
0.0
 10
6.960695816
 20
5.1864371675
 30
0.0
 10
6.9603582412
 20
5.186421577
 30
0.0
 10
6.9599860049
 20
5.1864053515
 30
0.0
 10
6.9595788575
 20
5.1863884954
 30
0.0
 10
6.9589654708
 20
5.1863642532
 30
0.0
 10
6.9584877358
 20
5.1863465713
 30
0.0
 10
6.9581574101
 20
5.1863347252
 30
0.0
  0
LINE
  5
2BD
100
AcDbEntity
  8
0
100
AcDbLine
 62
7
  6
CONTINUOUS
 10
6.9350043897
 20
5.1864241183
 11
6.9353261246
 21
5.1864291248
  0
LINE
  5
2BE
100
AcDbEntity
  8
0
100
AcDbLine
 62
7
  6
CONTINUOUS
 10
6.9353261246
 20
5.1864291248
 11
6.9592778594
 21
5.1866469972
  0
LINE
  5
2BF
100
AcDbEntity
  8
0
100
AcDbLine
 62
7
  6
CONTINUOUS
 10
6.8570879819
 20
5.1844940912
 11
6.8774929726
 21
5.1852037869
  0
SPLINE
  5
2C0
100
AcDbEntity
  8
0
100
AcDbSpline
 62
7
  6
CONTINUOUS
 70
0
 71
3
 72
60
 73
56
 74
0
 42
0.0000001
 43
0.0000001
 44
0.0000000001
 40
0.0
 40
0.0
 40
0.0
 40
0.0
 40
0.1052177729
 40
0.199402844
 40
0.2833552142
 40
0.3578749033
 40
0.4237619512
 40
0.4818004112
 40
0.5326062958
 40
0.5766952438
 40
0.6145816725
 40
0.6467801796
 40
0.6738056193
 40
0.6855386143
 40
0.6961531434
 40
0.7056807971
 40
0.7141527091
 40
0.7216001717
 40
0.7280547203
 40
0.733548284
 40
0.7381134704
 40
0.7417841658
 40
0.743295492
 40
0.7445973659
 40
0.7456955004
 40
0.746596791
 40
0.747310505
 40
0.7478512557
 40
0.7482472453
 40
0.748409857
 40
0.7485638734
 40
0.7488982496
 40
0.749338414
 40
0.7499222056
 40
0.7506644266
 40
0.7515709292
 40
0.7526438524
 40
0.7538835926
 40
0.7552896367
 40
0.7585960587
 40
0.7625519589
 40
0.7671435713
 40
0.7723560097
 40
0.7781737809
 40
0.7845810338
 40
0.7915616933
 40
0.799099537
 40
0.8071782415
 40
0.8248926077
 40
0.8445878487
 40
0.8661829242
 40
0.8896020925
 40
0.9147694461
 40
0.9416089642
 40
1.0
 40
1.0
 40
1.0
 40
1.0
 10
6.9017595584
 20
5.1843748733
 30
0.0
 10
6.9021044746
 20
5.1843851632
 30
0.0
 10
6.9027581294
 20
5.1844050385
 30
0.0
 10
6.9036869452
 20
5.1844345729
 30
0.0
 10
6.9045150919
 20
5.1844622341
 30
0.0
 10
6.9052504383
 20
5.1844881557
 30
0.0
 10
6.9059008004
 20
5.1845124744
 30
0.0
 10
6.9064733916
 20
5.1845352886
 30
0.0
 10
6.9069744908
 20
5.1845567166
 30
0.0
 10
6.9074094912
 20
5.1845768768
 30
0.0
 10
6.9077834528
 20
5.1845958676
 30
0.0
 10
6.9081014307
 20
5.1846137912
 30
0.0
 10
6.908333675
 20
5.1846285321
 30
0.0
 10
6.9084951941
 20
5.1846399622
 30
0.0
 10
6.9085994292
 20
5.1846479094
 30
0.0
 10
6.9086929521
 20
5.1846556525
 30
0.0
 10
6.908776067
 20
5.1846631965
 30
0.0
 10
6.9088490766
 20
5.1846705452
 30
0.0
 10
6.9089122838
 20
5.1846777022
 30
0.0
 10
6.9089659944
 20
5.1846846665
 30
0.0
 10
6.9090105121
 20
5.1846914422
 30
0.0
 10
6.909041961
 20
5.1846972293
 30
0.0
 10
6.9090627104
 20
5.1847018941
 30
0.0
 10
6.9090751293
 20
5.1847051171
 30
0.0
 10
6.909085485
 20
5.1847082943
 30
0.0
 10
6.9090938221
 20
5.1847114199
 30
0.0
 10
6.909100205
 20
5.1847145063
 30
0.0
 10
6.9091047045
 20
5.1847175404
 30
0.0
 10
6.9091071433
 20
5.1847203349
 30
0.0
 10
6.9091078995
 20
5.1847225794
 30
0.0
 10
6.9091079348
 20
5.1847247528
 30
0.0
 10
6.9091064798
 20
5.1847275988
 30
0.0
 10
6.9091030635
 20
5.1847305242
 30
0.0
 10
6.9090980178
 20
5.1847334087
 30
0.0
 10
6.9090912603
 20
5.1847362558
 30
0.0
 10
6.9090827909
 20
5.1847390905
 30
0.0
 10
6.9090726113
 20
5.1847419034
 30
0.0
 10
6.9090607371
 20
5.1847446951
 30
0.0
 10
6.9090416084
 20
5.1847485988
 30
0.0
 10
6.9090135616
 20
5.1847532893
 30
0.0
 10
6.9089750448
 20
5.1847585825
 30
0.0
 10
6.9089302162
 20
5.1847637854
 30
0.0
 10
6.9088792375
 20
5.1847688979
 30
0.0
 10
6.9088222697
 20
5.1847739173
 30
0.0
 10
6.9087594754
 20
5.1847788448
 30
0.0
 10
6.9086910179
 20
5.1847836815
 30
0.0
 10
6.9086170605
 20
5.1847884298
 30
0.0
 10
6.9085079372
 20
5.1847948444
 30
0.0
 10
6.9083589526
 20
5.1848025582
 30
0.0
 10
6.9081656375
 20
5.1848112698
 30
0.0
 10
6.9079535842
 20
5.1848196925
 30
0.0
 10
6.9077235621
 20
5.1848278402
 30
0.0
 10
6.9074763219
 20
5.1848357255
 30
0.0
 10
6.9071144149
 20
5.1848462036
 30
0.0
 10
6.9068349823
 20
5.1848532407
 30
0.0
 10
6.9066435375
 20
5.1848577444
 30
0.0
  0
LINE
  5
2C1
100
AcDbEntity
  8
0
100
AcDbLine
 62
7
  6
CONTINUOUS
 10
6.8124335334
 20
5.1824450506
 11
6.8171813183
 21
5.1825032207
  0
LINE
  5
2C2
100
AcDbEntity
  8
0
100
AcDbLine
 62
7
  6
CONTINUOUS
 10
6.8293454856
 20
5.1827190167
 11
6.8320146944
 21
5.1827706165
  0
LINE
  5
2C3
100
AcDbEntity
  8
0
100
AcDbLine
 62
7
  6
CONTINUOUS
 10
6.8126318198
 20
5.1825464188
 11
6.8109284147
 21
5.18245545
  0
LINE
  5
2C4
100
AcDbEntity
  8
0
100
AcDbLine
 62
7
  6
CONTINUOUS
 10
6.8173694093
 20
5.1827249951
 11
6.8126318198
 21
5.1825464188
  0
SPLINE
  5
2C5
100
AcDbEntity
  8
0
100
AcDbSpline
 62
7
  6
CONTINUOUS
 70
0
 71
3
 72
48
 73
44
 74
0
 42
0.0000001
 43
0.0000001
 44
0.0000000001
 40
0.0
 40
0.0
 40
0.0
 40
0.0
 40
0.0558817625
 40
0.106004324
 40
0.1505192818
 40
0.1895783729
 40
0.2233335513
 40
0.2519371272
 40
0.2643548631
 40
0.2755421388
 40
0.285518273
 40
0.2943027417
 40
0.3019152694
 40
0.3083759961
 40
0.3137058119
 40
0.3179271127
 40
0.3210658106
 40
0.3222402015
 40
0.3231599036
 40
0.323837303
 40
0.3243004267
 40
0.32463052
 40
0.3250028189
 40
0.3255503171
 40
0.3263176334
 40
0.3273186675
 40
0.3285580529
 40
0.3300369931
 40
0.3317551715
 40
0.3359043052
 40
0.3409928305
 40
0.34700489
 40
0.3539233551
 40
0.3617308598
 40
0.379956443
 40
0.4015750328
 40
0.4545628636
 40
0.5198323913
 40
0.5965163033
 40
0.6837453809
 40
0.7806494897
 40
0.8863580019
 40
1.0
 40
1.0
 40
1.0
 40
1.0
 10
6.818050385
 20
5.1828178824
 30
0.0
 10
6.8180866528
 20
5.1828178704
 30
0.0
 10
6.8181554505
 20
5.1828177743
 30
0.0
 10
6.8182531382
 20
5.1828173759
 30
0.0
 10
6.8183399063
 20
5.1828167395
 30
0.0
 10
6.8184160494
 20
5.1828158739
 30
0.0
 10
6.8184818618
 20
5.1828147876
 30
0.0
 10
6.81853038
 20
5.1828136618
 30
0.0
 10
6.8185642482
 20
5.1828126278
 30
0.0
 10
6.8185860285
 20
5.1828118387
 30
0.0
 10
6.8186054471
 20
5.1828110004
 30
0.0
 10
6.8186225407
 20
5.1828101145
 30
0.0
 10
6.8186373468
 20
5.1828091829
 30
0.0
 10
6.818649902
 20
5.1828082073
 30
0.0
 10
6.8186602461
 20
5.1828071937
 30
0.0
 10
6.8186684142
 20
5.1828061412
 30
0.0
 10
6.8186738768
 20
5.1828051819
 30
0.0
 10
6.8186771665
 20
5.1828043395
 30
0.0
 10
6.8186788787
 20
5.1828037676
 30
0.0
 10
6.8186800772
 20
5.1828031815
 30
0.0
 10
6.818680861
 20
5.1828025898
 30
0.0
 10
6.8186810984
 20
5.1828017893
 30
0.0
 10
6.8186805948
 20
5.1828010664
 30
0.0
 10
6.8186796918
 20
5.182800457
 30
0.0
 10
6.8186783229
 20
5.1827998151
 30
0.0
 10
6.8186764814
 20
5.1827991679
 30
0.0
 10
6.8186741593
 20
5.1827985027
 30
0.0
 10
6.8186713602
 20
5.1827978262
 30
0.0
 10
6.8186666938
 20
5.1827968454
 30
0.0
 10
6.8186596867
 20
5.1827956272
 30
0.0
 10
6.8186498932
 20
5.1827941939
 30
0.0
 10
6.8186382915
 20
5.1827927192
 30
0.0
 10
6.8186249175
 20
5.1827912047
 30
0.0
 10
6.8186036431
 20
5.1827890214
 30
0.0
 10
6.8185728397
 20
5.1827862542
 30
0.0
 10
6.818512778
 20
5.182781502
 30
0.0
 10
6.8184221991
 20
5.1827754133
 30
0.0
 10
6.8182958984
 20
5.1827679821
 30
0.0
 10
6.8181473657
 20
5.182760091
 30
0.0
 10
6.817978297
 20
5.1827517796
 30
0.0
 10
6.8177903876
 20
5.1827430937
 30
0.0
 10
6.8175853338
 20
5.1827340719
 30
0.0
 10
6.8174431002
 20
5.1827280606
 30
0.0
 10
6.8173694093
 20
5.1827249951
 30
0.0
  0
LINE
  5
2C6
100
AcDbEntity
  8
0
100
AcDbLine
 62
7
  6
CONTINUOUS
 10
6.8114747807
 20
5.1827329348
 11
6.818050385
 21
5.1828178824
  0
LINE
  5
2C7
100
AcDbEntity
  8
0
100
AcDbLine
 62
7
  6
CONTINUOUS
 10
6.7912489399
 20
5.182234005
 11
6.801930445
 21
5.1825383327
  0
LINE
  5
2C8
100
AcDbEntity
  8
0
100
AcDbLine
 62
7
  6
CONTINUOUS
 10
6.7935850997
 20
5.1821288901
 11
6.7905954327
 21
5.1821852171
  0
LINE
  5
2C9
100
AcDbEntity
  8
0
100
AcDbLine
 62
7
  6
CONTINUOUS
 10
6.829463703
 20
5.18266397
 11
6.8170007492
 21
5.1824361278
  0
LINE
  5
2CA
100
AcDbEntity
  8
0
100
AcDbLine
 62
7
  6
CONTINUOUS
 10
6.8170007492
 20
5.1824361278
 11
6.8125571372
 21
5.1823604655
  0
LINE
  5
2CB
100
AcDbEntity
  8
0
100
AcDbLine
 62
7
  6
CONTINUOUS
 10
6.8125571372
 20
5.1823604655
 11
6.8118310874
 21
5.182348497
  0
LINE
  5
2CC
100
AcDbEntity
  8
0
100
AcDbLine
 62
7
  6
CONTINUOUS
 10
6.8017854293
 20
5.1821996755
 11
6.7935850997
 21
5.1821288901
  0
LINE
  5
2CD
100
AcDbEntity
  8
0
100
AcDbLine
 62
7
  6
CONTINUOUS
 10
6.8868806019
 20
5.1838651455
 11
6.8670936995
 21
5.1834294003
  0
LINE
  5
2CE
100
AcDbEntity
  8
0
100
AcDbLine
 62
7
  6
CONTINUOUS
 10
6.8318679951
 20
5.1827098352
 11
6.829463703
 21
5.18266397
  0
LINE
  5
2CF
100
AcDbEntity
  8
0
100
AcDbLine
 62
7
  6
CONTINUOUS
 10
6.9018558201
 20
5.1842085261
 11
6.8868806019
 21
5.1838651455
  0
SPLINE
  5
2D0
100
AcDbEntity
  8
0
100
AcDbSpline
 62
7
  6
CONTINUOUS
 70
0
 71
3
 72
62
 73
58
 74
0
 42
0.0000001
 43
0.0000001
 44
0.0000000001
 40
0.0
 40
0.0
 40
0.0
 40
0.0
 40
0.0226649862
 40
0.0435917638
 40
0.0627019228
 40
0.0799171795
 40
0.095159452
 40
0.1020164251
 40
0.108350969
 40
0.1141515935
 40
0.119405066
 40
0.1240981991
 40
0.128218009
 40
0.1317518603
 40
0.1346877686
 40
0.1359281563
 40
0.1370152961
 40
0.1379484251
 40
0.1387273627
 40
0.1393530981
 40
0.1398293123
 40
0.1400146068
 40
0.1401681542
 40
0.140403159
 40
0.140511987
 40
0.1406342883
 40
0.1407815555
 40
0.1409607479
 40
0.1414291415
 40
0.1420577564
 40
0.1428549668
 40
0.1438260875
 40
0.1449751322
 40
0.1463054767
 40
0.1478201498
 40
0.1495219763
 40
0.1534977383
 40
0.1582535587
 40
0.1638094513
 40
0.1701850668
 40
0.177399845
 40
0.1854731224
 40
0.1944261519
 40
0.2150697929
 40
0.2395287853
 40
0.2680010523
 40
0.3006843111
 40
0.3377768317
 40
0.3794967276
 40
0.4260846698
 40
0.477782514
 40
0.5348320887
 40
0.5974749061
 40
0.6659131156
 40
0.7402703857
 40
0.8206610656
 40
1.0
 40
1.0
 40
1.0
 40
1.0
 10
6.9386524121
 20
5.1854280893
 30
0.0
 10
6.938749223
 20
5.1854262979
 30
0.0
 10
6.9389354162
 20
5.1854226266
 30
0.0
 10
6.9392032171
 20
5.1854165238
 30
0.0
 10
6.9394477195
 20
5.1854100218
 30
0.0
 10
6.9396679149
 20
5.1854031035
 30
0.0
 10
6.9398357538
 20
5.1853967821
 30
0.0
 10
6.9399571078
 20
5.1853914071
 30
0.0
 10
6.9400381459
 20
5.1853874019
 30
0.0
 10
6.9401123182
 20
5.1853832784
 30
0.0
 10
6.940179459
 20
5.1853790338
 30
0.0
 10
6.9402393946
 20
5.1853746672
 30
0.0
 10
6.9402919525
 20
5.185370181
 30
0.0
 10
6.9403369594
 20
5.1853655751
 30
0.0
 10
6.9403696453
 20
5.1853614539
 30
0.0
 10
6.940391865
 20
5.1853579934
 30
0.0
 10
6.9404055747
 20
5.1853555153
 30
0.0
 10
6.9404172698
 20
5.1853530082
 30
0.0
 10
6.9404269381
 20
5.1853504796
 30
0.0
 10
6.9404345619
 20
5.1853479246
 30
0.0
 10
6.9404395908
 20
5.1853456449
 30
0.0
 10
6.9404424959
 20
5.185343695
 30
0.0
 10
6.9404443086
 20
5.1853420607
 30
0.0
 10
6.9404454295
 20
5.1853400421
 30
0.0
 10
6.9404451438
 20
5.1853380115
 30
0.0
 10
6.9404443544
 20
5.1853365736
 30
0.0
 10
6.9404430351
 20
5.1853351645
 30
0.0
 10
6.9404403209
 20
5.1853331065
 30
0.0
 10
6.9404354291
 20
5.1853306279
 30
0.0
 10
6.940427845
 20
5.1853277954
 30
0.0
 10
6.9404180132
 20
5.1853249046
 30
0.0
 10
6.9404059014
 20
5.1853219557
 30
0.0
 10
6.9403914668
 20
5.1853189545
 30
0.0
 10
6.9403746776
 20
5.1853159025
 30
0.0
 10
6.9403555011
 20
5.1853128009
 30
0.0
 10
6.9403250956
 20
5.1853083671
 30
0.0
 10
6.9402808685
 20
5.1853027961
 30
0.0
 10
6.9402201866
 20
5.1852961984
 30
0.0
 10
6.9401492203
 20
5.185289394
 30
0.0
 10
6.9400677255
 20
5.1852823798
 30
0.0
 10
6.9399754574
 20
5.185275155
 30
0.0
 10
6.9398721637
 20
5.1852677148
 30
0.0
 10
6.9397115908
 20
5.1852569851
 30
0.0
 10
6.9394810714
 20
5.1852431445
 30
0.0
 10
6.9391672026
 20
5.1852262725
 30
0.0
 10
6.9388018829
 20
5.1852084067
 30
0.0
 10
6.938382581
 20
5.1851895002
 30
0.0
 10
6.9379066778
 20
5.185169504
 30
0.0
 10
6.9373713695
 20
5.1851483683
 30
0.0
 10
6.9367736653
 20
5.1851260434
 30
0.0
 10
6.9361104729
 20
5.1851024724
 30
0.0
 10
6.9353786962
 20
5.1850775987
 30
0.0
 10
6.9345754082
 20
5.1850513716
 30
0.0
 10
6.9336981864
 20
5.1850237524
 30
0.0
 10
6.9327451513
 20
5.1849947126
 30
0.0
 10
6.9313185168
 20
5.1849525202
 30
0.0
 10
6.9302093666
 20
5.1849210795
 30
0.0
 10
6.9294435048
 20
5.1848998222
 30
0.0
  0
LINE
  5
2D1
100
AcDbEntity
  8
0
100
AcDbLine
 62
7
  6
CONTINUOUS
 10
6.9386524121
 20
5.1854280893
 11
6.963942826
 21
5.1859364008
  0
LINE
  5
2D2
100
AcDbEntity
  8
0
100
AcDbLine
 62
7
  6
CONTINUOUS
 10
6.9802994445
 20
5.1860064891
 11
6.988278225
 21
5.1861714361
  0
LINE
  5
2D3
100
AcDbEntity
  8
0
100
AcDbLine
 62
7
  6
CONTINUOUS
 10
6.988278225
 20
5.1861714361
 11
7.008496096
 21
5.1865901559
  0
LINE
  5
2D4
100
AcDbEntity
  8
0
100
AcDbLine
 62
7
  6
CONTINUOUS
 10
6.9066435375
 20
5.1848577444
 11
6.9326959007
 21
5.1853785695
  0
LINE
  5
2D5
100
AcDbEntity
  8
0
100
AcDbLine
 62
7
  6
CONTINUOUS
 10
6.9326959007
 20
5.1853785695
 11
6.9882714755
 21
5.186497794
  0
LINE
  5
2D6
100
AcDbEntity
  8
0
100
AcDbLine
 62
7
  6
CONTINUOUS
 10
6.9255593154
 20
5.1847977076
 11
6.9017618849
 21
5.1842699664
  0
LINE
  5
2D7
100
AcDbEntity
  8
0
100
AcDbLine
 62
7
  6
CONTINUOUS
 10
6.9017618849
 20
5.1842699664
 11
6.8868789437
 21
5.1839399173
  0
LINE
  5
2D8
100
AcDbEntity
  8
0
100
AcDbLine
 62
7
  6
CONTINUOUS
 10
6.8868789437
 20
5.1839399173
 11
6.8670921257
 21
5.183501119
  0
LINE
  5
2D9
100
AcDbEntity
  8
0
100
AcDbLine
 62
7
  6
CONTINUOUS
 10
6.8670921257
 20
5.183501119
 11
6.8320157446
 21
5.1827232579
  0
LINE
  5
2DA
100
AcDbEntity
  8
0
100
AcDbLine
 62
7
  6
CONTINUOUS
 10
6.8320157446
 20
5.1827232579
 11
6.8294636433
 21
5.1826666621
  0
LINE
  5
2DB
100
AcDbEntity
  8
0
100
AcDbLine
 62
7
  6
CONTINUOUS
 10
6.8294636433
 20
5.1826666621
 11
6.8288189337
 21
5.1826523649
  0
LINE
  5
2DC
100
AcDbEntity
  8
0
100
AcDbLine
 62
7
  6
CONTINUOUS
 10
6.9353098427
 20
5.1862832179
 11
6.9350282438
 21
5.1862788659
  0
LINE
  5
2DD
100
AcDbEntity
  8
0
100
AcDbLine
 62
7
  6
CONTINUOUS
 10
6.9489211786
 20
5.1864190284
 11
6.9353098427
 21
5.1862832179
  0
SPLINE
  5
2DE
100
AcDbEntity
  8
0
100
AcDbSpline
 62
7
  6
CONTINUOUS
 70
0
 71
3
 72
56
 73
52
 74
0
 42
0.0000001
 43
0.0000001
 44
0.0000000001
 40
0.0
 40
0.0
 40
0.0
 40
0.0
 40
0.1431945133
 40
0.2716287096
 40
0.3301423659
 40
0.3847639761
 40
0.4354262635
 40
0.482061988
 40
0.5246039618
 40
0.5629850738
 40
0.5971416727
 40
0.6270772899
 40
0.6528576497
 40
0.6745512191
 40
0.6838870956
 40
0.6922273528
 40
0.6995809136
 40
0.7059569289
 40
0.7113649369
 40
0.7158151873
 40
0.7193193949
 40
0.7218928282
 40
0.7228383791
 40
0.7235638646
 40
0.7240822065
 40
0.7244281072
 40
0.7245679955
 40
0.7247128113
 40
0.724882983
 40
0.7250915109
 40
0.7256480201
 40
0.7264100002
 40
0.727386171
 40
0.7285799727
 40
0.7299927546
 40
0.7316248899
 40
0.7355458264
 40
0.7403357241
 40
0.7459840494
 40
0.7524793262
 40
0.7598095897
 40
0.7679625957
 40
0.7769259292
 40
0.7866870644
 40
0.8085522504
 40
0.8334568565
 40
0.8612990617
 40
0.8919767789
 40
0.9253877575
 40
0.9614296408
 40
1.0
 40
1.0
 40
1.0
 40
1.0
 10
6.9466693424
 20
5.1861998815
 30
0.0
 10
6.9469089751
 20
5.1862078304
 30
0.0
 10
6.9473635281
 20
5.1862232553
 30
0.0
 10
6.9479159626
 20
5.1862430816
 30
0.0
 10
6.948320157
 20
5.1862583683
 30
0.0
 10
6.9485942082
 20
5.1862691292
 30
0.0
 10
6.9488483693
 20
5.1862795342
 30
0.0
 10
6.9490823019
 20
5.1862895714
 30
0.0
 10
6.9492956679
 20
5.1862992287
 30
0.0
 10
6.9494881346
 20
5.1863084924
 30
0.0
 10
6.9496594869
 20
5.1863173577
 30
0.0
 10
6.949809732
 20
5.1863258192
 30
0.0
 10
6.9499390968
 20
5.1863338712
 30
0.0
 10
6.9500339877
 20
5.1863405246
 30
0.0
 10
6.9500997036
 20
5.1863457198
 30
0.0
 10
6.950141459
 20
5.1863493177
 30
0.0
 10
6.9501782474
 20
5.1863528142
 30
0.0
 10
6.9502101124
 20
5.1863562073
 30
0.0
 10
6.950237096
 20
5.1863594956
 30
0.0
 10
6.9502592484
 20
5.1863626683
 30
0.0
 10
6.9502766085
 20
5.186365726
 30
0.0
 10
6.9502880919
 20
5.1863683414
 30
0.0
 10
6.9502948634
 20
5.1863705016
 30
0.0
 10
6.9502982565
 20
5.1863719315
 30
0.0
 10
6.9503005339
 20
5.1863732953
 30
0.0
 10
6.9503017035
 20
5.1863746396
 30
0.0
 10
6.9503018264
 20
5.1863757229
 30
0.0
 10
6.950301572
 20
5.1863764621
 30
0.0
 10
6.9503010257
 20
5.1863771606
 30
0.0
 10
6.950299811
 20
5.1863781609
 30
0.0
 10
6.950297508
 20
5.1863793208
 30
0.0
 10
6.9502938851
 20
5.1863806025
 30
0.0
 10
6.9502891374
 20
5.1863818715
 30
0.0
 10
6.9502832704
 20
5.1863831271
 30
0.0
 10
6.9502762806
 20
5.1863843653
 30
0.0
 10
6.9502647456
 20
5.1863860984
 30
0.0
 10
6.9502475447
 20
5.1863881417
 30
0.0
 10
6.9502236071
 20
5.1863904014
 30
0.0
 10
6.9501953366
 20
5.1863925828
 30
0.0
 10
6.9501627969
 20
5.1863946851
 30
0.0
 10
6.9501260511
 20
5.1863967059
 30
0.0
 10
6.9500851634
 20
5.1863986447
 30
0.0
 10
6.9500401979
 20
5.1864005018
 30
0.0
 10
6.9499722791
 20
5.186402963
 30
0.0
 10
6.9498776647
 20
5.1864057764
 30
0.0
 10
6.9497527691
 20
5.1864087336
 30
0.0
 10
6.949613108
 20
5.1864113881
 30
0.0
 10
6.949459197
 20
5.1864137467
 30
0.0
 10
6.9492915511
 20
5.1864158157
 30
0.0
 10
6.949110686
 20
5.1864176026
 30
0.0
 10
6.9489857592
 20
5.1864185788
 30
0.0
 10
6.9489211786
 20
5.1864190284
 30
0.0
  0
LINE
  5
2DF
100
AcDbEntity
  8
0
100
AcDbLine
 62
7
  6
CONTINUOUS
 10
6.9280223135
 20
5.1857167379
 11
6.9327726106
 21
5.1858264046
  0
LINE
  5
2E0
100
AcDbEntity
  8
0
100
AcDbLine
 62
7
  6
CONTINUOUS
 10
6.9327726106
 20
5.1858264046
 11
6.9466693424
 21
5.1861998815
  0
LINE
  5
2E1
100
AcDbEntity
  8
0
100
AcDbLine
 62
7
  6
CONTINUOUS
 10
6.8126407761
 20
5.1830757996
 11
6.8359474195
 21
5.1836949275
  0
LINE
  5
2E2
100
AcDbEntity
  8
0
100
AcDbLine
 62
7
  6
CONTINUOUS
 10
6.7882218866
 20
5.182588795
 11
6.7886094372
 21
5.1825951027
  0
LINE
  5
2E3
100
AcDbEntity
  8
0
100
AcDbLine
 62
7
  6
CONTINUOUS
 10
6.7744658908
 20
5.1824486439
 11
6.7882218866
 21
5.182588795
  0
SPLINE
  5
2E4
100
AcDbEntity
  8
0
100
AcDbSpline
 62
7
  6
CONTINUOUS
 70
0
 71
3
 72
59
 73
55
 74
0
 42
0.0000001
 43
0.0000001
 44
0.0000000001
 40
0.0
 40
0.0
 40
0.0
 40
0.0
 40
0.136061016
 40
0.2613499219
 40
0.3196833104
 40
0.3749978581
 40
0.4271849896
 40
0.4761361521
 40
0.5217428227
 40
0.5638965204
 40
0.602489765
 40
0.6374538206
 40
0.6687715172
 40
0.6964294081
 40
0.7204143006
 40
0.7310253893
 40
0.7407135064
 40
0.7494771945
 40
0.7573151006
 40
0.7642260326
 40
0.7702090593
 40
0.7752637038
 40
0.7774429998
 40
0.779390473
 40
0.7811064791
 40
0.7825916429
 40
0.7838470569
 40
0.7848746964
 40
0.7856784095
 40
0.7862667196
 40
0.786486811
 40
0.7866648576
 40
0.7868128253
 40
0.7869507801
 40
0.7872840977
 40
0.7877887279
 40
0.7885009046
 40
0.7894318957
 40
0.7905857324
 40
0.7919637865
 40
0.7935662503
 40
0.795392719
 40
0.7997144215
 40
0.8049211266
 40
0.8110034119
 40
0.8179511513
 40
0.8257538381
 40
0.8344007417
 40
0.8541835695
 40
0.8772118033
 40
0.9033967585
 40
0.9326493483
 40
0.9648802513
 40
1.0
 40
1.0
 40
1.0
 40
1.0
 10
6.7785321141
 20
5.1827749118
 30
0.0
 10
6.778210355
 20
5.18276386
 30
0.0
 10
6.7775923242
 20
5.1827422387
 30
0.0
 10
6.7768363916
 20
5.1827145892
 30
0.0
 10
6.7762714269
 20
5.1826930591
 30
0.0
 10
6.7758793282
 20
5.1826776705
 30
0.0
 10
6.7755094318
 20
5.1826626736
 30
0.0
 10
6.7751625088
 20
5.1826480887
 30
0.0
 10
6.7748393302
 20
5.1826339365
 30
0.0
 10
6.7745406648
 20
5.1826202384
 30
0.0
 10
6.7742671878
 20
5.1826070099
 30
0.0
 10
6.7740193587
 20
5.1825942632
 30
0.0
 10
6.7737974146
 20
5.1825820189
 30
0.0
 10
6.7736014628
 20
5.1825702876
 30
0.0
 10
6.7734544746
 20
5.182560599
 30
0.0
 10
6.7733499622
 20
5.1825530351
 30
0.0
 10
6.7732813979
 20
5.18254773
 30
0.0
 10
6.7732194057
 20
5.1825425604
 30
0.0
 10
6.7731639976
 20
5.1825375281
 30
0.0
 10
6.7731151851
 20
5.1825326372
 30
0.0
 10
6.7730729799
 20
5.1825278903
 30
0.0
 10
6.7730419602
 20
5.1825238897
 30
0.0
 10
6.7730204687
 20
5.1825207083
 30
0.0
 10
6.7730068237
 20
5.1825184788
 30
0.0
 10
6.7729948389
 20
5.1825162873
 30
0.0
 10
6.7729845137
 20
5.1825141356
 30
0.0
 10
6.7729758493
 20
5.1825120256
 30
0.0
 10
6.7729688358
 20
5.1825099632
 30
0.0
 10
6.7729634751
 20
5.1825079492
 30
0.0
 10
6.7729600603
 20
5.1825061887
 30
0.0
 10
6.772958237
 20
5.1825047158
 30
0.0
 10
6.7729574054
 20
5.1825037107
 30
0.0
 10
6.7729569865
 20
5.1825026667
 30
0.0
 10
6.7729570873
 20
5.1825011514
 30
0.0
 10
6.7729587228
 20
5.182499296
 30
0.0
 10
6.7729619238
 20
5.1824975315
 30
0.0
 10
6.7729666989
 20
5.1824957224
 30
0.0
 10
6.7729730774
 20
5.182493957
 30
0.0
 10
6.7729810854
 20
5.1824922008
 30
0.0
 10
6.7729907157
 20
5.1824904744
 30
0.0
 10
6.7730019637
 20
5.1824887751
 30
0.0
 10
6.7730201519
 20
5.1824864166
 30
0.0
 10
6.7730468791
 20
5.1824836333
 30
0.0
 10
6.7730836909
 20
5.1824805633
 30
0.0
 10
6.7731267434
 20
5.1824776164
 30
0.0
 10
6.7731759578
 20
5.182474794
 30
0.0
 10
6.7732312557
 20
5.1824720989
 30
0.0
 10
6.7733169147
 20
5.1824685141
 30
0.0
 10
6.7734386099
 20
5.1824644713
 30
0.0
 10
6.7736018165
 20
5.182460296
 30
0.0
 10
6.7737874473
 20
5.1824566141
 30
0.0
 10
6.7739948652
 20
5.1824534213
 30
0.0
 10
6.774223433
 20
5.1824507144
 30
0.0
 10
6.7743827926
 20
5.18244929
 30
0.0
 10
6.7744658908
 20
5.1824486439
 30
0.0
  0
LINE
  5
2E5
100
AcDbEntity
  8
0
100
AcDbLine
 62
7
  6
CONTINUOUS
 10
6.8031045401
 20
5.1834266585
 11
6.7948062065
 21
5.183232872
  0
LINE
  5
2E6
100
AcDbEntity
  8
0
100
AcDbLine
 62
7
  6
CONTINUOUS
 10
6.7948062065
 20
5.183232872
 11
6.7785321141
 21
5.1827749118
  0
LINE
  5
2E7
100
AcDbEntity
  8
0
100
AcDbLine
 62
7
  6
CONTINUOUS
 10
4.8963610335
 20
5.1824917496
 11
4.8866960549
 21
5.1826007193
  0
SPLINE
  5
2E8
100
AcDbEntity
  8
0
100
AcDbSpline
 62
7
  6
CONTINUOUS
 70
0
 71
3
 72
9
 73
5
 74
0
 42
0.0000001
 43
0.0000001
 44
0.0000000001
 40
0.0
 40
0.0
 40
0.0
 40
0.0
 40
0.2506987638
 40
1.0
 40
1.0
 40
1.0
 40
1.0
 10
4.8971455416
 20
5.1827090918
 30
0.0
 10
4.8971498972
 20
5.1827089107
 30
0.0
 10
4.8971672711
 20
5.1827081879
 30
0.0
 10
4.8971846449
 20
5.1827074634
 30
0.0
 10
4.8971976632
 20
5.1827069197
 30
0.0
  0
SPLINE
  5
2E9
100
AcDbEntity
  8
0
100
AcDbSpline
 62
7
  6
CONTINUOUS
 70
0
 71
3
 72
59
 73
55
 74
0
 42
0.0000001
 43
0.0000001
 44
0.0000000001
 40
0.0
 40
0.0
 40
0.0
 40
0.0
 40
0.1028183496
 40
0.1953753169
 40
0.2375706676
 40
0.2768992152
 40
0.313243576
 40
0.34648646
 40
0.3765107181
 40
0.4031994225
 40
0.4152565186
 40
0.4264360646
 40
0.4367235986
 40
0.4461047359
 40
0.4545652056
 40
0.462090911
 40
0.4686680357
 40
0.4742832451
 40
0.4789241084
 40
0.480875846
 40
0.4825803615
 40
0.4840371383
 40
0.4852464954
 40
0.4862104559
 40
0.4869350622
 40
0.4872127566
 40
0.4874396143
 40
0.4877796409
 40
0.4881203867
 40
0.4883487492
 40
0.488629302
 40
0.4893655457
 40
0.490352153
 40
0.4915988547
 40
0.4931113559
 40
0.494893655
 40
0.4969489137
 40
0.5018887343
 40
0.507949974
 40
0.5151433595
 40
0.5234618206
 40
0.5328949488
 40
0.5434320377
 40
0.5550621998
 40
0.5677744321
 40
0.5815576534
 40
0.612292451
 40
0.6471771438
 40
0.6861218754
 40
0.7290365777
 40
0.7758310492
 40
0.8264150006
 40
0.8806980817
 40
1.0
 40
1.0
 40
1.0
 40
1.0
 10
4.8971976632
 20
5.1827069197
 30
0.0
 10
4.8973921393
 20
5.1826987963
 30
0.0
 10
4.8977616664
 20
5.1826829669
 30
0.0
 10
4.8982109441
 20
5.1826624336
 30
0.0
 10
4.8985401073
 20
5.1826464067
 30
0.0
 10
4.8987629548
 20
5.1826350444
 30
0.0
 10
4.8989688471
 20
5.1826239845
 30
0.0
 10
4.8991571165
 20
5.1826132476
 30
0.0
 10
4.8993270952
 20
5.1826028541
 30
0.0
 10
4.8994569991
 20
5.1825942325
 30
0.0
 10
4.8995512706
 20
5.1825874656
 30
0.0
 10
4.8996145534
 20
5.182582661
 30
0.0
 10
4.8996727627
 20
5.1825779563
 30
0.0
 10
4.8997258152
 20
5.1825733542
 30
0.0
 10
4.8997736278
 20
5.1825688586
 30
0.0
 10
4.8998161174
 20
5.1825644731
 30
0.0
 10
4.8998532021
 20
5.1825602042
 30
0.0
 10
4.8998847993
 20
5.1825560563
 30
0.0
 10
4.8999076448
 20
5.1825525406
 30
0.0
 10
4.8999230984
 20
5.1825497236
 30
0.0
 10
4.8999325795
 20
5.1825477677
 30
0.0
 10
4.8999406288
 20
5.1825458461
 30
0.0
 10
4.8999472427
 20
5.1825439654
 30
0.0
 10
4.8999524128
 20
5.1825421205
 30
0.0
 10
4.8999557908
 20
5.1825405236
 30
0.0
 10
4.8999577082
 20
5.1825391821
 30
0.0
 10
4.8999588663
 20
5.1825380966
 30
0.0
 10
4.899959709
 20
5.1825363814
 30
0.0
 10
4.8999587865
 20
5.1825347035
 30
0.0
 10
4.8999575709
 20
5.1825336679
 30
0.0
 10
4.8999555657
 20
5.1825324036
 30
0.0
 10
4.8999520486
 20
5.1825309459
 30
0.0
 10
4.8999466647
 20
5.1825293163
 30
0.0
 10
4.8999397532
 20
5.182527712
 30
0.0
 10
4.8999313015
 20
5.1825261273
 30
0.0
 10
4.8999212925
 20
5.1825245695
 30
0.0
 10
4.8999048179
 20
5.1825223946
 30
0.0
 10
4.8998802293
 20
5.1825198395
 30
0.0
 10
4.8998458979
 20
5.1825170391
 30
0.0
 10
4.8998051441
 20
5.1825143648
 30
0.0
 10
4.899757989
 20
5.1825118136
 30
0.0
 10
4.8997044899
 20
5.1825093904
 30
0.0
 10
4.8996447107
 20
5.1825070965
 30
0.0
 10
4.8995787155
 20
5.1825049331
 30
0.0
 10
4.8995065682
 20
5.1825029006
 30
0.0
 10
4.8993982571
 20
5.1825002698
 30
0.0
 10
4.8992479665
 20
5.1824973806
 30
0.0
 10
4.8990500355
 20
5.1824945382
 30
0.0
 10
4.8988290386
 20
5.1824922117
 30
0.0
 10
4.89858549
 20
5.1824904002
 30
0.0
 10
4.8983199036
 20
5.1824891033
 30
0.0
 10
4.8980327936
 20
5.1824883193
 30
0.0
 10
4.8976084188
 20
5.182487945
 30
0.0
 10
4.8972798043
 20
5.182488464
 30
0.0
 10
4.8970539543
 20
5.1824890833
 30
0.0
  0
LINE
  5
2EA
100
AcDbEntity
  8
0
100
AcDbLine
 62
7
  6
CONTINUOUS
 10
4.839731239
 20
5.1843199736
 11
4.8525464274
 21
5.1839920814
  0
LINE
  5
2EB
100
AcDbEntity
  8
0
100
AcDbLine
 62
7
  6
CONTINUOUS
 10
4.8525464274
 20
5.1839920814
 11
4.8527715251
 21
5.1839862647
  0
LINE
  5
2EC
100
AcDbEntity
  8
0
100
AcDbLine
 62
7
  6
CONTINUOUS
 10
4.8527715251
 20
5.1839862647
 11
4.8574635184
 21
5.1838644778
  0
LINE
  5
2ED
100
AcDbEntity
  8
0
100
AcDbLine
 62
7
  6
CONTINUOUS
 10
4.8574635184
 20
5.1838644778
 11
4.8637888264
 21
5.1836984084
  0
LINE
  5
2EE
100
AcDbEntity
  8
0
100
AcDbLine
 62
7
  6
CONTINUOUS
 10
4.8637888264
 20
5.1836984084
 11
4.8768742704
 21
5.1833449159
  0
LINE
  5
2EF
100
AcDbEntity
  8
0
100
AcDbLine
 62
7
  6
CONTINUOUS
 10
4.6493920073
 20
5.1862504834
 11
4.6490393167
 21
5.1862584464
  0
LINE
  5
2F0
100
AcDbEntity
  8
0
100
AcDbLine
 62
7
  6
CONTINUOUS
 10
4.6490393167
 20
5.1862584464
 11
4.6441133381
 21
5.1863696734
  0
LINE
  5
2F1
100
AcDbEntity
  8
0
100
AcDbLine
 62
7
  6
CONTINUOUS
 10
4.6490401954
 20
5.1862973609
 11
4.6493920073
 21
5.1862504834
  0
LINE
  5
2F2
100
AcDbEntity
  8
0
100
AcDbLine
 62
7
  6
CONTINUOUS
 10
4.6499929482
 20
5.1863031998
 11
4.6490032413
 21
5.1863052198
  0
LINE
  5
2F3
100
AcDbEntity
  8
0
100
AcDbLine
 62
7
  6
CONTINUOUS
 10
4.664633358
 20
5.1860004678
 11
4.6499929482
 21
5.1863031998
  0
LINE
  5
2F4
100
AcDbEntity
  8
0
100
AcDbLine
 62
7
  6
CONTINUOUS
 10
4.787125425
 20
5.1832280025
 11
4.664633358
 21
5.1860004678
  0
LINE
  5
2F5
100
AcDbEntity
  8
0
100
AcDbLine
 62
7
  6
CONTINUOUS
 10
4.8036553029
 20
5.1828318584
 11
4.7949386392
 21
5.1830486367
  0
LINE
  5
2F6
100
AcDbEntity
  8
0
100
AcDbLine
 62
7
  6
CONTINUOUS
 10
4.7949386392
 20
5.1830486367
 11
4.7948226403
 21
5.1830513359
  0
LINE
  5
2F7
100
AcDbEntity
  8
0
100
AcDbLine
 62
7
  6
CONTINUOUS
 10
4.7948226403
 20
5.1830513359
 11
4.787125425
 21
5.1832280025
  0
LINE
  5
2F8
100
AcDbEntity
  8
0
100
AcDbLine
 62
7
  6
CONTINUOUS
 10
4.8005244675
 20
5.1828498782
 11
4.8041398906
 21
5.1828136123
  0
LINE
  5
2F9
100
AcDbEntity
  8
0
100
AcDbLine
 62
7
  6
CONTINUOUS
 10
4.8074273617
 20
5.1826948917
 11
4.8036541296
 21
5.1827796037
  0
LINE
  5
2FA
100
AcDbEntity
  8
0
100
AcDbLine
 62
7
  6
CONTINUOUS
 10
4.8036541296
 20
5.1827796037
 11
4.8005244675
 21
5.1828498782
  0
LINE
  5
2FB
100
AcDbEntity
  8
0
100
AcDbLine
 62
7
  6
CONTINUOUS
 10
4.8074273617
 20
5.1826948917
 11
4.8147098974
 21
5.182592098
  0
LINE
  5
2FC
100
AcDbEntity
  8
0
100
AcDbLine
 62
7
  6
CONTINUOUS
 10
4.8255464716
 20
5.1824604499
 11
4.8324503066
 21
5.1823900539
  0
LINE
  5
2FD
100
AcDbEntity
  8
0
100
AcDbLine
 62
7
  6
CONTINUOUS
 10
4.8324503066
 20
5.1823900539
 11
4.8255474567
 21
5.1825471687
  0
LINE
  5
2FE
100
AcDbEntity
  8
0
100
AcDbLine
 62
7
  6
CONTINUOUS
 10
4.7948214889
 20
5.1831368746
 11
4.8074404021
 21
5.1828579659
  0
LINE
  5
2FF
100
AcDbEntity
  8
0
100
AcDbLine
 62
7
  6
CONTINUOUS
 10
4.8074404021
 20
5.1828579659
 11
4.8147115022
 21
5.1827079577
  0
LINE
  5
300
100
AcDbEntity
  8
0
100
AcDbLine
 62
7
  6
CONTINUOUS
 10
4.7948214889
 20
5.1831368746
 11
4.7871273194
 21
5.1833114242
  0
LINE
  5
301
100
AcDbEntity
  8
0
100
AcDbLine
 62
7
  6
CONTINUOUS
 10
4.7871273194
 20
5.1833114242
 11
4.6646354905
 21
5.1860942126
  0
LINE
  5
302
100
AcDbEntity
  8
0
100
AcDbLine
 62
7
  6
CONTINUOUS
 10
4.6646354905
 20
5.1860942126
 11
4.6499957692
 21
5.1864272341
  0
LINE
  5
303
100
AcDbEntity
  8
0
100
AcDbLine
 62
7
  6
CONTINUOUS
 10
4.6499957692
 20
5.1864272341
 11
4.6493963373
 21
5.1864408716
  0
LINE
  5
304
100
AcDbEntity
  8
0
100
AcDbLine
 62
7
  6
CONTINUOUS
 10
4.6493963373
 20
5.1864408716
 11
4.6490436418
 21
5.1864488957
  0
LINE
  5
305
100
AcDbEntity
  8
0
100
AcDbLine
 62
7
  6
CONTINUOUS
 10
4.6490436418
 20
5.1864488957
 11
4.6336195689
 21
5.1867998518
  0
LINE
  5
306
100
AcDbEntity
  8
0
100
AcDbLine
 62
7
  6
CONTINUOUS
 10
4.6942518871
 20
5.1858620867
 11
4.6938991911
 21
5.1858701711
  0
LINE
  5
307
100
AcDbEntity
  8
0
100
AcDbLine
 62
7
  6
CONTINUOUS
 10
4.6938991911
 20
5.1858701711
 11
4.6889732555
 21
5.1859830826
  0
LINE
  5
308
100
AcDbEntity
  8
0
100
AcDbLine
 62
7
  6
CONTINUOUS
 10
4.6939008731
 20
5.1859435481
 11
4.6942518871
 21
5.1858620867
  0
LINE
  5
309
100
AcDbEntity
  8
0
100
AcDbLine
 62
7
  6
CONTINUOUS
 10
4.6948536266
 20
5.1859718191
 11
4.6938639132
 21
5.1859573359
  0
LINE
  5
30A
100
AcDbEntity
  8
0
100
AcDbLine
 62
7
  6
CONTINUOUS
 10
4.8319861752
 20
5.1828771984
 11
4.7094949044
 21
5.1856880735
  0
LINE
  5
30B
100
AcDbEntity
  8
0
100
AcDbLine
 62
7
  6
CONTINUOUS
 10
4.8485160994
 20
5.1824502408
 11
4.8397976113
 21
5.1826921284
  0
LINE
  5
30C
100
AcDbEntity
  8
0
100
AcDbLine
 62
7
  6
CONTINUOUS
 10
4.8397976113
 20
5.1826921284
 11
4.8396828861
 21
5.1826949214
  0
LINE
  5
30D
100
AcDbEntity
  8
0
100
AcDbLine
 62
7
  6
CONTINUOUS
 10
4.8396828861
 20
5.1826949214
 11
4.8319861752
 21
5.1828771984
  0
LINE
  5
30E
100
AcDbEntity
  8
0
100
AcDbLine
 62
7
  6
CONTINUOUS
 10
4.8453831812
 20
5.1824052485
 11
4.8489822737
 21
5.1824259459
  0
LINE
  5
30F
100
AcDbEntity
  8
0
100
AcDbLine
 62
7
  6
CONTINUOUS
 10
4.85228601
 20
5.1822471155
 11
4.8485134259
 21
5.1823335388
  0
LINE
  5
310
100
AcDbEntity
  8
0
100
AcDbLine
 62
7
  6
CONTINUOUS
 10
4.8485134259
 20
5.1823335388
 11
4.8453831812
 21
5.1824052485
  0
LINE
  5
311
100
AcDbEntity
  8
0
100
AcDbLine
 62
7
  6
CONTINUOUS
 10
4.870411164
 20
5.182194476
 11
4.8773141831
 21
5.1821941483
  0
LINE
  5
312
100
AcDbEntity
  8
0
100
AcDbLine
 62
7
  6
CONTINUOUS
 10
4.8704113622
 20
5.1823526619
 11
4.8773141831
 21
5.1821941483
  0
LINE
  5
313
100
AcDbEntity
  8
0
100
AcDbLine
 62
6
  6
CONTINUOUS
 10
4.6784825942
 20
5.1865628782
 11
4.6948585833
 21
5.1861868467
  0
LINE
  5
314
100
AcDbEntity
  8
0
100
AcDbLine
 62
6
  6
CONTINUOUS
 10
4.6948585833
 20
5.1861868467
 11
4.7094986382
 21
5.1858506775
  0
LINE
  5
315
100
AcDbEntity
  8
0
100
AcDbLine
 62
6
  6
CONTINUOUS
 10
4.7094986382
 20
5.1858506775
 11
4.8319898684
 21
5.1830380412
  0
LINE
  5
316
100
AcDbEntity
  8
0
100
AcDbLine
 62
6
  6
CONTINUOUS
 10
4.8319898684
 20
5.1830380412
 11
4.8396837761
 21
5.1828613771
  0
LINE
  5
317
100
AcDbEntity
  8
0
100
AcDbLine
 62
7
  6
CONTINUOUS
 10
4.8637633236
 20
5.183664833
 11
4.8576277317
 21
5.1838010644
  0
LINE
  5
318
100
AcDbEntity
  8
0
100
AcDbLine
 62
7
  6
CONTINUOUS
 10
4.8919595223
 20
5.1829114846
 11
4.8637633236
 21
5.183664833
  0
SPLINE
  5
319
100
AcDbEntity
  8
0
100
AcDbSpline
 62
7
  6
CONTINUOUS
 70
0
 71
3
 72
56
 73
52
 74
0
 42
0.0000001
 43
0.0000001
 44
0.0000000001
 40
0.0
 40
0.0
 40
0.0
 40
0.0
 40
0.035474522
 40
0.0675559896
 40
0.0961795708
 40
0.1212806454
 40
0.1427949552
 40
0.1606589148
 40
0.1682025652
 40
0.1748105378
 40
0.1804756411
 40
0.1851912861
 40
0.1889521109
 40
0.1904736448
 40
0.1917560969
 40
0.1928006679
 40
0.1936105447
 40
0.1941940718
 40
0.1944082716
 40
0.1945793623
 40
0.1947220681
 40
0.1948606614
 40
0.195021438
 40
0.1952222758
 40
0.1957765966
 40
0.1965579274
 40
0.1975756267
 40
0.1988329553
 40
0.2003309147
 40
0.202069494
 40
0.2040481655
 40
0.2062661107
 40
0.2114156691
 40
0.2175091647
 40
0.2245365905
 40
0.2324874833
 40
0.2413511209
 40
0.2511166231
 40
0.2617730075
 40
0.2857141383
 40
0.3130856562
 40
0.3437982237
 40
0.3777622606
 40
0.4148880381
 40
0.4550821435
 40
0.4982321465
 40
0.5442193313
 40
0.6442301696
 40
0.7541643335
 40
0.8730712034
 40
1.0
 40
1.0
 40
1.0
 40
1.0
 10
4.8968134552
 20
5.1825480649
 30
0.0
 10
4.8969076073
 20
5.1825487613
 30
0.0
 10
4.8970869044
 20
5.1825503276
 30
0.0
 10
4.897342161
 20
5.1825534258
 30
0.0
 10
4.8975698735
 20
5.1825571524
 30
0.0
 10
4.897769523
 20
5.1825614977
 30
0.0
 10
4.8979405904
 20
5.1825664564
 30
0.0
 10
4.8980650378
 20
5.1825713022
 30
0.0
 10
4.8981499021
 20
5.1825756435
 30
0.0
 10
4.8982024009
 20
5.1825788652
 30
0.0
 10
4.898247368
 20
5.1825822291
 30
0.0
 10
4.89828474
 20
5.1825857337
 30
0.0
 10
4.8983110901
 20
5.1825889291
 30
0.0
 10
4.8983283
 20
5.1825916702
 30
0.0
 10
4.8983383298
 20
5.1825936105
 30
0.0
 10
4.8983464293
 20
5.1825955733
 30
0.0
 10
4.8983525874
 20
5.1825975595
 30
0.0
 10
4.898356496
 20
5.1825993564
 30
0.0
 10
4.898358551
 20
5.1826009223
 30
0.0
 10
4.8983594627
 20
5.18260201
 30
0.0
 10
4.8983598716
 20
5.1826031805
 30
0.0
 10
4.8983596835
 20
5.1826043821
 30
0.0
 10
4.8983589551
 20
5.1826055214
 30
0.0
 10
4.8983571557
 20
5.1826071776
 30
0.0
 10
4.8983535261
 20
5.1826091292
 30
0.0
 10
4.8983476915
 20
5.1826113529
 30
0.0
 10
4.8983398969
 20
5.1826136347
 30
0.0
 10
4.8983301588
 20
5.1826159732
 30
0.0
 10
4.8983184703
 20
5.1826183598
 30
0.0
 10
4.8983048428
 20
5.1826207916
 30
0.0
 10
4.8982892847
 20
5.1826232663
 30
0.0
 10
4.8982647308
 20
5.1826267991
 30
0.0
 10
4.8982292773
 20
5.1826312374
 30
0.0
 10
4.8981810701
 20
5.182636501
 30
0.0
 10
4.8981254045
 20
5.1826419207
 30
0.0
 10
4.8980623695
 20
5.1826474916
 30
0.0
 10
4.8979920536
 20
5.1826532075
 30
0.0
 10
4.8979145461
 20
5.1826590646
 30
0.0
 10
4.897797094
 20
5.1826673836
 30
0.0
 10
4.8976329611
 20
5.1826780083
 30
0.0
 10
4.8974156316
 20
5.1826908386
 30
0.0
 10
4.8971716852
 20
5.1827041636
 30
0.0
 10
4.8969018385
 20
5.1827179581
 30
0.0
 10
4.8966068175
 20
5.1827321957
 30
0.0
 10
4.8962874082
 20
5.1827468489
 30
0.0
 10
4.8959444737
 20
5.1827618993
 30
0.0
 10
4.895442893
 20
5.1827830653
 30
0.0
 10
4.8947641527
 20
5.1828102095
 30
0.0
 10
4.8938919546
 20
5.1828432089
 30
0.0
 10
4.8929483041
 20
5.1828773034
 30
0.0
 10
4.8922962133
 20
5.1828999677
 30
0.0
 10
4.8919595223
 20
5.1829114846
 30
0.0
  0
LINE
  5
31A
100
AcDbEntity
  8
0
100
AcDbLine
 62
7
  6
CONTINUOUS
 10
4.8864818906
 20
5.1826264147
 11
4.8968134552
 21
5.1825480649
  0
LINE
  5
31B
100
AcDbEntity
  8
0
100
AcDbLine
 62
7
  6
CONTINUOUS
 10
4.874507158
 20
5.1827859284
 11
4.8864818906
 21
5.1826264147
  0
LINE
  5
31C
100
AcDbEntity
  8
0
100
AcDbLine
 62
7
  6
CONTINUOUS
 10
4.8662974485
 20
5.1828596229
 11
4.874507158
 21
5.1827859284
  0
LINE
  5
31D
100
AcDbEntity
  8
0
100
AcDbLine
 62
7
  6
CONTINUOUS
 10
4.8668319645
 20
5.1827598425
 11
4.8653731654
 21
5.1828415911
  0
LINE
  5
31E
100
AcDbEntity
  8
0
100
AcDbLine
 62
7
  6
CONTINUOUS
 10
4.8743029854
 20
5.1825605702
 11
4.8668319645
 21
5.1827598425
  0
LINE
  5
31F
100
AcDbEntity
  8
0
100
AcDbLine
 62
7
  6
CONTINUOUS
 10
4.9038713706
 20
5.1822068814
 11
4.8905993267
 21
5.1822714719
  0
SPLINE
  5
320
100
AcDbEntity
  8
0
100
AcDbSpline
 62
7
  6
CONTINUOUS
 70
0
 71
3
 72
62
 73
58
 74
0
 42
0.0000001
 43
0.0000001
 44
0.0000000001
 40
0.0
 40
0.0
 40
0.0
 40
0.0
 40
0.1300939575
 40
0.1899186399
 40
0.2461576801
 40
0.2987330436
 40
0.3475667432
 40
0.3925808574
 40
0.4336975573
 40
0.4708391511
 40
0.5039281556
 40
0.5189288322
 40
0.5328879048
 40
0.5458036906
 40
0.557680845
 40
0.5685242937
 40
0.5783390644
 40
0.5871303337
 40
0.5949035037
 40
0.6016643339
 40
0.6074191877
 40
0.6121755327
 40
0.6141822804
 40
0.6159433985
 40
0.6174609875
 40
0.6187380129
 40
0.6197790852
 40
0.620592309
 40
0.6211943417
 40
0.6214282605
 40
0.6216291045
 40
0.6218123107
 40
0.6219977024
 40
0.6222044113
 40
0.6224465134
 40
0.6230677718
 40
0.6238998618
 40
0.6249568908
 40
0.626245274
 40
0.6277682312
 40
0.6295274569
 40
0.6315238353
 40
0.6337577826
 40
0.6389386
 40
0.64506919
 40
0.6521470979
 40
0.6601663544
 40
0.6691160548
 40
0.6789845924
 40
0.6897601756
 40
0.7014308891
 40
0.7274095927
 40
0.7568241082
 40
0.7895771977
 40
0.8255712881
 40
0.906891115
 40
1.0
 40
1.0
 40
1.0
 40
1.0
 10
4.900893034
 20
5.182821678
 30
0.0
 10
4.9014250489
 20
5.1828004692
 30
0.0
 10
4.902201681
 20
5.1827686346
 30
0.0
 10
4.9032081921
 20
5.1827250649
 30
0.0
 10
4.9038976869
 20
5.1826940453
 30
0.0
 10
4.9045421868
 20
5.1826637971
 30
0.0
 10
4.9051407321
 20
5.1826343563
 30
0.0
 10
4.9056923635
 20
5.1826057598
 30
0.0
 10
4.9061961218
 20
5.1825780468
 30
0.0
 10
4.9066510476
 20
5.1825512556
 30
0.0
 10
4.9069991709
 20
5.1825290702
 30
0.0
 10
4.9072525236
 20
5.1825116872
 30
0.0
 10
4.9074234624
 20
5.1824993277
 30
0.0
 10
4.907581601
 20
5.1824872183
 30
0.0
 10
4.9077269687
 20
5.1824753628
 30
0.0
 10
4.9078596214
 20
5.1824637632
 30
0.0
 10
4.9079796162
 20
5.182452422
 30
0.0
 10
4.9080870105
 20
5.1824413428
 30
0.0
 10
4.9081818619
 20
5.1824305296
 30
0.0
 10
4.9082642309
 20
5.1824199918
 30
0.0
 10
4.9083341764
 20
5.1824097341
 30
0.0
 10
4.9083846729
 20
5.182401021
 30
0.0
 10
4.908418857
 20
5.1823940376
 30
0.0
 10
4.9084399375
 20
5.1823891732
 30
0.0
 10
4.9084579627
 20
5.1823843842
 30
0.0
 10
4.9084729433
 20
5.1823796756
 30
0.0
 10
4.9084849159
 20
5.1823750509
 30
0.0
 10
4.9084938978
 20
5.182370518
 30
0.0
 10
4.908499423
 20
5.182366498
 30
0.0
 10
4.9085021071
 20
5.1823631755
 30
0.0
 10
4.9085031963
 20
5.1823608562
 30
0.0
 10
4.9085034792
 20
5.1823584961
 30
0.0
 10
4.9085029188
 20
5.1823561635
 30
0.0
 10
4.9085015723
 20
5.1823539102
 30
0.0
 10
4.9084985338
 20
5.1823507221
 30
0.0
 10
4.9084926166
 20
5.1823469578
 30
0.0
 10
4.908483207
 20
5.1823428126
 30
0.0
 10
4.9084708504
 20
5.1823387037
 30
0.0
 10
4.9084555445
 20
5.1823346374
 30
0.0
 10
4.9084372701
 20
5.1823306196
 30
0.0
 10
4.9084160307
 20
5.1823266556
 30
0.0
 10
4.9083918286
 20
5.1823227479
 30
0.0
 10
4.9083536902
 20
5.1823173466
 30
0.0
 10
4.9082986219
 20
5.1823108986
 30
0.0
 10
4.9082237003
 20
5.1823037118
 30
0.0
 10
4.9081370964
 20
5.1822967655
 30
0.0
 10
4.9080389062
 20
5.1822900633
 30
0.0
 10
4.9079292566
 20
5.1822836073
 30
0.0
 10
4.9078082958
 20
5.182277399
 30
0.0
 10
4.9076761741
 20
5.1822714382
 30
0.0
 10
4.9074781412
 20
5.1822635363
 30
0.0
 10
4.907203815
 20
5.1822544506
 30
0.0
 10
4.9068431835
 20
5.1822448421
 30
0.0
 10
4.9064415276
 20
5.1822361767
 30
0.0
 10
4.9058274388
 20
5.1822254301
 30
0.0
 10
4.9049662989
 20
5.1822147679
 30
0.0
 10
4.9042524316
 20
5.1822092157
 30
0.0
 10
4.9038713706
 20
5.1822068814
 30
0.0
  0
LINE
  5
321
100
AcDbEntity
  8
0
100
AcDbLine
 62
7
  6
CONTINUOUS
 10
4.8574430998
 20
5.1840461171
 11
4.8640031639
 21
5.1838941519
  0
LINE
  5
322
100
AcDbEntity
  8
0
100
AcDbLine
 62
7
  6
CONTINUOUS
 10
4.8640031639
 20
5.1838941519
 11
4.8922463349
 21
5.1831294345
  0
LINE
  5
323
100
AcDbEntity
  8
0
100
AcDbLine
 62
7
  6
CONTINUOUS
 10
4.7590300816
 20
5.1854913355
 11
4.8049395892
 21
5.1850489674
  0
LINE
  5
324
100
AcDbEntity
  8
0
100
AcDbLine
 62
7
  6
CONTINUOUS
 10
4.7590300816
 20
5.1854913355
 11
4.7407108752
 21
5.1860129081
  0
LINE
  5
325
100
AcDbEntity
  8
0
100
AcDbLine
 62
7
  6
CONTINUOUS
 10
4.7602447017
 20
5.1861610243
 11
4.7397060934
 21
5.1867567562
  0
LINE
  5
326
100
AcDbEntity
  8
0
100
AcDbLine
 62
7
  6
CONTINUOUS
 10
4.7756165069
 20
5.1848880602
 11
4.7590261608
 21
5.1853508008
  0
LINE
  5
327
100
AcDbEntity
  8
0
100
AcDbLine
 62
7
  6
CONTINUOUS
 10
4.7590261608
 20
5.1853508008
 11
4.740706681
 21
5.185863456
  0
LINE
  5
328
100
AcDbEntity
  8
0
100
AcDbLine
 62
7
  6
CONTINUOUS
 10
4.740706681
 20
5.185863456
 11
4.7155526963
 21
5.1865700658
  0
LINE
  5
329
100
AcDbEntity
  8
0
100
AcDbLine
 62
7
  6
CONTINUOUS
 10
4.9061925731
 20
5.1822597109
 11
4.9064506411
 21
5.1822585083
  0
LINE
  5
32A
100
AcDbEntity
  8
0
100
AcDbLine
 62
7
  6
CONTINUOUS
 10
4.8658636026
 20
5.1828455383
 11
4.8663089241
 21
5.1828369538
  0
LINE
  5
32B
100
AcDbEntity
  8
0
100
AcDbLine
 62
7
  6
CONTINUOUS
 10
4.8663089241
 20
5.1828369538
 11
4.8668398527
 21
5.182826753
  0
LINE
  5
32C
100
AcDbEntity
  8
0
100
AcDbLine
 62
7
  6
CONTINUOUS
 10
4.8668398527
 20
5.182826753
 11
4.874394259
 21
5.1826859821
  0
LINE
  5
32D
100
AcDbEntity
  8
0
100
AcDbLine
 62
7
  6
CONTINUOUS
 10
4.874394259
 20
5.1826859821
 11
4.8745944264
 21
5.1826823735
  0
LINE
  5
32E
100
AcDbEntity
  8
0
100
AcDbLine
 62
7
  6
CONTINUOUS
 10
4.8866499271
 20
5.1824798751
 11
4.8906477948
 21
5.1824207821
  0
LINE
  5
32F
100
AcDbEntity
  8
0
100
AcDbLine
 62
7
  6
CONTINUOUS
 10
4.896575376
 20
5.182343736
 11
4.897006945
 21
5.1823387186
  0
SPLINE
  5
330
100
AcDbEntity
  8
0
100
AcDbSpline
 62
6
  6
CONTINUOUS
 70
0
 71
3
 72
12
 73
8
 74
0
 42
0.0000001
 43
0.0000001
 44
0.0000000001
 40
0.0
 40
0.0
 40
0.0
 40
0.0
 40
0.0236238145
 40
0.2272977494
 40
0.5934906262
 40
0.8117449213
 40
1.0
 40
1.0
 40
1.0
 40
1.0
 10
5.4317799779
 20
5.6190744982
 30
0.0
 10
5.4326995869
 20
5.6198802761
 30
0.0
 10
5.4409598962
 20
5.6280596046
 30
0.0
 10
5.440607073
 20
5.6616134159
 30
0.0
 10
5.3947555762
 20
5.6590468376
 30
0.0
 10
5.3716909008
 20
5.6843384794
 30
0.0
 10
5.3591936255
 20
5.6961260578
 30
0.0
 10
5.3517793259
 20
5.6990962164
 30
0.0
  0
SPLINE
  5
331
100
AcDbEntity
  8
0
100
AcDbSpline
 62
6
  6
CONTINUOUS
 70
0
 71
3
 72
12
 73
8
 74
0
 42
0.0000001
 43
0.0000001
 44
0.0000000001
 40
0.0
 40
0.0
 40
0.0
 40
0.0
 40
0.1882229281
 40
0.4064399492
 40
0.7725702867
 40
0.9762094377
 40
1.0
 40
1.0
 40
1.0
 40
1.0
 10
6.2988818301
 20
5.6990962164
 30
0.0
 10
6.2914675305
 20
5.6961260578
 30
0.0
 10
6.2789702552
 20
5.6843384794
 30
0.0
 10
6.2559055798
 20
5.6590468376
 30
0.0
 10
6.210054083
 20
5.6616134159
 30
0.0
 10
6.2097011583
 20
5.6280499475
 30
0.0
 10
6.2179739888
 20
5.6198679854
 30
0.0
 10
6.2189011353
 20
5.6190570267
 30
0.0
  0
SPLINE
  5
332
100
AcDbEntity
  8
0
100
AcDbSpline
 62
6
  6
CONTINUOUS
 70
0
 71
3
 72
67
 73
63
 74
0
 42
0.0000001
 43
0.0000001
 44
0.0000000001
 40
0.0
 40
0.0
 40
0.0
 40
0.0
 40
0.0100513792
 40
0.0198626096
 40
0.0294603734
 40
0.0388700938
 40
0.0481143991
 40
0.0572088564
 40
0.0661669004
 40
0.0750013742
 40
0.0923428572
 40
0.1093040533
 40
0.1259427625
 40
0.1423040787
 40
0.1584257909
 40
0.1743360616
 40
0.1900594409
 40
0.2056186395
 40
0.2210336608
 40
0.2363195704
 40
0.2514896443
 40
0.2665562883
 40
0.2815307346
 40
0.2964222912
 40
0.3112394592
 40
0.3259902514
 40
0.3553201714
 40
0.3844643596
 40
0.4134672397
 40
0.4423671083
 40
0.4711999159
 40
0.5
 40
0.5288000841
 40
0.5576328917
 40
0.5865327603
 40
0.6155356404
 40
0.6446798286
 40
0.6740097486
 40
0.6887605408
 40
0.7035777088
 40
0.7184692654
 40
0.7334437117
 40
0.7485103557
 40
0.7636804296
 40
0.7789663392
 40
0.7943813605
 40
0.8099405591
 40
0.8256639384
 40
0.8415742091
 40
0.8576959213
 40
0.8740572375
 40
0.8906959467
 40
0.9076571428
 40
0.9249986258
 40
0.9338330996
 40
0.9427911436
 40
0.9518856009
 40
0.9611299062
 40
0.9705396266
 40
0.9801373904
 40
0.9899486208
 40
1.0
 40
1.0
 40
1.0
 40
1.0
 10
5.148560578
 20
3.9940962164
 30
0.0
 10
5.1477892706
 20
3.9940962164
 30
0.0
 10
5.1462650093
 20
3.9941160436
 30
0.0
 10
5.1440057788
 20
3.9942031135
 30
0.0
 10
5.1417984969
 20
3.9943421785
 30
0.0
 10
5.1396383809
 20
3.9945282863
 30
0.0
 10
5.1375211553
 20
3.9947563843
 30
0.0
 10
5.1354435051
 20
3.9950239233
 30
0.0
 10
5.1334027366
 20
3.9953283467
 30
0.0
 10
5.1307441626
 20
3.9957771491
 30
0.0
 10
5.1274955631
 20
3.996416701
 30
0.0
 10
5.1236876833
 20
3.9973033899
 30
0.0
 10
5.1199826969
 20
3.998291413
 30
0.0
 10
5.1163709454
 20
3.9993720774
 30
0.0
 10
5.1128441475
 20
4.0005363339
 30
0.0
 10
5.1093963353
 20
4.0017792741
 30
0.0
 10
5.106022297
 20
4.0030958321
 30
0.0
 10
5.1027170032
 20
4.0044808664
 30
0.0
 10
5.0994756758
 20
4.005929099
 30
0.0
 10
5.0962951693
 20
4.0074379791
 30
0.0
 10
5.0931727205
 20
4.0090048256
 30
0.0
 10
5.0901056461
 20
4.0106269151
 30
0.0
 10
5.0870913431
 20
4.0123014727
 30
0.0
 10
5.0841280327
 20
4.0140269319
 30
0.0
 10
5.081214052
 20
4.0158016798
 30
0.0
 10
5.0773998668
 20
4.0182267489
 30
0.0
 10
5.0727436248
 20
4.0213745464
 30
0.0
 10
5.0673219349
 20
4.02533483
 30
0.0
 10
5.0620683767
 20
4.029462339
 30
0.0
 10
5.0569796179
 20
4.033754373
 30
0.0
 10
5.0520526759
 20
4.0382080063
 30
0.0
 10
5.0472846208
 20
4.0428202592
 30
0.0
 10
5.0426723679
 20
4.0475883143
 30
0.0
 10
5.0382187345
 20
4.0525152564
 30
0.0
 10
5.0339267006
 20
4.0576040151
 30
0.0
 10
5.0297991916
 20
4.0628575734
 30
0.0
 10
5.0258389079
 20
4.0682792632
 30
0.0
 10
5.0226911105
 20
4.0729355053
 30
0.0
 10
5.0202660413
 20
4.0767496904
 30
0.0
 10
5.0184912935
 20
4.0796636711
 30
0.0
 10
5.0167658342
 20
4.0826269815
 30
0.0
 10
5.0150912766
 20
4.0856412845
 30
0.0
 10
5.0134691872
 20
4.0887083589
 30
0.0
 10
5.0119023407
 20
4.0918308078
 30
0.0
 10
5.0103934605
 20
4.0950113143
 30
0.0
 10
5.008945228
 20
4.0982526416
 30
0.0
 10
5.0075601937
 20
4.1015579355
 30
0.0
 10
5.0062436357
 20
4.1049319737
 30
0.0
 10
5.0050006955
 20
4.1083797859
 30
0.0
 10
5.003836439
 20
4.1119065839
 30
0.0
 10
5.0027557746
 20
4.1155183353
 30
0.0
 10
5.0017677514
 20
4.1192233217
 30
0.0
 10
5.0008810626
 20
4.1230312015
 30
0.0
 10
5.0002415107
 20
4.1262798011
 30
0.0
 10
4.9997927083
 20
4.128938375
 30
0.0
 10
4.9994882849
 20
4.1309791436
 30
0.0
 10
4.9992207458
 20
4.1330567938
 30
0.0
 10
4.9989926478
 20
4.1351740194
 30
0.0
 10
4.9988065401
 20
4.1373341353
 30
0.0
 10
4.9986674751
 20
4.1395414172
 30
0.0
 10
4.9985804052
 20
4.1418006478
 30
0.0
 10
4.998560578
 20
4.143324909
 30
0.0
 10
4.998560578
 20
4.1440962164
 30
0.0
  0
SPLINE
  5
333
100
AcDbEntity
  8
0
100
AcDbSpline
 62
6
  6
CONTINUOUS
 70
0
 71
3
 72
67
 73
63
 74
0
 42
0.0000001
 43
0.0000001
 44
0.0000000001
 40
0.0
 40
0.0
 40
0.0
 40
0.0
 40
0.0100513792
 40
0.0198626096
 40
0.0294603734
 40
0.0388700938
 40
0.0481143991
 40
0.0572088564
 40
0.0661669004
 40
0.0750013742
 40
0.0923428572
 40
0.1093040533
 40
0.1259427625
 40
0.1423040787
 40
0.1584257909
 40
0.1743360616
 40
0.1900594409
 40
0.2056186395
 40
0.2210336608
 40
0.2363195704
 40
0.2514896443
 40
0.2665562883
 40
0.2815307346
 40
0.2964222912
 40
0.3112394592
 40
0.3259902514
 40
0.3553201714
 40
0.3844643596
 40
0.4134672397
 40
0.4423671083
 40
0.4711999159
 40
0.5
 40
0.5288000841
 40
0.5576328917
 40
0.5865327603
 40
0.6155356404
 40
0.6446798286
 40
0.6740097486
 40
0.6887605408
 40
0.7035777088
 40
0.7184692654
 40
0.7334437117
 40
0.7485103557
 40
0.7636804296
 40
0.7789663392
 40
0.7943813605
 40
0.8099405591
 40
0.8256639384
 40
0.8415742091
 40
0.8576959213
 40
0.8740572375
 40
0.8906959467
 40
0.9076571428
 40
0.9249986258
 40
0.9338330996
 40
0.9427911436
 40
0.9518856009
 40
0.9611299062
 40
0.9705396266
 40
0.9801373904
 40
0.9899486208
 40
1.0
 40
1.0
 40
1.0
 40
1.0
 10
6.502100578
 20
3.9940962164
 30
0.0
 10
6.5028718854
 20
3.9940962164
 30
0.0
 10
6.5043961467
 20
3.9941160436
 30
0.0
 10
6.5066553772
 20
3.9942031135
 30
0.0
 10
6.5088626591
 20
3.9943421785
 30
0.0
 10
6.511022775
 20
3.9945282863
 30
0.0
 10
6.5131400007
 20
3.9947563843
 30
0.0
 10
6.5152176508
 20
3.9950239233
 30
0.0
 10
6.5172584194
 20
3.9953283467
 30
0.0
 10
6.5199169933
 20
3.9957771491
 30
0.0
 10
6.5231655929
 20
3.996416701
 30
0.0
 10
6.5269734727
 20
3.9973033899
 30
0.0
 10
6.5306784591
 20
3.998291413
 30
0.0
 10
6.5342902106
 20
3.9993720774
 30
0.0
 10
6.5378170085
 20
4.0005363339
 30
0.0
 10
6.5412648207
 20
4.0017792741
 30
0.0
 10
6.5446388589
 20
4.0030958321
 30
0.0
 10
6.5479441528
 20
4.0044808664
 30
0.0
 10
6.5511854802
 20
4.005929099
 30
0.0
 10
6.5543659866
 20
4.0074379791
 30
0.0
 10
6.5574884355
 20
4.0090048256
 30
0.0
 10
6.5605555099
 20
4.0106269151
 30
0.0
 10
6.5635698129
 20
4.0123014727
 30
0.0
 10
6.5665331233
 20
4.0140269319
 30
0.0
 10
6.569447104
 20
4.0158016798
 30
0.0
 10
6.5732612891
 20
4.0182267489
 30
0.0
 10
6.5779175312
 20
4.0213745464
 30
0.0
 10
6.5833392211
 20
4.02533483
 30
0.0
 10
6.5885927793
 20
4.029462339
 30
0.0
 10
6.5936815381
 20
4.033754373
 30
0.0
 10
6.5986084801
 20
4.0382080063
 30
0.0
 10
6.6033765352
 20
4.0428202592
 30
0.0
 10
6.6079887881
 20
4.0475883143
 30
0.0
 10
6.6124424215
 20
4.0525152564
 30
0.0
 10
6.6167344554
 20
4.0576040151
 30
0.0
 10
6.6208619644
 20
4.0628575734
 30
0.0
 10
6.6248222481
 20
4.0682792632
 30
0.0
 10
6.6279700455
 20
4.0729355053
 30
0.0
 10
6.6303951147
 20
4.0767496904
 30
0.0
 10
6.6321698625
 20
4.0796636711
 30
0.0
 10
6.6338953218
 20
4.0826269815
 30
0.0
 10
6.6355698793
 20
4.0856412845
 30
0.0
 10
6.6371919688
 20
4.0887083589
 30
0.0
 10
6.6387588153
 20
4.0918308078
 30
0.0
 10
6.6402676954
 20
4.0950113143
 30
0.0
 10
6.641715928
 20
4.0982526416
 30
0.0
 10
6.6431009623
 20
4.1015579355
 30
0.0
 10
6.6444175203
 20
4.1049319737
 30
0.0
 10
6.6456604605
 20
4.1083797859
 30
0.0
 10
6.646824717
 20
4.1119065839
 30
0.0
 10
6.6479053814
 20
4.1155183353
 30
0.0
 10
6.6488934045
 20
4.1192233217
 30
0.0
 10
6.6497800934
 20
4.1230312015
 30
0.0
 10
6.6504196453
 20
4.1262798011
 30
0.0
 10
6.6508684477
 20
4.128938375
 30
0.0
 10
6.6511728711
 20
4.1309791436
 30
0.0
 10
6.6514404101
 20
4.1330567938
 30
0.0
 10
6.6516685082
 20
4.1351740194
 30
0.0
 10
6.6518546159
 20
4.1373341353
 30
0.0
 10
6.6519936809
 20
4.1395414172
 30
0.0
 10
6.6520807508
 20
4.1418006478
 30
0.0
 10
6.652100578
 20
4.143324909
 30
0.0
 10
6.652100578
 20
4.1440962164
 30
0.0
  0
SPLINE
  5
334
100
AcDbEntity
  8
0
100
AcDbSpline
 62
6
  6
CONTINUOUS
 70
0
 71
3
 72
15
 73
11
 74
0
 42
0.0000001
 43
0.0000001
 44
0.0000000001
 40
0.0
 40
0.0
 40
0.0
 40
0.0
 40
0.1246416398
 40
0.2494359763
 40
0.3743472045
 40
0.4993600142
 40
0.6244514509
 40
0.7495994945
 40
0.8747922014
 40
1.0
 40
1.0
 40
1.0
 40
1.0
 10
5.7423407213
 20
3.1887161357
 30
0.0
 10
5.7428330271
 20
3.1874885171
 30
0.0
 10
5.7437621993
 20
3.1850088666
 30
0.0
 10
5.7449839958
 20
3.1812275733
 30
0.0
 10
5.7460305314
 20
3.1773898818
 30
0.0
 10
5.7468979849
 20
3.1735045638
 30
0.0
 10
5.747583106
 20
3.1695804195
 30
0.0
 10
5.7480833428
 20
3.1656264911
 30
0.0
 10
5.7483967168
 20
3.1616522284
 30
0.0
 10
5.7484802834
 20
3.1589952085
 30
0.0
 10
5.748490638
 20
3.1576665874
 30
0.0
  0
SPLINE
  5
335
100
AcDbEntity
  8
0
100
AcDbSpline
 62
6
  6
CONTINUOUS
 70
0
 71
3
 72
15
 73
11
 74
0
 42
0.0000001
 43
0.0000001
 44
0.0000000001
 40
0.0
 40
0.0
 40
0.0
 40
0.0
 40
0.1252077986
 40
0.2504005055
 40
0.3755485491
 40
0.5006399858
 40
0.6256527955
 40
0.7505640237
 40
0.8753583602
 40
1.0
 40
1.0
 40
1.0
 40
1.0
 10
5.9021705179
 20
3.1576665874
 30
0.0
 10
5.9021808726
 20
3.1589952085
 30
0.0
 10
5.9022644392
 20
3.1616522284
 30
0.0
 10
5.9025778132
 20
3.1656264911
 30
0.0
 10
5.90307805
 20
3.1695804195
 30
0.0
 10
5.9037631711
 20
3.1735045638
 30
0.0
 10
5.9046306246
 20
3.1773898818
 30
0.0
 10
5.9056771602
 20
3.1812275733
 30
0.0
 10
5.9068989567
 20
3.1850088666
 30
0.0
 10
5.9078281289
 20
3.1874885171
 30
0.0
 10
5.9083204346
 20
3.1887161357
 30
0.0
  0
SPLINE
  5
336
100
AcDbEntity
  8
0
100
AcDbSpline
 62
6
  6
CONTINUOUS
 70
0
 71
3
 72
23
 73
19
 74
0
 42
0.0000001
 43
0.0000001
 44
0.0000000001
 40
0.0
 40
0.0
 40
0.0
 40
0.0
 40
0.0657402614
 40
0.1311295477
 40
0.1961314669
 40
0.2607209648
 40
0.3248731389
 40
0.3885691968
 40
0.4517949237
 40
0.5145413091
 40
0.576804716
 40
0.6385870424
 40
0.6998958665
 40
0.760744496
 40
0.8211522022
 40
0.8811425432
 40
0.9407481258
 40
1.0
 40
1.0
 40
1.0
 40
1.0
 10
5.9083204346
 20
3.1887161357
 30
0.0
 10
5.9088113326
 20
3.1901243277
 30
0.0
 10
5.9098582893
 20
3.1929101106
 30
0.0
 10
5.911625201
 20
3.1969952664
 30
0.0
 10
5.9135797912
 20
3.2009651001
 30
0.0
 10
5.9157163144
 20
3.2048079843
 30
0.0
 10
5.9180286845
 20
3.208512875
 30
0.0
 10
5.9205102208
 20
3.2120690415
 30
0.0
 10
5.9231537848
 20
3.215466207
 30
0.0
 10
5.925951759
 20
3.2186945438
 30
0.0
 10
5.9288960808
 20
3.2217447074
 30
0.0
 10
5.9319782649
 20
3.2246078607
 30
0.0
 10
5.9351894252
 20
3.2272756993
 30
0.0
 10
5.9385203047
 20
3.2297404917
 30
0.0
 10
5.9419612689
 20
3.2319950561
 30
0.0
 10
5.9455024478
 20
3.2340329134
 30
0.0
 10
5.9491334108
 20
3.2358479888
 30
0.0
 10
5.9516141438
 20
3.2369091163
 30
0.0
 10
5.9528652968
 20
3.2374003018
 30
0.0
  0
SPLINE
  5
337
100
AcDbEntity
  8
0
100
AcDbSpline
 62
7
  6
CONTINUOUS
 70
0
 71
3
 72
39
 73
35
 74
0
 42
0.0000001
 43
0.0000001
 44
0.0000000001
 40
0.0
 40
0.0
 40
0.0
 40
0.0
 40
0.0293874837
 40
0.0586369216
 40
0.0877779319
 40
0.116845485
 40
0.1458740421
 40
0.1748996052
 40
0.2039583004
 40
0.2330859328
 40
0.2623174115
 40
0.2916861632
 40
0.3212235779
 40
0.3509585331
 40
0.3809170036
 40
0.4111216027
 40
0.4415913293
 40
0.4723413578
 40
0.5033829111
 40
0.5347231963
 40
0.5663653503
 40
0.5983084394
 40
0.6305475837
 40
0.663074134
 40
0.6958758578
 40
0.7289371497
 40
0.7622392648
 40
0.7957605648
 40
0.8294768531
 40
0.8633616871
 40
0.897386938
 40
0.9315222327
 40
0.9657377792
 40
1.0
 40
1.0
 40
1.0
 40
1.0
 10
5.9528652968
 20
3.2374003018
 30
0.0
 10
5.954176613
 20
3.2378635198
 30
0.0
 10
5.9568242304
 20
3.2387023061
 30
0.0
 10
5.9608617415
 20
3.2396915613
 30
0.0
 10
5.9649418949
 20
3.2404048162
 30
0.0
 10
5.9690505738
 20
3.2408390499
 30
0.0
 10
5.9731738698
 20
3.2409921672
 30
0.0
 10
5.9772975788
 20
3.2408630437
 30
0.0
 10
5.9814074478
 20
3.2404514953
 30
0.0
 10
5.9854891667
 20
3.2397583213
 30
0.0
 10
5.9895284352
 20
3.2387852924
 30
0.0
 10
5.9935110111
 20
3.2375351564
 30
0.0
 10
5.9974227627
 20
3.2360116378
 30
0.0
 10
6.00124972
 20
3.2342194301
 30
0.0
 10
6.0049781253
 20
3.2321641915
 30
0.0
 10
6.008594485
 20
3.2298525372
 30
0.0
 10
6.0120856137
 20
3.2272920177
 30
0.0
 10
6.0154386856
 20
3.2244911014
 30
0.0
 10
6.0186412828
 20
3.2214591504
 30
0.0
 10
6.0216814418
 20
3.218206398
 30
0.0
 10
6.0245476957
 20
3.2147439225
 30
0.0
 10
6.0272291232
 20
3.2110836246
 30
0.0
 10
6.0297153893
 20
3.207238189
 30
0.0
 10
6.0319967884
 20
3.2032210459
 30
0.0
 10
6.0340642866
 20
3.1990463311
 30
0.0
 10
6.0359095604
 20
3.1947288443
 30
0.0
 10
6.037525033
 20
3.1902840068
 30
0.0
 10
6.0389039129
 20
3.1857278139
 30
0.0
 10
6.0400402278
 20
3.1810767859
 30
0.0
 10
6.0409288664
 20
3.176347897
 30
0.0
 10
6.0415655685
 20
3.1715585666
 30
0.0
 10
6.0419470339
 20
3.1667264493
 30
0.0
 10
6.0420708124
 20
3.1618698024
 30
0.0
 10
6.0419806129
 20
3.1586286108
 30
0.0
 10
6.0418922547
 20
3.1570096023
 30
0.0
  0
SPLINE
  5
338
100
AcDbEntity
  8
0
100
AcDbSpline
 62
7
  6
CONTINUOUS
 70
0
 71
3
 72
30
 73
26
 74
0
 42
0.0000001
 43
0.0000001
 44
0.0000000001
 40
0.0
 40
0.0
 40
0.0
 40
0.0
 40
0.0296023898
 40
0.0592153434
 40
0.0888543674
 40
0.1185346746
 40
0.1482710104
 40
0.1780775262
 40
0.2079676934
 40
0.2379541463
 40
0.2680486367
 40
0.2982619115
 40
0.3286036565
 40
0.3590824443
 40
0.3897056607
 40
0.4204795062
 40
0.4824837657
 40
0.5451345051
 40
0.6084368639
 40
0.672376979
 40
0.7369231255
 40
0.8020272272
 40
0.8676266335
 40
0.9336461311
 40
1.0
 40
1.0
 40
1.0
 40
1.0
 10
5.9731564486
 20
3.0829760772
 30
0.0
 10
5.9740872562
 20
3.082964818
 30
0.0
 10
5.9759500509
 20
3.0829869539
 30
0.0
 10
5.9787401901
 20
3.0831537829
 30
0.0
 10
5.9815216938
 20
3.0834537568
 30
0.0
 10
5.9842896253
 20
3.0838860494
 30
0.0
 10
5.9870391997
 20
3.0844496751
 30
0.0
 10
5.9897656639
 20
3.0851433902
 30
0.0
 10
5.9924643475
 20
3.0859657064
 30
0.0
 10
5.9951306327
 20
3.0869149782
 30
0.0
 10
5.9977600165
 20
3.0879892534
 30
0.0
 10
6.0003480461
 20
3.0891864705
 30
0.0
 10
6.0028904071
 20
3.0905042776
 30
0.0
 10
6.0053828439
 20
3.091940174
 30
0.0
 10
6.007821283
 20
3.0934914948
 30
0.0
 10
6.0110026844
 20
3.0957151323
 30
0.0
 10
6.0148249263
 20
3.0987715983
 30
0.0
 10
6.0191211102
 20
3.1028402815
 30
0.0
 10
6.0231122328
 20
3.1072906734
 30
0.0
 10
6.0267731882
 20
3.1120911724
 30
0.0
 10
6.030081655
 20
3.1172084155
 30
0.0
 10
6.0330177768
 20
3.1226072156
 30
0.0
 10
6.0355643978
 20
3.128251056
 30
0.0
 10
6.0377069325
 20
3.1341016959
 30
0.0
 10
6.0388559733
 20
3.1381068881
 30
0.0
 10
6.0393602976
 20
3.1401315847
 30
0.0
  0
SPLINE
  5
339
100
AcDbEntity
  8
0
100
AcDbSpline
 62
6
  6
CONTINUOUS
 70
0
 71
3
 72
23
 73
19
 74
0
 42
0.0000001
 43
0.0000001
 44
0.0000000001
 40
0.0
 40
0.0
 40
0.0
 40
0.0
 40
0.0592518742
 40
0.1188574568
 40
0.1788477978
 40
0.239255504
 40
0.3001041335
 40
0.3614129576
 40
0.423195284
 40
0.4854586909
 40
0.5482050763
 40
0.6114308032
 40
0.6751268611
 40
0.7392790352
 40
0.8038685331
 40
0.8688704523
 40
0.9342597386
 40
1.0
 40
1.0
 40
1.0
 40
1.0
 10
5.6977958592
 20
3.2374003018
 30
0.0
 10
5.6990470121
 20
3.2369091163
 30
0.0
 10
5.7015277452
 20
3.2358479888
 30
0.0
 10
5.7051587082
 20
3.2340329134
 30
0.0
 10
5.7086998871
 20
3.2319950561
 30
0.0
 10
5.7121408512
 20
3.2297404917
 30
0.0
 10
5.7154717308
 20
3.2272756993
 30
0.0
 10
5.7186828911
 20
3.2246078607
 30
0.0
 10
5.7217650752
 20
3.2217447074
 30
0.0
 10
5.724709397
 20
3.2186945438
 30
0.0
 10
5.7275073712
 20
3.215466207
 30
0.0
 10
5.7301509352
 20
3.2120690415
 30
0.0
 10
5.7326324715
 20
3.208512875
 30
0.0
 10
5.7349448416
 20
3.2048079843
 30
0.0
 10
5.7370813647
 20
3.2009651001
 30
0.0
 10
5.739035955
 20
3.1969952664
 30
0.0
 10
5.7408028667
 20
3.1929101106
 30
0.0
 10
5.7418498234
 20
3.1901243277
 30
0.0
 10
5.7423407213
 20
3.1887161357
 30
0.0
  0
SPLINE
  5
33A
100
AcDbEntity
  8
0
100
AcDbSpline
 62
7
  6
CONTINUOUS
 70
0
 71
3
 72
39
 73
35
 74
0
 42
0.0000001
 43
0.0000001
 44
0.0000000001
 40
0.0
 40
0.0
 40
0.0
 40
0.0
 40
0.0342622208
 40
0.0684777673
 40
0.102613062
 40
0.1366383129
 40
0.1705231469
 40
0.2042394352
 40
0.2377607352
 40
0.2710628503
 40
0.3041241422
 40
0.336925866
 40
0.3694524163
 40
0.4016915606
 40
0.4336346497
 40
0.4652768037
 40
0.4966170889
 40
0.5276586422
 40
0.5584086707
 40
0.5888783973
 40
0.6190829964
 40
0.6490414669
 40
0.6787764221
 40
0.7083138368
 40
0.7376825885
 40
0.7669140672
 40
0.7960416996
 40
0.8251003948
 40
0.8541259579
 40
0.883154515
 40
0.9122220681
 40
0.9413630784
 40
0.9706125163
 40
1.0
 40
1.0
 40
1.0
 40
1.0
 10
5.6087689013
 20
3.1570096023
 30
0.0
 10
5.6086805431
 20
3.1586286108
 30
0.0
 10
5.6085903436
 20
3.1618698024
 30
0.0
 10
5.608714122
 20
3.1667264493
 30
0.0
 10
5.6090955875
 20
3.1715585666
 30
0.0
 10
5.6097322896
 20
3.176347897
 30
0.0
 10
5.6106209282
 20
3.1810767859
 30
0.0
 10
5.6117572431
 20
3.1857278139
 30
0.0
 10
5.613136123
 20
3.1902840068
 30
0.0
 10
5.6147515956
 20
3.1947288443
 30
0.0
 10
5.6165968694
 20
3.1990463311
 30
0.0
 10
5.6186643676
 20
3.2032210459
 30
0.0
 10
5.6209457667
 20
3.207238189
 30
0.0
 10
5.6234320327
 20
3.2110836246
 30
0.0
 10
5.6261134603
 20
3.2147439225
 30
0.0
 10
5.6289797142
 20
3.218206398
 30
0.0
 10
5.6320198732
 20
3.2214591504
 30
0.0
 10
5.6352224703
 20
3.2244911014
 30
0.0
 10
5.6385755423
 20
3.2272920177
 30
0.0
 10
5.642066671
 20
3.2298525372
 30
0.0
 10
5.6456830307
 20
3.2321641915
 30
0.0
 10
5.649411436
 20
3.2342194301
 30
0.0
 10
5.6532383933
 20
3.2360116378
 30
0.0
 10
5.6571501449
 20
3.2375351564
 30
0.0
 10
5.6611327208
 20
3.2387852924
 30
0.0
 10
5.6651719893
 20
3.2397583213
 30
0.0
 10
5.6692537082
 20
3.2404514953
 30
0.0
 10
5.6733635772
 20
3.2408630437
 30
0.0
 10
5.6774872862
 20
3.2409921672
 30
0.0
 10
5.6816105821
 20
3.2408390499
 30
0.0
 10
5.6857192611
 20
3.2404048162
 30
0.0
 10
5.6897994144
 20
3.2396915613
 30
0.0
 10
5.6938369255
 20
3.2387023061
 30
0.0
 10
5.696484543
 20
3.2378635198
 30
0.0
 10
5.6977958592
 20
3.2374003018
 30
0.0
  0
SPLINE
  5
33B
100
AcDbEntity
  8
0
100
AcDbSpline
 62
7
  6
CONTINUOUS
 70
0
 71
3
 72
52
 73
48
 74
0
 42
0.0000001
 43
0.0000001
 44
0.0000000001
 40
0.0
 40
0.0
 40
0.0
 40
0.0
 40
0.0333723179
 40
0.0667152397
 40
0.0999824546
 40
0.1331288132
 40
0.1661122536
 40
0.182533157
 40
0.1988992505
 40
0.2314457976
 40
0.2637283659
 40
0.2797661731
 40
0.2957301966
 40
0.3116187434
 40
0.3274305992
 40
0.3588158551
 40
0.3898921051
 40
0.4206681488
 40
0.4511613237
 40
0.4813973638
 40
0.4964327479
 40
0.5114171226
 40
0.5263558301
 40
0.5412545881
 40
0.5561194802
 40
0.5709568808
 40
0.5857734353
 40
0.6005759884
 40
0.6153715376
 40
0.6301671836
 40
0.6449700471
 40
0.659787251
 40
0.6746258034
 40
0.6894926045
 40
0.7043943204
 40
0.7193373875
 40
0.7343279137
 40
0.7493716492
 40
0.7644739471
 40
0.7796396818
 40
0.8101713381
 40
0.8410028057
 40
0.8721536731
 40
0.9036338105
 40
0.9354431448
 40
0.9675717181
 40
1.0
 40
1.0
 40
1.0
 40
1.0
 10
5.6087689013
 20
3.1570096023
 30
0.0
 10
5.6088778021
 20
3.155014186
 30
0.0
 10
5.609226906
 20
3.1510310174
 30
0.0
 10
5.6101433061
 20
3.1451102356
 30
0.0
 10
5.6114491356
 20
3.1392764688
 30
0.0
 10
5.6131386203
 20
3.1335646129
 30
0.0
 10
5.6148623926
 20
3.1289270919
 30
0.0
 10
5.6164253128
 20
3.1253112891
 30
0.0
 10
5.6181026063
 20
3.121776034
 30
0.0
 10
5.6204181179
 20
3.1174957657
 30
0.0
 10
5.6230255215
 20
3.1134097859
 30
0.0
 10
5.6252731379
 20
3.1102837276
 30
0.0
 10
5.6270332593
 20
3.1080187974
 30
0.0
 10
5.6288688142
 20
3.1058321594
 30
0.0
 10
5.6314067388
 20
3.1030329938
 30
0.0
 10
5.6347539772
 20
3.0997445571
 30
0.0
 10
5.6390380424
 20
3.0961551099
 30
0.0
 10
5.6435554412
 20
3.0929549256
 30
0.0
 10
5.6482791675
 20
3.0901657248
 30
0.0
 10
5.6523727762
 20
3.0881956675
 30
0.0
 10
5.655719753
 20
3.0868452108
 30
0.0
 10
5.6582587874
 20
3.0859474357
 30
0.0
 10
5.6608270247
 20
3.085164712
 30
0.0
 10
5.6634205369
 20
3.0844984177
 30
0.0
 10
5.666035289
 20
3.0839498674
 30
0.0
 10
5.6686671952
 20
3.0835201289
 30
0.0
 10
5.6713121213
 20
3.083210106
 30
0.0
 10
5.6739658912
 20
3.0830205244
 30
0.0
 10
5.6766242906
 20
3.0829518687
 30
0.0
 10
5.679283077
 20
3.0830045057
 30
0.0
 10
5.6819379875
 20
3.0831785007
 30
0.0
 10
5.6845847367
 20
3.0834738362
 30
0.0
 10
5.687219043
 20
3.0838901722
 30
0.0
 10
5.6898366083
 20
3.0844270757
 30
0.0
 10
5.6924331568
 20
3.0850838212
 30
0.0
 10
5.6950044129
 20
3.0858595358
 30
0.0
 10
5.697546131
 20
3.0867531227
 30
0.0
 10
5.7000540834
 20
3.0877632538
 30
0.0
 10
5.7025241246
 20
3.0888884915
 30
0.0
 10
5.7057681831
 20
3.0905433277
 30
0.0
 10
5.7097094792
 20
3.0928939376
 30
0.0
 10
5.71420985
 20
3.0961358839
 30
0.0
 10
5.7184620816
 20
3.0997849858
 30
0.0
 10
5.722436548
 20
3.1038170719
 30
0.0
 10
5.7261056843
 20
3.1082053715
 30
0.0
 10
5.7294434291
 20
3.1129198097
 30
0.0
 10
5.7314237615
 20
3.1162452435
 30
0.0
 10
5.7323520701
 20
3.1179508359
 30
0.0
  0
SPLINE
  5
33C
100
AcDbEntity
  8
0
100
AcDbSpline
 62
7
  6
CONTINUOUS
 70
0
 71
3
 72
37
 73
33
 74
0
 42
0.0000001
 43
0.0000001
 44
0.0000000001
 40
0.0
 40
0.0
 40
0.0
 40
0.0
 40
0.0331417091
 40
0.066315294
 40
0.0994867356
 40
0.1326315572
 40
0.1657334742
 40
0.1987757772
 40
0.2317391159
 40
0.2646040974
 40
0.3299542185
 40
0.3624234015
 40
0.3947308357
 40
0.4587930228
 40
0.4905427519
 40
0.5220875099
 40
0.5534206785
 40
0.5845372937
 40
0.6154351572
 40
0.6461140517
 40
0.6765761088
 40
0.7068255392
 40
0.7368687097
 40
0.7667139773
 40
0.7963720287
 40
0.8258556513
 40
0.8551789315
 40
0.8843569535
 40
0.9134080979
 40
0.9423544029
 40
0.9712149725
 40
1.0
 40
1.0
 40
1.0
 40
1.0
 10
5.6192098341
 20
3.1631189585
 30
0.0
 10
5.6191232715
 20
3.1620587354
 30
0.0
 10
5.6189953322
 20
3.159933298
 30
0.0
 10
5.6189388753
 20
3.1567396551
 30
0.0
 10
5.6190181522
 20
3.1535463324
 30
0.0
 10
5.6192330421
 20
3.1503615859
 30
0.0
 10
5.619582852
 20
3.1471929783
 30
0.0
 10
5.6200669202
 20
3.1440480012
 30
0.0
 10
5.6206838608
 20
3.1409340233
 30
0.0
 10
5.6216798388
 20
3.1368420824
 30
0.0
 10
5.6229363178
 20
3.1328334107
 30
0.0
 10
5.6244475343
 20
3.1289384864
 30
0.0
 10
5.6261138451
 20
3.1251525357
 30
0.0
 10
5.6280232849
 20
3.1215027932
 30
0.0
 10
5.6301650578
 20
3.1180196965
 30
0.0
 10
5.6318757272
 20
3.1155085619
 30
0.0
 10
5.6336908422
 20
3.1130973169
 30
0.0
 10
5.6356062932
 20
3.1107918507
 30
0.0
 10
5.6376172937
 20
3.1085976181
 30
0.0
 10
5.6397191049
 20
3.1065199474
 30
0.0
 10
5.6419066469
 20
3.1045637918
 30
0.0
 10
5.6441746945
 20
3.1027338582
 30
0.0
 10
5.6465178067
 20
3.1010345411
 30
0.0
 10
5.6489303695
 20
3.0994699256
 30
0.0
 10
5.65140661
 20
3.0980437786
 30
0.0
 10
5.6539406031
 20
3.0967595628
 30
0.0
 10
5.6565262243
 20
3.0956203919
 30
0.0
 10
5.6591572188
 20
3.0946289791
 30
0.0
 10
5.6618273567
 20
3.0937878068
 30
0.0
 10
5.6645302879
 20
3.0930988497
 30
0.0
 10
5.6672590981
 20
3.0925640011
 30
0.0
 10
5.6690930809
 20
3.0923105472
 30
0.0
 10
5.6700115109
 20
3.0922100282
 30
0.0
  0
SPLINE
  5
33D
100
AcDbEntity
  8
0
100
AcDbSpline
 62
6
  6
CONTINUOUS
 70
0
 71
3
 72
21
 73
17
 74
0
 42
0.0000001
 43
0.0000001
 44
0.0000000001
 40
0.0
 40
0.0
 40
0.0
 40
0.0
 40
0.0600611597
 40
0.1205535754
 40
0.1814465936
 40
0.2427240702
 40
0.3043785282
 40
0.3663957491
 40
0.4287516875
 40
0.4914209149
 40
0.554374921
 40
0.6175841225
 40
0.7445867773
 40
0.8721651692
 40
0.936088821
 40
1.0
 40
1.0
 40
1.0
 40
1.0
 10
5.6363822269
 20
3.2132356454
 30
0.0
 10
5.6356789918
 20
3.212409952
 30
0.0
 10
5.6343070895
 20
3.2107184413
 30
0.0
 10
5.6323652983
 20
3.2080778425
 30
0.0
 10
5.630537803
 20
3.2053303863
 30
0.0
 10
5.6288299662
 20
3.2024825347
 30
0.0
 10
5.6272465734
 20
3.1995405856
 30
0.0
 10
5.6257922549
 20
3.196511132
 30
0.0
 10
5.6244713034
 20
3.1934012723
 30
0.0
 10
5.6232881862
 20
3.190218375
 30
0.0
 10
5.6222465416
 20
3.186970162
 30
0.0
 10
5.6210497748
 20
3.182556577
 30
0.0
 10
5.6199272947
 20
3.1769202352
 30
0.0
 10
5.6193205354
 20
3.1711921792
 30
0.0
 10
5.6191508641
 20
3.1665817958
 30
0.0
 10
5.6191722713
 20
3.1642724481
 30
0.0
 10
5.6192098341
 20
3.1631189585
 30
0.0
  0
SPLINE
  5
33E
100
AcDbEntity
  8
0
100
AcDbSpline
 62
6
  6
CONTINUOUS
 70
0
 71
3
 72
70
 73
66
 74
0
 42
0.0000001
 43
0.0000001
 44
0.0000000001
 40
0.0
 40
0.0
 40
0.0
 40
0.0
 40
0.0155364685
 40
0.0309791485
 40
0.0463222831
 40
0.0615645056
 40
0.0767122155
 40
0.0917731887
 40
0.106755342
 40
0.1216663526
 40
0.1365144208
 40
0.1513092686
 40
0.166061393
 40
0.1807815831
 40
0.1954812115
 40
0.2101715963
 40
0.2248640889
 40
0.2395701747
 40
0.2543008595
 40
0.2690668401
 40
0.2838783431
 40
0.2987447731
 40
0.3136749177
 40
0.3286766615
 40
0.3437568718
 40
0.3589215628
 40
0.3741755941
 40
0.3895227429
 40
0.4049658125
 40
0.4205063808
 40
0.4361449827
 40
0.4518811788
 40
0.4677133687
 40
0.4836390219
 40
0.4996547388
 40
0.5157561064
 40
0.54818618
 40
0.5645105217
 40
0.5808954949
 40
0.5973333752
 40
0.613815812
 40
0.6303340774
 40
0.6468792577
 40
0.6634420087
 40
0.6800128191
 40
0.6965822645
 40
0.7131406761
 40
0.7296784285
 40
0.7461862596
 40
0.7626548413
 40
0.779075082
 40
0.7954384843
 40
0.8117366425
 40
0.8279616045
 40
0.8441063592
 40
0.8601641703
 40
0.8761287862
 40
0.8919946764
 40
0.9077566219
 40
0.9234105108
 40
0.9389547934
 40
0.9543887415
 40
0.9697110324
 40
0.9849166448
 40
1.0
 40
1.0
 40
1.0
 40
1.0
 10
5.6363822269
 20
3.2132356454
 30
0.0
 10
5.6372366018
 20
3.2140701749
 30
0.0
 10
5.6389844349
 20
3.2156896093
 30
0.0
 10
5.6417229428
 20
3.2179682115
 30
0.0
 10
5.6445623403
 20
3.2200823641
 30
0.0
 10
5.6474942958
 20
3.2220254107
 30
0.0
 10
5.650510305
 20
3.2237927716
 30
0.0
 10
5.6536024907
 20
3.2253799385
 30
0.0
 10
5.656762559
 20
3.2267830179
 30
0.0
 10
5.6599817926
 20
3.2279989304
 30
0.0
 10
5.6632516466
 20
3.2290242305
 30
0.0
 10
5.6665632488
 20
3.2298566611
 30
0.0
 10
5.6699077386
 20
3.2304947
 30
0.0
 10
5.6732763798
 20
3.2309365448
 30
0.0
 10
5.6766602431
 20
3.2311817975
 30
0.0
 10
5.6800505096
 20
3.2312303267
 30
0.0
 10
5.6834383622
 20
3.2310819307
 30
0.0
 10
5.6868150615
 20
3.2307379242
 30
0.0
 10
5.6901719822
 20
3.2301995534
 30
0.0
 10
5.6935004977
 20
3.2294682945
 30
0.0
 10
5.6967923011
 20
3.2285469886
 30
0.0
 10
5.7000390964
 20
3.227438209
 30
0.0
 10
5.7032326984
 20
3.2261450404
 30
0.0
 10
5.7063653975
 20
3.2246716642
 30
0.0
 10
5.7094293791
 20
3.2230219292
 30
0.0
 10
5.7124171302
 20
3.2212003914
 30
0.0
 10
5.7153216601
 20
3.219212395
 30
0.0
 10
5.7181357878
 20
3.2170629805
 30
0.0
 10
5.7208528546
 20
3.2147579843
 30
0.0
 10
5.723466685
 20
3.2123037516
 30
0.0
 10
5.7259708785
 20
3.2097063979
 30
0.0
 10
5.7283597631
 20
3.2069728279
 30
0.0
 10
5.7306280649
 20
3.2041102221
 30
0.0
 10
5.7327702786
 20
3.2011256558
 30
0.0
 10
5.7347818685
 20
3.1980267609
 30
0.0
 10
5.7372895671
 20
3.1937436741
 30
0.0
 10
5.7395116416
 20
3.1892716446
 30
0.0
 10
5.7414377591
 20
3.1846482457
 30
0.0
 10
5.7427362601
 20
3.1810989796
 30
0.0
 10
5.7438828436
 20
3.1774851613
 30
0.0
 10
5.7448753685
 20
3.1738153958
 30
0.0
 10
5.7457115737
 20
3.1700984542
 30
0.0
 10
5.7463903341
 20
3.1663433057
 30
0.0
 10
5.7469105362
 20
3.162558858
 30
0.0
 10
5.7472710885
 20
3.158754013
 30
0.0
 10
5.747472011
 20
3.1549377535
 30
0.0
 10
5.7475132883
 20
3.1511189721
 30
0.0
 10
5.7473949655
 20
3.1473065428
 30
0.0
 10
5.7471181737
 20
3.143509263
 30
0.0
 10
5.7466839708
 20
3.1397358348
 30
0.0
 10
5.7460934966
 20
3.1359949214
 30
0.0
 10
5.7453489471
 20
3.1322949644
 30
0.0
 10
5.7444524187
 20
3.1286443097
 30
0.0
 10
5.7434060847
 20
3.1250512324
 30
0.0
 10
5.7422131025
 20
3.1215236393
 30
0.0
 10
5.7408765159
 20
3.1180693471
 30
0.0
 10
5.739399454
 20
3.1146961228
 30
0.0
 10
5.7377860507
 20
3.1114112532
 30
0.0
 10
5.7360403127
 20
3.1082219372
 30
0.0
 10
5.7341661964
 20
3.1051351925
 30
0.0
 10
5.7321683508
 20
3.1021573444
 30
0.0
 10
5.7300513316
 20
3.099294622
 30
0.0
 10
5.7278200081
 20
3.0965535031
 30
0.0
 10
5.7254806826
 20
3.0939401113
 30
0.0
 10
5.7238464084
 20
3.0922801801
 30
0.0
 10
5.7230131592
 20
3.0914738892
 30
0.0
  0
SPLINE
  5
33F
100
AcDbEntity
  8
0
100
AcDbSpline
 62
7
  6
CONTINUOUS
 70
0
 71
3
 72
37
 73
33
 74
0
 42
0.0000001
 43
0.0000001
 44
0.0000000001
 40
0.0
 40
0.0
 40
0.0
 40
0.0
 40
0.0331417091
 40
0.066315294
 40
0.0994867356
 40
0.1326315572
 40
0.1657334742
 40
0.1987757772
 40
0.2317391159
 40
0.2646040974
 40
0.3299542185
 40
0.3624234015
 40
0.3947308357
 40
0.4587930228
 40
0.4905427519
 40
0.5220875099
 40
0.5534206785
 40
0.5845372937
 40
0.6154351572
 40
0.6461140517
 40
0.6765761088
 40
0.7068255392
 40
0.7368687097
 40
0.7667139773
 40
0.7963720287
 40
0.8258556513
 40
0.8551789315
 40
0.8843569535
 40
0.9134080979
 40
0.9423544029
 40
0.9712149725
 40
1.0
 40
1.0
 40
1.0
 40
1.0
 10
6.0314513218
 20
3.150900246
 30
0.0
 10
6.0315378845
 20
3.1519604691
 30
0.0
 10
6.0316658238
 20
3.1540859065
 30
0.0
 10
6.0317222807
 20
3.1572795494
 30
0.0
 10
6.0316430037
 20
3.1604728721
 30
0.0
 10
6.0314281139
 20
3.1636576186
 30
0.0
 10
6.031078304
 20
3.1668262262
 30
0.0
 10
6.0305942358
 20
3.1699712033
 30
0.0
 10
6.0299772952
 20
3.1730851812
 30
0.0
 10
6.0289813172
 20
3.1771771221
 30
0.0
 10
6.0277248382
 20
3.1811857938
 30
0.0
 10
6.0262136217
 20
3.1850807181
 30
0.0
 10
6.0245473109
 20
3.1888666688
 30
0.0
 10
6.0226378711
 20
3.1925164113
 30
0.0
 10
6.0204960982
 20
3.195999508
 30
0.0
 10
6.0187854288
 20
3.1985106426
 30
0.0
 10
6.0169703138
 20
3.2009218876
 30
0.0
 10
6.0150548628
 20
3.2032273538
 30
0.0
 10
6.0130438622
 20
3.2054215864
 30
0.0
 10
6.0109420511
 20
3.2074992571
 30
0.0
 10
6.0087545091
 20
3.2094554127
 30
0.0
 10
6.0064864615
 20
3.2112853463
 30
0.0
 10
6.0041433493
 20
3.2129846634
 30
0.0
 10
6.0017307865
 20
3.2145492789
 30
0.0
 10
5.999254546
 20
3.2159754259
 30
0.0
 10
5.9967205529
 20
3.2172596417
 30
0.0
 10
5.9941349317
 20
3.2183988126
 30
0.0
 10
5.9915039371
 20
3.2193902254
 30
0.0
 10
5.9888337993
 20
3.2202313977
 30
0.0
 10
5.9861308681
 20
3.2209203548
 30
0.0
 10
5.9834020578
 20
3.2214552034
 30
0.0
 10
5.9815680751
 20
3.2217086573
 30
0.0
 10
5.9806496451
 20
3.2218091763
 30
0.0
  0
SPLINE
  5
340
100
AcDbEntity
  8
0
100
AcDbSpline
 62
7
  6
CONTINUOUS
 70
0
 71
3
 72
21
 73
17
 74
0
 42
0.0000001
 43
0.0000001
 44
0.0000000001
 40
0.0
 40
0.0
 40
0.0
 40
0.0
 40
0.0600611597
 40
0.1205535754
 40
0.1814465936
 40
0.2427240702
 40
0.3043785282
 40
0.3663957491
 40
0.4287516875
 40
0.4914209149
 40
0.554374921
 40
0.6175841225
 40
0.7445867773
 40
0.8721651692
 40
0.936088821
 40
1.0
 40
1.0
 40
1.0
 40
1.0
 10
6.0142789291
 20
3.1007835591
 30
0.0
 10
6.0149821642
 20
3.1016092525
 30
0.0
 10
6.0163540665
 20
3.1033007632
 30
0.0
 10
6.0182958577
 20
3.105941362
 30
0.0
 10
6.020123353
 20
3.1086888182
 30
0.0
 10
6.0218311898
 20
3.1115366698
 30
0.0
 10
6.0234145826
 20
3.1144786189
 30
0.0
 10
6.0248689011
 20
3.1175080725
 30
0.0
 10
6.0261898526
 20
3.1206179322
 30
0.0
 10
6.0273729697
 20
3.1238008295
 30
0.0
 10
6.0284146144
 20
3.1270490425
 30
0.0
 10
6.0296113812
 20
3.1314626275
 30
0.0
 10
6.0307338612
 20
3.1370989693
 30
0.0
 10
6.0313406206
 20
3.1428270253
 30
0.0
 10
6.0315102918
 20
3.1474374087
 30
0.0
 10
6.0314888847
 20
3.1497467564
 30
0.0
 10
6.0314513218
 20
3.150900246
 30
0.0
  0
SPLINE
  5
341
100
AcDbEntity
  8
0
100
AcDbSpline
 62
7
  6
CONTINUOUS
 70
0
 71
3
 72
64
 73
60
 74
0
 42
0.0000001
 43
0.0000001
 44
0.0000000001
 40
0.0
 40
0.0
 40
0.0
 40
0.0
 40
0.031123989
 40
0.0465783607
 40
0.0619544342
 40
0.0772523979
 40
0.0924763574
 40
0.107630868
 40
0.1227207398
 40
0.1377506149
 40
0.1527250653
 40
0.1676488751
 40
0.1825274102
 40
0.197366839
 40
0.2121734428
 40
0.2269536173
 40
0.2417140965
 40
0.2564617137
 40
0.2712032025
 40
0.2859453246
 40
0.3006949993
 40
0.3154589454
 40
0.3302436465
 40
0.3450554851
 40
0.3599006537
 40
0.374784936
 40
0.3897137816
 40
0.4046923863
 40
0.4197254969
 40
0.4348173634
 40
0.4499718422
 40
0.4651923793
 40
0.4804818463
 40
0.4958426041
 40
0.5112765965
 40
0.5267852542
 40
0.5423694267
 40
0.5580294858
 40
0.5737653937
 40
0.5895765792
 40
0.605461948
 40
0.6214199928
 40
0.6374488373
 40
0.6535461205
 40
0.669709044
 40
0.702214083
 40
0.734940026
 40
0.7678527909
 40
0.8009144468
 40
0.8340836487
 40
0.8673168959
 40
0.8839455784
 40
0.900573326
 40
0.9171943743
 40
0.9338028948
 40
0.9503932523
 40
0.9669599355
 40
0.9834973668
 40
1.0
 40
1.0
 40
1.0
 40
1.0
 10
6.0142789291
 20
3.1007835591
 30
0.0
 10
6.0129627202
 20
3.0994979231
 30
0.0
 10
6.0109134417
 20
3.0976527014
 30
0.0
 10
6.0080440939
 20
3.0953754706
 30
0.0
 10
6.005838381
 20
3.0937706076
 30
0.0
 10
6.0035781977
 20
3.0922680127
 30
0.0
 10
6.0012673304
 20
3.0908696775
 30
0.0
 10
5.9989094176
 20
3.0895776143
 30
0.0
 10
5.9965080859
 20
3.0883938592
 30
0.0
 10
5.9940672619
 20
3.0873199924
 30
0.0
 10
5.9915909423
 20
3.0863574788
 30
0.0
 10
5.9890830927
 20
3.0855078447
 30
0.0
 10
5.9865476913
 20
3.0847724902
 30
0.0
 10
5.9839888531
 20
3.0841521501
 30
0.0
 10
5.9814106124
 20
3.0836475787
 30
0.0
 10
5.9788169833
 20
3.0832595998
 30
0.0
 10
5.9762120408
 20
3.0829886245
 30
0.0
 10
5.9735998646
 20
3.0828346766
 30
0.0
 10
5.9709844983
 20
3.0827978448
 30
0.0
 10
5.9683699897
 20
3.082878256
 30
0.0
 10
5.9657603607
 20
3.0830753931
 30
0.0
 10
5.9631595803
 20
3.0833886354
 30
0.0
 10
5.9605716136
 20
3.0838174213
 30
0.0
 10
5.9580004162
 20
3.0843610585
 30
0.0
 10
5.9554498087
 20
3.0850182573
 30
0.0
 10
5.9529235885
 20
3.0857877805
 30
0.0
 10
5.9504255782
 20
3.0866684507
 30
0.0
 10
5.9479594902
 20
3.0876587323
 30
0.0
 10
5.9455288743
 20
3.0887567271
 30
0.0
 10
5.9431372886
 20
3.089960605
 30
0.0
 10
5.9407883289
 20
3.0912685743
 30
0.0
 10
5.9384853309
 20
3.0926783465
 30
0.0
 10
5.9362315338
 20
3.0941875132
 30
0.0
 10
5.9340301977
 20
3.095793708
 30
0.0
 10
5.9318845789
 20
3.0974945239
 30
0.0
 10
5.9297975691
 20
3.0992870783
 30
0.0
 10
5.9277720497
 20
3.1011685079
 30
0.0
 10
5.9258109367
 20
3.1031359784
 30
0.0
 10
5.9239170211
 20
3.1051865029
 30
0.0
 10
5.9220927387
 20
3.1073167642
 30
0.0
 10
5.9203405597
 20
3.1095234949
 30
0.0
 10
5.9186630025
 20
3.1118034573
 30
0.0
 10
5.917062309
 20
3.1141531722
 30
0.0
 10
5.915540437
 20
3.1165690415
 30
0.0
 10
5.9136156505
 20
3.1198794302
 30
0.0
 10
5.9114184845
 20
3.1241649102
 30
0.0
 10
5.909131413
 20
3.1295017098
 30
0.0
 10
5.9072005979
 20
3.135012388
 30
0.0
 10
5.9056344337
 20
3.1406646599
 30
0.0
 10
5.9044408003
 20
3.1464263071
 30
0.0
 10
5.9037599646
 20
3.1512910941
 30
0.0
 10
5.9034052555
 20
3.1552061881
 30
0.0
 10
5.9032342001
 20
3.1581502909
 30
0.0
 10
5.9031582202
 20
3.1610971547
 30
0.0
 10
5.9031773538
 20
3.1640427347
 30
0.0
 10
5.9032913711
 20
3.1669829467
 30
0.0
 10
5.903499724
 20
3.1699137771
 30
0.0
 10
5.9038019095
 20
3.1728311794
 30
0.0
 10
5.9040659378
 20
3.1747668386
 30
0.0
 10
5.9042134564
 20
3.1757311816
 30
0.0
  0
SPLINE
  5
342
100
AcDbEntity
  8
0
100
AcDbSpline
 62
7
  6
CONTINUOUS
 70
0
 71
3
 72
14
 73
10
 74
0
 42
0.0000001
 43
0.0000001
 44
0.0000000001
 40
0.0
 40
0.0
 40
0.0
 40
0.0
 40
0.2530986057
 40
0.3789951056
 40
0.5043811804
 40
0.6292141323
 40
0.7534535293
 40
0.8770605941
 40
1.0
 40
1.0
 40
1.0
 40
1.0
 10
5.6135930179
 20
3.1421407673
 30
0.0
 10
5.6138727694
 20
3.1399695084
 30
0.0
 10
5.6144070125
 20
3.1367314449
 30
0.0
 10
5.6153476609
 20
3.132470703
 30
0.0
 10
5.6161633604
 20
3.1293205694
 30
0.0
 10
5.6170888601
 20
3.1262159604
 30
0.0
 10
5.6181223245
 20
3.1231618001
 30
0.0
 10
5.6192619716
 20
3.1201632103
 30
0.0
 10
5.6200936653
 20
3.1181989022
 30
0.0
 10
5.6205266576
 20
3.1172276695
 30
0.0
  0
SPLINE
  5
343
100
AcDbEntity
  8
0
100
AcDbSpline
 62
6
  6
CONTINUOUS
 70
0
 71
3
 72
55
 73
51
 74
0
 42
0.0000001
 43
0.0000001
 44
0.0000000001
 40
0.0
 40
0.0
 40
0.0
 40
0.0
 40
0.0334705339
 40
0.0668591198
 40
0.1001404913
 40
0.1332828682
 40
0.166248807
 40
0.1989940996
 40
0.2314680425
 40
0.2636144734
 40
0.2953745221
 40
0.3110962474
 40
0.326700772
 40
0.3421824713
 40
0.3575368764
 40
0.372760915
 40
0.3878533078
 40
0.402814871
 40
0.417648716
 40
0.4323604501
 40
0.4469582808
 40
0.4614529396
 40
0.4758575029
 40
0.4901871774
 40
0.504458895
 40
0.5186908035
 40
0.5329017757
 40
0.547110988
 40
0.5613373436
 40
0.5755989855
 40
0.5899130586
 40
0.6042953888
 40
0.6187601449
 40
0.6333198567
 40
0.6479853424
 40
0.6627655197
 40
0.6776676501
 40
0.6926972867
 40
0.7078582623
 40
0.7231529929
 40
0.7385823261
 40
0.7541457749
 40
0.7698415779
 40
0.8016124709
 40
0.8338627959
 40
0.8665391341
 40
0.8995741624
 40
0.9328891174
 40
0.966395608
 40
1.0
 40
1.0
 40
1.0
 40
1.0
 10
5.7423407213
 20
3.1887161357
 30
0.0
 10
5.7415674957
 20
3.1911856369
 30
0.0
 10
5.7398407847
 20
3.1960637071
 30
0.0
 10
5.7367219828
 20
3.2031573626
 30
0.0
 10
5.7330945065
 20
3.209976784
 30
0.0
 10
5.7289791371
 20
3.2164748323
 30
0.0
 10
5.7243993961
 20
3.2226031583
 30
0.0
 10
5.7193822829
 20
3.2283107893
 30
0.0
 10
5.7139589322
 20
3.2335440666
 30
0.0
 10
5.7081664445
 20
3.2382462237
 30
0.0
 10
5.7030489038
 20
3.2416858547
 30
0.0
 10
5.6988148725
 20
3.2441103177
 30
0.0
 10
5.6955885157
 20
3.2457529437
 30
0.0
 10
5.6923090864
 20
3.2472186146
 30
0.0
 10
5.6889850123
 20
3.248500665
 30
0.0
 10
5.6856253721
 20
3.2495928903
 30
0.0
 10
5.6822397095
 20
3.2504897602
 30
0.0
 10
5.6788379722
 20
3.2511865034
 30
0.0
 10
5.6754304065
 20
3.2516792463
 30
0.0
 10
5.6720274428
 20
3.2519651942
 30
0.0
 10
5.6686395363
 20
3.2520426702
 30
0.0
 10
5.6652770176
 20
3.2519111631
 30
0.0
 10
5.6619499408
 20
3.2515713509
 30
0.0
 10
5.6586679237
 20
3.2510251469
 30
0.0
 10
5.6554400141
 20
3.2502755765
 30
0.0
 10
5.6522745894
 20
3.2493266804
 30
0.0
 10
5.6491792678
 20
3.2481834132
 30
0.0
 10
5.6461608328
 20
3.2468515521
 30
0.0
 10
5.6432252391
 20
3.2453374734
 30
0.0
 10
5.6403776281
 20
3.2436480124
 30
0.0
 10
5.6376223195
 20
3.2417903834
 30
0.0
 10
5.6349628859
 20
3.2397720047
 30
0.0
 10
5.6324022425
 20
3.2376003659
 30
0.0
 10
5.6299426731
 20
3.235282995
 30
0.0
 10
5.6275859302
 20
3.2328273527
 30
0.0
 10
5.6253333315
 20
3.2302407595
 30
0.0
 10
5.6231857875
 20
3.2275304068
 30
0.0
 10
5.6211439094
 20
3.2247032917
 30
0.0
 10
5.6192080547
 20
3.2217662219
 30
0.0
 10
5.6173783726
 20
3.2187258208
 30
0.0
 10
5.615654879
 20
3.2155885284
 30
0.0
 10
5.6140374407
 20
3.2123605704
 30
0.0
 10
5.6120140798
 20
3.2079264319
 30
0.0
 10
5.6097530058
 20
3.2021873741
 30
0.0
 10
5.6074713214
 20
3.1950629803
 30
0.0
 10
5.6056076084
 20
3.1877174003
 30
0.0
 10
5.6041600051
 20
3.1801952248
 30
0.0
 10
5.6031270133
 20
3.1725404066
 30
0.0
 10
5.602507594
 20
3.1647973153
 30
0.0
 10
5.6023700598
 20
3.159607675
 30
0.0
 10
5.6023700598
 20
3.1570096023
 30
0.0
  0
SPLINE
  5
344
100
AcDbEntity
  8
0
100
AcDbSpline
 62
6
  6
CONTINUOUS
 70
0
 71
3
 72
54
 73
50
 74
0
 42
0.0000001
 43
0.0000001
 44
0.0000000001
 40
0.0
 40
0.0
 40
0.0
 40
0.0
 40
0.0342832043
 40
0.0685158237
 40
0.1026444544
 40
0.1366215412
 40
0.1703998491
 40
0.2039363181
 40
0.2371917808
 40
0.2701318103
 40
0.3027273255
 40
0.3349551683
 40
0.3667987234
 40
0.3982485439
 40
0.4293030097
 40
0.4446856304
 40
0.4599728489
 40
0.4902667699
 40
0.5202148758
 40
0.5350728536
 40
0.5498592626
 40
0.5645802943
 40
0.5792430319
 40
0.5938550002
 40
0.6084244951
 40
0.6229602116
 40
0.6374714564
 40
0.651967803
 40
0.6664592424
 40
0.6809558111
 40
0.6954677349
 40
0.710004999
 40
0.7245775244
 40
0.7391946853
 40
0.7538655281
 40
0.7685982847
 40
0.7834006081
 40
0.7982791566
 40
0.8132398069
 40
0.8282873645
 40
0.8434257397
 40
0.8586577859
 40
0.8739854604
 40
0.889409742
 40
0.9049308206
 40
0.920548024
 40
0.9362600729
 40
0.9679550088
 40
1.0
 40
1.0
 40
1.0
 40
1.0
 10
5.6023700598
 20
3.1570096023
 30
0.0
 10
5.6023700598
 20
3.1551364092
 30
0.0
 10
5.6024416435
 20
3.1513923901
 30
0.0
 10
5.6027638503
 20
3.1457919626
 30
0.0
 10
5.6033010689
 20
3.1402247433
 30
0.0
 10
5.6040534855
 20
3.1347075313
 30
0.0
 10
5.6050215016
 20
3.1292568224
 30
0.0
 10
5.606205576
 20
3.1238892186
 30
0.0
 10
5.6076063159
 20
3.1186213083
 30
0.0
 10
5.6092244349
 20
3.1134697851
 30
0.0
 10
5.6110607383
 20
3.1084515201
 30
0.0
 10
5.6131160686
 20
3.1035836857
 30
0.0
 10
5.6153912623
 20
3.0988838297
 30
0.0
 10
5.6178869184
 20
3.0943701829
 30
0.0
 10
5.6201580274
 20
3.0907679847
 30
0.0
 10
5.6220858768
 20
3.0880001857
 30
0.0
 10
5.6240748739
 20
3.0853276372
 30
0.0
 10
5.6266979838
 20
3.0821376051
 30
0.0
 10
5.6295180713
 20
3.079151771
 30
0.0
 10
5.6318802753
 20
3.0769098821
 30
0.0
 10
5.6337001153
 20
3.0753076274
 30
0.0
 10
5.6355717938
 20
3.0737830776
 30
0.0
 10
5.6374944185
 20
3.0723390597
 30
0.0
 10
5.6394668484
 20
3.0709783359
 30
0.0
 10
5.6414878219
 20
3.069703725
 30
0.0
 10
5.6435558294
 20
3.0685179066
 30
0.0
 10
5.6456692069
 20
3.0674235889
 30
0.0
 10
5.6478260264
 20
3.0664232785
 30
0.0
 10
5.6500241879
 20
3.0655194768
 30
0.0
 10
5.6522613188
 20
3.0647144034
 30
0.0
 10
5.6545348706
 20
3.0640102484
 30
0.0
 10
5.6568420294
 20
3.063408824
 30
0.0
 10
5.6591798145
 20
3.0629119003
 30
0.0
 10
5.6615450089
 20
3.0625207743
 30
0.0
 10
5.6639342484
 20
3.0622366912
 30
0.0
 10
5.666343986
 20
3.0620603578
 30
0.0
 10
5.6687705553
 20
3.0619924048
 30
0.0
 10
5.6712101789
 20
3.0620329167
 30
0.0
 10
5.6736589983
 20
3.0621818546
 30
0.0
 10
5.6761131186
 20
3.0624386889
 30
0.0
 10
5.6785686155
 20
3.0628027077
 30
0.0
 10
5.6810215921
 20
3.0632728072
 30
0.0
 10
5.6834681822
 20
3.0638476537
 30
0.0
 10
5.685904596
 20
3.0645256352
 30
0.0
 10
5.6883271252
 20
3.0653048875
 30
0.0
 10
5.6907322047
 20
3.0661833869
 30
0.0
 10
5.6939199841
 20
3.0674876532
 30
0.0
 10
5.6978429403
 20
3.0693562178
 30
0.0
 10
5.7008749874
 20
3.0710761746
 30
0.0
 10
5.702367634
 20
3.0719914101
 30
0.0
  0
SPLINE
  5
345
100
AcDbEntity
  8
0
100
AcDbSpline
 62
6
  6
CONTINUOUS
 70
0
 71
3
 72
8
 73
4
 74
0
 42
0.0000001
 43
0.0000001
 44
0.0000000001
 40
0.0
 40
0.0
 40
0.0
 40
0.0
 40
1.0
 40
1.0
 40
1.0
 40
1.0
 10
5.702367634
 20
3.0719914101
 30
0.0
 10
5.702373925
 20
3.0719952688
 30
0.0
 10
5.7023802159
 20
3.0719991274
 30
0.0
 10
5.7023865069
 20
3.072002986
 30
0.0
  0
SPLINE
  5
346
100
AcDbEntity
  8
0
100
AcDbSpline
 62
6
  6
CONTINUOUS
 70
0
 71
3
 72
22
 73
18
 74
0
 42
0.0000001
 43
0.0000001
 44
0.0000000001
 40
0.0
 40
0.0
 40
0.0
 40
0.0
 40
0.0602299527
 40
0.1209442436
 40
0.1820981306
 40
0.2436468858
 40
0.3677163187
 40
0.4301989467
 40
0.4929185855
 40
0.5558432467
 40
0.6189441893
 40
0.6821957615
 40
0.7455753459
 40
0.8090624839
 40
0.872638335
 40
0.9362913376
 40
1.0
 40
1.0
 40
1.0
 40
1.0
 10
5.7023865069
 20
3.072002986
 30
0.0
 10
5.703708236
 20
3.0728139437
 30
0.0
 10
5.7063138067
 20
3.0745228659
 30
0.0
 10
5.7100805495
 20
3.0773182261
 30
0.0
 10
5.713711083
 20
3.0803419948
 30
0.0
 10
5.7183668251
 20
3.0846686529
 30
0.0
 10
5.7226955472
 20
3.0893843527
 30
0.0
 10
5.7266682131
 20
3.0944271418
 30
0.0
 10
5.7294749488
 20
3.0983771244
 30
0.0
 10
5.7320944491
 20
3.102472298
 30
0.0
 10
5.7345209017
 20
3.1067005425
 30
0.0
 10
5.7367487706
 20
3.1110498211
 30
0.0
 10
5.7387730056
 20
3.1155084329
 30
0.0
 10
5.7405889466
 20
3.1200648234
 30
0.0
 10
5.7421924352
 20
3.1247077164
 30
0.0
 10
5.7435795548
 20
3.1294256024
 30
0.0
 10
5.744357663
 20
3.1326124404
 30
0.0
 10
5.7447096359
 20
3.134214478
 30
0.0
  0
SPLINE
  5
347
100
AcDbEntity
  8
0
100
AcDbSpline
 62
6
  6
CONTINUOUS
 70
0
 71
3
 72
22
 73
18
 74
0
 42
0.0000001
 43
0.0000001
 44
0.0000000001
 40
0.0
 40
0.0
 40
0.0
 40
0.0
 40
0.0637086624
 40
0.127361665
 40
0.1909375161
 40
0.2544246541
 40
0.3178042385
 40
0.3810558107
 40
0.4441567533
 40
0.5070814145
 40
0.5698010533
 40
0.6322836813
 40
0.7563531142
 40
0.8179018694
 40
0.8790557564
 40
0.9397700473
 40
1.0
 40
1.0
 40
1.0
 40
1.0
 10
5.9059515201
 20
3.134214478
 30
0.0
 10
5.906303493
 20
3.1326124404
 30
0.0
 10
5.9070816012
 20
3.1294256024
 30
0.0
 10
5.9084687208
 20
3.1247077164
 30
0.0
 10
5.9100722094
 20
3.1200648234
 30
0.0
 10
5.9118881504
 20
3.1155084329
 30
0.0
 10
5.9139123853
 20
3.1110498211
 30
0.0
 10
5.9161402543
 20
3.1067005425
 30
0.0
 10
5.9185667069
 20
3.102472298
 30
0.0
 10
5.9211862072
 20
3.0983771244
 30
0.0
 10
5.9239929429
 20
3.0944271418
 30
0.0
 10
5.9279656087
 20
3.0893843527
 30
0.0
 10
5.9322943309
 20
3.0846686529
 30
0.0
 10
5.936950073
 20
3.0803419948
 30
0.0
 10
5.9405806065
 20
3.0773182261
 30
0.0
 10
5.9443473493
 20
3.0745228659
 30
0.0
 10
5.94695292
 20
3.0728139437
 30
0.0
 10
5.9482746491
 20
3.072002986
 30
0.0
  0
SPLINE
  5
348
100
AcDbEntity
  8
0
100
AcDbSpline
 62
6
  6
CONTINUOUS
 70
0
 71
3
 72
8
 73
4
 74
0
 42
0.0000001
 43
0.0000001
 44
0.0000000001
 40
0.0
 40
0.0
 40
0.0
 40
0.0
 40
1.0
 40
1.0
 40
1.0
 40
1.0
 10
5.9482746491
 20
3.072002986
 30
0.0
 10
5.9482809401
 20
3.0719991274
 30
0.0
 10
5.948287231
 20
3.0719952688
 30
0.0
 10
5.948293522
 20
3.0719914101
 30
0.0
  0
SPLINE
  5
349
100
AcDbEntity
  8
0
100
AcDbSpline
 62
6
  6
CONTINUOUS
 70
0
 71
3
 72
54
 73
50
 74
0
 42
0.0000001
 43
0.0000001
 44
0.0000000001
 40
0.0
 40
0.0
 40
0.0
 40
0.0
 40
0.0320449912
 40
0.0637399271
 40
0.079451976
 40
0.0950691794
 40
0.110590258
 40
0.1260145396
 40
0.1413422141
 40
0.1565742603
 40
0.1717126355
 40
0.1867601931
 40
0.2017208434
 40
0.2165993919
 40
0.2314017153
 40
0.2461344719
 40
0.2608053147
 40
0.2754224756
 40
0.289995001
 40
0.3045322651
 40
0.3190441889
 40
0.3335407576
 40
0.348032197
 40
0.3625285436
 40
0.3770397884
 40
0.3915755049
 40
0.4061449998
 40
0.4207569681
 40
0.4354197057
 40
0.4501407374
 40
0.4649271464
 40
0.4797851242
 40
0.5097332301
 40
0.5400271511
 40
0.5553143696
 40
0.5706969903
 40
0.6017514561
 40
0.6332012766
 40
0.6650448317
 40
0.6972726745
 40
0.7298681897
 40
0.7628082192
 40
0.7960636819
 40
0.8296001509
 40
0.8633784588
 40
0.8973555456
 40
0.9314841763
 40
0.9657167957
 40
1.0
 40
1.0
 40
1.0
 40
1.0
 10
5.948293522
 20
3.0719914101
 30
0.0
 10
5.9497861686
 20
3.0710761746
 30
0.0
 10
5.9528182157
 20
3.0693562178
 30
0.0
 10
5.9567411718
 20
3.0674876532
 30
0.0
 10
5.9599289513
 20
3.0661833869
 30
0.0
 10
5.9623340308
 20
3.0653048875
 30
0.0
 10
5.96475656
 20
3.0645256352
 30
0.0
 10
5.9671929738
 20
3.0638476537
 30
0.0
 10
5.9696395639
 20
3.0632728072
 30
0.0
 10
5.9720925404
 20
3.0628027077
 30
0.0
 10
5.9745480374
 20
3.0624386889
 30
0.0
 10
5.9770021577
 20
3.0621818546
 30
0.0
 10
5.9794509771
 20
3.0620329167
 30
0.0
 10
5.9818906007
 20
3.0619924048
 30
0.0
 10
5.98431717
 20
3.0620603578
 30
0.0
 10
5.9867269076
 20
3.0622366912
 30
0.0
 10
5.9891161471
 20
3.0625207743
 30
0.0
 10
5.9914813415
 20
3.0629119003
 30
0.0
 10
5.9938191266
 20
3.063408824
 30
0.0
 10
5.9961262853
 20
3.0640102484
 30
0.0
 10
5.9983998372
 20
3.0647144034
 30
0.0
 10
6.0006369681
 20
3.0655194768
 30
0.0
 10
6.0028351296
 20
3.0664232785
 30
0.0
 10
6.0049919491
 20
3.0674235889
 30
0.0
 10
6.0071053266
 20
3.0685179066
 30
0.0
 10
6.0091733341
 20
3.069703725
 30
0.0
 10
6.0111943076
 20
3.0709783359
 30
0.0
 10
6.0131667374
 20
3.0723390597
 30
0.0
 10
6.0150893622
 20
3.0737830776
 30
0.0
 10
6.0169610406
 20
3.0753076274
 30
0.0
 10
6.0187808807
 20
3.0769098821
 30
0.0
 10
6.0211430847
 20
3.079151771
 30
0.0
 10
6.0239631721
 20
3.0821376051
 30
0.0
 10
6.0265862821
 20
3.0853276372
 30
0.0
 10
6.0285752792
 20
3.0880001857
 30
0.0
 10
6.0305031286
 20
3.0907679847
 30
0.0
 10
6.0327742376
 20
3.0943701829
 30
0.0
 10
6.0352698937
 20
3.0988838297
 30
0.0
 10
6.0375450874
 20
3.1035836857
 30
0.0
 10
6.0396004177
 20
3.1084515201
 30
0.0
 10
6.0414367211
 20
3.1134697851
 30
0.0
 10
6.0430548401
 20
3.1186213083
 30
0.0
 10
6.04445558
 20
3.1238892186
 30
0.0
 10
6.0456396544
 20
3.1292568224
 30
0.0
 10
6.0466076705
 20
3.1347075313
 30
0.0
 10
6.047360087
 20
3.1402247433
 30
0.0
 10
6.0478973057
 20
3.1457919626
 30
0.0
 10
6.0482195124
 20
3.1513923901
 30
0.0
 10
6.0482910962
 20
3.1551364092
 30
0.0
 10
6.0482910962
 20
3.1570096023
 30
0.0
  0
SPLINE
  5
34A
100
AcDbEntity
  8
0
100
AcDbSpline
 62
6
  6
CONTINUOUS
 70
0
 71
3
 72
55
 73
51
 74
0
 42
0.0000001
 43
0.0000001
 44
0.0000000001
 40
0.0
 40
0.0
 40
0.0
 40
0.0
 40
0.033604392
 40
0.0671108826
 40
0.1004258376
 40
0.1334608659
 40
0.1661372041
 40
0.1983875291
 40
0.2301584221
 40
0.2458542251
 40
0.2614176739
 40
0.2768470071
 40
0.2921417377
 40
0.3073027133
 40
0.3223323499
 40
0.3372344803
 40
0.3520146576
 40
0.3666801433
 40
0.3812398551
 40
0.3957046112
 40
0.4100869414
 40
0.4244010145
 40
0.4386626564
 40
0.452889012
 40
0.4670982243
 40
0.4813091965
 40
0.495541105
 40
0.5098128226
 40
0.5241424971
 40
0.5385470604
 40
0.5530417192
 40
0.5676395499
 40
0.582351284
 40
0.597185129
 40
0.6121466922
 40
0.627239085
 40
0.6424631236
 40
0.6578175287
 40
0.673299228
 40
0.6889037526
 40
0.7046254779
 40
0.7363855266
 40
0.7685319575
 40
0.8010059004
 40
0.833751193
 40
0.8667171318
 40
0.8998595087
 40
0.9331408802
 40
0.9665294661
 40
1.0
 40
1.0
 40
1.0
 40
1.0
 10
6.0482910962
 20
3.1570096023
 30
0.0
 10
6.0482910962
 20
3.159607675
 30
0.0
 10
6.048153562
 20
3.1647973153
 30
0.0
 10
6.0475341426
 20
3.1725404066
 30
0.0
 10
6.0465011509
 20
3.1801952248
 30
0.0
 10
6.0450535476
 20
3.1877174003
 30
0.0
 10
6.0431898345
 20
3.1950629803
 30
0.0
 10
6.0409081502
 20
3.2021873741
 30
0.0
 10
6.0386470762
 20
3.2079264319
 30
0.0
 10
6.0366237153
 20
3.2123605704
 30
0.0
 10
6.035006277
 20
3.2155885284
 30
0.0
 10
6.0332827834
 20
3.2187258208
 30
0.0
 10
6.0314531013
 20
3.2217662219
 30
0.0
 10
6.0295172466
 20
3.2247032917
 30
0.0
 10
6.0274753685
 20
3.2275304068
 30
0.0
 10
6.0253278245
 20
3.2302407595
 30
0.0
 10
6.0230752258
 20
3.2328273527
 30
0.0
 10
6.0207184829
 20
3.235282995
 30
0.0
 10
6.0182589135
 20
3.2376003659
 30
0.0
 10
6.0156982701
 20
3.2397720047
 30
0.0
 10
6.0130388365
 20
3.2417903834
 30
0.0
 10
6.0102835279
 20
3.2436480124
 30
0.0
 10
6.0074359168
 20
3.2453374734
 30
0.0
 10
6.0045003232
 20
3.2468515521
 30
0.0
 10
6.0014818882
 20
3.2481834132
 30
0.0
 10
5.9983865666
 20
3.2493266804
 30
0.0
 10
5.9952211419
 20
3.2502755765
 30
0.0
 10
5.9919932323
 20
3.2510251469
 30
0.0
 10
5.9887112152
 20
3.2515713509
 30
0.0
 10
5.9853841384
 20
3.2519111631
 30
0.0
 10
5.9820216197
 20
3.2520426702
 30
0.0
 10
5.9786337131
 20
3.2519651942
 30
0.0
 10
5.9752307495
 20
3.2516792463
 30
0.0
 10
5.9718231838
 20
3.2511865034
 30
0.0
 10
5.9684214465
 20
3.2504897602
 30
0.0
 10
5.9650357839
 20
3.2495928903
 30
0.0
 10
5.9616761436
 20
3.248500665
 30
0.0
 10
5.9583520696
 20
3.2472186146
 30
0.0
 10
5.9550726403
 20
3.2457529437
 30
0.0
 10
5.9518462835
 20
3.2441103177
 30
0.0
 10
5.9476122522
 20
3.2416858547
 30
0.0
 10
5.9424947114
 20
3.2382462237
 30
0.0
 10
5.9367022238
 20
3.2335440666
 30
0.0
 10
5.931278873
 20
3.2283107893
 30
0.0
 10
5.9262617599
 20
3.2226031583
 30
0.0
 10
5.9216820189
 20
3.2164748323
 30
0.0
 10
5.9175666495
 20
3.209976784
 30
0.0
 10
5.9139391731
 20
3.2031573626
 30
0.0
 10
5.9108203713
 20
3.1960637071
 30
0.0
 10
5.9090936603
 20
3.1911856369
 30
0.0
 10
5.9083204346
 20
3.1887161357
 30
0.0
  0
LINE
  5
34B
100
AcDbEntity
  8
0
100
AcDbLine
 62
6
  6
CONTINUOUS
 10
4.7094949044
 20
5.1856880735
 11
4.6948536266
 21
5.1859718191
  0
SPLINE
  5
34C
100
AcDbEntity
  8
0
100
AcDbSpline
 62
6
  6
CONTINUOUS
 70
0
 71
3
 72
23
 73
19
 74
0
 42
0.0000001
 43
0.0000001
 44
0.0000000001
 40
0.0
 40
0.0
 40
0.0
 40
0.0
 40
0.0620383989
 40
0.1238977034
 40
0.1856244668
 40
0.2472802944
 40
0.3089204566
 40
0.3706001348
 40
0.4323737045
 40
0.4942931941
 40
0.5564076714
 40
0.6187632537
 40
0.6814023457
 40
0.7443608245
 40
0.8076715911
 40
0.8713715431
 40
0.9354835658
 40
1.0
 40
1.0
 40
1.0
 40
1.0
 10
5.6700115109
 20
3.0922100282
 30
0.0
 10
5.6709839105
 20
3.0919517586
 30
0.0
 10
5.6729421274
 20
3.0914949446
 30
0.0
 10
5.6759117463
 20
3.0909905387
 30
0.0
 10
5.6789004715
 20
3.0906682766
 30
0.0
 10
5.6818996289
 20
3.0905278013
 30
0.0
 10
5.6849010231
 20
3.0905682726
 30
0.0
 10
5.6878964953
 20
3.0907883632
 30
0.0
 10
5.6908781045
 20
3.0911862965
 30
0.0
 10
5.6938381055
 20
3.091759882
 30
0.0
 10
5.696768972
 20
3.0925064757
 30
0.0
 10
5.6996634032
 20
3.0934230692
 30
0.0
 10
5.7025142697
 20
3.0945063385
 30
0.0
 10
5.7053147484
 20
3.0957524124
 30
0.0
 10
5.7080582778
 20
3.097157365
 30
0.0
 10
5.7107386431
 20
3.0987168631
 30
0.0
 10
5.7133493443
 20
3.1004260945
 30
0.0
 10
5.7150341739
 20
3.1016579281
 30
0.0
 10
5.7158629005
 20
3.1022966442
 30
0.0
  0
SPLINE
  5
34D
100
AcDbEntity
  8
0
100
AcDbSpline
 62
6
  6
CONTINUOUS
 70
0
 71
3
 72
41
 73
37
 74
0
 42
0.0000001
 43
0.0000001
 44
0.0000000001
 40
0.0
 40
0.0
 40
0.0
 40
0.0
 40
0.0299689223
 40
0.0602068719
 40
0.07542175
 40
0.0906965106
 40
0.1214205667
 40
0.1523774622
 40
0.1835586614
 40
0.2149483843
 40
0.2465282976
 40
0.2782786783
 40
0.3101781377
 40
0.3422037529
 40
0.3743305438
 40
0.4065326727
 40
0.4226549793
 40
0.438786034
 40
0.4710581166
 40
0.5033241811
 40
0.5355566792
 40
0.5677285765
 40
0.5998135932
 40
0.6317861554
 40
0.6636223355
 40
0.6952994412
 40
0.726796754
 40
0.7580958105
 40
0.7891801306
 40
0.820036385
 40
0.8506535944
 40
0.8810241106
 40
0.9111435127
 40
0.9410104045
 40
0.9706273918
 40
1.0
 40
1.0
 40
1.0
 40
1.0
 10
5.7158629005
 20
3.1022966442
 30
0.0
 10
5.7167888805
 20
3.1032112872
 30
0.0
 10
5.7185948695
 20
3.1051045635
 30
0.0
 10
5.7207157162
 20
3.1076032417
 30
0.0
 10
5.7223350537
 20
3.1096853552
 30
0.0
 10
5.7239070639
 20
3.1118296516
 30
0.0
 10
5.7257684932
 20
3.1146077427
 30
0.0
 10
5.7278255982
 20
3.1180789398
 30
0.0
 10
5.7297035557
 20
3.121682887
 30
0.0
 10
5.7313964726
 20
3.1254070491
 30
0.0
 10
5.7328980034
 20
3.1292389426
 30
0.0
 10
5.7342033556
 20
3.1331653212
 30
0.0
 10
5.7353080845
 20
3.137172856
 30
0.0
 10
5.7362082039
 20
3.1412479776
 30
0.0
 10
5.7369011356
 20
3.1453766571
 30
0.0
 10
5.7373033352
 20
3.1488490504
 30
0.0
 10
5.7375195955
 20
3.1516402249
 30
0.0
 10
5.737665345
 20
3.1544390124
 30
0.0
 10
5.7377145932
 20
3.1579437334
 30
0.0
 10
5.7375610121
 20
3.1621453967
 30
0.0
 10
5.7371955955
 20
3.1663296526
 30
0.0
 10
5.7366190425
 20
3.1704821314
 30
0.0
 10
5.7358339051
 20
3.1745887919
 30
0.0
 10
5.7348423748
 20
3.178635576
 30
0.0
 10
5.7336480393
 20
3.1826087343
 30
0.0
 10
5.7322550388
 20
3.18649479
 30
0.0
 10
5.7306677297
 20
3.190280356
 30
0.0
 10
5.7288920336
 20
3.1939527633
 30
0.0
 10
5.726933431
 20
3.1974992473
 30
0.0
 10
5.7247989705
 20
3.2009079118
 30
0.0
 10
5.7224957524
 20
3.2041670767
 30
0.0
 10
5.7200314586
 20
3.2072654957
 30
0.0
 10
5.7174148282
 20
3.2101928863
 30
0.0
 10
5.7146542365
 20
3.212938857
 30
0.0
 10
5.7117596583
 20
3.215494312
 30
0.0
 10
5.7097384659
 20
3.2170715931
 30
0.0
 10
5.7087090096
 20
3.2178249104
 30
0.0
  0
SPLINE
  5
34E
100
AcDbEntity
  8
0
100
AcDbSpline
 62
6
  6
CONTINUOUS
 70
0
 71
3
 72
35
 73
31
 74
0
 42
0.0000001
 43
0.0000001
 44
0.0000000001
 40
0.0
 40
0.0
 40
0.0
 40
0.0
 40
0.0638035054
 40
0.0954715018
 40
0.1269894287
 40
0.1583665632
 40
0.1896128648
 40
0.2207391222
 40
0.2517572749
 40
0.2826799773
 40
0.3135203656
 40
0.3442922753
 40
0.3750102389
 40
0.4056889857
 40
0.4363434979
 40
0.4669891261
 40
0.4976411857
 40
0.5283147966
 40
0.5590250579
 40
0.5897869787
 40
0.6206150498
 40
0.6515233205
 40
0.6825253954
 40
0.7136335273
 40
0.7448588919
 40
0.7762120183
 40
0.8077036567
 40
0.8711327444
 40
0.9352325175
 40
1.0
 40
1.0
 40
1.0
 40
1.0
 10
5.7087090096
 20
3.2178249104
 30
0.0
 10
5.7073563804
 20
3.2188147134
 30
0.0
 10
5.7052708267
 20
3.2202145361
 30
0.0
 10
5.7023893473
 20
3.2218968921
 30
0.0
 10
5.7001925067
 20
3.2230582967
 30
0.0
 10
5.6979584175
 20
3.2241206237
 30
0.0
 10
5.6956903534
 20
3.2250823591
 30
0.0
 10
5.6933916664
 20
3.2259418584
 30
0.0
 10
5.6910658176
 20
3.2266978426
 30
0.0
 10
5.688716354
 20
3.2273493446
 30
0.0
 10
5.6863467841
 20
3.2278953469
 30
0.0
 10
5.6839606246
 20
3.2283348038
 30
0.0
 10
5.6815615013
 20
3.2286672262
 30
0.0
 10
5.6791530228
 20
3.2288922053
 30
0.0
 10
5.6767387914
 20
3.2290092754
 30
0.0
 10
5.6743224408
 20
3.229018129
 30
0.0
 10
5.6719076104
 20
3.2289189839
 30
0.0
 10
5.6694979195
 20
3.2287120068
 30
0.0
 10
5.6670970082
 20
3.2283973054
 30
0.0
 10
5.6647084848
 20
3.2279753995
 30
0.0
 10
5.6623359002
 20
3.2274470825
 30
0.0
 10
5.6599828118
 20
3.2268130883
 30
0.0
 10
5.6576528258
 20
3.2260741611
 30
0.0
 10
5.6553494055
 20
3.2252316328
 30
0.0
 10
5.6530760225
 20
3.2242868825
 30
0.0
 10
5.6508360978
 20
3.2232411993
 30
0.0
 10
5.6478920611
 20
3.2217109233
 30
0.0
 10
5.6443102282
 20
3.2195507265
 30
0.0
 10
5.6402108656
 20
3.2165899071
 30
0.0
 10
5.6376321053
 20
3.21439005
 30
0.0
 10
5.6363822269
 20
3.2132356454
 30
0.0
  0
SPLINE
  5
34F
100
AcDbEntity
  8
0
100
AcDbSpline
 62
6
  6
CONTINUOUS
 70
0
 71
3
 72
25
 73
21
 74
0
 42
0.0000001
 43
0.0000001
 44
0.0000000001
 40
0.0
 40
0.0
 40
0.0
 40
0.0
 40
0.0671870676
 40
0.1004962002
 40
0.1336083373
 40
0.1992256234
 40
0.2640670193
 40
0.3281716663
 40
0.3915808986
 40
0.454337253
 40
0.5164907315
 40
0.5781017223
 40
0.6392329263
 40
0.6999528149
 40
0.7603307109
 40
0.8204468097
 40
0.8504370755
 40
0.8803930202
 40
0.9402242404
 40
1.0
 40
1.0
 40
1.0
 40
1.0
 10
5.7158629005
 20
3.1022966442
 30
0.0
 10
5.7152088755
 20
3.1012512189
 30
0.0
 10
5.7141843968
 20
3.0997156742
 30
0.0
 10
5.7127334194
 20
3.0977384337
 30
0.0
 10
5.7112416797
 20
3.0958281151
 30
0.0
 10
5.7092878857
 20
3.0935460769
 30
0.0
 10
5.7068030699
 20
3.0909783002
 30
0.0
 10
5.7041946475
 20
3.0885957507
 30
0.0
 10
5.7014727722
 20
3.086404196
 30
0.0
 10
5.6986476699
 20
3.0844088183
 30
0.0
 10
5.6957295207
 20
3.0826143766
 30
0.0
 10
5.692728832
 20
3.0810243643
 30
0.0
 10
5.689655717
 20
3.0796422448
 30
0.0
 10
5.6865206958
 20
3.078470044
 30
0.0
 10
5.6833339131
 20
3.0775098234
 30
0.0
 10
5.6806409729
 20
3.0768865929
 30
0.0
 10
5.6784720383
 20
3.0764952467
 30
0.0
 10
5.6762966637
 20
3.0761755278
 30
0.0
 10
5.6735625637
 20
3.0759089048
 30
0.0
 10
5.6713667144
 20
3.075837254
 30
0.0
 10
5.6702695901
 20
3.0758367289
 30
0.0
  0
SPLINE
  5
350
100
AcDbEntity
  8
0
100
AcDbSpline
 62
6
  6
CONTINUOUS
 70
0
 71
3
 72
23
 73
19
 74
0
 42
0.0000001
 43
0.0000001
 44
0.0000000001
 40
0.0
 40
0.0
 40
0.0
 40
0.0
 40
0.0620383989
 40
0.1238977034
 40
0.1856244668
 40
0.2472802944
 40
0.3089204566
 40
0.3706001348
 40
0.4323737045
 40
0.4942931941
 40
0.5564076714
 40
0.6187632537
 40
0.6814023457
 40
0.7443608245
 40
0.8076715911
 40
0.8713715431
 40
0.9354835658
 40
1.0
 40
1.0
 40
1.0
 40
1.0
 10
5.9806496451
 20
3.2218091763
 30
0.0
 10
5.9796772455
 20
3.2220674459
 30
0.0
 10
5.9777190285
 20
3.2225242599
 30
0.0
 10
5.9747494097
 20
3.2230286658
 30
0.0
 10
5.9717606845
 20
3.2233509279
 30
0.0
 10
5.9687615271
 20
3.2234914032
 30
0.0
 10
5.9657601328
 20
3.223450932
 30
0.0
 10
5.9627646606
 20
3.2232308413
 30
0.0
 10
5.9597830515
 20
3.222832908
 30
0.0
 10
5.9568230505
 20
3.2222593225
 30
0.0
 10
5.953892184
 20
3.2215127288
 30
0.0
 10
5.9509977527
 20
3.2205961353
 30
0.0
 10
5.9481468862
 20
3.219512866
 30
0.0
 10
5.9453464076
 20
3.2182667921
 30
0.0
 10
5.9426028782
 20
3.2168618395
 30
0.0
 10
5.9399225129
 20
3.2153023414
 30
0.0
 10
5.9373118117
 20
3.2135931101
 30
0.0
 10
5.9356269821
 20
3.2123612764
 30
0.0
 10
5.9347982555
 20
3.2117225603
 30
0.0
  0
SPLINE
  5
351
100
AcDbEntity
  8
0
100
AcDbSpline
 62
6
  6
CONTINUOUS
 70
0
 71
3
 72
70
 73
66
 74
0
 42
0.0000001
 43
0.0000001
 44
0.0000000001
 40
0.0
 40
0.0
 40
0.0
 40
0.0
 40
0.0155171373
 40
0.0311516457
 40
0.0468961462
 40
0.0627443458
 40
0.0786942861
 40
0.094744176
 40
0.1108908756
 40
0.1271287825
 40
0.1434514492
 40
0.1598520565
 40
0.1763232793
 40
0.1928573425
 40
0.2094460047
 40
0.2260803484
 40
0.2427511659
 40
0.259449068
 40
0.2761643441
 40
0.2928871848
 40
0.3096078083
 40
0.3263163365
 40
0.3430029808
 40
0.3596582428
 40
0.3762727628
 40
0.3928374623
 40
0.4093438105
 40
0.4257836163
 40
0.4584255991
 40
0.4746224078
 40
0.490725919
 40
0.5067314221
 40
0.5226348581
 40
0.5384330337
 40
0.5541239274
 40
0.5697062697
 40
0.5851798146
 40
0.600545557
 40
0.6158052943
 40
0.6309619414
 40
0.6460196101
 40
0.6609831992
 40
0.6758587163
 40
0.6906531943
 40
0.7053743543
 40
0.7200308823
 40
0.7346321901
 40
0.7491881877
 40
0.7637094671
 40
0.7782069546
 40
0.7926918086
 40
0.8071754477
 40
0.8216691639
 40
0.8361841767
 40
0.8507315953
 40
0.8653220713
 40
0.8799658634
 40
0.8946722733
 40
0.9094495651
 40
0.9243055709
 40
0.9392485345
 40
0.9542863302
 40
0.9694250722
 40
0.9846641452
 40
1.0
 40
1.0
 40
1.0
 40
1.0
 10
5.9347982555
 20
3.2117225603
 30
0.0
 10
5.9340287863
 20
3.2109625119
 30
0.0
 10
5.9325215169
 20
3.2093982016
 30
0.0
 10
5.9303692795
 20
3.2069364992
 30
0.0
 10
5.9283225908
 20
3.2043567641
 30
0.0
 10
5.9263872298
 20
3.2016654221
 30
0.0
 10
5.924567503
 20
3.1988691816
 30
0.0
 10
5.9228675688
 20
3.1959744075
 30
0.0
 10
5.9212914732
 20
3.1929876997
 30
0.0
 10
5.9198425962
 20
3.189916237
 30
0.0
 10
5.9185245495
 20
3.1867672183
 30
0.0
 10
5.9173406538
 20
3.1835480376
 30
0.0
 10
5.9162933371
 20
3.1802664157
 30
0.0
 10
5.915385251
 20
3.1769299929
 30
0.0
 10
5.9146186299
 20
3.1735466085
 30
0.0
 10
5.9139949481
 20
3.1701243026
 30
0.0
 10
5.9135159388
 20
3.1666710835
 30
0.0
 10
5.9131827677
 20
3.1631950987
 30
0.0
 10
5.9129959116
 20
3.1597045583
 30
0.0
 10
5.9129561148
 20
3.1562076604
 30
0.0
 10
5.9130634302
 20
3.1527126575
 30
0.0
 10
5.9133173426
 20
3.1492277651
 30
0.0
 10
5.913717594
 20
3.1457612128
 30
0.0
 10
5.9142631274
 20
3.1423211712
 30
0.0
 10
5.9149524524
 20
3.1389156896
 30
0.0
 10
5.9157842893
 20
3.1355528932
 30
0.0
 10
5.9167565501
 20
3.1322405563
 30
0.0
 10
5.918233011
 20
3.1279129083
 30
0.0
 10
5.9199834963
 20
3.1237054741
 30
0.0
 10
5.9219985254
 20
3.1196509106
 30
0.0
 10
5.923632123
 20
3.1167054188
 30
0.0
 10
5.925387554
 20
3.1138549443
 30
0.0
 10
5.927260712
 20
3.1111060669
 30
0.0
 10
5.929247472
 20
3.1084655088
 30
0.0
 10
5.9313428738
 20
3.1059392894
 30
0.0
 10
5.9335420259
 20
3.1035333774
 30
0.0
 10
5.9358399856
 20
3.1012536838
 30
0.0
 10
5.9382310662
 20
3.0991053266
 30
0.0
 10
5.9407097246
 20
3.0970934457
 30
0.0
 10
5.9432702839
 20
3.0952230253
 30
0.0
 10
5.9459064701
 20
3.0934981699
 30
0.0
 10
5.9486121839
 20
3.0919230982
 30
0.0
 10
5.9513811329
 20
3.0905017363
 30
0.0
 10
5.9542066009
 20
3.0892370972
 30
0.0
 10
5.9570820366
 20
3.0881323953
 30
0.0
 10
5.9600006742
 20
3.0871903874
 30
0.0
 10
5.9629555047
 20
3.0864129432
 30
0.0
 10
5.9659396375
 20
3.0858021998
 30
0.0
 10
5.9689460003
 20
3.0853596616
 30
0.0
 10
5.9719674436
 20
3.0850860324
 30
0.0
 10
5.9749968637
 20
3.0849823172
 30
0.0
 10
5.9780270619
 20
3.0850487168
 30
0.0
 10
5.9810508886
 20
3.0852847626
 30
0.0
 10
5.9840611674
 20
3.085690277
 30
0.0
 10
5.9870507785
 20
3.0862641705
 30
0.0
 10
5.9900127337
 20
3.0870048568
 30
0.0
 10
5.9929399224
 20
3.0879109867
 30
0.0
 10
5.995825438
 20
3.0889801466
 30
0.0
 10
5.9986625033
 20
3.0902095783
 30
0.0
 10
6.0014442946
 20
3.0915967265
 30
0.0
 10
6.0041644759
 20
3.0931382143
 30
0.0
 10
6.0068168694
 20
3.0948305012
 30
0.0
 10
6.0093948673
 20
3.0966698503
 30
0.0
 10
6.0118920327
 20
3.0986509377
 30
0.0
 10
6.0134936951
 20
3.1000583063
 30
0.0
 10
6.0142789291
 20
3.1007835591
 30
0.0
  0
SPLINE
  5
352
100
AcDbEntity
  8
0
100
AcDbSpline
 62
6
  6
CONTINUOUS
 70
0
 71
3
 72
25
 73
21
 74
0
 42
0.0000001
 43
0.0000001
 44
0.0000000001
 40
0.0
 40
0.0
 40
0.0
 40
0.0
 40
0.0671870676
 40
0.1004962002
 40
0.1336083373
 40
0.1992256234
 40
0.2640670193
 40
0.3281716663
 40
0.3915808986
 40
0.454337253
 40
0.5164907315
 40
0.5781017223
 40
0.6392329263
 40
0.6999528149
 40
0.7603307109
 40
0.8204468097
 40
0.8504370755
 40
0.8803930202
 40
0.9402242404
 40
1.0
 40
1.0
 40
1.0
 40
1.0
 10
5.9347982555
 20
3.2117225603
 30
0.0
 10
5.9354522805
 20
3.2127679856
 30
0.0
 10
5.9364767592
 20
3.2143035303
 30
0.0
 10
5.9379277366
 20
3.2162807708
 30
0.0
 10
5.9394194762
 20
3.2181910894
 30
0.0
 10
5.9413732703
 20
3.2204731276
 30
0.0
 10
5.9438580861
 20
3.2230409043
 30
0.0
 10
5.9464665085
 20
3.2254234538
 30
0.0
 10
5.9491883837
 20
3.2276150085
 30
0.0
 10
5.952013486
 20
3.2296103862
 30
0.0
 10
5.9549316353
 20
3.2314048279
 30
0.0
 10
5.957932324
 20
3.2329948402
 30
0.0
 10
5.961005439
 20
3.2343769597
 30
0.0
 10
5.9641404602
 20
3.2355491606
 30
0.0
 10
5.9673272429
 20
3.2365093811
 30
0.0
 10
5.9700201831
 20
3.2371326116
 30
0.0
 10
5.9721891176
 20
3.2375239578
 30
0.0
 10
5.9743644923
 20
3.2378436767
 30
0.0
 10
5.9770985922
 20
3.2381102997
 30
0.0
 10
5.9792944416
 20
3.2381819505
 30
0.0
 10
5.9803915659
 20
3.2381824756
 30
0.0
  0
SPLINE
  5
353
100
AcDbEntity
  8
0
100
AcDbSpline
 62
6
  6
CONTINUOUS
 70
0
 71
3
 72
27
 73
23
 74
0
 42
0.0000001
 43
0.0000001
 44
0.0000000001
 40
0.0
 40
0.0
 40
0.0
 40
0.0
 40
0.0286185911
 40
0.0574135658
 40
0.1155472075
 40
0.1744575451
 40
0.2341687236
 40
0.2946861279
 40
0.3559971204
 40
0.3869470665
 40
0.4180830063
 40
0.4493988066
 40
0.4808875229
 40
0.544341461
 40
0.6083842509
 40
0.6406063414
 40
0.6729444068
 40
0.7379126577
 40
0.8032030751
 40
0.8687157473
 40
0.9343487062
 40
1.0
 40
1.0
 40
1.0
 40
1.0
 10
6.0041890476
 20
3.2325657745
 30
0.0
 10
6.0050198449
 20
3.2320544409
 30
0.0
 10
6.0066642805
 20
3.2309918646
 30
0.0
 10
6.0098777259
 20
3.2287126063
 30
0.0
 10
6.0137443602
 20
3.2255776231
 30
0.0
 10
6.0180966739
 20
3.2214014933
 30
0.0
 10
6.022149102
 20
3.2168246061
 30
0.0
 10
6.0258750038
 20
3.2118759654
 30
0.0
 10
6.0286793049
 20
3.2074810403
 30
0.0
 10
6.0307383066
 20
3.2038122017
 30
0.0
 10
6.0321919414
 20
3.2009786936
 30
0.0
 10
6.0335475162
 20
3.1980767302
 30
0.0
 10
6.0352252741
 20
3.1941124659
 30
0.0
 10
6.0370639551
 20
3.1890091192
 30
0.0
 10
6.0385410365
 20
3.1837638683
 30
0.0
 10
6.0395059769
 20
3.1794867989
 30
0.0
 10
6.0403268665
 20
3.1751476549
 30
0.0
 10
6.0410723642
 20
3.169650599
 30
0.0
 10
6.0415125335
 20
3.1629866177
 30
0.0
 10
6.0414958612
 20
3.1562852548
 30
0.0
 10
6.0410212704
 20
3.1495887353
 30
0.0
 10
6.0404003356
 20
3.1451526565
 30
0.0
 10
6.0400143037
 20
3.142948296
 30
0.0
  0
SPLINE
  5
354
100
AcDbEntity
  8
0
100
AcDbSpline
 62
6
  6
CONTINUOUS
 70
0
 71
3
 72
27
 73
23
 74
0
 42
0.0000001
 43
0.0000001
 44
0.0000000001
 40
0.0
 40
0.0
 40
0.0
 40
0.0
 40
0.0286185911
 40
0.0574135658
 40
0.1155472075
 40
0.1744575451
 40
0.2341687236
 40
0.2946861279
 40
0.3559971204
 40
0.3869470665
 40
0.4180830063
 40
0.4493988066
 40
0.4808875229
 40
0.544341461
 40
0.6083842509
 40
0.6406063414
 40
0.6729444068
 40
0.7379126577
 40
0.8032030751
 40
0.8687157473
 40
0.9343487062
 40
1.0
 40
1.0
 40
1.0
 40
1.0
 10
5.6464721084
 20
3.2325657745
 30
0.0
 10
5.6456413111
 20
3.2320544409
 30
0.0
 10
5.6439968755
 20
3.2309918646
 30
0.0
 10
5.6407834301
 20
3.2287126063
 30
0.0
 10
5.6369167958
 20
3.2255776231
 30
0.0
 10
5.632564482
 20
3.2214014933
 30
0.0
 10
5.628512054
 20
3.2168246061
 30
0.0
 10
5.6247861522
 20
3.2118759654
 30
0.0
 10
5.6219818511
 20
3.2074810403
 30
0.0
 10
5.6199228494
 20
3.2038122017
 30
0.0
 10
5.6184692146
 20
3.2009786936
 30
0.0
 10
5.6171136398
 20
3.1980767302
 30
0.0
 10
5.6154358818
 20
3.1941124659
 30
0.0
 10
5.6135972009
 20
3.1890091192
 30
0.0
 10
5.6121201195
 20
3.1837638683
 30
0.0
 10
5.6111551791
 20
3.1794867989
 30
0.0
 10
5.6103342895
 20
3.1751476549
 30
0.0
 10
5.6095887918
 20
3.169650599
 30
0.0
 10
5.6091486225
 20
3.1629866177
 30
0.0
 10
5.6091652948
 20
3.1562852548
 30
0.0
 10
5.6096398856
 20
3.1495887353
 30
0.0
 10
5.6102608204
 20
3.1451526565
 30
0.0
 10
5.6106468523
 20
3.142948296
 30
0.0
  0
ENDSEC
  0
SECTION
  2
OBJECTS
  0
DICTIONARY
  5
C
100
AcDbDictionary
280
0
281
1
  3
ACAD_GROUP
350
D
  3
ACAD_MLINESTYLE
350
17
  3
ACAD_LAYOUT
350
1A
  3
ACAD_PLOTSETTINGS
350
19
  3
ACAD_PLOTSTYLENAME
350
E
  0
DICTIONARY
  5
D
102
{ACAD_REACTORS
330
C
102
}
100
AcDbDictionary
280
0
281
1
  0
ACDBDICTIONARYWDFLT
  5
E
102
{ACAD_REACTORS
330
C
102
}
100
AcDbDictionary
281
1
  3
Normal
350
F
100
AcDbDictionaryWithDefault
340
F
  0
DICTIONARY
  5
17
102
{ACAD_REACTORS
330
C
102
}
100
AcDbDictionary
280
0
281
1
  3
Standard
350
18
  0
DICTIONARY
  5
19
102
{ACAD_REACTORS
330
C
102
}
100
AcDbDictionary
281
1
  0
DICTIONARY
  5
1A
102
{ACAD_REACTORS
330
C
102
}
100
AcDbDictionary
281
1
  3
Model
350
355
  3
Layout1
350
356
  0
ACDBPLACEHOLDER
  5
F
102
{ACAD_REACTORS
330
E
102
}
  0
MLINESTYLE
  5
18
102
{ACAD_REACTORS
330
17
102
}
100
AcDbMlineStyle
  2
STANDARD
 70
0
  3

 62
256
 51
90.0
 52
90.0
 71
2
 49
0.5
 62
256
  6
BYLAYER
 49
-0.5
 62
256
  6
BYLAYER
  0
LAYOUT
  5
355
102
{ACAD_REACTORS
330
1A
102
}
100
AcDbPlotSettings
  1

  2
none_device
  4
ISO_A4_(297.00_x_210.00_MM)
  6

 40
0.0
 41
0.0
 42
0.0
 43
0.0
 44
297.0
 45
210.0
 46
0.0
 47
0.0
 48
0.0
 49
0.0
140
0.0
141
0.0
142
1.0
143
1.0
 70
1024
 72
0
 73
0
 74
0
  7

 75
0
147
1.0
148
0.0
149
0.0
100
AcDbLayout
  1
Model
 70
0
 71
0
 10
0.0
 20
0.0
 11
11.6929133858
 21
8.2677165354
 12
0.0
 22
0.0
 32
0.0
 14
0.0
 24
0.0
 34
0.0
 15
0.0
 25
0.0
 35
0.0
146
0.0
 13
0.0
 23
0.0
 33
0.0
 16
1.0
 26
0.0
 36
0.0
 17
0.0
 27
1.0
 37
0.0
 76
0
330
202
345
0
346
0
  0
LAYOUT
  5
356
102
{ACAD_REACTORS
330
1A
102
}
100
AcDbPlotSettings
  1

  2
none_device
  4
ISO_A4_(297.00_x_210.00_MM)
  6

 40
0.0
 41
0.0
 42
0.0
 43
0.0
 44
297.0
 45
210.0
 46
0.0
 47
0.0
 48
0.0
 49
0.0
140
0.0
141
0.0
142
1.0
143
1.0
 70
0
 72
0
 73
0
 74
0
  7

 75
0
147
1.0
148
0.0
149
0.0
100
AcDbLayout
  1
Layout1
 70
0
 71
1
 10
0.0
 20
0.0
 11
11.6929133858
 21
8.2677165354
 12
0.0
 22
0.0
 32
0.0
 14
0.0
 24
0.0
 34
0.0
 15
0.0
 25
0.0
 35
0.0
146
0.0
 13
0.0
 23
0.0
 33
0.0
 16
1.0
 26
0.0
 36
0.0
 17
0.0
 27
1.0
 37
0.0
 76
0
330
203
345
0
346
0
  0
ENDSEC
  0
EOF
