999
DXF file: 3-1205_FRONT.dxf
999
Pro/ENGINEER 2018400 by Parametric Technology Corporation
  0
SECTION
  2
HEADER
  9
$ACADVER
  1
AC1027
  9
$DWGCODEPAGE
  3
ANSI_1252
  9
$EXTMAX
 10
11.0
 20
8.5
 30
0.0
  9
$EXTMIN
 10
0.0
 20
0.0
 30
0.0
  9
$LIMMIN
 10
0.0
 20
0.0
  9
$LIMMAX
 10
11.0
 20
8.5
  9
$VIEWCTR
 10
5.5
 20
4.25
  9
$VIEWSIZE
 40
8.5
  9
$CLAYER
  8
0
  9
$LTSCALE
 40
0.605
  9
$CELTYPE
  6
BYLAYER
  9
$DIMSCALE
 40
1.0
  9
$DIMASZ
 40
0.1
  9
$DIMEXO
 40
0.0625
  9
$DIMDLI
 40
0.418
  9
$DIMEXE
 40
0.125
  9
$DIMCEN
 40
0.099
  9
$DIMLFAC
 40
1.0
  9
$DIMBLK
  1
_FILLED
  9
$DIMALT
 70
1
  9
$DIMALTD
 70
2
  9
$DIMALTTD
 70
2
  9
$DIMALTF
 40
25.4
  9
$DIMTXT
 40
0.08
  9
$DIMTOL
 70
1
  9
$DIMLIM
 70
0
  9
$DIMTFAC
 40
1.0
  9
$DIMTP
 40
0.001
  9
$DIMTM
 40
0.001
  9
$DIMGAP
 40
0.09
  9
$DIMDSEP
 70
46
  9
$AUNITS
 70
0
  9
$PDMODE
 70
3
  9
$PDSIZE
 40
0.3125
  9
$HANDSEED
  5
2FE
  9
$TILEMODE
 70
1
  9
$MEASUREMENT
 70
0
  9
$INSUNITS
 70
1
  0
ENDSEC
  0
SECTION
  2
CLASSES
  0
CLASS
  1
ACDBDICTIONARYWDFLT
  2
AcDbDictionaryWithDefault
  3
AutoCAD 2000
 90
0
 91
1
280
0
281
0
  0
CLASS
  1
ACDBPLACEHOLDER
  2
AcDbPlaceHolder
  3
AutoCAD 2000
 90
0
 91
1
280
0
281
0
  0
CLASS
  1
LAYOUT
  2
AcDbLayout
  3
AutoCAD 2000
 90
0
 91
0
280
0
281
0
  0
ENDSEC
  0
SECTION
  2
TABLES
  0
TABLE
  2
VPORT
  5
8
100
AcDbSymbolTable
 70
2
  0
VPORT
  5
1F4
100
AcDbSymbolTableRecord
100
AcDbViewportTableRecord
  2
*ACTIVE
 70
0
 10
0.0
 20
0.0
 11
1.0
 21
1.0
 12
5.5
 22
4.25
 13
0.0
 23
0.0
 14
1.0
 24
1.0
 15
0.0
 25
0.0
 16
0.0
 26
0.0
 36
1.0
 17
0.0
 27
0.0
 37
0.0
 40
8.5
 41
1.2941176471
 42
50.0
 43
0.0
 44
0.0
 50
0.0
 51
0.0
 71
0
 72
100
 73
1
 74
1
 75
0
 76
0
 77
0
 78
0
  0
ENDTAB
  0
TABLE
  2
LTYPE
  5
5
100
AcDbSymbolTable
 70
6
  0
LTYPE
  5
14
100
AcDbSymbolTableRecord
100
AcDbLinetypeTableRecord
  2
BYBLOCK
 70
0
  3

 72
65
 73
0
 40
0.0
  0
LTYPE
  5
15
100
AcDbSymbolTableRecord
100
AcDbLinetypeTableRecord
  2
BYLAYER
 70
0
  3

 72
65
 73
0
 40
0.0
  0
LTYPE
  5
16
100
AcDbSymbolTableRecord
100
AcDbLinetypeTableRecord
  2
CONTINUOUS
 70
64
  3
Solid line
 72
65
 73
0
 40
0.0
  0
LTYPE
  5
1F5
100
AcDbSymbolTableRecord
100
AcDbLinetypeTableRecord
  2
CENTER
 70
64
  3
____ _ ____ _ ____ _ ____ _ ____ _ ____ _ ____
 72
65
 73
4
 40
0.6
 49
0.375
 74
0
 49
-0.075
 74
0
 49
0.075
 74
0
 49
-0.075
 74
0
  0
LTYPE
  5
1F6
100
AcDbSymbolTableRecord
100
AcDbLinetypeTableRecord
  2
HIDDEN
 70
64
  3
- - - - - - - - - - - - - - - - - - - -
 72
65
 73
2
 40
0.2
 49
0.1
 74
0
 49
-0.1
 74
0
  0
LTYPE
  5
1F7
100
AcDbSymbolTableRecord
100
AcDbLinetypeTableRecord
  2
PHANTOM
 70
64
  3
_____ _ _ _____ _ _ _____ _ _ _____
 72
65
 73
6
 40
0.8
 49
0.45
 74
0
 49
-0.05
 74
0
 49
0.1
 74
0
 49
-0.05
 74
0
 49
0.1
 74
0
 49
-0.05
 74
0
  0
LTYPE
  5
1F8
100
AcDbSymbolTableRecord
100
AcDbLinetypeTableRecord
  2
DOT
 70
64
  3
. . . . . . . . . . . . . . . . . . . .
 72
65
 73
2
 40
0.2
 49
0.1
 74
0
 49
-0.1
 74
0
  0
LTYPE
  5
1F9
100
AcDbSymbolTableRecord
100
AcDbLinetypeTableRecord
  2
DASHED
 70
64
  3
- - - - - - - - - - - - - - - - - - - -
 72
65
 73
2
 40
0.2
 49
0.1
 74
0
 49
-0.1
 74
0
  0
ENDTAB
  0
TABLE
  2
LAYER
  5
2
100
AcDbSymbolTable
 70
36
  0
LAYER
  5
10
100
AcDbSymbolTableRecord
100
AcDbLayerTableRecord
  2
0
 70
0
 62
7
  6
CONTINUOUS
370
-3
390
F
  0
LAYER
  5
1FA
100
AcDbSymbolTableRecord
100
AcDbLayerTableRecord
  2
DEFAULT_1
 70
0
 62
7
  6
CENTER
370
-3
390
F
  0
LAYER
  5
1FB
100
AcDbSymbolTableRecord
100
AcDbLayerTableRecord
  2
DEFAULT_2
 70
0
 62
8
  6
HIDDEN
370
-3
390
F
  0
LAYER
  5
1FC
100
AcDbSymbolTableRecord
100
AcDbLayerTableRecord
  2
DEFAULT_3
 70
0
 62
7
  6
PHANTOM
370
-3
390
F
  0
LAYER
  5
1FD
100
AcDbSymbolTableRecord
100
AcDbLayerTableRecord
  2
_  SHELL
 70
0
 62
7
  6
CONTINUOUS
370
-3
390
F
  0
LAYER
  5
1FE
100
AcDbSymbolTableRecord
100
AcDbLayerTableRecord
  2
06___PRT_ALL_SURFS
 70
0
 62
7
  6
CONTINUOUS
370
-3
390
F
  0
LAYER
  5
1FF
100
AcDbSymbolTableRecord
100
AcDbLayerTableRecord
  2
2-144_ASSY_PLANES
 70
0
 62
7
  6
CONTINUOUS
370
-3
390
F
  0
LAYER
  5
200
100
AcDbSymbolTableRecord
100
AcDbLayerTableRecord
  2
ALL_ASSEMBLY_MEMBERS
 70
0
 62
7
  6
CONTINUOUS
370
-3
390
F
  0
LAYER
  5
201
100
AcDbSymbolTableRecord
100
AcDbLayerTableRecord
  2
ALL_FEATURES
 70
0
 62
7
  6
CONTINUOUS
370
-3
390
F
  0
LAYER
  5
202
100
AcDbSymbolTableRecord
100
AcDbLayerTableRecord
  2
AXES_FEATURES
 70
0
 62
7
  6
CONTINUOUS
370
-3
390
F
  0
LAYER
  5
203
100
AcDbSymbolTableRecord
100
AcDbLayerTableRecord
  2
CHAMFER_FEATURES
 70
0
 62
7
  6
CONTINUOUS
370
-3
390
F
  0
LAYER
  5
204
100
AcDbSymbolTableRecord
100
AcDbLayerTableRecord
  2
COSMETIC
 70
0
 62
7
  6
CONTINUOUS
370
-3
390
F
  0
LAYER
  5
205
100
AcDbSymbolTableRecord
100
AcDbLayerTableRecord
  2
CURVES
 70
0
 62
7
  6
CONTINUOUS
370
-3
390
F
  0
LAYER
  5
206
100
AcDbSymbolTableRecord
100
AcDbLayerTableRecord
  2
CUT_FEATURES
 70
0
 62
7
  6
CONTINUOUS
370
-3
390
F
  0
LAYER
  5
207
100
AcDbSymbolTableRecord
100
AcDbLayerTableRecord
  2
DATUM_PLANES
 70
0
 62
7
  6
CONTINUOUS
370
-3
390
F
  0
LAYER
  5
208
100
AcDbSymbolTableRecord
100
AcDbLayerTableRecord
  2
DATUM_POINTS
 70
0
 62
7
  6
CONTINUOUS
370
-3
390
F
  0
LAYER
  5
209
100
AcDbSymbolTableRecord
100
AcDbLayerTableRecord
  2
DEFAULT_COORDINATE_SYSTEM
 70
0
 62
7
  6
CONTINUOUS
370
-3
390
F
  0
LAYER
  5
20A
100
AcDbSymbolTableRecord
100
AcDbLayerTableRecord
  2
DEFAULT_DATUM_AXES
 70
0
 62
7
  6
CONTINUOUS
370
-3
390
F
  0
LAYER
  5
20B
100
AcDbSymbolTableRecord
100
AcDbLayerTableRecord
  2
DEFAULT_DATUM_CURVES
 70
0
 62
7
  6
CONTINUOUS
370
-3
390
F
  0
LAYER
  5
20C
100
AcDbSymbolTableRecord
100
AcDbLayerTableRecord
  2
DEFAULT_DATUM_PLANES
 70
0
 62
7
  6
CONTINUOUS
370
-3
390
F
  0
LAYER
  5
20D
100
AcDbSymbolTableRecord
100
AcDbLayerTableRecord
  2
DEFAULT_SURFACES
 70
0
 62
7
  6
CONTINUOUS
370
-3
390
F
  0
LAYER
  5
20E
100
AcDbSymbolTableRecord
100
AcDbLayerTableRecord
  2
DIMENSIONS
 70
0
 62
7
  6
CONTINUOUS
370
-3
390
F
  0
LAYER
  5
20F
100
AcDbSymbolTableRecord
100
AcDbLayerTableRecord
  2
HOLE_FEATURES
 70
0
 62
7
  6
CONTINUOUS
370
-3
390
F
  0
LAYER
  5
210
100
AcDbSymbolTableRecord
100
AcDbLayerTableRecord
  2
INTF_BLANK
 70
0
 62
7
  6
CONTINUOUS
370
-3
390
F
  0
LAYER
  5
211
100
AcDbSymbolTableRecord
100
AcDbLayerTableRecord
  2
MAGENTA
 70
0
 62
7
  6
CONTINUOUS
370
-3
390
F
  0
LAYER
  5
212
100
AcDbSymbolTableRecord
100
AcDbLayerTableRecord
  2
NOTES
 70
0
 62
7
  6
CONTINUOUS
370
-3
390
F
  0
LAYER
  5
213
100
AcDbSymbolTableRecord
100
AcDbLayerTableRecord
  2
PART_REFERENCE_DIMENSIONS
 70
0
 62
7
  6
CONTINUOUS
370
-3
390
F
  0
LAYER
  5
214
100
AcDbSymbolTableRecord
100
AcDbLayerTableRecord
  2
PLATEDSURFAREA
 70
0
 62
7
  6
CONTINUOUS
370
-3
390
F
  0
LAYER
  5
215
100
AcDbSymbolTableRecord
100
AcDbLayerTableRecord
  2
POINTS
 70
0
 62
7
  6
CONTINUOUS
370
-3
390
F
  0
LAYER
  5
216
100
AcDbSymbolTableRecord
100
AcDbLayerTableRecord
  2
PROTRUSION_FEATURES
 70
0
 62
7
  6
CONTINUOUS
370
-3
390
F
  0
LAYER
  5
217
100
AcDbSymbolTableRecord
100
AcDbLayerTableRecord
  2
QUILT
 70
0
 62
7
  6
CONTINUOUS
370
-3
390
F
  0
LAYER
  5
218
100
AcDbSymbolTableRecord
100
AcDbLayerTableRecord
  2
REFERENCE_DIMENSIONS
 70
0
 62
7
  6
CONTINUOUS
370
-3
390
F
  0
LAYER
  5
219
100
AcDbSymbolTableRecord
100
AcDbLayerTableRecord
  2
SHELL
 70
0
 62
7
  6
CONTINUOUS
370
-3
390
F
  0
LAYER
  5
21A
100
AcDbSymbolTableRecord
100
AcDbLayerTableRecord
  2
WHITE
 70
0
 62
7
  6
CONTINUOUS
370
-3
390
F
  0
LAYER
  5
21B
100
AcDbSymbolTableRecord
100
AcDbLayerTableRecord
  2
XSEC_DATUMS
 70
0
 62
7
  6
CONTINUOUS
370
-3
390
F
  0
LAYER
  5
21C
100
AcDbSymbolTableRecord
100
AcDbLayerTableRecord
  2
___SHELL
 70
0
 62
7
  6
CONTINUOUS
370
-3
390
F
  0
ENDTAB
  0
TABLE
  2
STYLE
  5
3
100
AcDbSymbolTable
 70
1
  0
STYLE
  5
11
100
AcDbSymbolTableRecord
100
AcDbTextStyleTableRecord
  2
STANDARD
 70
0
 40
0.0
 41
0.8
 50
0.0
 71
0
 42
0.2
  3
txt
  4

  0
STYLE
  5
21D
100
AcDbSymbolTableRecord
100
AcDbTextStyleTableRecord
  2
TEXTSTYLE_1
 70
0
 40
0.0
 41
0.8
 50
0.0
 71
0
 42
0.2
  3
gdt
  4

  0
ENDTAB
  0
TABLE
  2
VIEW
  5
6
100
AcDbSymbolTable
 70
0
  0
ENDTAB
  0
TABLE
  2
UCS
  5
7
100
AcDbSymbolTable
 70
0
  0
ENDTAB
  0
TABLE
  2
APPID
  5
9
100
AcDbSymbolTable
 70
1
  0
APPID
  5
21E
100
AcDbSymbolTableRecord
100
AcDbRegAppTableRecord
  2
ACAD
 70
0
  0
ENDTAB
  0
TABLE
  2
BLOCK_RECORD
  5
1
100
AcDbSymbolTable
 70
0
  0
BLOCK_RECORD
  5
21F
100
AcDbSymbolTableRecord
100
AcDbBlockTableRecord
  2
*Model_Space
  0
BLOCK_RECORD
  5
220
100
AcDbSymbolTableRecord
100
AcDbBlockTableRecord
  2
*Paper_Space
  0
BLOCK_RECORD
  5
221
100
AcDbSymbolTableRecord
100
AcDbBlockTableRecord
  2
_FILLED
  0
ENDTAB
  0
TABLE
  2
DIMSTYLE
  5
A
100
AcDbSymbolTable
 70
1
100
AcDbDimStyleTable
 71
0
  0
DIMSTYLE
105
222
100
AcDbSymbolTableRecord
100
AcDbDimStyleTableRecord
  2
STANDARD
 70
0
  3

  4

 40
1.0
 41
0.1
 42
0.0625
 43
0.38
 44
0.125
 45
0.0
 46
0.0
 47
0.001
 48
0.001
140
0.08
141
0.09
142
0.0
143
25.4
144
1.0
145
0.0
146
1.0
147
0.09
 71
1.0
 72
0.0
 73
1
 74
1
 75
0
 76
0
 77
0
 78
4
 79
1
170
1
171
2
172
0
173
0
174
0
175
0
176
0
177
0
178
0
270
2
179
3
271
3
272
3
273
2
274
2
275
0
280
0
281
0
282
0
283
1
284
4
285
0
286
0
287
3
288
0
340
11
278
46
341
221
342
221
343
221
344
221
  0
ENDTAB
  0
ENDSEC
  0
SECTION
  2
BLOCKS
  0
BLOCK
  5
20
100
AcDbEntity
  8
0
100
AcDbBlockBegin
  2
*Model_Space
 70
0
 10
0.0
 20
0.0
 30
0.0
  3
*Model_Space
  1

  0
ENDBLK
  5
21
100
AcDbEntity
  8
0
100
AcDbBlockEnd
  0
BLOCK
  5
1C
100
AcDbEntity
  8
0
100
AcDbBlockBegin
  2
*Paper_Space
 70
0
 10
0.0
 20
0.0
 30
0.0
  3
*Paper_Space
  1

  0
ENDBLK
  5
1D
100
AcDbEntity
  8
0
100
AcDbBlockEnd
  0
BLOCK
  5
223
100
AcDbEntity
  8
0
100
AcDbBlockBegin
  2
_FILLED
 70
64
 10
0.0
 20
0.0
  3
_FILLED
  1

  0
SOLID
  5
224
100
AcDbEntity
  8
0
  6
BYBLOCK
 62
0
100
AcDbTrace
 10
0.0
 20
0.0
 11
-1.0
 21
0.2
 12
-1.0
 22
-0.2
 13
-1.0
 23
-0.2
  0
ENDBLK
  5
225
100
AcDbEntity
  8
0
  6
BYBLOCK
 62
0
100
AcDbBlockEnd
  0
ENDSEC
  0
SECTION
  2
ENTITIES
  0
MTEXT
  5
226
100
AcDbEntity
  8
0
100
AcDbMText
 62
2
  6
CONTINUOUS
  7
STANDARD
 71
3
 72
1
 10
3.1076281056
 20
1.2723990687
 30
0.0
 11
1.0
 21
0.0
 31
0.0
 73
2
 44
0.9
  1
SCALE  .500
 40
0.08
 41
0.704
  0
LINE
  5
227
100
AcDbEntity
  8
0
100
AcDbLine
 62
7
  6
CONTINUOUS
 10
0.0
 20
0.0
 11
0.0
 21
8.5
  0
LINE
  5
228
100
AcDbEntity
  8
0
100
AcDbLine
 62
7
  6
CONTINUOUS
 10
0.0
 20
0.0
 11
11.0
 21
0.0
  0
LINE
  5
229
100
AcDbEntity
  8
0
100
AcDbLine
 62
7
  6
CONTINUOUS
 10
0.0
 20
8.5
 11
11.0
 21
8.5
  0
LINE
  5
22A
100
AcDbEntity
  8
0
100
AcDbLine
 62
7
  6
CONTINUOUS
 10
11.0
 20
0.0
 11
11.0
 21
8.5
  0
LINE
  5
22B
100
AcDbEntity
  8
0
100
AcDbLine
 62
7
  6
CONTINUOUS
 10
1.5794526398
 20
5.9295652177
 11
1.5858333475
 21
5.9406169277
  0
LINE
  5
22C
100
AcDbEntity
  8
0
100
AcDbLine
 62
7
  6
CONTINUOUS
 10
1.5726687741
 20
5.5453152177
 11
1.5794526398
 21
5.5570652177
  0
LINE
  5
22D
100
AcDbEntity
  8
0
100
AcDbLine
 62
7
  6
CONTINUOUS
 10
1.5006030382
 20
5.6512760673
 11
1.5006030382
 21
5.8353543682
  0
LINE
  5
22E
100
AcDbEntity
  8
0
100
AcDbLine
 62
7
  6
CONTINUOUS
 10
1.5257026398
 20
5.9098152177
 11
1.5257026398
 21
5.5768152177
  0
LINE
  5
22F
100
AcDbEntity
  8
0
100
AcDbLine
 62
7
  6
CONTINUOUS
 10
1.5572026398
 20
5.5453152177
 11
1.5572026398
 21
5.9413152177
  0
LINE
  5
230
100
AcDbEntity
  8
0
100
AcDbLine
 62
7
  6
CONTINUOUS
 10
1.5726687741
 20
5.5453152177
 11
1.5726687741
 21
5.9413152177
  0
LINE
  5
231
100
AcDbEntity
  8
0
100
AcDbLine
 62
7
  6
CONTINUOUS
 10
1.5794526398
 20
5.5570652177
 11
1.5794526398
 21
5.9295652177
  0
LINE
  5
232
100
AcDbEntity
  8
0
100
AcDbLine
 62
7
  6
CONTINUOUS
 10
1.5858333475
 20
5.5460135077
 11
1.5858333475
 21
5.9406169277
  0
LINE
  5
233
100
AcDbEntity
  8
ALL_FEATURES
100
AcDbLine
 62
7
  6
CONTINUOUS
 10
2.8297747284
 20
6.2498152177
 11
2.6192792525
 21
5.8852263588
  0
LINE
  5
234
100
AcDbEntity
  8
ALL_FEATURES
100
AcDbLine
 62
7
  6
CONTINUOUS
 10
2.9560672188
 20
6.0310702078
 11
2.847418248
 21
5.8428846703
  0
LINE
  5
235
100
AcDbEntity
  8
ALL_FEATURES
100
AcDbLine
 62
7
  6
CONTINUOUS
 10
2.9778650725
 20
5.9933152177
 11
2.8862107172
 21
5.8345652177
  0
LINE
  5
236
100
AcDbEntity
  8
0
100
AcDbLine
 62
7
  6
CONTINUOUS
 10
2.7902026398
 20
5.6105652177
 11
2.7902026398
 21
5.8760652177
  0
LINE
  5
237
100
AcDbEntity
  8
0
100
AcDbLine
 62
7
  6
CONTINUOUS
 10
2.8372026398
 20
5.6105652177
 11
2.8372026398
 21
5.876059253
  0
LWPOLYLINE
  5
238
100
AcDbEntity
  8
ALL_FEATURES
100
AcDbPolyline
 62
7
  6
CONTINUOUS
 90
5
 70
0
 10
2.8650060596
 20
5.2978414721
 10
2.8566582129
 20
5.2833787787
 10
2.8480061382
 20
5.2683802848
 10
2.8390449767
 20
5.2528556852
 10
2.8297747284
 20
5.2368152177
  0
LINE
  5
239
100
AcDbEntity
  8
ALL_FEATURES
100
AcDbLine
 62
7
  6
CONTINUOUS
 10
2.9778650725
 20
5.4933152177
 11
2.8253276398
 21
5.2291126342
  0
LINE
  5
23A
100
AcDbEntity
  8
ALL_FEATURES
100
AcDbLine
 62
7
  6
CONTINUOUS
 10
3.266540207
 20
5.9933152177
 11
3.4190776398
 21
6.2575178012
  0
LINE
  5
23B
100
AcDbEntity
  8
ALL_FEATURES
100
AcDbLine
 62
7
  6
CONTINUOUS
 10
3.2909093541
 20
6.0355214991
 11
3.2938373098
 21
6.0405931506
  0
LINE
  5
23C
100
AcDbEntity
  8
ALL_FEATURES
100
AcDbLine
 62
7
  6
CONTINUOUS
 10
3.3188480755
 20
6.0839142048
 11
3.3242329249
 21
6.0932419362
  0
LWPOLYLINE
  5
23D
100
AcDbEntity
  8
ALL_FEATURES
100
AcDbPolyline
 62
7
  6
CONTINUOUS
 90
3
 70
0
 10
3.3562568619
 20
6.1487067805
 10
3.3636453637
 20
6.1615062827
 10
3.3713604601
 20
6.1748710668
  0
LINE
  5
23E
100
AcDbEntity
  8
ALL_FEATURES
100
AcDbLine
 62
7
  6
CONTINUOUS
 10
3.3424566323
 20
6.1248063234
 11
3.3491920235
 21
6.136475185
  0
LINE
  5
23F
100
AcDbEntity
  8
ALL_FEATURES
100
AcDbLine
 62
7
  6
CONTINUOUS
 10
3.3091157565
 20
6.0670582325
 11
3.3138083971
 21
6.0751883783
  0
LWPOLYLINE
  5
240
100
AcDbEntity
  8
ALL_FEATURES
100
AcDbPolyline
 62
7
  6
CONTINUOUS
 90
5
 70
0
 10
3.3793992199
 20
6.1887889634
 10
3.3877470666
 20
6.2032516568
 10
3.3963991413
 20
6.2182501507
 10
3.4053603028
 20
6.2337747502
 10
3.4146305511
 20
6.2498152177
  0
LINE
  5
241
100
AcDbEntity
  8
ALL_FEATURES
100
AcDbLine
 62
7
  6
CONTINUOUS
 10
3.266540207
 20
5.4933152177
 11
3.4108777743
 21
5.7433152177
  0
LINE
  5
242
100
AcDbEntity
  8
0
100
AcDbLine
 62
7
  6
CONTINUOUS
 10
1.5794526398
 20
5.5570652177
 11
1.5858333475
 21
5.5460135077
  0
LINE
  5
243
100
AcDbEntity
  8
0
100
AcDbLine
 62
7
  6
CONTINUOUS
 10
2.8687026398
 20
5.6520652177
 11
2.8687026398
 21
5.8345652177
  0
LINE
  5
244
100
AcDbEntity
  8
ALL_FEATURES
100
AcDbLine
 62
7
  6
CONTINUOUS
 10
3.2883380608
 20
5.4555602276
 11
3.4544734818
 21
5.7433152177
  0
LINE
  5
245
100
AcDbEntity
  8
ALL_FEATURES
100
AcDbLine
 62
7
  6
CONTINUOUS
 10
3.4146305511
 20
5.2368152177
 11
3.7070584624
 21
5.7433152177
  0
LINE
  5
246
100
AcDbEntity
  8
ALL_ASSEMBLY_MEMBERS
100
AcDbLine
 62
7
  6
CONTINUOUS
 10
5.4582026398
 20
1.9208152177
 11
4.7232026398
 21
1.9208152177
  0
LINE
  5
247
100
AcDbEntity
  8
0
100
AcDbLine
 62
7
  6
CONTINUOUS
 10
1.5726687741
 20
5.9413152177
 11
1.5794526398
 21
5.9295652177
  0
LINE
  5
248
100
AcDbEntity
  8
ALL_ASSEMBLY_MEMBERS
100
AcDbLine
 62
7
  6
CONTINUOUS
 10
5.4582026398
 20
2.2433152177
 11
4.7232026398
 21
2.2433152177
  0
LINE
  5
249
100
AcDbEntity
  8
ALL_FEATURES
100
AcDbLine
 62
7
  6
CONTINUOUS
 10
2.6192792525
 20
5.6014040767
 11
2.8297747284
 21
5.2368152177
  0
LINE
  5
24A
100
AcDbEntity
  8
ALL_ASSEMBLY_MEMBERS
100
AcDbLine
 62
7
  6
CONTINUOUS
 10
5.7479333501
 20
2.7433147129
 11
5.768399315
 21
2.7433152126
  0
LINE
  5
24B
100
AcDbEntity
  8
ALL_ASSEMBLY_MEMBERS
100
AcDbLine
 62
7
  6
CONTINUOUS
 10
4.3907029749
 20
2.7433152177
 11
4.7157026398
 21
2.7433152177
  0
LINE
  5
24C
100
AcDbEntity
  8
ALL_ASSEMBLY_MEMBERS
100
AcDbLine
 62
7
  6
CONTINUOUS
 10
5.4657026398
 20
2.7433152177
 11
5.7907023046
 21
2.7433152177
  0
LWPOLYLINE
  5
24D
100
AcDbEntity
  8
ALL_ASSEMBLY_MEMBERS
100
AcDbPolyline
 62
7
  6
CONTINUOUS
 90
3
 70
0
 10
4.4838347999
 20
2.7433127606
 10
4.4688850216
 20
2.7433137324
 10
4.4130059534
 20
2.743315222
  0
LWPOLYLINE
  5
24E
100
AcDbEntity
  8
ALL_ASSEMBLY_MEMBERS
100
AcDbPolyline
 62
7
  6
CONTINUOUS
 90
3
 70
0
 10
5.6975704713
 20
2.7433176757
 10
5.7125202435
 20
2.7433167038
 10
5.7479333501
 20
2.7433147129
  0
LINE
  5
24F
100
AcDbEntity
  8
ALL_ASSEMBLY_MEMBERS
100
AcDbLine
 62
7
  6
CONTINUOUS
 10
4.4983878489
 20
2.7408293625
 11
4.4969526398
 21
2.7433152177
  0
LINE
  5
250
100
AcDbEntity
  8
ALL_FEATURES
100
AcDbLine
 62
7
  6
CONTINUOUS
 10
2.847418248
 20
5.6437457652
 11
2.9560672188
 21
5.4555602276
  0
LINE
  5
251
100
AcDbEntity
  8
ALL_FEATURES
100
AcDbLine
 62
7
  6
CONTINUOUS
 10
2.8862107172
 20
5.6520652177
 11
2.9778650725
 21
5.4933152177
  0
LINE
  5
252
100
AcDbEntity
  8
ALL_ASSEMBLY_MEMBERS
100
AcDbLine
 62
7
  6
CONTINUOUS
 10
5.2782026398
 20
3.0680747442
 11
4.9032026398
 21
3.0680747442
  0
LINE
  5
253
100
AcDbEntity
  8
ALL_ASSEMBLY_MEMBERS
100
AcDbLine
 62
7
  6
CONTINUOUS
 10
5.2938276398
 20
3.095138038
 11
4.8875776398
 21
3.095138038
  0
LINE
  5
254
100
AcDbEntity
  8
ALL_ASSEMBLY_MEMBERS
100
AcDbLine
 62
7
  6
CONTINUOUS
 10
5.3250776398
 20
3.1492646258
 11
4.8563276398
 21
3.1492646258
  0
LINE
  5
255
100
AcDbEntity
  8
ALL_ASSEMBLY_MEMBERS
100
AcDbLine
 62
7
  6
CONTINUOUS
 10
4.7966980578
 20
3.2575178013
 11
4.7938276398
 21
3.2575178012
  0
LINE
  5
256
100
AcDbEntity
  8
ALL_ASSEMBLY_MEMBERS
100
AcDbLine
 62
7
  6
CONTINUOUS
 10
5.3847072214
 20
3.2575178013
 11
5.3875776398
 21
3.2575178012
  0
LINE
  5
257
100
AcDbEntity
  8
ALL_ASSEMBLY_MEMBERS
100
AcDbLine
 62
7
  6
CONTINUOUS
 10
4.6219526398
 20
2.7433152177
 11
4.7199044808
 21
2.5736576523
  0
LINE
  5
258
100
AcDbEntity
  8
ALL_ASSEMBLY_MEMBERS
100
AcDbLine
 62
7
  6
CONTINUOUS
 10
4.6844526398
 20
2.7433152177
 11
4.7173882884
 21
2.6862690008
  0
LINE
  5
259
100
AcDbEntity
  8
ALL_FEATURES
100
AcDbLine
 62
7
  6
CONTINUOUS
 10
3.266540207
 20
5.4933152177
 11
3.4190776398
 21
5.2291126342
  0
LINE
  5
25A
100
AcDbEntity
  8
ALL_FEATURES
100
AcDbLine
 62
7
  6
CONTINUOUS
 10
2.9778650725
 20
5.9933152177
 11
2.8253276398
 21
6.2575178012
  0
LINE
  5
25B
100
AcDbEntity
  8
ALL_FEATURES
100
AcDbLine
 62
7
  6
CONTINUOUS
 10
3.2909073453
 20
5.4511077767
 11
3.2938355466
 21
5.4460362669
  0
LINE
  5
25C
100
AcDbEntity
  8
ALL_FEATURES
100
AcDbLine
 62
7
  6
CONTINUOUS
 10
2.9534979342
 20
6.0355226588
 11
2.9505697329
 21
6.0405941686
  0
LINE
  5
25D
100
AcDbEntity
  8
ALL_FEATURES
100
AcDbLine
 62
7
  6
CONTINUOUS
 10
3.3188472972
 20
5.4027157813
 11
3.3242329249
 21
5.3933884992
  0
LINE
  5
25E
100
AcDbEntity
  8
ALL_FEATURES
100
AcDbLine
 62
7
  6
CONTINUOUS
 10
2.9255579823
 20
6.0839146542
 11
2.9201723546
 21
6.0932419362
  0
LWPOLYLINE
  5
25F
100
AcDbEntity
  8
ALL_FEATURES
100
AcDbPolyline
 62
7
  6
CONTINUOUS
 90
3
 70
0
 10
3.3562549205
 20
5.3379225341
 10
3.3636453637
 20
5.3251241527
 10
3.371362058
 20
5.3117602913
  0
LINE
  5
260
100
AcDbEntity
  8
ALL_FEATURES
100
AcDbLine
 62
7
  6
CONTINUOUS
 10
3.3424566323
 20
5.361824112
 11
3.3491944672
 21
5.3501566614
  0
LWPOLYLINE
  5
261
100
AcDbEntity
  8
ALL_FEATURES
100
AcDbPolyline
 62
7
  6
CONTINUOUS
 90
5
 70
0
 10
3.3793959301
 20
5.2978395727
 10
3.3877470666
 20
5.2833787787
 10
3.396410106
 20
5.2683866153
 10
3.4053742229
 20
5.252863722
 10
3.4146305511
 20
5.2368152177
  0
LWPOLYLINE
  5
262
100
AcDbEntity
  8
ALL_FEATURES
100
AcDbPolyline
 62
7
  6
CONTINUOUS
 90
3
 70
0
 10
2.888150359
 20
6.1487079013
 10
2.8807599158
 20
6.1615062827
 10
2.8730432215
 20
6.1748701442
  0
LINE
  5
263
100
AcDbEntity
  8
ALL_FEATURES
100
AcDbLine
 62
7
  6
CONTINUOUS
 10
3.3091157565
 20
5.4195722029
 11
3.313810349
 21
5.411443184
  0
LINE
  5
264
100
AcDbEntity
  8
ALL_FEATURES
100
AcDbLine
 62
7
  6
CONTINUOUS
 10
2.9019486472
 20
6.1248063234
 11
2.8952108123
 21
6.1364737741
  0
LINE
  5
265
100
AcDbEntity
  8
ALL_FEATURES
100
AcDbLine
 62
7
  6
CONTINUOUS
 10
2.935289523
 20
6.0670582325
 11
2.9305949305
 21
6.0751872514
  0
LWPOLYLINE
  5
266
100
AcDbEntity
  8
ALL_FEATURES
100
AcDbPolyline
 62
7
  6
CONTINUOUS
 90
5
 70
0
 10
2.8650093494
 20
6.1887908628
 10
2.8566582129
 20
6.2032516568
 10
2.8479951735
 20
6.2182438202
 10
2.8390310566
 20
6.2337667134
 10
2.8297747284
 20
6.2498152177
  0
LINE
  5
267
100
AcDbEntity
  8
ALL_ASSEMBLY_MEMBERS
100
AcDbLine
 62
7
  6
CONTINUOUS
 10
4.7407028073
 20
3.3495327101
 11
4.9032026398
 21
3.0680747442
  0
LWPOLYLINE
  5
268
100
AcDbEntity
  8
ALL_ASSEMBLY_MEMBERS
100
AcDbPolyline
 62
7
  6
CONTINUOUS
 90
5
 70
0
 10
4.7518542928
 20
3.330217762
 10
4.7620868396
 20
3.3124934714
 10
4.7714004477
 20
3.2963628373
 10
4.7797951171
 20
3.2818258142
 10
4.7872708478
 20
3.2688794123
  0
LINE
  5
269
100
AcDbEntity
  8
ALL_FEATURES
100
AcDbLine
 62
7
  6
CONTINUOUS
 10
3.4108777743
 20
5.7433152177
 11
3.266540207
 21
5.9933152177
  0
LINE
  5
26A
100
AcDbEntity
  8
ALL_FEATURES
100
AcDbLine
 62
7
  6
CONTINUOUS
 10
3.4544734818
 20
5.7433152177
 11
3.2883380608
 21
6.0310702078
  0
LINE
  5
26B
100
AcDbEntity
  8
ALL_ASSEMBLY_MEMBERS
100
AcDbLine
 62
7
  6
CONTINUOUS
 10
4.7232019588
 20
2.2476438786
 11
4.7232026398
 21
1.9208152177
  0
LINE
  5
26C
100
AcDbEntity
  8
ALL_FEATURES
100
AcDbLine
 62
7
  6
CONTINUOUS
 10
3.7070584624
 20
5.7433152177
 11
3.4146305511
 21
6.2498152177
  0
LINE
  5
26D
100
AcDbEntity
  8
ALL_ASSEMBLY_MEMBERS
100
AcDbLine
 62
7
  6
CONTINUOUS
 10
5.4657026398
 20
2.7433152177
 11
5.2782026398
 21
3.0680747442
  0
LINE
  5
26E
100
AcDbEntity
  8
ALL_ASSEMBLY_MEMBERS
100
AcDbLine
 62
7
  6
CONTINUOUS
 10
5.4969526398
 20
2.7433152177
 11
5.2938276398
 21
3.095138038
  0
LINE
  5
26F
100
AcDbEntity
  8
ALL_ASSEMBLY_MEMBERS
100
AcDbLine
 62
7
  6
CONTINUOUS
 10
5.5594526398
 20
2.7433152177
 11
5.3250776398
 21
3.1492646258
  0
LINE
  5
270
100
AcDbEntity
  8
ALL_ASSEMBLY_MEMBERS
100
AcDbLine
 62
7
  6
CONTINUOUS
 10
4.9069526398
 20
2.2433152177
 11
4.9069526398
 21
1.9208152177
  0
LINE
  5
271
100
AcDbEntity
  8
ALL_ASSEMBLY_MEMBERS
100
AcDbLine
 62
7
  6
CONTINUOUS
 10
5.3890128488
 20
3.2550319463
 11
5.3875776398
 21
3.2575178012
  0
LINE
  5
272
100
AcDbEntity
  8
ALL_ASSEMBLY_MEMBERS
100
AcDbLine
 62
7
  6
CONTINUOUS
 10
5.6830174306
 20
2.7458010729
 11
5.6844526398
 21
2.7433152177
  0
LINE
  5
273
100
AcDbEntity
  8
ALL_ASSEMBLY_MEMBERS
100
AcDbLine
 62
7
  6
CONTINUOUS
 10
5.2744526398
 20
2.2433152177
 11
5.2744526398
 21
1.9208152177
  0
LINE
  5
274
100
AcDbEntity
  8
ALL_ASSEMBLY_MEMBERS
100
AcDbLine
 62
7
  6
CONTINUOUS
 10
4.4983878487
 20
2.7458010727
 11
4.4969526398
 21
2.7433152177
  0
LINE
  5
275
100
AcDbEntity
  8
ALL_ASSEMBLY_MEMBERS
100
AcDbLine
 62
7
  6
CONTINUOUS
 10
4.7923924306
 20
3.2550319461
 11
4.7938276398
 21
3.2575178012
  0
LINE
  5
276
100
AcDbEntity
  8
ALL_ASSEMBLY_MEMBERS
100
AcDbLine
 62
7
  6
CONTINUOUS
 10
4.8563276398
 20
3.1492646258
 11
4.6219526398
 21
2.7433152177
  0
LINE
  5
277
100
AcDbEntity
  8
ALL_ASSEMBLY_MEMBERS
100
AcDbLine
 62
7
  6
CONTINUOUS
 10
5.4582032425
 20
2.2473873642
 11
5.4582026398
 21
1.9208152177
  0
LINE
  5
278
100
AcDbEntity
  8
ALL_ASSEMBLY_MEMBERS
100
AcDbLine
 62
7
  6
CONTINUOUS
 10
4.8875776398
 20
3.095138038
 11
4.6844526398
 21
2.7433152177
  0
LINE
  5
279
100
AcDbEntity
  8
ALL_ASSEMBLY_MEMBERS
100
AcDbLine
 62
7
  6
CONTINUOUS
 10
4.9032026398
 20
3.0680747442
 11
4.7157026398
 21
2.7433152177
  0
LINE
  5
27A
100
AcDbEntity
  8
ALL_FEATURES
100
AcDbLine
 62
7
  6
CONTINUOUS
 10
6.7667747284
 20
6.2498152177
 11
6.4743468171
 21
5.7433152177
  0
LINE
  5
27B
100
AcDbEntity
  8
ALL_FEATURES
100
AcDbLine
 62
7
  6
CONTINUOUS
 10
6.8930672188
 20
6.0310702078
 11
6.7269317977
 21
5.7433152177
  0
LINE
  5
27C
100
AcDbEntity
  8
ALL_FEATURES
100
AcDbLine
 62
7
  6
CONTINUOUS
 10
6.9148650725
 20
5.9933152177
 11
6.7705275052
 21
5.7433152177
  0
LINE
  5
27D
100
AcDbEntity
  8
ALL_ASSEMBLY_MEMBERS
100
AcDbLine
 62
7
  6
CONTINUOUS
 10
5.4193184188
 20
3.3124934314
 11
5.4295509735
 21
3.3302177348
  0
LINE
  5
27E
100
AcDbEntity
  8
ALL_ASSEMBLY_MEMBERS
100
AcDbLine
 62
7
  6
CONTINUOUS
 10
5.2782026398
 20
3.0680747442
 11
5.4407024722
 21
3.3495327101
  0
LWPOLYLINE
  5
27F
100
AcDbEntity
  8
ALL_ASSEMBLY_MEMBERS
100
AcDbPolyline
 62
7
  6
CONTINUOUS
 90
3
 70
0
 10
5.3941344186
 20
3.268879394
 10
5.4016101414
 20
3.2818257814
 10
5.4193184188
 20
3.3124934314
  0
LINE
  5
280
100
AcDbEntity
  8
ALL_FEATURES
100
AcDbLine
 62
7
  6
CONTINUOUS
 10
6.9148650725
 20
5.4933152177
 11
6.7623276398
 21
5.2291126342
  0
LINE
  5
281
100
AcDbEntity
  8
ALL_FEATURES
100
AcDbLine
 62
7
  6
CONTINUOUS
 10
7.203540207
 20
5.9933152177
 11
7.3560776398
 21
6.2575178012
  0
LINE
  5
282
100
AcDbEntity
  8
ALL_FEATURES
100
AcDbLine
 62
7
  6
CONTINUOUS
 10
6.8904959254
 20
5.4511089364
 11
6.8875679697
 21
5.4460372849
  0
LINE
  5
283
100
AcDbEntity
  8
ALL_FEATURES
100
AcDbLine
 62
7
  6
CONTINUOUS
 10
7.2279093541
 20
6.0355214991
 11
7.2308373098
 21
6.0405931506
  0
LINE
  5
284
100
AcDbEntity
  8
ALL_FEATURES
100
AcDbLine
 62
7
  6
CONTINUOUS
 10
6.862557204
 20
5.4027162307
 11
6.8571723546
 21
5.3933884992
  0
LINE
  5
285
100
AcDbEntity
  8
ALL_FEATURES
100
AcDbLine
 62
7
  6
CONTINUOUS
 10
7.2558480755
 20
6.0839142048
 11
7.2612329249
 21
6.0932419362
  0
LWPOLYLINE
  5
286
100
AcDbEntity
  8
ALL_FEATURES
100
AcDbPolyline
 62
7
  6
CONTINUOUS
 90
3
 70
0
 10
6.8251484176
 20
5.337923655
 10
6.8177599158
 20
5.3251241527
 10
6.8100448194
 20
5.3117593687
  0
LINE
  5
287
100
AcDbEntity
  8
ALL_FEATURES
100
AcDbLine
 62
7
  6
CONTINUOUS
 10
6.8389486472
 20
5.361824112
 11
6.832213256
 21
5.3501552505
  0
LWPOLYLINE
  5
288
100
AcDbEntity
  8
ALL_FEATURES
100
AcDbPolyline
 62
7
  6
CONTINUOUS
 90
5
 70
0
 10
6.8020060596
 20
5.2978414721
 10
6.7936582129
 20
5.2833787787
 10
6.7850061382
 20
5.2683802848
 10
6.7760449767
 20
5.2528556852
 10
6.7667747284
 20
5.2368152177
  0
LWPOLYLINE
  5
289
100
AcDbEntity
  8
ALL_FEATURES
100
AcDbPolyline
 62
7
  6
CONTINUOUS
 90
3
 70
0
 10
7.2932568619
 20
6.1487067805
 10
7.3006453637
 20
6.1615062827
 10
7.3083604601
 20
6.1748710668
  0
LINE
  5
28A
100
AcDbEntity
  8
ALL_FEATURES
100
AcDbLine
 62
7
  6
CONTINUOUS
 10
6.872289523
 20
5.4195722029
 11
6.8675968824
 21
5.4114420571
  0
LINE
  5
28B
100
AcDbEntity
  8
ALL_FEATURES
100
AcDbLine
 62
7
  6
CONTINUOUS
 10
7.2794566323
 20
6.1248063234
 11
7.2861920235
 21
6.136475185
  0
LINE
  5
28C
100
AcDbEntity
  8
ALL_FEATURES
100
AcDbLine
 62
7
  6
CONTINUOUS
 10
7.2461157565
 20
6.0670582325
 11
7.2508083971
 21
6.0751883783
  0
LWPOLYLINE
  5
28D
100
AcDbEntity
  8
ALL_FEATURES
100
AcDbPolyline
 62
7
  6
CONTINUOUS
 90
5
 70
0
 10
7.3163992199
 20
6.1887889634
 10
7.3247470666
 20
6.2032516568
 10
7.3333991413
 20
6.2182501507
 10
7.3423603028
 20
6.2337747502
 10
7.3516305511
 20
6.2498152177
  0
LINE
  5
28E
100
AcDbEntity
  8
ALL_ASSEMBLY_MEMBERS
100
AcDbLine
 62
7
  6
CONTINUOUS
 10
5.4640169911
 20
2.6862690008
 11
5.4969526398
 21
2.7433152177
  0
LINE
  5
28F
100
AcDbEntity
  8
ALL_ASSEMBLY_MEMBERS
100
AcDbLine
 62
7
  6
CONTINUOUS
 10
5.4615007987
 20
2.5736576523
 11
5.5594526398
 21
2.7433152177
  0
LINE
  5
290
100
AcDbEntity
  8
ALL_FEATURES
100
AcDbLine
 62
7
  6
CONTINUOUS
 10
7.203540207
 20
5.4933152177
 11
7.2951945623
 21
5.6520652177
  0
LINE
  5
291
100
AcDbEntity
  8
ALL_FEATURES
100
AcDbLine
 62
7
  6
CONTINUOUS
 10
2.8297747284
 20
5.2368152177
 11
3.4146305511
 21
5.2368152177
  0
LINE
  5
292
100
AcDbEntity
  8
ALL_FEATURES
100
AcDbLine
 62
7
  6
CONTINUOUS
 10
6.7667747284
 20
5.2368152177
 11
7.3516305511
 21
5.2368152177
  0
LINE
  5
293
100
AcDbEntity
  8
ALL_FEATURES
100
AcDbLine
 62
7
  6
CONTINUOUS
 10
7.2253380608
 20
5.4555602276
 11
7.3339870315
 21
5.6437457652
  0
LINE
  5
294
100
AcDbEntity
  8
ALL_ASSEMBLY_MEMBERS
100
AcDbLine
 62
7
  6
CONTINUOUS
 10
5.6830174308
 20
2.7408293628
 11
5.6844526398
 21
2.7433152177
  0
LINE
  5
295
100
AcDbEntity
  8
ALL_FEATURES
100
AcDbLine
 62
7
  6
CONTINUOUS
 10
7.3516305511
 20
5.2368152177
 11
7.562126027
 21
5.6014040767
  0
LINE
  5
296
100
AcDbEntity
  8
ALL_FEATURES
100
AcDbLine
 62
7
  6
CONTINUOUS
 10
2.9560672188
 20
5.4555602276
 11
3.2883380608
 21
5.4555602276
  0
LINE
  5
297
100
AcDbEntity
  8
ALL_FEATURES
100
AcDbLine
 62
7
  6
CONTINUOUS
 10
6.8930672188
 20
5.4555602276
 11
7.2253380608
 21
5.4555602276
  0
LINE
  5
298
100
AcDbEntity
  8
0
100
AcDbLine
 62
7
  6
CONTINUOUS
 10
7.203540207
 20
5.4933152177
 11
6.9148650725
 21
5.4933152177
  0
LINE
  5
299
100
AcDbEntity
  8
ALL_FEATURES
100
AcDbLine
 62
7
  6
CONTINUOUS
 10
2.9778650725
 20
5.4933152177
 11
3.266540207
 21
5.4933152177
  0
LINE
  5
29A
100
AcDbEntity
  8
0
100
AcDbLine
 62
7
  6
CONTINUOUS
 10
8.6242026398
 20
5.5453152177
 11
8.6087365054
 21
5.5453152177
  0
LINE
  5
29B
100
AcDbEntity
  8
0
100
AcDbLine
 62
7
  6
CONTINUOUS
 10
1.5572026398
 20
5.5453152177
 11
1.5726687741
 21
5.5453152177
  0
LINE
  5
29C
100
AcDbEntity
  8
0
100
AcDbLine
 62
7
  6
CONTINUOUS
 10
1.5858333475
 20
5.5460135077
 11
2.7902026398
 21
5.6105652177
  0
LINE
  5
29D
100
AcDbEntity
  8
0
100
AcDbLine
 62
7
  6
CONTINUOUS
 10
8.595571932
 20
5.9406169277
 11
7.3912026398
 21
5.8760652177
  0
LINE
  5
29E
100
AcDbEntity
  8
0
100
AcDbLine
 62
7
  6
CONTINUOUS
 10
7.3127026398
 20
5.6520652177
 11
7.2865747511
 21
5.6520652177
  0
LINE
  5
29F
100
AcDbEntity
  8
0
100
AcDbLine
 62
7
  6
CONTINUOUS
 10
2.8687026398
 20
5.6520652177
 11
2.8948305284
 21
5.6520652177
  0
LWPOLYLINE
  5
2A0
100
AcDbEntity
  8
ALL_FEATURES
100
AcDbPolyline
 62
7
  6
CONTINUOUS
 90
5
 70
0
 10
6.5448127692
 20
5.7433171171
 10
6.528113786
 20
5.7433152177
 10
6.5107986719
 20
5.7433088872
 10
6.4928733936
 20
5.7433071809
 10
6.4743468171
 20
5.7433152177
  0
LINE
  5
2A1
100
AcDbEntity
  8
ALL_FEATURES
100
AcDbLine
 62
7
  6
CONTINUOUS
 10
6.6315166377
 20
5.74331722
 11
6.6052214285
 21
5.7433138069
  0
LWPOLYLINE
  5
2A2
100
AcDbEntity
  8
ALL_FEATURES
100
AcDbPolyline
 62
7
  6
CONTINUOUS
 90
3
 70
0
 10
6.5910961369
 20
5.7433163386
 10
6.5763171918
 20
5.7433152177
 10
6.5608854012
 20
5.7433142952
  0
LINE
  5
2A3
100
AcDbEntity
  8
ALL_FEATURES
100
AcDbLine
 62
7
  6
CONTINUOUS
 10
6.7705275052
 20
5.7433152177
 11
6.4654526398
 21
5.7433152177
  0
LINE
  5
2A4
100
AcDbEntity
  8
ALL_FEATURES
100
AcDbLine
 62
7
  6
CONTINUOUS
 10
3.4108777743
 20
5.7433152177
 11
3.7159526398
 21
5.7433152177
  0
LINE
  5
2A5
100
AcDbEntity
  8
ALL_FEATURES
100
AcDbLine
 62
7
  6
CONTINUOUS
 10
3.4596140597
 20
5.743314058
 11
3.4654702166
 21
5.7433141997
  0
LINE
  5
2A6
100
AcDbEntity
  8
ALL_FEATURES
100
AcDbLine
 62
7
  6
CONTINUOUS
 10
3.5154927329
 20
5.7433147684
 11
3.52626321
 21
5.7433152177
  0
LWPOLYLINE
  5
2A7
100
AcDbEntity
  8
ALL_FEATURES
100
AcDbPolyline
 62
7
  6
CONTINUOUS
 90
3
 70
0
 10
3.5903091426
 20
5.7433140969
 10
3.6050880877
 20
5.7433152177
 10
3.6205198783
 20
5.7433161403
  0
LINE
  5
2A8
100
AcDbEntity
  8
ALL_FEATURES
100
AcDbLine
 62
7
  6
CONTINUOUS
 10
3.5627106249
 20
5.7433152177
 11
3.576183851
 21
5.7433166286
  0
LWPOLYLINE
  5
2A9
100
AcDbEntity
  8
ALL_FEATURES
100
AcDbPolyline
 62
7
  6
CONTINUOUS
 90
5
 70
0
 10
3.6365925103
 20
5.7433133184
 10
3.6532914935
 20
5.7433152177
 10
3.6706066076
 20
5.7433215482
 10
3.6885318859
 20
5.7433232545
 10
3.7070584624
 20
5.7433152177
  0
LINE
  5
2AA
100
AcDbEntity
  8
ALL_FEATURES
100
AcDbLine
 62
7
  6
CONTINUOUS
 10
3.4960288732
 20
5.7433152177
 11
3.5054161063
 21
5.7433163446
  0
LINE
  5
2AB
100
AcDbEntity
  8
0
100
AcDbLine
 62
7
  6
CONTINUOUS
 10
7.3127026398
 20
5.8345652177
 11
7.2865747511
 21
5.8345652177
  0
LINE
  5
2AC
100
AcDbEntity
  8
0
100
AcDbLine
 62
7
  6
CONTINUOUS
 10
2.8687026398
 20
5.8345652177
 11
2.8948305284
 21
5.8345652177
  0
LINE
  5
2AD
100
AcDbEntity
  8
0
100
AcDbLine
 62
7
  6
CONTINUOUS
 10
8.595571932
 20
5.5460135077
 11
7.3912026398
 21
5.6105652177
  0
LINE
  5
2AE
100
AcDbEntity
  8
0
100
AcDbLine
 62
7
  6
CONTINUOUS
 10
1.5858333475
 20
5.9406169277
 11
2.7902026398
 21
5.8760652177
  0
LINE
  5
2AF
100
AcDbEntity
  8
0
100
AcDbLine
 62
7
  6
CONTINUOUS
 10
8.6242026398
 20
5.9413152177
 11
8.6087365054
 21
5.9413152177
  0
LINE
  5
2B0
100
AcDbEntity
  8
0
100
AcDbLine
 62
7
  6
CONTINUOUS
 10
1.5572026398
 20
5.9413152177
 11
1.5726687741
 21
5.9413152177
  0
LINE
  5
2B1
100
AcDbEntity
  8
ALL_FEATURES
100
AcDbLine
 62
7
  6
CONTINUOUS
 10
7.203540207
 20
5.9933152177
 11
6.9148650725
 21
5.9933152177
  0
LINE
  5
2B2
100
AcDbEntity
  8
0
100
AcDbLine
 62
7
  6
CONTINUOUS
 10
2.9778650725
 20
5.9933152177
 11
3.266540207
 21
5.9933152177
  0
LINE
  5
2B3
100
AcDbEntity
  8
ALL_FEATURES
100
AcDbLine
 62
7
  6
CONTINUOUS
 10
7.2253380608
 20
6.0310702078
 11
6.8930672188
 21
6.0310702078
  0
LINE
  5
2B4
100
AcDbEntity
  8
ALL_FEATURES
100
AcDbLine
 62
7
  6
CONTINUOUS
 10
3.2883380608
 20
6.0310702078
 11
2.9560672188
 21
6.0310702078
  0
LINE
  5
2B5
100
AcDbEntity
  8
ALL_FEATURES
100
AcDbLine
 62
7
  6
CONTINUOUS
 10
6.4743468171
 20
5.7433152177
 11
6.7667747284
 21
5.2368152177
  0
LINE
  5
2B6
100
AcDbEntity
  8
0
100
AcDbLine
 62
7
  6
CONTINUOUS
 10
7.3127026398
 20
5.6520652177
 11
7.3127026398
 21
5.8345652177
  0
LINE
  5
2B7
100
AcDbEntity
  8
0
100
AcDbLine
 62
7
  6
CONTINUOUS
 10
7.3442026398
 20
5.6105711825
 11
7.3442026398
 21
5.8760652177
  0
LINE
  5
2B8
100
AcDbEntity
  8
0
100
AcDbLine
 62
7
  6
CONTINUOUS
 10
7.3912026398
 20
5.6105652177
 11
7.3912026398
 21
5.8760652177
  0
LINE
  5
2B9
100
AcDbEntity
  8
0
100
AcDbLine
 62
7
  6
CONTINUOUS
 10
8.6087365054
 20
5.9413152177
 11
8.6019526398
 21
5.9295652177
  0
LINE
  5
2BA
100
AcDbEntity
  8
ALL_FEATURES
100
AcDbLine
 62
7
  6
CONTINUOUS
 10
7.3516305511
 20
6.2498152177
 11
6.7667747284
 21
6.2498152177
  0
LINE
  5
2BB
100
AcDbEntity
  8
ALL_FEATURES
100
AcDbLine
 62
7
  6
CONTINUOUS
 10
3.4146305511
 20
6.2498152177
 11
2.8297747284
 21
6.2498152177
  0
LINE
  5
2BC
100
AcDbEntity
  8
ALL_FEATURES
100
AcDbLine
 62
7
  6
CONTINUOUS
 10
6.7269317977
 20
5.7433152177
 11
6.8930672188
 21
5.4555602276
  0
LINE
  5
2BD
100
AcDbEntity
  8
ALL_FEATURES
100
AcDbLine
 62
7
  6
CONTINUOUS
 10
6.7705275052
 20
5.7433152177
 11
6.9148650725
 21
5.4933152177
  0
LINE
  5
2BE
100
AcDbEntity
  8
0
100
AcDbLine
 62
7
  6
CONTINUOUS
 10
8.6019526398
 20
5.5570652177
 11
8.595571932
 21
5.5460135077
  0
LWPOLYLINE
  5
2BF
100
AcDbEntity
  8
ALL_FEATURES
100
AcDbPolyline
 62
7
  6
CONTINUOUS
 90
5
 70
0
 10
7.3163959301
 20
5.2978395727
 10
7.3247470666
 20
5.2833787787
 10
7.333410106
 20
5.2683866153
 10
7.3423742229
 20
5.252863722
 10
7.3516305511
 20
5.2368152177
  0
LINE
  5
2C0
100
AcDbEntity
  8
ALL_FEATURES
100
AcDbLine
 62
7
  6
CONTINUOUS
 10
7.203540207
 20
5.4933152177
 11
7.3560776398
 21
5.2291126342
  0
LINE
  5
2C1
100
AcDbEntity
  8
ALL_FEATURES
100
AcDbLine
 62
7
  6
CONTINUOUS
 10
6.9148650725
 20
5.9933152177
 11
6.7623276398
 21
6.2575178012
  0
LINE
  5
2C2
100
AcDbEntity
  8
ALL_FEATURES
100
AcDbLine
 62
7
  6
CONTINUOUS
 10
6.8904979342
 20
6.0355226588
 11
6.8875697329
 21
6.0405941686
  0
LINE
  5
2C3
100
AcDbEntity
  8
ALL_FEATURES
100
AcDbLine
 62
7
  6
CONTINUOUS
 10
6.8625579823
 20
6.0839146542
 11
6.8571723546
 21
6.0932419362
  0
LWPOLYLINE
  5
2C4
100
AcDbEntity
  8
ALL_FEATURES
100
AcDbPolyline
 62
7
  6
CONTINUOUS
 90
3
 70
0
 10
6.825150359
 20
6.1487079013
 10
6.8177599158
 20
6.1615062827
 10
6.8100432215
 20
6.1748701442
  0
LINE
  5
2C5
100
AcDbEntity
  8
ALL_FEATURES
100
AcDbLine
 62
7
  6
CONTINUOUS
 10
6.8389486472
 20
6.1248063234
 11
6.8322108123
 21
6.1364737741
  0
LINE
  5
2C6
100
AcDbEntity
  8
ALL_FEATURES
100
AcDbLine
 62
7
  6
CONTINUOUS
 10
6.872289523
 20
6.0670582325
 11
6.8675949305
 21
6.0751872514
  0
LWPOLYLINE
  5
2C7
100
AcDbEntity
  8
ALL_FEATURES
100
AcDbPolyline
 62
7
  6
CONTINUOUS
 90
5
 70
0
 10
6.8020093494
 20
6.1887908628
 10
6.7936582129
 20
6.2032516568
 10
6.7849951735
 20
6.2182438202
 10
6.7760310566
 20
6.2337667134
 10
6.7667747284
 20
6.2498152177
  0
LINE
  5
2C8
100
AcDbEntity
  8
ALL_FEATURES
100
AcDbLine
 62
7
  6
CONTINUOUS
 10
7.2951945623
 20
5.8345652177
 11
7.203540207
 21
5.9933152177
  0
LINE
  5
2C9
100
AcDbEntity
  8
ALL_FEATURES
100
AcDbLine
 62
7
  6
CONTINUOUS
 10
7.3339870315
 20
5.8428846703
 11
7.2253380608
 21
6.0310702078
  0
LINE
  5
2CA
100
AcDbEntity
  8
ALL_FEATURES
100
AcDbLine
 62
7
  6
CONTINUOUS
 10
7.562126027
 20
5.8852263588
 11
7.3516305511
 21
6.2498152177
  0
LINE
  5
2CB
100
AcDbEntity
  8
0
100
AcDbLine
 62
7
  6
CONTINUOUS
 10
8.595571932
 20
5.5460135077
 11
8.595571932
 21
5.9406169277
  0
LINE
  5
2CC
100
AcDbEntity
  8
0
100
AcDbLine
 62
7
  6
CONTINUOUS
 10
8.6019526398
 20
5.5570652177
 11
8.6019526398
 21
5.9295652177
  0
LINE
  5
2CD
100
AcDbEntity
  8
0
100
AcDbLine
 62
7
  6
CONTINUOUS
 10
8.6087365054
 20
5.5453152177
 11
8.6087365054
 21
5.9413152177
  0
LINE
  5
2CE
100
AcDbEntity
  8
0
100
AcDbLine
 62
7
  6
CONTINUOUS
 10
8.6242026398
 20
5.5453152177
 11
8.6242026398
 21
5.9413152177
  0
LINE
  5
2CF
100
AcDbEntity
  8
0
100
AcDbLine
 62
7
  6
CONTINUOUS
 10
8.6557026398
 20
5.5768152177
 11
8.6557026398
 21
5.9098152177
  0
LINE
  5
2D0
100
AcDbEntity
  8
0
100
AcDbLine
 62
7
  6
CONTINUOUS
 10
8.6808022413
 20
5.6512760673
 11
8.6808022413
 21
5.8353543682
  0
LINE
  5
2D1
100
AcDbEntity
  8
0
100
AcDbLine
 62
7
  6
CONTINUOUS
 10
8.6087365054
 20
5.5453152177
 11
8.6019526398
 21
5.5570652177
  0
LINE
  5
2D2
100
AcDbEntity
  8
0
100
AcDbLine
 62
7
  6
CONTINUOUS
 10
8.6019526398
 20
5.9295652177
 11
8.595571932
 21
5.9406169277
  0
ARC
  5
2D3
100
AcDbEntity
  8
ALL_FEATURES
100
AcDbCircle
 62
7
  6
CONTINUOUS
 10
3.1222026398
 20
5.7433152177
 40
0.59375
100
AcDbArc
 50
194.2171993009
 51
165.7828065984
  0
CIRCLE
  5
2D4
100
AcDbEntity
  8
ALL_ASSEMBLY_MEMBERS
100
AcDbCircle
 62
7
  6
CONTINUOUS
 10
3.1222026398
 20
5.7433152177
 40
0.245
  0
ARC
  5
2D5
100
AcDbEntity
  8
0
100
AcDbCircle
 62
7
  6
CONTINUOUS
 10
1.5197026398
 20
5.7433152177
 40
0.094
100
AcDbArc
 50
101.7234029883
 51
258.2765970117
  0
ARC
  5
2D6
100
AcDbEntity
  8
0
100
AcDbCircle
 62
7
  6
CONTINUOUS
 10
1.4942026398
 20
5.6204331605
 40
0.0315
100
AcDbArc
 50
0.0
 51
78.2765970117
  0
ARC
  5
2D7
100
AcDbEntity
  8
0
100
AcDbCircle
 62
7
  6
CONTINUOUS
 10
1.5572026398
 20
5.5768152177
 40
0.0315
100
AcDbArc
 50
180.0
 51
270.0
  0
ARC
  5
2D8
100
AcDbEntity
  8
0
100
AcDbCircle
 62
7
  6
CONTINUOUS
 10
2.8687026398
 20
5.8660652177
 40
0.0315
100
AcDbArc
 50
180.0
 51
270.0
  0
ARC
  5
2D9
100
AcDbEntity
  8
0
100
AcDbCircle
 62
7
  6
CONTINUOUS
 10
2.8687026398
 20
5.6205652177
 40
0.0315
100
AcDbArc
 50
90.0
 51
180.0
  0
ARC
  5
2DA
100
AcDbEntity
  8
0
100
AcDbCircle
 62
7
  6
CONTINUOUS
 10
1.5572026398
 20
5.9098152177
 40
0.0315
100
AcDbArc
 50
90.0
 51
180.0
  0
ARC
  5
2DB
100
AcDbEntity
  8
0
100
AcDbCircle
 62
7
  6
CONTINUOUS
 10
1.4942026398
 20
5.866197275
 40
0.0315
100
AcDbArc
 50
281.7234029883
 51
360.0
  0
ARC
  5
2DC
100
AcDbEntity
  8
0
100
AcDbCircle
 62
7
  6
CONTINUOUS
 10
2.8137026398
 20
5.8760652177
 40
0.0235
100
AcDbArc
 50
0.0
 51
180.0
  0
ARC
  5
2DD
100
AcDbEntity
  8
0
100
AcDbCircle
 62
7
  6
CONTINUOUS
 10
2.8137026398
 20
5.6105652177
 40
0.0235
100
AcDbArc
 50
180.0
 51
360.0
  0
ARC
  5
2DE
100
AcDbEntity
  8
ALL_ASSEMBLY_MEMBERS
100
AcDbCircle
 62
7
  6
CONTINUOUS
 10
5.0907026398
 20
2.7433152177
 40
0.6999996648
100
AcDbArc
 50
301.668195884
 51
238.3317540389
  0
ARC
  5
2DF
100
AcDbEntity
  8
ALL_FEATURES
100
AcDbCircle
 62
7
  6
CONTINUOUS
 10
7.0592026398
 20
5.7433152177
 40
0.59375
100
AcDbArc
 50
14.2171993009
 51
345.7828065984
  0
CIRCLE
  5
2E0
100
AcDbEntity
  8
ALL_ASSEMBLY_MEMBERS
100
AcDbCircle
 62
7
  6
CONTINUOUS
 10
7.0592026398
 20
5.7433152177
 40
0.245
  0
ARC
  5
2E1
100
AcDbEntity
  8
0
100
AcDbCircle
 62
7
  6
CONTINUOUS
 10
8.6617026398
 20
5.7433152177
 40
0.094
100
AcDbArc
 50
281.7234029883
 51
78.2765970117
  0
ARC
  5
2E2
100
AcDbEntity
  8
0
100
AcDbCircle
 62
7
  6
CONTINUOUS
 10
8.6872026398
 20
5.866197275
 40
0.0315
100
AcDbArc
 50
180.0
 51
258.2765970117
  0
ARC
  5
2E3
100
AcDbEntity
  8
0
100
AcDbCircle
 62
7
  6
CONTINUOUS
 10
8.6242026398
 20
5.9098152177
 40
0.0315
100
AcDbArc
 50
0.0
 51
90.0
  0
ARC
  5
2E4
100
AcDbEntity
  8
0
100
AcDbCircle
 62
7
  6
CONTINUOUS
 10
7.3127026398
 20
5.6205652177
 40
0.0315
100
AcDbArc
 50
0.0
 51
90.0
  0
ARC
  5
2E5
100
AcDbEntity
  8
0
100
AcDbCircle
 62
7
  6
CONTINUOUS
 10
7.3127026398
 20
5.8660652177
 40
0.0315
100
AcDbArc
 50
270.0
 51
360.0
  0
ARC
  5
2E6
100
AcDbEntity
  8
0
100
AcDbCircle
 62
7
  6
CONTINUOUS
 10
8.6242026398
 20
5.5768152177
 40
0.0315
100
AcDbArc
 50
270.0
 51
360.0
  0
ARC
  5
2E7
100
AcDbEntity
  8
0
100
AcDbCircle
 62
7
  6
CONTINUOUS
 10
8.6872026398
 20
5.6204331605
 40
0.0315
100
AcDbArc
 50
101.7234029883
 51
180.0
  0
ARC
  5
2E8
100
AcDbEntity
  8
0
100
AcDbCircle
 62
7
  6
CONTINUOUS
 10
7.3677026398
 20
5.6105652177
 40
0.0235
100
AcDbArc
 50
180.0
 51
360.0
  0
ARC
  5
2E9
100
AcDbEntity
  8
0
100
AcDbCircle
 62
7
  6
CONTINUOUS
 10
7.3677026398
 20
5.8760652177
 40
0.0235
100
AcDbArc
 50
0.0
 51
180.0
  0
SPLINE
  5
2EA
100
AcDbEntity
  8
ALL_ASSEMBLY_MEMBERS
100
AcDbSpline
 62
7
  6
CONTINUOUS
 70
0
 71
3
 72
17
 73
13
 74
0
 42
0.0000001
 43
0.0000001
 44
0.0000000001
 40
0.0
 40
0.0
 40
0.0
 40
0.0
 40
0.0048096997
 40
0.01918271
 40
0.0429880657
 40
0.0759918178
 40
0.1682543028
 40
0.2924541722
 40
0.4438649622
 40
0.6167363835
 40
0.8044808234
 40
1.0
 40
1.0
 40
1.0
 40
1.0
 10
5.4657026398
 20
2.7433152177
 30
0.0
 10
5.4656743589
 20
2.7425205135
 30
0.0
 10
5.4655636193
 20
2.7393508926
 30
0.0
 10
5.4653308377
 20
2.7322473083
 30
0.0
 10
5.4649667793
 20
2.7204841094
 30
0.0
 10
5.4642536517
 20
2.6958478061
 30
0.0
 10
5.4631897016
 20
2.6546161844
 30
0.0
 10
5.4618466273
 20
2.5938089296
 30
0.0
 10
5.4604966364
 20
2.5196716741
 30
0.0
 10
5.4593085848
 20
2.4350243031
 30
0.0
 10
5.4584509557
 20
2.3430799051
 30
0.0
 10
5.4582128186
 20
2.2797133336
 30
0.0
 10
5.4582032439
 20
2.2473873636
 30
0.0
  0
SPLINE
  5
2EB
100
AcDbEntity
  8
ALL_ASSEMBLY_MEMBERS
100
AcDbSpline
 62
7
  6
CONTINUOUS
 70
0
 71
3
 72
17
 73
13
 74
0
 42
0.0000001
 43
0.0000001
 44
0.0000000001
 40
0.0
 40
0.0
 40
0.0
 40
0.0
 40
0.0048090304
 40
0.0191800613
 40
0.0429822521
 40
0.0759818091
 40
0.1682339249
 40
0.2924231068
 40
0.4438263859
 40
0.6166975296
 40
0.8044531391
 40
1.0
 40
1.0
 40
1.0
 40
1.0
 10
4.7157026398
 20
2.7433152177
 30
0.0
 10
4.7157309023
 20
2.742521035
 30
0.0
 10
4.7158415708
 20
2.7393534909
 30
0.0
 10
4.7160742091
 20
2.7322545407
 30
0.0
 10
4.7164380514
 20
2.7204989685
 30
0.0
 10
4.7171507831
 20
2.6958783363
 30
0.0
 10
4.7182142094
 20
2.654672213
 30
0.0
 10
4.7195567574
 20
2.5939011311
 30
0.0
 10
4.7209064379
 20
2.5198052775
 30
0.0
 10
4.7220945573
 20
2.435201134
 30
0.0
 10
4.7229527984
 20
2.3432979215
 30
0.0
 10
4.7231917867
 20
2.2799577047
 30
0.0
 10
4.7232019572
 20
2.2476438779
 30
0.0
  0
SPLINE
  5
2EC
100
AcDbEntity
  8
ALL_ASSEMBLY_MEMBERS
100
AcDbSpline
 62
7
  6
CONTINUOUS
 70
0
 71
3
 72
13
 73
9
 74
0
 42
0.0000001
 43
0.0000001
 44
0.0000000001
 40
0.0
 40
0.0
 40
0.0
 40
0.0
 40
0.1249962009
 40
0.2499966271
 40
0.4999999933
 40
0.7500033587
 40
0.8750038007
 40
1.0
 40
1.0
 40
1.0
 40
1.0
 10
4.7923924306
 20
3.2550319461
 30
0.0
 10
4.7800696931
 20
3.233856874
 30
0.0
 10
4.7554672655
 20
3.1914807206
 30
0.0
 10
4.7063595152
 20
3.1066706366
 30
0.0
 10
4.6450740557
 20
3.0005990052
 30
0.0
 10
4.5838559874
 20
2.8944884618
 30
0.0
 10
4.5349622574
 20
2.8095548104
 30
0.0
 10
4.5105645625
 20
2.7670604509
 30
0.0
 10
4.4983878487
 20
2.7458010727
 30
0.0
  0
SPLINE
  5
2ED
100
AcDbEntity
  8
ALL_ASSEMBLY_MEMBERS
100
AcDbSpline
 62
7
  6
CONTINUOUS
 70
0
 71
3
 72
15
 73
11
 74
0
 42
0.0000001
 43
0.0000001
 44
0.0000000001
 40
0.0
 40
0.0
 40
0.0
 40
0.0
 40
0.1249961551
 40
0.2499965901
 40
0.3749981458
 40
0.4999999914
 40
0.6250018359
 40
0.7500034009
 40
0.8750038409
 40
1.0
 40
1.0
 40
1.0
 40
1.0
 10
5.3847072358
 20
3.2575178012
 30
0.0
 10
5.3602077062
 20
3.2574338443
 30
0.0
 10
5.31120776
 20
3.2572776802
 30
0.0
 10
5.2377069611
 20
3.2571357934
 30
0.0
 10
5.1642049554
 20
3.2570647231
 30
0.0
 10
5.0907026447
 20
3.2570414527
 30
0.0
 10
5.0172003323
 20
3.2570647911
 30
0.0
 10
4.9436983236
 20
3.2571355092
 30
0.0
 10
4.870197522
 20
3.2572779043
 30
0.0
 10
4.8211975738
 20
3.2574339263
 30
0.0
 10
4.7966980431
 20
3.2575178012
 30
0.0
  0
SPLINE
  5
2EE
100
AcDbEntity
  8
ALL_ASSEMBLY_MEMBERS
100
AcDbSpline
 62
7
  6
CONTINUOUS
 70
0
 71
3
 72
13
 73
9
 74
0
 42
0.0000001
 43
0.0000001
 44
0.0000000001
 40
0.0
 40
0.0
 40
0.0
 40
0.0
 40
0.1249962009
 40
0.2499966271
 40
0.4999999933
 40
0.7500033587
 40
0.8750038007
 40
1.0
 40
1.0
 40
1.0
 40
1.0
 10
5.3847072214
 20
3.2575178013
 30
0.0
 10
5.3602077024
 20
3.2576020689
 30
0.0
 10
5.3112076632
 20
3.2577203196
 30
0.0
 10
5.2132061008
 20
3.2578438368
 30
0.0
 10
5.0907026437
 20
3.2578827859
 30
0.0
 10
4.9681991833
 20
3.2578439166
 30
0.0
 10
4.8701976185
 20
3.2577203031
 30
0.0
 10
4.8211975762
 20
3.2576021469
 30
0.0
 10
4.7966980578
 20
3.2575178013
 30
0.0
  0
SPLINE
  5
2EF
100
AcDbEntity
  8
ALL_ASSEMBLY_MEMBERS
100
AcDbSpline
 62
7
  6
CONTINUOUS
 70
0
 71
3
 72
15
 73
11
 74
0
 42
0.0000001
 43
0.0000001
 44
0.0000000001
 40
0.0
 40
0.0
 40
0.0
 40
0.0
 40
0.1249961551
 40
0.2499965901
 40
0.3749981458
 40
0.4999999914
 40
0.6250018359
 40
0.7500034009
 40
0.8750038409
 40
1.0
 40
1.0
 40
1.0
 40
1.0
 10
5.6830174378
 20
2.7458010604
 30
0.0
 10
5.6706949641
 20
2.7669762971
 30
0.0
 10
5.6460597489
 20
2.8093334132
 30
0.0
 10
5.6091864719
 20
2.8729160288
 30
0.0
 10
5.5723739204
 20
2.9365350978
 30
0.0
 10
5.5356026123
 20
3.0001783309
 30
0.0
 10
5.4988716678
 20
3.0638448699
 30
0.0
 10
5.4621819071
 20
3.1275348357
 30
0.0
 10
5.425554824
 20
3.1912595946
 30
0.0
 10
5.4011899689
 20
3.2337728055
 30
0.0
 10
5.3890128414
 20
3.255031959
 30
0.0
  0
SPLINE
  5
2F0
100
AcDbEntity
  8
ALL_ASSEMBLY_MEMBERS
100
AcDbSpline
 62
7
  6
CONTINUOUS
 70
0
 71
3
 72
13
 73
9
 74
0
 42
0.0000001
 43
0.0000001
 44
0.0000000001
 40
0.0
 40
0.0
 40
0.0
 40
0.0
 40
0.1249962009
 40
0.2499966271
 40
0.4999999933
 40
0.7500033587
 40
0.8750038007
 40
1.0
 40
1.0
 40
1.0
 40
1.0
 10
5.6830174306
 20
2.7458010729
 30
0.0
 10
5.670840649
 20
2.7670604126
 30
0.0
 10
5.6464430375
 20
2.8095548167
 30
0.0
 10
5.5975492254
 20
2.894488418
 30
0.0
 10
5.5363312277
 20
3.0005989984
 30
0.0
 10
5.4750458357
 20
3.1066706725
 30
0.0
 10
5.4259380009
 20
3.1914807105
 30
0.0
 10
5.4013356535
 20
3.2338569138
 30
0.0
 10
5.3890128488
 20
3.2550319463
 30
0.0
  0
SPLINE
  5
2F1
100
AcDbEntity
  8
ALL_ASSEMBLY_MEMBERS
100
AcDbSpline
 62
7
  6
CONTINUOUS
 70
0
 71
3
 72
13
 73
9
 74
0
 42
0.0000001
 43
0.0000001
 44
0.0000000001
 40
0.0
 40
0.0
 40
0.0
 40
0.0
 40
0.2500020386
 40
0.5000045959
 40
0.6250056765
 40
0.7500061741
 40
0.8750052473
 40
1.0
 40
1.0
 40
1.0
 40
1.0
 10
5.458608701
 20
2.3528612013
 30
0.0
 10
5.4772342524
 20
2.3852356426
 30
0.0
 10
5.5145306016
 20
2.4499585848
 30
0.0
 10
5.5612268106
 20
2.5308185274
 30
0.0
 10
5.5986329247
 20
2.5954779958
 30
0.0
 10
5.6267169535
 20
2.6439551333
 30
0.0
 10
5.6548462294
 20
2.6924049394
 30
0.0
 10
5.6736251183
 20
2.7246892619
 30
0.0
 10
5.6830174381
 20
2.7408293755
 30
0.0
  0
SPLINE
  5
2F2
100
AcDbEntity
  8
ALL_ASSEMBLY_MEMBERS
100
AcDbSpline
 62
7
  6
CONTINUOUS
 70
0
 71
3
 72
11
 73
7
 74
0
 42
0.0000001
 43
0.0000001
 44
0.0000000001
 40
0.0
 40
0.0
 40
0.0
 40
0.0
 40
0.2500019675
 40
0.5000046051
 40
0.7500060844
 40
1.0
 40
1.0
 40
1.0
 40
1.0
 10
5.4586019144
 20
2.3515715924
 30
0.0
 10
5.477356511
 20
2.3839793147
 30
0.0
 10
5.514832565
 20
2.4488140516
 30
0.0
 10
5.5709914628
 20
2.5460978848
 30
0.0
 10
5.6270893287
 20
2.6434155203
 30
0.0
 10
5.6644081634
 20
2.708339361
 30
0.0
 10
5.6830174308
 20
2.7408293628
 30
0.0
  0
SPLINE
  5
2F3
100
AcDbEntity
  8
ALL_ASSEMBLY_MEMBERS
100
AcDbSpline
 62
7
  6
CONTINUOUS
 70
0
 71
3
 72
13
 73
9
 74
0
 42
0.0000001
 43
0.0000001
 44
0.0000000001
 40
0.0
 40
0.0
 40
0.0
 40
0.0
 40
0.1249947493
 40
0.2499938182
 40
0.3749943143
 40
0.4999953857
 40
0.7499979458
 40
1.0
 40
1.0
 40
1.0
 40
1.0
 10
4.4983878417
 20
2.740829375
 30
0.0
 10
4.5077802442
 20
2.7246892437
 30
0.0
 10
4.5265593132
 20
2.6924048942
 30
0.0
 10
4.5546884317
 20
2.643954799
 30
0.0
 10
4.5827724426
 20
2.5954774547
 30
0.0
 10
4.6201789425
 20
2.5308179452
 30
0.0
 10
4.6668750996
 20
2.4499576395
 30
0.0
 10
4.7041718278
 20
2.3852346472
 30
0.0
 10
4.7227973795
 20
2.3528600708
 30
0.0
  0
SPLINE
  5
2F4
100
AcDbEntity
  8
ALL_ASSEMBLY_MEMBERS
100
AcDbSpline
 62
7
  6
CONTINUOUS
 70
0
 71
3
 72
11
 73
7
 74
0
 42
0.0000001
 43
0.0000001
 44
0.0000000001
 40
0.0
 40
0.0
 40
0.0
 40
0.0
 40
0.2499939066
 40
0.4999953816
 40
0.7499980258
 40
1.0
 40
1.0
 40
1.0
 40
1.0
 10
4.4983878489
 20
2.7408293625
 30
0.0
 10
4.5169971933
 20
2.708339466
 30
0.0
 10
4.5543158242
 20
2.6434156299
 30
0.0
 10
4.6104136777
 20
2.546098167
 30
0.0
 10
4.6665724642
 20
2.4488144471
 30
0.0
 10
4.7040484144
 20
2.3839797672
 30
0.0
 10
4.7228030264
 20
2.3515721124
 30
0.0
  0
SPLINE
  5
2F5
100
AcDbEntity
  8
ALL_ASSEMBLY_MEMBERS
100
AcDbSpline
 62
7
  6
CONTINUOUS
 70
0
 71
3
 72
14
 73
10
 74
0
 42
0.0000001
 43
0.0000001
 44
0.0000000001
 40
0.0
 40
0.0
 40
0.0
 40
0.0
 40
0.0183732792
 40
0.0728644788
 40
0.1617632232
 40
0.2823882068
 40
0.431172873
 40
0.6037746093
 40
1.0
 40
1.0
 40
1.0
 40
1.0
 10
5.2782026398
 20
3.0680747442
 30
0.0
 10
5.2781612068
 20
3.0640971037
 30
0.0
 10
5.2780020006
 20
3.0483225851
 30
0.0
 10
5.2776860406
 20
3.0133019036
 30
0.0
 10
5.2772194547
 20
2.9561439831
 30
0.0
 10
5.2766616747
 20
2.8785714107
 30
0.0
 10
5.2760654507
 20
2.7828768021
 30
0.0
 10
5.2752569868
 20
2.6275143421
 30
0.0
 10
5.2748273985
 20
2.504362574
 30
0.0
 10
5.2746454609
 20
2.4185790884
 30
0.0
  0
LINE
  5
2F6
100
AcDbEntity
  8
ALL_ASSEMBLY_MEMBERS
100
AcDbLine
 62
7
  6
CONTINUOUS
 10
5.2746454609
 20
2.4185790884
 11
5.274639386
 21
2.4156933539
  0
LINE
  5
2F7
100
AcDbEntity
  8
ALL_ASSEMBLY_MEMBERS
100
AcDbLine
 62
7
  6
CONTINUOUS
 10
5.274639386
 20
2.4156933539
 11
5.2744526398
 21
2.2433152177
  0
SPLINE
  5
2F8
100
AcDbEntity
  8
ALL_ASSEMBLY_MEMBERS
100
AcDbSpline
 62
7
  6
CONTINUOUS
 70
0
 71
3
 72
14
 73
10
 74
0
 42
0.0000001
 43
0.0000001
 44
0.0000000001
 40
0.0
 40
0.0
 40
0.0
 40
0.0
 40
0.0183732792
 40
0.0728644788
 40
0.1617632232
 40
0.2823882068
 40
0.431172873
 40
0.6037746093
 40
1.0
 40
1.0
 40
1.0
 40
1.0
 10
4.9032026398
 20
3.0680747442
 30
0.0
 10
4.9032440727
 20
3.0640971037
 30
0.0
 10
4.9034032789
 20
3.0483225851
 30
0.0
 10
4.9037192389
 20
3.0133019036
 30
0.0
 10
4.9041858248
 20
2.9561439831
 30
0.0
 10
4.9047436048
 20
2.8785714107
 30
0.0
 10
4.9053398288
 20
2.7828768021
 30
0.0
 10
4.9061482927
 20
2.6275143421
 30
0.0
 10
4.906577881
 20
2.504362574
 30
0.0
 10
4.9067598186
 20
2.4185790884
 30
0.0
  0
LINE
  5
2F9
100
AcDbEntity
  8
ALL_ASSEMBLY_MEMBERS
100
AcDbLine
 62
7
  6
CONTINUOUS
 10
4.9067598186
 20
2.4185790884
 11
4.9067658935
 21
2.4156933539
  0
LINE
  5
2FA
100
AcDbEntity
  8
ALL_ASSEMBLY_MEMBERS
100
AcDbLine
 62
7
  6
CONTINUOUS
 10
4.9067658935
 20
2.4156933539
 11
4.9069526398
 21
2.2433152177
  0
SPLINE
  5
2FB
100
AcDbEntity
  8
ALL_ASSEMBLY_MEMBERS
100
AcDbSpline
 62
7
  6
CONTINUOUS
 70
0
 71
3
 72
15
 73
11
 74
0
 42
0.0000001
 43
0.0000001
 44
0.0000000001
 40
0.0
 40
0.0
 40
0.0
 40
0.0
 40
0.1249961551
 40
0.2499965901
 40
0.3749981458
 40
0.4999999914
 40
0.6250018359
 40
0.7500034009
 40
0.8750038409
 40
1.0
 40
1.0
 40
1.0
 40
1.0
 10
4.7923924378
 20
3.2550319585
 30
0.0
 10
4.7802153818
 20
3.233772765
 30
0.0
 10
4.7558506508
 20
3.1912594847
 30
0.0
 10
4.7192231289
 20
3.1275349823
 30
0.0
 10
4.6825336748
 20
3.063844843
 30
0.0
 10
4.6458026722
 20
3.0001783395
 30
0.0
 10
4.6090313043
 20
2.9365351389
 30
0.0
 10
4.5722190562
 20
2.8729158912
 30
0.0
 10
4.5353453377
 20
2.8093335274
 30
0.0
 10
4.5107102447
 20
2.7669763385
 30
0.0
 10
4.4983878414
 20
2.7458010599
 30
0.0
  0
ENDSEC
  0
SECTION
  2
OBJECTS
  0
DICTIONARY
  5
C
100
AcDbDictionary
280
0
281
1
  3
ACAD_GROUP
350
D
  3
ACAD_MLINESTYLE
350
17
  3
ACAD_LAYOUT
350
1A
  3
ACAD_PLOTSETTINGS
350
19
  3
ACAD_PLOTSTYLENAME
350
E
  0
DICTIONARY
  5
D
102
{ACAD_REACTORS
330
C
102
}
100
AcDbDictionary
280
0
281
1
  0
ACDBDICTIONARYWDFLT
  5
E
102
{ACAD_REACTORS
330
C
102
}
100
AcDbDictionary
281
1
  3
Normal
350
F
100
AcDbDictionaryWithDefault
340
F
  0
DICTIONARY
  5
17
102
{ACAD_REACTORS
330
C
102
}
100
AcDbDictionary
280
0
281
1
  3
Standard
350
18
  0
DICTIONARY
  5
19
102
{ACAD_REACTORS
330
C
102
}
100
AcDbDictionary
281
1
  0
DICTIONARY
  5
1A
102
{ACAD_REACTORS
330
C
102
}
100
AcDbDictionary
281
1
  3
Model
350
2FC
  3
Layout1
350
2FD
  0
ACDBPLACEHOLDER
  5
F
102
{ACAD_REACTORS
330
E
102
}
  0
MLINESTYLE
  5
18
102
{ACAD_REACTORS
330
17
102
}
100
AcDbMlineStyle
  2
STANDARD
 70
0
  3

 62
256
 51
90.0
 52
90.0
 71
2
 49
0.5
 62
256
  6
BYLAYER
 49
-0.5
 62
256
  6
BYLAYER
  0
LAYOUT
  5
2FC
102
{ACAD_REACTORS
330
1A
102
}
100
AcDbPlotSettings
  1

  2
none_device
  4
ANSI_A_(11.00_x_8.50_Inches)
  6

 40
0.0
 41
0.0
 42
0.0
 43
0.0
 44
279.4
 45
215.9
 46
0.0
 47
0.0
 48
0.0
 49
0.0
140
0.0
141
0.0
142
1.0
143
1.0
 70
1024
 72
0
 73
0
 74
0
  7

 75
0
147
1.0
148
0.0
149
0.0
100
AcDbLayout
  1
Model
 70
0
 71
0
 10
0.0
 20
0.0
 11
11.0
 21
8.5
 12
0.0
 22
0.0
 32
0.0
 14
0.0
 24
0.0
 34
0.0
 15
0.0
 25
0.0
 35
0.0
146
0.0
 13
0.0
 23
0.0
 33
0.0
 16
1.0
 26
0.0
 36
0.0
 17
0.0
 27
1.0
 37
0.0
 76
0
330
21F
345
0
346
0
  0
LAYOUT
  5
2FD
102
{ACAD_REACTORS
330
1A
102
}
100
AcDbPlotSettings
  1

  2
none_device
  4
ANSI_A_(11.00_x_8.50_Inches)
  6

 40
0.0
 41
0.0
 42
0.0
 43
0.0
 44
279.4
 45
215.9
 46
0.0
 47
0.0
 48
0.0
 49
0.0
140
0.0
141
0.0
142
1.0
143
1.0
 70
0
 72
0
 73
0
 74
0
  7

 75
0
147
1.0
148
0.0
149
0.0
100
AcDbLayout
  1
Layout1
 70
0
 71
1
 10
0.0
 20
0.0
 11
11.0
 21
8.5
 12
0.0
 22
0.0
 32
0.0
 14
0.0
 24
0.0
 34
0.0
 15
0.0
 25
0.0
 35
0.0
146
0.0
 13
0.0
 23
0.0
 33
0.0
 16
1.0
 26
0.0
 36
0.0
 17
0.0
 27
1.0
 37
0.0
 76
0
330
220
345
0
346
0
  0
ENDSEC
  0
EOF
