999
DXF file: 3-1205_TOP.dxf
999
Pro/ENGINEER 2018400 by Parametric Technology Corporation
  0
SECTION
  2
HEADER
  9
$ACADVER
  1
AC1027
  9
$DWGCODEPAGE
  3
ANSI_1252
  9
$EXTMAX
 10
11.0
 20
8.5
 30
0.0
  9
$EXTMIN
 10
0.0
 20
0.0
 30
0.0
  9
$LIMMIN
 10
0.0
 20
0.0
  9
$LIMMAX
 10
11.0
 20
8.5
  9
$VIEWCTR
 10
5.5
 20
4.25
  9
$VIEWSIZE
 40
8.5
  9
$CLAYER
  8
0
  9
$LTSCALE
 40
0.605
  9
$CELTYPE
  6
BYLAYER
  9
$DIMSCALE
 40
1.0
  9
$DIMASZ
 40
0.1
  9
$DIMEXO
 40
0.0625
  9
$DIMDLI
 40
0.418
  9
$DIMEXE
 40
0.125
  9
$DIMCEN
 40
0.099
  9
$DIMLFAC
 40
1.0
  9
$DIMBLK
  1
_FILLED
  9
$DIMALT
 70
1
  9
$DIMALTD
 70
2
  9
$DIMALTTD
 70
2
  9
$DIMALTF
 40
25.4
  9
$DIMTXT
 40
0.08
  9
$DIMTOL
 70
1
  9
$DIMLIM
 70
0
  9
$DIMTFAC
 40
1.0
  9
$DIMTP
 40
0.001
  9
$DIMTM
 40
0.001
  9
$DIMGAP
 40
0.09
  9
$DIMDSEP
 70
46
  9
$AUNITS
 70
0
  9
$PDMODE
 70
3
  9
$PDSIZE
 40
0.3125
  9
$HANDSEED
  5
33A
  9
$TILEMODE
 70
1
  9
$MEASUREMENT
 70
0
  9
$INSUNITS
 70
1
  0
ENDSEC
  0
SECTION
  2
CLASSES
  0
CLASS
  1
ACDBDICTIONARYWDFLT
  2
AcDbDictionaryWithDefault
  3
AutoCAD 2000
 90
0
 91
1
280
0
281
0
  0
CLASS
  1
ACDBPLACEHOLDER
  2
AcDbPlaceHolder
  3
AutoCAD 2000
 90
0
 91
1
280
0
281
0
  0
CLASS
  1
LAYOUT
  2
AcDbLayout
  3
AutoCAD 2000
 90
0
 91
0
280
0
281
0
  0
ENDSEC
  0
SECTION
  2
TABLES
  0
TABLE
  2
VPORT
  5
8
100
AcDbSymbolTable
 70
2
  0
VPORT
  5
1F4
100
AcDbSymbolTableRecord
100
AcDbViewportTableRecord
  2
*ACTIVE
 70
0
 10
0.0
 20
0.0
 11
1.0
 21
1.0
 12
5.5
 22
4.25
 13
0.0
 23
0.0
 14
1.0
 24
1.0
 15
0.0
 25
0.0
 16
0.0
 26
0.0
 36
1.0
 17
0.0
 27
0.0
 37
0.0
 40
8.5
 41
1.2941176471
 42
50.0
 43
0.0
 44
0.0
 50
0.0
 51
0.0
 71
0
 72
100
 73
1
 74
1
 75
0
 76
0
 77
0
 78
0
  0
ENDTAB
  0
TABLE
  2
LTYPE
  5
5
100
AcDbSymbolTable
 70
6
  0
LTYPE
  5
14
100
AcDbSymbolTableRecord
100
AcDbLinetypeTableRecord
  2
BYBLOCK
 70
0
  3

 72
65
 73
0
 40
0.0
  0
LTYPE
  5
15
100
AcDbSymbolTableRecord
100
AcDbLinetypeTableRecord
  2
BYLAYER
 70
0
  3

 72
65
 73
0
 40
0.0
  0
LTYPE
  5
16
100
AcDbSymbolTableRecord
100
AcDbLinetypeTableRecord
  2
CONTINUOUS
 70
64
  3
Solid line
 72
65
 73
0
 40
0.0
  0
LTYPE
  5
1F5
100
AcDbSymbolTableRecord
100
AcDbLinetypeTableRecord
  2
CENTER
 70
64
  3
____ _ ____ _ ____ _ ____ _ ____ _ ____ _ ____
 72
65
 73
4
 40
0.6
 49
0.375
 74
0
 49
-0.075
 74
0
 49
0.075
 74
0
 49
-0.075
 74
0
  0
LTYPE
  5
1F6
100
AcDbSymbolTableRecord
100
AcDbLinetypeTableRecord
  2
HIDDEN
 70
64
  3
- - - - - - - - - - - - - - - - - - - -
 72
65
 73
2
 40
0.2
 49
0.1
 74
0
 49
-0.1
 74
0
  0
LTYPE
  5
1F7
100
AcDbSymbolTableRecord
100
AcDbLinetypeTableRecord
  2
PHANTOM
 70
64
  3
_____ _ _ _____ _ _ _____ _ _ _____
 72
65
 73
6
 40
0.8
 49
0.45
 74
0
 49
-0.05
 74
0
 49
0.1
 74
0
 49
-0.05
 74
0
 49
0.1
 74
0
 49
-0.05
 74
0
  0
LTYPE
  5
1F8
100
AcDbSymbolTableRecord
100
AcDbLinetypeTableRecord
  2
DOT
 70
64
  3
. . . . . . . . . . . . . . . . . . . .
 72
65
 73
2
 40
0.2
 49
0.1
 74
0
 49
-0.1
 74
0
  0
LTYPE
  5
1F9
100
AcDbSymbolTableRecord
100
AcDbLinetypeTableRecord
  2
DASHED
 70
64
  3
- - - - - - - - - - - - - - - - - - - -
 72
65
 73
2
 40
0.2
 49
0.1
 74
0
 49
-0.1
 74
0
  0
ENDTAB
  0
TABLE
  2
LAYER
  5
2
100
AcDbSymbolTable
 70
36
  0
LAYER
  5
10
100
AcDbSymbolTableRecord
100
AcDbLayerTableRecord
  2
0
 70
0
 62
7
  6
CONTINUOUS
370
-3
390
F
  0
LAYER
  5
1FA
100
AcDbSymbolTableRecord
100
AcDbLayerTableRecord
  2
DEFAULT_1
 70
0
 62
7
  6
CENTER
370
-3
390
F
  0
LAYER
  5
1FB
100
AcDbSymbolTableRecord
100
AcDbLayerTableRecord
  2
DEFAULT_2
 70
0
 62
8
  6
HIDDEN
370
-3
390
F
  0
LAYER
  5
1FC
100
AcDbSymbolTableRecord
100
AcDbLayerTableRecord
  2
DEFAULT_3
 70
0
 62
7
  6
PHANTOM
370
-3
390
F
  0
LAYER
  5
1FD
100
AcDbSymbolTableRecord
100
AcDbLayerTableRecord
  2
_  SHELL
 70
0
 62
7
  6
CONTINUOUS
370
-3
390
F
  0
LAYER
  5
1FE
100
AcDbSymbolTableRecord
100
AcDbLayerTableRecord
  2
06___PRT_ALL_SURFS
 70
0
 62
7
  6
CONTINUOUS
370
-3
390
F
  0
LAYER
  5
1FF
100
AcDbSymbolTableRecord
100
AcDbLayerTableRecord
  2
2-144_ASSY_PLANES
 70
0
 62
7
  6
CONTINUOUS
370
-3
390
F
  0
LAYER
  5
200
100
AcDbSymbolTableRecord
100
AcDbLayerTableRecord
  2
ALL_ASSEMBLY_MEMBERS
 70
0
 62
7
  6
CONTINUOUS
370
-3
390
F
  0
LAYER
  5
201
100
AcDbSymbolTableRecord
100
AcDbLayerTableRecord
  2
ALL_FEATURES
 70
0
 62
7
  6
CONTINUOUS
370
-3
390
F
  0
LAYER
  5
202
100
AcDbSymbolTableRecord
100
AcDbLayerTableRecord
  2
AXES_FEATURES
 70
0
 62
7
  6
CONTINUOUS
370
-3
390
F
  0
LAYER
  5
203
100
AcDbSymbolTableRecord
100
AcDbLayerTableRecord
  2
CHAMFER_FEATURES
 70
0
 62
7
  6
CONTINUOUS
370
-3
390
F
  0
LAYER
  5
204
100
AcDbSymbolTableRecord
100
AcDbLayerTableRecord
  2
COSMETIC
 70
0
 62
7
  6
CONTINUOUS
370
-3
390
F
  0
LAYER
  5
205
100
AcDbSymbolTableRecord
100
AcDbLayerTableRecord
  2
CURVES
 70
0
 62
7
  6
CONTINUOUS
370
-3
390
F
  0
LAYER
  5
206
100
AcDbSymbolTableRecord
100
AcDbLayerTableRecord
  2
CUT_FEATURES
 70
0
 62
7
  6
CONTINUOUS
370
-3
390
F
  0
LAYER
  5
207
100
AcDbSymbolTableRecord
100
AcDbLayerTableRecord
  2
DATUM_PLANES
 70
0
 62
7
  6
CONTINUOUS
370
-3
390
F
  0
LAYER
  5
208
100
AcDbSymbolTableRecord
100
AcDbLayerTableRecord
  2
DATUM_POINTS
 70
0
 62
7
  6
CONTINUOUS
370
-3
390
F
  0
LAYER
  5
209
100
AcDbSymbolTableRecord
100
AcDbLayerTableRecord
  2
DEFAULT_COORDINATE_SYSTEM
 70
0
 62
7
  6
CONTINUOUS
370
-3
390
F
  0
LAYER
  5
20A
100
AcDbSymbolTableRecord
100
AcDbLayerTableRecord
  2
DEFAULT_DATUM_AXES
 70
0
 62
7
  6
CONTINUOUS
370
-3
390
F
  0
LAYER
  5
20B
100
AcDbSymbolTableRecord
100
AcDbLayerTableRecord
  2
DEFAULT_DATUM_CURVES
 70
0
 62
7
  6
CONTINUOUS
370
-3
390
F
  0
LAYER
  5
20C
100
AcDbSymbolTableRecord
100
AcDbLayerTableRecord
  2
DEFAULT_DATUM_PLANES
 70
0
 62
7
  6
CONTINUOUS
370
-3
390
F
  0
LAYER
  5
20D
100
AcDbSymbolTableRecord
100
AcDbLayerTableRecord
  2
DEFAULT_SURFACES
 70
0
 62
7
  6
CONTINUOUS
370
-3
390
F
  0
LAYER
  5
20E
100
AcDbSymbolTableRecord
100
AcDbLayerTableRecord
  2
DIMENSIONS
 70
0
 62
7
  6
CONTINUOUS
370
-3
390
F
  0
LAYER
  5
20F
100
AcDbSymbolTableRecord
100
AcDbLayerTableRecord
  2
HOLE_FEATURES
 70
0
 62
7
  6
CONTINUOUS
370
-3
390
F
  0
LAYER
  5
210
100
AcDbSymbolTableRecord
100
AcDbLayerTableRecord
  2
INTF_BLANK
 70
0
 62
7
  6
CONTINUOUS
370
-3
390
F
  0
LAYER
  5
211
100
AcDbSymbolTableRecord
100
AcDbLayerTableRecord
  2
MAGENTA
 70
0
 62
7
  6
CONTINUOUS
370
-3
390
F
  0
LAYER
  5
212
100
AcDbSymbolTableRecord
100
AcDbLayerTableRecord
  2
NOTES
 70
0
 62
7
  6
CONTINUOUS
370
-3
390
F
  0
LAYER
  5
213
100
AcDbSymbolTableRecord
100
AcDbLayerTableRecord
  2
PART_REFERENCE_DIMENSIONS
 70
0
 62
7
  6
CONTINUOUS
370
-3
390
F
  0
LAYER
  5
214
100
AcDbSymbolTableRecord
100
AcDbLayerTableRecord
  2
PLATEDSURFAREA
 70
0
 62
7
  6
CONTINUOUS
370
-3
390
F
  0
LAYER
  5
215
100
AcDbSymbolTableRecord
100
AcDbLayerTableRecord
  2
POINTS
 70
0
 62
7
  6
CONTINUOUS
370
-3
390
F
  0
LAYER
  5
216
100
AcDbSymbolTableRecord
100
AcDbLayerTableRecord
  2
PROTRUSION_FEATURES
 70
0
 62
7
  6
CONTINUOUS
370
-3
390
F
  0
LAYER
  5
217
100
AcDbSymbolTableRecord
100
AcDbLayerTableRecord
  2
QUILT
 70
0
 62
7
  6
CONTINUOUS
370
-3
390
F
  0
LAYER
  5
218
100
AcDbSymbolTableRecord
100
AcDbLayerTableRecord
  2
REFERENCE_DIMENSIONS
 70
0
 62
7
  6
CONTINUOUS
370
-3
390
F
  0
LAYER
  5
219
100
AcDbSymbolTableRecord
100
AcDbLayerTableRecord
  2
SHELL
 70
0
 62
7
  6
CONTINUOUS
370
-3
390
F
  0
LAYER
  5
21A
100
AcDbSymbolTableRecord
100
AcDbLayerTableRecord
  2
WHITE
 70
0
 62
7
  6
CONTINUOUS
370
-3
390
F
  0
LAYER
  5
21B
100
AcDbSymbolTableRecord
100
AcDbLayerTableRecord
  2
XSEC_DATUMS
 70
0
 62
7
  6
CONTINUOUS
370
-3
390
F
  0
LAYER
  5
21C
100
AcDbSymbolTableRecord
100
AcDbLayerTableRecord
  2
___SHELL
 70
0
 62
7
  6
CONTINUOUS
370
-3
390
F
  0
ENDTAB
  0
TABLE
  2
STYLE
  5
3
100
AcDbSymbolTable
 70
1
  0
STYLE
  5
11
100
AcDbSymbolTableRecord
100
AcDbTextStyleTableRecord
  2
STANDARD
 70
0
 40
0.0
 41
0.8
 50
0.0
 71
0
 42
0.2
  3
txt
  4

  0
STYLE
  5
21D
100
AcDbSymbolTableRecord
100
AcDbTextStyleTableRecord
  2
TEXTSTYLE_1
 70
0
 40
0.0
 41
0.8
 50
0.0
 71
0
 42
0.2
  3
gdt
  4

  0
ENDTAB
  0
TABLE
  2
VIEW
  5
6
100
AcDbSymbolTable
 70
0
  0
ENDTAB
  0
TABLE
  2
UCS
  5
7
100
AcDbSymbolTable
 70
0
  0
ENDTAB
  0
TABLE
  2
APPID
  5
9
100
AcDbSymbolTable
 70
1
  0
APPID
  5
21E
100
AcDbSymbolTableRecord
100
AcDbRegAppTableRecord
  2
ACAD
 70
0
  0
ENDTAB
  0
TABLE
  2
BLOCK_RECORD
  5
1
100
AcDbSymbolTable
 70
0
  0
BLOCK_RECORD
  5
21F
100
AcDbSymbolTableRecord
100
AcDbBlockTableRecord
  2
*Model_Space
  0
BLOCK_RECORD
  5
220
100
AcDbSymbolTableRecord
100
AcDbBlockTableRecord
  2
*Paper_Space
  0
BLOCK_RECORD
  5
221
100
AcDbSymbolTableRecord
100
AcDbBlockTableRecord
  2
_FILLED
  0
ENDTAB
  0
TABLE
  2
DIMSTYLE
  5
A
100
AcDbSymbolTable
 70
1
100
AcDbDimStyleTable
 71
0
  0
DIMSTYLE
105
222
100
AcDbSymbolTableRecord
100
AcDbDimStyleTableRecord
  2
STANDARD
 70
0
  3

  4

 40
1.0
 41
0.1
 42
0.0625
 43
0.38
 44
0.125
 45
0.0
 46
0.0
 47
0.001
 48
0.001
140
0.08
141
0.09
142
0.0
143
25.4
144
1.0
145
0.0
146
1.0
147
0.09
 71
1.0
 72
0.0
 73
1
 74
1
 75
0
 76
0
 77
0
 78
4
 79
1
170
1
171
2
172
0
173
0
174
0
175
0
176
0
177
0
178
0
270
2
179
3
271
3
272
3
273
2
274
2
275
0
280
0
281
0
282
0
283
1
284
4
285
0
286
0
287
3
288
0
340
11
278
46
341
221
342
221
343
221
344
221
  0
ENDTAB
  0
ENDSEC
  0
SECTION
  2
BLOCKS
  0
BLOCK
  5
20
100
AcDbEntity
  8
0
100
AcDbBlockBegin
  2
*Model_Space
 70
0
 10
0.0
 20
0.0
 30
0.0
  3
*Model_Space
  1

  0
ENDBLK
  5
21
100
AcDbEntity
  8
0
100
AcDbBlockEnd
  0
BLOCK
  5
1C
100
AcDbEntity
  8
0
100
AcDbBlockBegin
  2
*Paper_Space
 70
0
 10
0.0
 20
0.0
 30
0.0
  3
*Paper_Space
  1

  0
ENDBLK
  5
1D
100
AcDbEntity
  8
0
100
AcDbBlockEnd
  0
BLOCK
  5
223
100
AcDbEntity
  8
0
100
AcDbBlockBegin
  2
_FILLED
 70
64
 10
0.0
 20
0.0
  3
_FILLED
  1

  0
SOLID
  5
224
100
AcDbEntity
  8
0
  6
BYBLOCK
 62
0
100
AcDbTrace
 10
0.0
 20
0.0
 11
-1.0
 21
0.2
 12
-1.0
 22
-0.2
 13
-1.0
 23
-0.2
  0
ENDBLK
  5
225
100
AcDbEntity
  8
0
  6
BYBLOCK
 62
0
100
AcDbBlockEnd
  0
ENDSEC
  0
SECTION
  2
ENTITIES
  0
MTEXT
  5
226
100
AcDbEntity
  8
0
100
AcDbMText
 62
2
  6
CONTINUOUS
  7
STANDARD
 71
3
 72
1
 10
3.1076281056
 20
1.5910307507
 30
0.0
 11
1.0
 21
0.0
 31
0.0
 73
2
 44
0.9
  1
SCALE  .500
 40
0.08
 41
0.704
  0
LINE
  5
227
100
AcDbEntity
  8
0
100
AcDbLine
 62
7
  6
CONTINUOUS
 10
0.0
 20
0.0
 11
0.0
 21
8.5
  0
LINE
  5
228
100
AcDbEntity
  8
0
100
AcDbLine
 62
7
  6
CONTINUOUS
 10
0.0
 20
0.0
 11
11.0
 21
0.0
  0
LINE
  5
229
100
AcDbEntity
  8
0
100
AcDbLine
 62
7
  6
CONTINUOUS
 10
0.0
 20
8.5
 11
11.0
 21
8.5
  0
LINE
  5
22A
100
AcDbEntity
  8
0
100
AcDbLine
 62
7
  6
CONTINUOUS
 10
11.0
 20
0.0
 11
11.0
 21
8.5
  0
LINE
  5
22B
100
AcDbEntity
  8
0
100
AcDbLine
 62
7
  6
CONTINUOUS
 10
1.5006030382
 20
4.7888943845
 11
1.5006030382
 21
4.9729726855
  0
LINE
  5
22C
100
AcDbEntity
  8
0
100
AcDbLine
 62
7
  6
CONTINUOUS
 10
1.5257026398
 20
4.714433535
 11
1.5257026398
 21
5.047433535
  0
LINE
  5
22D
100
AcDbEntity
  8
0
100
AcDbLine
 62
7
  6
CONTINUOUS
 10
1.5572026398
 20
4.682933535
 11
1.5572026398
 21
5.078933535
  0
LINE
  5
22E
100
AcDbEntity
  8
0
100
AcDbLine
 62
7
  6
CONTINUOUS
 10
1.5726687741
 20
4.682933535
 11
1.5726687741
 21
5.078933535
  0
LINE
  5
22F
100
AcDbEntity
  8
0
100
AcDbLine
 62
7
  6
CONTINUOUS
 10
1.5794526398
 20
4.694683535
 11
1.5794526398
 21
5.067183535
  0
LINE
  5
230
100
AcDbEntity
  8
0
100
AcDbLine
 62
7
  6
CONTINUOUS
 10
1.5858333475
 20
4.683631825
 11
1.5858333475
 21
5.078235245
  0
LINE
  5
231
100
AcDbEntity
  8
0
100
AcDbLine
 62
7
  6
CONTINUOUS
 10
1.5794526398
 20
5.067183535
 11
1.5858333475
 21
5.078235245
  0
LINE
  5
232
100
AcDbEntity
  8
0
100
AcDbLine
 62
7
  6
CONTINUOUS
 10
1.5726687741
 20
4.682933535
 11
1.5794526398
 21
4.694683535
  0
LINE
  5
233
100
AcDbEntity
  8
0
100
AcDbLine
 62
7
  6
CONTINUOUS
 10
1.5794526398
 20
4.694683535
 11
1.5858333475
 21
4.683631825
  0
LINE
  5
234
100
AcDbEntity
  8
ALL_FEATURES
100
AcDbLine
 62
7
  6
CONTINUOUS
 10
2.5284526398
 20
5.8650599136
 11
2.5284526398
 21
6.018433535
  0
LINE
  5
235
100
AcDbEntity
  8
0
100
AcDbLine
 62
7
  6
CONTINUOUS
 10
1.5726687741
 20
5.078933535
 11
1.5794526398
 21
5.067183535
  0
LINE
  5
236
100
AcDbEntity
  8
0
100
AcDbLine
 62
7
  6
CONTINUOUS
 10
2.7902026398
 20
4.748183535
 11
2.7902026398
 21
5.013683535
  0
LINE
  5
237
100
AcDbEntity
  8
0
100
AcDbLine
 62
7
  6
CONTINUOUS
 10
2.8372026398
 20
4.748183535
 11
2.8372026398
 21
5.013683535
  0
LINE
  5
238
100
AcDbEntity
  8
0
100
AcDbLine
 62
7
  6
CONTINUOUS
 10
2.8687026398
 20
4.789683535
 11
2.8687026398
 21
4.972183535
  0
LINE
  5
239
100
AcDbEntity
  8
ALL_ASSEMBLY_MEMBERS
100
AcDbLine
 62
7
  6
CONTINUOUS
 10
2.8772026398
 20
4.724933535
 11
2.8772026398
 21
4.784683535
  0
LINE
  5
23A
100
AcDbEntity
  8
ALL_ASSEMBLY_MEMBERS
100
AcDbLine
 62
7
  6
CONTINUOUS
 10
2.8772026398
 20
4.977183535
 11
2.8772026398
 21
5.037433535
  0
LINE
  5
23B
100
AcDbEntity
  8
ALL_FEATURES
100
AcDbLine
 62
7
  6
CONTINUOUS
 10
2.9072026398
 20
5.254933535
 11
2.9072026398
 21
5.194933535
  0
LINE
  5
23C
100
AcDbEntity
  8
ALL_ASSEMBLY_MEMBERS
100
AcDbLine
 62
7
  6
CONTINUOUS
 10
2.8772088884
 20
4.7846994372
 11
2.8772026398
 21
4.784683535
  0
LINE
  5
23D
100
AcDbEntity
  8
ALL_FEATURES
100
AcDbLine
 62
7
  6
CONTINUOUS
 10
3.4146305511
 20
5.8575494716
 11
3.4190776398
 21
5.8650599136
  0
LINE
  5
23E
100
AcDbEntity
  8
ALL_FEATURES
100
AcDbLine
 62
7
  6
CONTINUOUS
 10
3.7070584624
 20
5.8575494716
 11
3.7159526398
 21
5.8650599136
  0
LINE
  5
23F
100
AcDbEntity
  8
ALL_ASSEMBLY_MEMBERS
100
AcDbLine
 62
7
  6
CONTINUOUS
 10
2.9659526398
 20
5.037433535
 11
2.9659526398
 21
5.192433535
  0
LINE
  5
240
100
AcDbEntity
  8
ALL_FEATURES
100
AcDbLine
 62
7
  6
CONTINUOUS
 10
3.266540207
 20
5.254933535
 11
3.2883380608
 21
5.4513376101
  0
LINE
  5
241
100
AcDbEntity
  8
ALL_ASSEMBLY_MEMBERS
100
AcDbLine
 62
7
  6
CONTINUOUS
 10
3.2463329476
 20
5.134933535
 11
3.2405594449
 21
5.114933535
  0
LINE
  5
242
100
AcDbEntity
  8
ALL_ASSEMBLY_MEMBERS
100
AcDbLine
 62
7
  6
CONTINUOUS
 10
3.257879953
 20
5.094933535
 11
3.2636534557
 21
5.114933535
  0
LINE
  5
243
100
AcDbEntity
  8
ALL_ASSEMBLY_MEMBERS
100
AcDbLine
 62
7
  6
CONTINUOUS
 10
3.2610553795
 20
5.089622141
 11
3.2599448844
 21
5.0880516637
  0
LINE
  5
244
100
AcDbEntity
  8
ALL_ASSEMBLY_MEMBERS
100
AcDbLine
 62
7
  6
CONTINUOUS
 10
3.2598743866
 20
5.0881091847
 11
3.2598557195
 21
5.0880863063
  0
LINE
  5
245
100
AcDbEntity
  8
ALL_ASSEMBLY_MEMBERS
100
AcDbLine
 62
7
  6
CONTINUOUS
 10
3.2598747439
 20
5.0881079509
 11
3.2598557969
 21
5.0880860383
  0
LINE
  5
246
100
AcDbEntity
  8
ALL_FEATURES
100
AcDbLine
 62
7
  6
CONTINUOUS
 10
2.8335275052
 20
5.254933535
 11
2.7899317977
 21
5.4513376101
  0
LINE
  5
247
100
AcDbEntity
  8
ALL_FEATURES
100
AcDbLine
 62
7
  6
CONTINUOUS
 10
2.9778650725
 20
5.254933535
 11
2.9560672188
 21
5.4513376101
  0
LINE
  5
248
100
AcDbEntity
  8
ALL_ASSEMBLY_MEMBERS
100
AcDbLine
 62
7
  6
CONTINUOUS
 10
3.2784526398
 20
5.037433535
 11
3.2784526398
 21
5.192433535
  0
LINE
  5
249
100
AcDbEntity
  8
ALL_FEATURES
100
AcDbLine
 62
7
  6
CONTINUOUS
 10
3.3372026398
 20
5.254933535
 11
3.3372026398
 21
5.194933535
  0
LINE
  5
24A
100
AcDbEntity
  8
ALL_ASSEMBLY_MEMBERS
100
AcDbLine
 62
7
  6
CONTINUOUS
 10
3.3672026398
 20
4.724933535
 11
3.3672026398
 21
5.037433535
  0
LINE
  5
24B
100
AcDbEntity
  8
ALL_FEATURES
100
AcDbLine
 62
7
  6
CONTINUOUS
 10
3.4108777743
 20
5.254933535
 11
3.4544734818
 21
5.4513376101
  0
LINE
  5
24C
100
AcDbEntity
  8
ALL_ASSEMBLY_MEMBERS
100
AcDbLine
 62
7
  6
CONTINUOUS
 10
2.8772026398
 20
4.977183535
 11
2.8772088846
 21
4.9771677037
  0
LINE
  5
24D
100
AcDbEntity
  8
ALL_FEATURES
100
AcDbLine
 62
7
  6
CONTINUOUS
 10
3.7159526398
 20
5.8650599136
 11
3.7159526398
 21
6.018433535
  0
LINE
  5
24E
100
AcDbEntity
  8
ALL_ASSEMBLY_MEMBERS
100
AcDbLine
 62
7
  6
CONTINUOUS
 10
3.2405594449
 20
5.114933535
 11
3.2463329476
 21
5.094933535
  0
LINE
  5
24F
100
AcDbEntity
  8
ALL_ASSEMBLY_MEMBERS
100
AcDbLine
 62
7
  6
CONTINUOUS
 10
3.2636534557
 20
5.114933535
 11
3.257879953
 21
5.134933535
  0
LINE
  5
250
100
AcDbEntity
  8
ALL_ASSEMBLY_MEMBERS
100
AcDbLine
 62
7
  6
CONTINUOUS
 10
5.4657026398
 20
3.104933535
 11
4.7157026398
 21
3.104933535
  0
LINE
  5
251
100
AcDbEntity
  8
ALL_ASSEMBLY_MEMBERS
100
AcDbLine
 62
7
  6
CONTINUOUS
 10
3.2610553795
 20
5.140244929
 11
3.2559648521
 21
5.1474440219
  0
LINE
  5
252
100
AcDbEntity
  8
ALL_FEATURES
100
AcDbLine
 62
7
  6
CONTINUOUS
 10
2.8297747284
 20
5.8575494716
 11
2.8253276398
 21
5.8650599136
  0
LINE
  5
253
100
AcDbEntity
  8
ALL_ASSEMBLY_MEMBERS
100
AcDbLine
 62
7
  6
CONTINUOUS
 10
4.3907026398
 20
6.018433535
 11
4.3907029749
 21
5.6244428166
  0
LWPOLYLINE
  5
254
100
AcDbEntity
  8
ALL_ASSEMBLY_MEMBERS
100
AcDbPolyline
 62
7
  6
CONTINUOUS
 90
3
 70
0
 10
4.7227399169
 20
2.6189759183
 10
4.7228196992
 20
2.6163577861
 10
4.7229744915
 20
2.6108481735
  0
LWPOLYLINE
  5
255
100
AcDbEntity
  8
ALL_ASSEMBLY_MEMBERS
100
AcDbPolyline
 62
7
  6
CONTINUOUS
 90
3
 70
0
 10
4.7229744915
 20
2.6108481735
 10
4.7230894994
 20
2.6062801326
 10
4.723172025
 20
2.6026672692
  0
LINE
  5
256
100
AcDbEntity
  8
ALL_ASSEMBLY_MEMBERS
100
AcDbLine
 62
7
  6
CONTINUOUS
 10
4.723172025
 20
2.6026672692
 11
4.7232723046
 21
2.5977810028
  0
LINE
  5
257
100
AcDbEntity
  8
ALL_ASSEMBLY_MEMBERS
100
AcDbLine
 62
7
  6
CONTINUOUS
 10
4.7157026398
 20
3.768433535
 11
4.7157026398
 21
3.104933535
  0
LINE
  5
258
100
AcDbEntity
  8
ALL_ASSEMBLY_MEMBERS
100
AcDbLine
 62
7
  6
CONTINUOUS
 10
4.7407026398
 20
6.018433535
 11
4.7407026398
 21
5.768433535
  0
LINE
  5
259
100
AcDbEntity
  8
ALL_ASSEMBLY_MEMBERS
100
AcDbLine
 62
7
  6
CONTINUOUS
 10
5.4657026398
 20
3.768433535
 11
4.7157026398
 21
3.768433535
  0
LINE
  5
25A
100
AcDbEntity
  8
ALL_FEATURES
100
AcDbLine
 62
7
  6
CONTINUOUS
 10
2.5373468171
 20
5.8575494716
 11
2.5284526398
 21
5.8650599136
  0
LINE
  5
25B
100
AcDbEntity
  8
ALL_ASSEMBLY_MEMBERS
100
AcDbLine
 62
7
  6
CONTINUOUS
 10
4.9032026398
 20
3.768433535
 11
4.9032026398
 21
3.104933535
  0
LINE
  5
25C
100
AcDbEntity
  8
ALL_ASSEMBLY_MEMBERS
100
AcDbLine
 62
7
  6
CONTINUOUS
 10
5.2782026398
 20
3.768433535
 11
5.2782026398
 21
3.104933535
  0
LINE
  5
25D
100
AcDbEntity
  8
ALL_ASSEMBLY_MEMBERS
100
AcDbLine
 62
7
  6
CONTINUOUS
 10
5.4969526398
 20
4.393433535
 11
4.6844526398
 21
4.393433535
  0
LINE
  5
25E
100
AcDbEntity
  8
ALL_ASSEMBLY_MEMBERS
100
AcDbLine
 62
7
  6
CONTINUOUS
 10
5.4407026398
 20
6.018433535
 11
5.4407026398
 21
5.768433535
  0
LINE
  5
25F
100
AcDbEntity
  8
ALL_ASSEMBLY_MEMBERS
100
AcDbLine
 62
7
  6
CONTINUOUS
 10
5.4657026398
 20
3.768433535
 11
5.4657026398
 21
3.104933535
  0
LWPOLYLINE
  5
260
100
AcDbEntity
  8
ALL_ASSEMBLY_MEMBERS
100
AcDbPolyline
 62
7
  6
CONTINUOUS
 90
4
 70
0
 10
5.4581329171
 20
2.5977780321
 10
5.4581795801
 20
2.6001267243
 10
5.4582378862
 20
2.6028789075
 10
5.4583245917
 20
2.6066477223
  0
LINE
  5
261
100
AcDbEntity
  8
ALL_ASSEMBLY_MEMBERS
100
AcDbLine
 62
7
  6
CONTINUOUS
 10
5.4583245917
 20
2.6066477223
 11
5.4584457762
 21
2.611410458
  0
LWPOLYLINE
  5
262
100
AcDbEntity
  8
ALL_ASSEMBLY_MEMBERS
100
AcDbPolyline
 62
7
  6
CONTINUOUS
 90
3
 70
0
 10
5.4584457762
 20
2.611410458
 10
5.4586093701
 20
2.6171524514
 10
5.4586654491
 20
2.6189786865
  0
LINE
  5
263
100
AcDbEntity
  8
ALL_FEATURES
100
AcDbLine
 62
7
  6
CONTINUOUS
 10
7.6440584624
 20
5.8575494716
 11
7.6529526398
 21
5.8650599136
  0
LINE
  5
264
100
AcDbEntity
  8
0
100
AcDbLine
 62
7
  6
CONTINUOUS
 10
8.6242026398
 20
4.682933535
 11
8.6087365054
 21
4.682933535
  0
LINE
  5
265
100
AcDbEntity
  8
0
100
AcDbLine
 62
7
  6
CONTINUOUS
 10
1.5572026398
 20
4.682933535
 11
1.5726687741
 21
4.682933535
  0
LINE
  5
266
100
AcDbEntity
  8
ALL_ASSEMBLY_MEMBERS
100
AcDbLine
 62
7
  6
CONTINUOUS
 10
5.7907026398
 20
6.018433535
 11
5.7907023046
 21
5.6244428166
  0
LINE
  5
267
100
AcDbEntity
  8
0
100
AcDbLine
 62
7
  6
CONTINUOUS
 10
1.5858333475
 20
4.683631825
 11
2.7902026398
 21
4.748183535
  0
LINE
  5
268
100
AcDbEntity
  8
0
100
AcDbLine
 62
7
  6
CONTINUOUS
 10
8.595571932
 20
5.078235245
 11
7.3912026398
 21
5.013683535
  0
LINE
  5
269
100
AcDbEntity
  8
ALL_ASSEMBLY_MEMBERS
100
AcDbLine
 62
7
  6
CONTINUOUS
 10
3.3672026398
 20
4.724933535
 11
2.8772026398
 21
4.724933535
  0
LINE
  5
26A
100
AcDbEntity
  8
ALL_ASSEMBLY_MEMBERS
100
AcDbLine
 62
7
  6
CONTINUOUS
 10
6.8142026398
 20
4.724933535
 11
7.3042026398
 21
4.724933535
  0
LINE
  5
26B
100
AcDbEntity
  8
0
100
AcDbLine
 62
7
  6
CONTINUOUS
 10
7.3127026398
 20
4.789683535
 11
7.3022819608
 21
4.789683535
  0
LINE
  5
26C
100
AcDbEntity
  8
0
100
AcDbLine
 62
7
  6
CONTINUOUS
 10
2.8687026398
 20
4.789683535
 11
2.8791233187
 21
4.789683535
  0
LINE
  5
26D
100
AcDbEntity
  8
0
100
AcDbLine
 62
7
  6
CONTINUOUS
 10
7.3127026398
 20
4.972183535
 11
7.3022819608
 21
4.972183535
  0
LINE
  5
26E
100
AcDbEntity
  8
0
100
AcDbLine
 62
7
  6
CONTINUOUS
 10
2.8687026398
 20
4.972183535
 11
2.8791233187
 21
4.972183535
  0
LINE
  5
26F
100
AcDbEntity
  8
0
100
AcDbLine
 62
7
  6
CONTINUOUS
 10
8.595571932
 20
4.683631825
 11
7.3912026398
 21
4.748183535
  0
LINE
  5
270
100
AcDbEntity
  8
0
100
AcDbLine
 62
7
  6
CONTINUOUS
 10
1.5858333475
 20
5.078235245
 11
2.7902026398
 21
5.013683535
  0
LINE
  5
271
100
AcDbEntity
  8
ALL_FEATURES
100
AcDbLine
 62
7
  6
CONTINUOUS
 10
7.3516305511
 20
5.8575494716
 11
7.3560776398
 21
5.8650599136
  0
LINE
  5
272
100
AcDbEntity
  8
ALL_ASSEMBLY_MEMBERS
100
AcDbLine
 62
7
  6
CONTINUOUS
 10
6.9203499
 20
5.140244929
 11
6.92431997
 21
5.1458594557
  0
LINE
  5
273
100
AcDbEntity
  8
ALL_ASSEMBLY_MEMBERS
100
AcDbLine
 62
7
  6
CONTINUOUS
 10
5.5594526398
 20
5.018433535
 11
4.6219526398
 21
5.018433535
  0
LINE
  5
274
100
AcDbEntity
  8
ALL_ASSEMBLY_MEMBERS
100
AcDbLine
 62
7
  6
CONTINUOUS
 10
3.3672026398
 20
5.037433535
 11
2.8772026398
 21
5.037433535
  0
LINE
  5
275
100
AcDbEntity
  8
ALL_ASSEMBLY_MEMBERS
100
AcDbLine
 62
7
  6
CONTINUOUS
 10
6.8142026398
 20
5.037433535
 11
7.3042026398
 21
5.037433535
  0
LINE
  5
276
100
AcDbEntity
  8
0
100
AcDbLine
 62
7
  6
CONTINUOUS
 10
8.6242026398
 20
5.078933535
 11
8.6087365054
 21
5.078933535
  0
LINE
  5
277
100
AcDbEntity
  8
0
100
AcDbLine
 62
7
  6
CONTINUOUS
 10
1.5572026398
 20
5.078933535
 11
1.5726687741
 21
5.078933535
  0
LINE
  5
278
100
AcDbEntity
  8
ALL_ASSEMBLY_MEMBERS
100
AcDbLine
 62
7
  6
CONTINUOUS
 10
6.9354663085
 20
5.0823885351
 11
6.9358611332
 21
5.0823885351
  0
LINE
  5
279
100
AcDbEntity
  8
ALL_ASSEMBLY_MEMBERS
100
AcDbLine
 62
7
  6
CONTINUOUS
 10
3.2463329476
 20
5.094933535
 11
3.257879953
 21
5.094933535
  0
LINE
  5
27A
100
AcDbEntity
  8
ALL_ASSEMBLY_MEMBERS
100
AcDbLine
 62
7
  6
CONTINUOUS
 10
6.9235253265
 20
5.094933535
 11
6.9350723319
 21
5.094933535
  0
LINE
  5
27B
100
AcDbEntity
  8
ALL_ASSEMBLY_MEMBERS
100
AcDbLine
 62
7
  6
CONTINUOUS
 10
3.2636534557
 20
5.114933535
 11
3.2405594449
 21
5.114933535
  0
LINE
  5
27C
100
AcDbEntity
  8
ALL_ASSEMBLY_MEMBERS
100
AcDbLine
 62
7
  6
CONTINUOUS
 10
6.9177518238
 20
5.114933535
 11
6.9408458346
 21
5.114933535
  0
LINE
  5
27D
100
AcDbEntity
  8
ALL_ASSEMBLY_MEMBERS
100
AcDbLine
 62
7
  6
CONTINUOUS
 10
6.9350723319
 20
5.134933535
 11
6.9235253265
 21
5.134933535
  0
LINE
  5
27E
100
AcDbEntity
  8
ALL_ASSEMBLY_MEMBERS
100
AcDbLine
 62
7
  6
CONTINUOUS
 10
3.257879953
 20
5.134933535
 11
3.2463329476
 21
5.134933535
  0
LINE
  5
27F
100
AcDbEntity
  8
ALL_ASSEMBLY_MEMBERS
100
AcDbLine
 62
7
  6
CONTINUOUS
 10
3.2784526398
 20
5.192433535
 11
2.9659526398
 21
5.192433535
  0
LINE
  5
280
100
AcDbEntity
  8
ALL_ASSEMBLY_MEMBERS
100
AcDbLine
 62
7
  6
CONTINUOUS
 10
6.9029526398
 20
5.192433535
 11
7.2154526398
 21
5.192433535
  0
LINE
  5
281
100
AcDbEntity
  8
ALL_FEATURES
100
AcDbLine
 62
7
  6
CONTINUOUS
 10
7.2742026398
 20
5.194933535
 11
6.8442026398
 21
5.194933535
  0
LINE
  5
282
100
AcDbEntity
  8
ALL_FEATURES
100
AcDbLine
 62
7
  6
CONTINUOUS
 10
2.9072026398
 20
5.194933535
 11
3.3372026398
 21
5.194933535
  0
LINE
  5
283
100
AcDbEntity
  8
ALL_FEATURES
100
AcDbLine
 62
7
  6
CONTINUOUS
 10
7.3478777743
 20
5.254933535
 11
6.7705275052
 21
5.254933535
  0
LINE
  5
284
100
AcDbEntity
  8
ALL_FEATURES
100
AcDbLine
 62
7
  6
CONTINUOUS
 10
3.4108777743
 20
5.254933535
 11
3.266540207
 21
5.254933535
  0
LINE
  5
285
100
AcDbEntity
  8
ALL_FEATURES
100
AcDbLine
 62
7
  6
CONTINUOUS
 10
2.9778650725
 20
5.254933535
 11
2.8335275052
 21
5.254933535
  0
LINE
  5
286
100
AcDbEntity
  8
0
100
AcDbLine
 62
7
  6
CONTINUOUS
 10
2.9778650725
 20
5.254933535
 11
3.266540207
 21
5.254933535
  0
LINE
  5
287
100
AcDbEntity
  8
ALL_FEATURES
100
AcDbLine
 62
7
  6
CONTINUOUS
 10
6.4654526398
 20
5.8650599136
 11
6.4654526398
 21
6.018433535
  0
LINE
  5
288
100
AcDbEntity
  8
ALL_ASSEMBLY_MEMBERS
100
AcDbLine
 62
7
  6
CONTINUOUS
 10
4.5764936971
 20
5.3945366733
 11
4.5759065551
 21
5.3945329401
  0
LINE
  5
289
100
AcDbEntity
  8
ALL_ASSEMBLY_MEMBERS
100
AcDbLine
 62
7
  6
CONTINUOUS
 10
5.6068085004
 20
5.3923517925
 11
5.6049102854
 21
5.392340102
  0
LINE
  5
28A
100
AcDbEntity
  8
ALL_ASSEMBLY_MEMBERS
100
AcDbLine
 62
7
  6
CONTINUOUS
 10
4.7966980578
 20
5.3934335351
 11
4.7923924306
 21
5.3934335351
  0
LINE
  5
28B
100
AcDbEntity
  8
ALL_ASSEMBLY_MEMBERS
100
AcDbLine
 62
7
  6
CONTINUOUS
 10
4.4983878487
 20
5.3934335351
 11
4.4969526398
 21
5.393433535
  0
LINE
  5
28C
100
AcDbEntity
  8
ALL_ASSEMBLY_MEMBERS
100
AcDbLine
 62
7
  6
CONTINUOUS
 10
5.3847072214
 20
5.3934335351
 11
5.3890128488
 21
5.3934335351
  0
LINE
  5
28D
100
AcDbEntity
  8
ALL_ASSEMBLY_MEMBERS
100
AcDbLine
 62
7
  6
CONTINUOUS
 10
5.6830174306
 20
5.3934335351
 11
5.6844526398
 21
5.393433535
  0
LINE
  5
28E
100
AcDbEntity
  8
ALL_FEATURES
100
AcDbLine
 62
7
  6
CONTINUOUS
 10
7.3914734818
 20
5.4513376101
 11
6.7269317977
 21
5.4513376101
  0
LINE
  5
28F
100
AcDbEntity
  8
ALL_FEATURES
100
AcDbLine
 62
7
  6
CONTINUOUS
 10
3.4544734818
 20
5.4513376101
 11
2.7899317977
 21
5.4513376101
  0
LINE
  5
290
100
AcDbEntity
  8
ALL_ASSEMBLY_MEMBERS
100
AcDbLine
 62
7
  6
CONTINUOUS
 10
5.6073916403
 20
5.3945203656
 11
5.6049114144
 21
5.3945343151
  0
LINE
  5
291
100
AcDbEntity
  8
ALL_ASSEMBLY_MEMBERS
100
AcDbLine
 62
7
  6
CONTINUOUS
 10
6.9235253265
 20
5.134933535
 11
6.9177518238
 21
5.114933535
  0
LINE
  5
292
100
AcDbEntity
  8
ALL_ASSEMBLY_MEMBERS
100
AcDbLine
 62
7
  6
CONTINUOUS
 10
6.9350723319
 20
5.094933535
 11
6.9408458346
 21
5.114933535
  0
LINE
  5
293
100
AcDbEntity
  8
ALL_ASSEMBLY_MEMBERS
100
AcDbLine
 62
7
  6
CONTINUOUS
 10
5.7907023046
 20
5.768433535
 11
4.3907029749
 21
5.768433535
  0
LINE
  5
294
100
AcDbEntity
  8
ALL_ASSEMBLY_MEMBERS
100
AcDbLine
 62
7
  6
CONTINUOUS
 10
6.8142026398
 20
4.724933535
 11
6.8142026398
 21
5.037433535
  0
LINE
  5
295
100
AcDbEntity
  8
ALL_FEATURES
100
AcDbLine
 62
7
  6
CONTINUOUS
 10
6.8442026398
 20
5.254933535
 11
6.8442026398
 21
5.194933535
  0
LINE
  5
296
100
AcDbEntity
  8
ALL_ASSEMBLY_MEMBERS
100
AcDbLine
 62
7
  6
CONTINUOUS
 10
6.9029526398
 20
5.037433535
 11
6.9029526398
 21
5.192433535
  0
LINE
  5
297
100
AcDbEntity
  8
ALL_FEATURES
100
AcDbLine
 62
7
  6
CONTINUOUS
 10
7.3478777743
 20
5.254933535
 11
7.3914734818
 21
5.4513376101
  0
LINE
  5
298
100
AcDbEntity
  8
ALL_ASSEMBLY_MEMBERS
100
AcDbLine
 62
7
  6
CONTINUOUS
 10
7.3041963911
 20
4.9771676328
 11
7.3042026398
 21
4.977183535
  0
LINE
  5
299
100
AcDbEntity
  8
ALL_FEATURES
100
AcDbLine
 62
7
  6
CONTINUOUS
 10
7.6440584624
 20
5.8575494716
 11
6.4743468171
 21
5.8575494716
  0
LINE
  5
29A
100
AcDbEntity
  8
ALL_FEATURES
100
AcDbLine
 62
7
  6
CONTINUOUS
 10
3.7070584624
 20
5.8575494716
 11
2.5373468171
 21
5.8575494716
  0
LINE
  5
29B
100
AcDbEntity
  8
ALL_ASSEMBLY_MEMBERS
100
AcDbLine
 62
7
  6
CONTINUOUS
 10
5.7907026398
 20
6.018433535
 11
4.3907026398
 21
6.018433535
  0
LINE
  5
29C
100
AcDbEntity
  8
ALL_FEATURES
100
AcDbLine
 62
7
  6
CONTINUOUS
 10
2.5284531208
 20
6.018433535
 11
3.7159513992
 21
6.018433535
  0
LINE
  5
29D
100
AcDbEntity
  8
ALL_FEATURES
100
AcDbLine
 62
7
  6
CONTINUOUS
 10
6.4654538803
 20
6.018433535
 11
7.6529521587
 21
6.018433535
  0
LINE
  5
29E
100
AcDbEntity
  8
ALL_FEATURES
100
AcDbLine
 62
7
  6
CONTINUOUS
 10
6.7705275052
 20
5.254933535
 11
6.7269317977
 21
5.4513376101
  0
LINE
  5
29F
100
AcDbEntity
  8
ALL_FEATURES
100
AcDbLine
 62
7
  6
CONTINUOUS
 10
6.9148650725
 20
5.254933535
 11
6.8930672188
 21
5.4513376101
  0
LINE
  5
2A0
100
AcDbEntity
  8
ALL_ASSEMBLY_MEMBERS
100
AcDbLine
 62
7
  6
CONTINUOUS
 10
7.2154526398
 20
5.037433535
 11
7.2154526398
 21
5.192433535
  0
LINE
  5
2A1
100
AcDbEntity
  8
ALL_FEATURES
100
AcDbLine
 62
7
  6
CONTINUOUS
 10
7.2742026398
 20
5.254933535
 11
7.2742026398
 21
5.194933535
  0
LINE
  5
2A2
100
AcDbEntity
  8
ALL_ASSEMBLY_MEMBERS
100
AcDbLine
 62
7
  6
CONTINUOUS
 10
7.3042026398
 20
4.724933535
 11
7.3042026398
 21
4.784683535
  0
LINE
  5
2A3
100
AcDbEntity
  8
ALL_ASSEMBLY_MEMBERS
100
AcDbLine
 62
7
  6
CONTINUOUS
 10
7.3042026398
 20
4.977183535
 11
7.3042026398
 21
5.037433535
  0
LINE
  5
2A4
100
AcDbEntity
  8
0
100
AcDbLine
 62
7
  6
CONTINUOUS
 10
7.3127026398
 20
4.789683535
 11
7.3127026398
 21
4.972183535
  0
LINE
  5
2A5
100
AcDbEntity
  8
ALL_FEATURES
100
AcDbLine
 62
7
  6
CONTINUOUS
 10
7.203540207
 20
5.254933535
 11
7.2253380608
 21
5.4513376101
  0
LINE
  5
2A6
100
AcDbEntity
  8
ALL_FEATURES
100
AcDbLine
 62
7
  6
CONTINUOUS
 10
6.4743468171
 20
5.8575494716
 11
6.4654526398
 21
5.8650599136
  0
LINE
  5
2A7
100
AcDbEntity
  8
ALL_ASSEMBLY_MEMBERS
100
AcDbLine
 62
7
  6
CONTINUOUS
 10
6.9203499
 20
5.089622141
 11
6.9225808524
 21
5.0864670979
  0
LINE
  5
2A8
100
AcDbEntity
  8
ALL_ASSEMBLY_MEMBERS
100
AcDbLine
 62
7
  6
CONTINUOUS
 10
6.9177518238
 20
5.114933535
 11
6.9235253265
 21
5.094933535
  0
LINE
  5
2A9
100
AcDbEntity
  8
ALL_ASSEMBLY_MEMBERS
100
AcDbLine
 62
7
  6
CONTINUOUS
 10
6.9408458346
 20
5.114933535
 11
6.9350723319
 21
5.134933535
  0
LINE
  5
2AA
100
AcDbEntity
  8
0
100
AcDbLine
 62
7
  6
CONTINUOUS
 10
7.3442026398
 20
4.748183535
 11
7.3442026398
 21
5.013683535
  0
LINE
  5
2AB
100
AcDbEntity
  8
0
100
AcDbLine
 62
7
  6
CONTINUOUS
 10
7.3912026398
 20
4.748183535
 11
7.3912026398
 21
5.013683535
  0
LINE
  5
2AC
100
AcDbEntity
  8
ALL_FEATURES
100
AcDbLine
 62
7
  6
CONTINUOUS
 10
6.7667747284
 20
5.8575494716
 11
6.7623276398
 21
5.8650599136
  0
LINE
  5
2AD
100
AcDbEntity
  8
ALL_ASSEMBLY_MEMBERS
100
AcDbLine
 62
7
  6
CONTINUOUS
 10
7.3042026398
 20
4.784683535
 11
7.3041963949
 21
4.7846993662
  0
LINE
  5
2AE
100
AcDbEntity
  8
ALL_FEATURES
100
AcDbLine
 62
7
  6
CONTINUOUS
 10
7.6529526398
 20
5.8650599136
 11
7.6529526398
 21
6.018433535
  0
LINE
  5
2AF
100
AcDbEntity
  8
0
100
AcDbLine
 62
7
  6
CONTINUOUS
 10
8.6087365054
 20
5.078933535
 11
8.6019526398
 21
5.067183535
  0
LINE
  5
2B0
100
AcDbEntity
  8
0
100
AcDbLine
 62
7
  6
CONTINUOUS
 10
8.6019526398
 20
4.694683535
 11
8.595571932
 21
4.683631825
  0
LINE
  5
2B1
100
AcDbEntity
  8
0
100
AcDbLine
 62
7
  6
CONTINUOUS
 10
8.6087365054
 20
4.682933535
 11
8.6019526398
 21
4.694683535
  0
LINE
  5
2B2
100
AcDbEntity
  8
0
100
AcDbLine
 62
7
  6
CONTINUOUS
 10
8.595571932
 20
4.683631825
 11
8.595571932
 21
5.078235245
  0
LINE
  5
2B3
100
AcDbEntity
  8
0
100
AcDbLine
 62
7
  6
CONTINUOUS
 10
8.6019526398
 20
4.694683535
 11
8.6019526398
 21
5.067183535
  0
LINE
  5
2B4
100
AcDbEntity
  8
0
100
AcDbLine
 62
7
  6
CONTINUOUS
 10
8.6087365054
 20
4.682933535
 11
8.6087365054
 21
5.078933535
  0
LINE
  5
2B5
100
AcDbEntity
  8
0
100
AcDbLine
 62
7
  6
CONTINUOUS
 10
8.6242026398
 20
4.682933535
 11
8.6242026398
 21
5.078933535
  0
LINE
  5
2B6
100
AcDbEntity
  8
0
100
AcDbLine
 62
7
  6
CONTINUOUS
 10
8.6557026398
 20
4.714433535
 11
8.6557026398
 21
5.047433535
  0
LINE
  5
2B7
100
AcDbEntity
  8
0
100
AcDbLine
 62
7
  6
CONTINUOUS
 10
8.6808022413
 20
4.7888943845
 11
8.6808022413
 21
4.9729726855
  0
LINE
  5
2B8
100
AcDbEntity
  8
0
100
AcDbLine
 62
7
  6
CONTINUOUS
 10
8.6019526398
 20
5.067183535
 11
8.595571932
 21
5.078235245
  0
ARC
  5
2B9
100
AcDbEntity
  8
ALL_ASSEMBLY_MEMBERS
100
AcDbCircle
 62
7
  6
CONTINUOUS
 10
7.0592026398
 20
5.4337882451
 40
0.75
100
AcDbArc
 50
250.9334198993
 51
289.0665801007
  0
ARC
  5
2BA
100
AcDbEntity
  8
ALL_ASSEMBLY_MEMBERS
100
AcDbCircle
 62
7
  6
CONTINUOUS
 10
3.1222026398
 20
5.4337882451
 40
0.75
100
AcDbArc
 50
250.9334198993
 51
289.0665801007
  0
ARC
  5
2BB
100
AcDbEntity
  8
ALL_ASSEMBLY_MEMBERS
100
AcDbCircle
 62
7
  6
CONTINUOUS
 10
5.0907016849
 20
2.6049340343
 40
0.3675009099
100
AcDbArc
 50
181.1152745276
 51
358.8842622479
  0
ARC
  5
2BC
100
AcDbEntity
  8
0
100
AcDbCircle
 62
7
  6
CONTINUOUS
 10
1.5197026398
 20
4.880933535
 40
0.094
100
AcDbArc
 50
101.7234029883
 51
258.2765970117
  0
ARC
  5
2BD
100
AcDbEntity
  8
0
100
AcDbCircle
 62
7
  6
CONTINUOUS
 10
8.6617026398
 20
4.880933535
 40
0.094
100
AcDbArc
 50
281.7234029883
 51
78.2765970117
  0
ARC
  5
2BE
100
AcDbEntity
  8
ALL_ASSEMBLY_MEMBERS
100
AcDbCircle
 62
7
  6
CONTINUOUS
 10
6.9004168709
 20
5.124761631
 40
0.0470759288
100
AcDbArc
 50
32.3356668156
 51
35.2295036406
  0
ARC
  5
2BF
100
AcDbEntity
  8
ALL_ASSEMBLY_MEMBERS
100
AcDbCircle
 62
7
  6
CONTINUOUS
 10
3.2803766692
 20
5.1251708856
 40
0.0463401548
100
AcDbArc
 50
144.7475176528
 51
147.6873118915
  0
ARC
  5
2C0
100
AcDbEntity
  8
0
100
AcDbCircle
 62
7
  6
CONTINUOUS
 10
1.4942026398
 20
4.7580514777
 40
0.0315
100
AcDbArc
 50
0.0
 51
78.2765970117
  0
ARC
  5
2C1
100
AcDbEntity
  8
0
100
AcDbCircle
 62
7
  6
CONTINUOUS
 10
1.4942026398
 20
5.0038155923
 40
0.0315
100
AcDbArc
 50
281.7234029883
 51
360.0
  0
ARC
  5
2C2
100
AcDbEntity
  8
0
100
AcDbCircle
 62
7
  6
CONTINUOUS
 10
1.5572026398
 20
4.714433535
 40
0.0315
100
AcDbArc
 50
180.0
 51
270.0
  0
ARC
  5
2C3
100
AcDbEntity
  8
0
100
AcDbCircle
 62
7
  6
CONTINUOUS
 10
1.5572026398
 20
5.047433535
 40
0.0315
100
AcDbArc
 50
90.0
 51
180.0
  0
ARC
  5
2C4
100
AcDbEntity
  8
0
100
AcDbCircle
 62
7
  6
CONTINUOUS
 10
2.8687026398
 20
4.758183535
 40
0.0315
100
AcDbArc
 50
90.0
 51
180.0
  0
ARC
  5
2C5
100
AcDbEntity
  8
0
100
AcDbCircle
 62
7
  6
CONTINUOUS
 10
2.8687026398
 20
5.003683535
 40
0.0315
100
AcDbArc
 50
180.0
 51
270.0
  0
ARC
  5
2C6
100
AcDbEntity
  8
0
100
AcDbCircle
 62
7
  6
CONTINUOUS
 10
8.6872026398
 20
4.7580514777
 40
0.0315
100
AcDbArc
 50
101.7234029883
 51
180.0
  0
ARC
  5
2C7
100
AcDbEntity
  8
0
100
AcDbCircle
 62
7
  6
CONTINUOUS
 10
8.6872026398
 20
5.0038155923
 40
0.0315
100
AcDbArc
 50
180.0
 51
258.2765970117
  0
ARC
  5
2C8
100
AcDbEntity
  8
0
100
AcDbCircle
 62
7
  6
CONTINUOUS
 10
8.6242026398
 20
4.714433535
 40
0.0315
100
AcDbArc
 50
270.0
 51
360.0
  0
ARC
  5
2C9
100
AcDbEntity
  8
0
100
AcDbCircle
 62
7
  6
CONTINUOUS
 10
8.6242026398
 20
5.047433535
 40
0.0315
100
AcDbArc
 50
0.0
 51
90.0
  0
ARC
  5
2CA
100
AcDbEntity
  8
0
100
AcDbCircle
 62
7
  6
CONTINUOUS
 10
7.3127026398
 20
4.758183535
 40
0.0315
100
AcDbArc
 50
0.0
 51
90.0
  0
ARC
  5
2CB
100
AcDbEntity
  8
0
100
AcDbCircle
 62
7
  6
CONTINUOUS
 10
7.3127026398
 20
5.003683535
 40
0.0315
100
AcDbArc
 50
270.0
 51
360.0
  0
ARC
  5
2CC
100
AcDbEntity
  8
0
100
AcDbCircle
 62
7
  6
CONTINUOUS
 10
2.8137026398
 20
4.748183535
 40
0.0235
100
AcDbArc
 50
180.0
 51
360.0
  0
ARC
  5
2CD
100
AcDbEntity
  8
0
100
AcDbCircle
 62
7
  6
CONTINUOUS
 10
2.8137026398
 20
5.013683535
 40
0.0235
100
AcDbArc
 50
0.0
 51
180.0
  0
ARC
  5
2CE
100
AcDbEntity
  8
0
100
AcDbCircle
 62
7
  6
CONTINUOUS
 10
7.3677026398
 20
4.748183535
 40
0.0235
100
AcDbArc
 50
180.0
 51
360.0
  0
ARC
  5
2CF
100
AcDbEntity
  8
0
100
AcDbCircle
 62
7
  6
CONTINUOUS
 10
7.3677026398
 20
5.013683535
 40
0.0235
100
AcDbArc
 50
0.0
 51
180.0
  0
ARC
  5
2D0
100
AcDbEntity
  8
ALL_ASSEMBLY_MEMBERS
100
AcDbCircle
 62
7
  6
CONTINUOUS
 10
3.2425812406
 20
5.127184562
 40
0.0226244745
100
AcDbArc
 50
33.1317531745
 51
35.2585488322
  0
ARC
  5
2D1
100
AcDbEntity
  8
ALL_ASSEMBLY_MEMBERS
100
AcDbCircle
 62
7
  6
CONTINUOUS
 10
6.9327639112
 20
5.0975785275
 40
0.0146857788
100
AcDbArc
 50
226.6032721653
 51
227.538947118
  0
ARC
  5
2D2
100
AcDbEntity
  8
ALL_ASSEMBLY_MEMBERS
100
AcDbCircle
 62
7
  6
CONTINUOUS
 10
6.9297569209
 20
5.0912205308
 40
0.0105218023
100
AcDbArc
 50
302.8678611458
 51
304.6359984167
  0
SPLINE
  5
2D3
100
AcDbEntity
  8
ALL_ASSEMBLY_MEMBERS
100
AcDbSpline
 62
7
  6
CONTINUOUS
 70
0
 71
3
 72
10
 73
6
 74
0
 42
0.0000001
 43
0.0000001
 44
0.0000000001
 40
0.0
 40
0.0
 40
0.0
 40
0.0
 40
0.2602978022
 40
0.5137677782
 40
1.0
 40
1.0
 40
1.0
 40
1.0
 10
3.2563650127
 20
5.084079316
 30
0.0
 10
3.2561065718
 20
5.0836824148
 30
0.0
 10
3.2555812756
 20
5.0829087182
 30
0.0
 10
3.2544979703
 20
5.0814464694
 30
0.0
 10
3.2536271883
 20
5.0804168632
 30
0.0
 10
3.2530226072
 20
5.0797709344
 30
0.0
  0
SPLINE
  5
2D4
100
AcDbEntity
  8
ALL_ASSEMBLY_MEMBERS
100
AcDbSpline
 62
7
  6
CONTINUOUS
 70
0
 71
3
 72
30
 73
26
 74
0
 42
0.0000001
 43
0.0000001
 44
0.0000000001
 40
0.0
 40
0.0
 40
0.0
 40
0.0
 40
0.0773016358
 40
0.1509552671
 40
0.2209675017
 40
0.2546463522
 40
0.2874649714
 40
0.3506315926
 40
0.4108418923
 40
0.440001513
 40
0.468619142
 40
0.4967784154
 40
0.5245700372
 40
0.5520915599
 40
0.5794460856
 40
0.6067398824
 40
0.6340811624
 40
0.6615780639
 40
0.6893358417
 40
0.7174560645
 40
0.7460355223
 40
0.8048882336
 40
0.8665412165
 40
0.9314673904
 40
1.0
 40
1.0
 40
1.0
 40
1.0
 10
3.2362827429
 20
5.0898041571
 30
0.0
 10
3.2366454114
 20
5.0892181959
 30
0.0
 10
3.2373911241
 20
5.0880964382
 30
0.0
 10
3.238600285
 20
5.0865390853
 30
0.0
 10
3.2396699983
 20
5.0853719866
 30
0.0
 10
3.2405527722
 20
5.0845337365
 30
0.0
 10
3.2414286602
 20
5.0837788813
 30
0.0
 10
3.2425512087
 20
5.082950393
 30
0.0
 10
3.2437326575
 20
5.0822700494
 30
0.0
 10
3.2446902671
 20
5.0818334359
 30
0.0
 10
3.2454070753
 20
5.0815614658
 30
0.0
 10
3.2461289507
 20
5.08134205
 30
0.0
 10
3.2468548785
 20
5.0811756809
 30
0.0
 10
3.247583793
 20
5.0810628581
 30
0.0
 10
3.2483145771
 20
5.0810037753
 30
0.0
 10
3.2490461289
 20
5.0809986066
 30
0.0
 10
3.2497773326
 20
5.08104755
 30
0.0
 10
3.2505070537
 20
5.081150639
 30
0.0
 10
3.2512341752
 20
5.0813076775
 30
0.0
 10
3.251957618
 20
5.0815185194
 30
0.0
 10
3.2529249895
 20
5.0818745148
 30
0.0
 10
3.2541232759
 20
5.0824586184
 30
0.0
 10
3.2555123204
 20
5.0833615287
 30
0.0
 10
3.2568590872
 20
5.0844671829
 30
0.0
 10
3.2577001137
 20
5.0853116137
 30
0.0
 10
3.2581119951
 20
5.0857628386
 30
0.0
  0
LINE
  5
2D5
100
AcDbEntity
  8
ALL_ASSEMBLY_MEMBERS
100
AcDbLine
 62
7
  6
CONTINUOUS
 10
3.2581119951
 20
5.0857628386
 11
3.259944884
 21
5.0880516638
  0
SPLINE
  5
2D6
100
AcDbEntity
  8
ALL_ASSEMBLY_MEMBERS
100
AcDbSpline
 62
7
  6
CONTINUOUS
 70
0
 71
3
 72
21
 73
17
 74
0
 42
0.0000001
 43
0.0000001
 44
0.0000000001
 40
0.0
 40
0.0
 40
0.0
 40
0.0
 40
0.0697308383
 40
0.1393243434
 40
0.2771865865
 40
0.4120853488
 40
0.4780180745
 40
0.5427142836
 40
0.6060179606
 40
0.6677893778
 40
0.7278972869
 40
0.7862254717
 40
0.8426740382
 40
0.8971565679
 40
0.9496121506
 40
1.0
 40
1.0
 40
1.0
 40
1.0
 10
3.2676064503
 20
5.114933535
 30
0.0
 10
3.2676064503
 20
5.1143171415
 30
0.0
 10
3.2675880253
 20
5.1130854789
 30
0.0
 10
3.2674783076
 20
5.1106374314
 30
0.0
 10
3.2672067746
 20
5.1076213669
 30
0.0
 10
3.2667536537
 20
5.1046597165
 30
0.0
 10
3.2662841794
 20
5.1023595997
 30
0.0
 10
3.265884399
 20
5.1006922122
 30
0.0
 10
3.265435545
 20
5.0990754953
 30
0.0
 10
3.2649394079
 20
5.0975151327
 30
0.0
 10
3.264397631
 20
5.0960166734
 30
0.0
 10
3.2638121112
 20
5.0945854293
 30
0.0
 10
3.2631850688
 20
5.0932264121
 30
0.0
 10
3.262518486
 20
5.0919445018
 30
0.0
 10
3.261814889
 20
5.0907442236
 30
0.0
 10
3.2613125427
 20
5.0899858143
 30
0.0
 10
3.2610553782
 20
5.0896221447
 30
0.0
  0
SPLINE
  5
2D7
100
AcDbEntity
  8
ALL_ASSEMBLY_MEMBERS
100
AcDbSpline
 62
7
  6
CONTINUOUS
 70
0
 71
3
 72
21
 73
17
 74
0
 42
0.0000001
 43
0.0000001
 44
0.0000000001
 40
0.0
 40
0.0
 40
0.0
 40
0.0
 40
0.0512381848
 40
0.1044250032
 40
0.1595137161
 40
0.2164352173
 40
0.2751033436
 40
0.3354211718
 40
0.3972751437
 40
0.460542547
 40
0.5250911937
 40
0.5907747068
 40
0.7249257436
 40
0.8617983556
 40
0.9308381316
 40
1.0
 40
1.0
 40
1.0
 40
1.0
 10
3.2615273362
 20
5.1395503337
 30
0.0
 10
3.2617671898
 20
5.1391831421
 30
0.0
 10
3.2622353745
 20
5.1384211379
 30
0.0
 10
3.2628911148
 20
5.137222932
 30
0.0
 10
3.26351138
 20
5.1359516322
 30
0.0
 10
3.2640942169
 20
5.1346114839
 30
0.0
 10
3.264637803
 20
5.1332068696
 30
0.0
 10
3.2651401895
 20
5.1317423228
 30
0.0
 10
3.2655998985
 20
5.1302226743
 30
0.0
 10
3.2660153775
 20
5.1286528749
 30
0.0
 10
3.2663851662
 20
5.1270380495
 30
0.0
 10
3.266818916
 20
5.1248166055
 30
0.0
 10
3.2672373921
 20
5.1219630599
 30
0.0
 10
3.2674881846
 20
5.1190612522
 30
0.0
 10
3.2675894507
 20
5.116708602
 30
0.0
 10
3.2676064503
 20
5.115525546
 30
0.0
 10
3.2676064503
 20
5.114933535
 30
0.0
  0
SPLINE
  5
2D8
100
AcDbEntity
  8
ALL_ASSEMBLY_MEMBERS
100
AcDbSpline
 62
7
  6
CONTINUOUS
 70
0
 71
3
 72
41
 73
37
 74
0
 42
0.0000001
 43
0.0000001
 44
0.0000000001
 40
0.0
 40
0.0
 40
0.0
 40
0.0
 40
0.0435772512
 40
0.087032409
 40
0.1301794658
 40
0.1728637099
 40
0.2149494797
 40
0.2563016289
 40
0.2967851582
 40
0.3362721018
 40
0.3746484794
 40
0.4118091565
 40
0.4476645394
 40
0.4821379769
 40
0.5151720746
 40
0.5467305404
 40
0.5767995781
 40
0.6053961315
 40
0.6325657955
 40
0.6456445495
 40
0.658401932
 40
0.6830127929
 40
0.7065750712
 40
0.7293011481
 40
0.7514436909
 40
0.773287342
 40
0.7951336257
 40
0.8172838908
 40
0.8400223739
 40
0.8636010599
 40
0.888231643
 40
0.9009998568
 40
0.9140899692
 40
0.9412836486
 40
0.9699053259
 40
1.0
 40
1.0
 40
1.0
 40
1.0
 10
3.2366064503
 20
5.114933535
 30
0.0
 10
3.2366064503
 20
5.1156387941
 30
0.0
 10
3.2366305549
 20
5.1170474536
 30
0.0
 10
3.236738483
 20
5.1191519207
 30
0.0
 10
3.2369179665
 20
5.1212370272
 30
0.0
 10
3.237168075
 20
5.1232925267
 30
0.0
 10
3.2374876175
 20
5.1253089977
 30
0.0
 10
3.2378751538
 20
5.1272772467
 30
0.0
 10
3.23832874
 20
5.1291881634
 30
0.0
 10
3.238846524
 20
5.1310327597
 30
0.0
 10
3.2394258168
 20
5.1328025244
 30
0.0
 10
3.2400641913
 20
5.1344892101
 30
0.0
 10
3.2407584977
 20
5.1360850736
 30
0.0
 10
3.241505658
 20
5.1375827084
 30
0.0
 10
3.2423022644
 20
5.1389751837
 30
0.0
 10
3.2431445737
 20
5.1402561521
 30
0.0
 10
3.2440290436
 20
5.1414195829
 30
0.0
 10
3.2449513919
 20
5.1424602273
 30
0.0
 10
3.2457586007
 20
5.1432305495
 30
0.0
 10
3.2464194581
 20
5.1437779998
 30
0.0
 10
3.2470729673
 20
5.144267822
 30
0.0
 10
3.2479062983
 20
5.1447988172
 30
0.0
 10
3.2489393101
 20
5.1453042243
 30
0.0
 10
3.2499886961
 20
5.1456673833
 30
0.0
 10
3.251049331
 20
5.1458856661
 30
0.0
 10
3.25211566
 20
5.1459579261
 30
0.0
 10
3.2531819381
 20
5.1458831332
 30
0.0
 10
3.2542424263
 20
5.1456623407
 30
0.0
 10
3.2552915704
 20
5.1452966984
 30
0.0
 10
3.2563242601
 20
5.1447888637
 30
0.0
 10
3.257157241
 20
5.1442559171
 30
0.0
 10
3.2578104484
 20
5.1437645642
 30
0.0
 10
3.2584709834
 20
5.1432155577
 30
0.0
 10
3.2592777341
 20
5.142443328
 30
0.0
 10
3.2601994309
 20
5.1414005674
 30
0.0
 10
3.2607741683
 20
5.1406425987
 30
0.0
 10
3.2610553782
 20
5.1402449253
 30
0.0
  0
LINE
  5
2D9
100
AcDbEntity
  8
ALL_ASSEMBLY_MEMBERS
100
AcDbLine
 62
7
  6
CONTINUOUS
 10
3.2610553782
 20
5.0896221447
 11
3.2598747439
 21
5.0881079509
  0
LINE
  5
2DA
100
AcDbEntity
  8
ALL_ASSEMBLY_MEMBERS
100
AcDbLine
 62
7
  6
CONTINUOUS
 10
3.2598557969
 20
5.0880860383
 11
3.2587311741
 21
5.0869076364
  0
SPLINE
  5
2DB
100
AcDbEntity
  8
ALL_ASSEMBLY_MEMBERS
100
AcDbSpline
 62
7
  6
CONTINUOUS
 70
0
 71
3
 72
38
 73
34
 74
0
 42
0.0000001
 43
0.0000001
 44
0.0000000001
 40
0.0
 40
0.0
 40
0.0
 40
0.0
 40
0.0263364599
 40
0.051492173
 40
0.0755855099
 40
0.0987719392
 40
0.1212385506
 40
0.1432037492
 40
0.1649090741
 40
0.1866086709
 40
0.2085570228
 40
0.2309964113
 40
0.2541465486
 40
0.2781958993
 40
0.2906118884
 40
0.30330837
 40
0.3295901324
 40
0.3571372303
 40
0.3860081732
 40
0.4162327227
 40
0.447819797
 40
0.4807537335
 40
0.5150029734
 40
0.5505193181
 40
0.5872389872
 40
0.6250889212
 40
0.6639829838
 40
0.7038278363
 40
0.7445206631
 40
0.8279878238
 40
0.9134867428
 40
0.9566944207
 40
1.0
 40
1.0
 40
1.0
 40
1.0
 10
3.2587311741
 20
5.0869076364
 30
0.0
 10
3.2584442773
 20
5.086636393
 30
0.0
 10
3.257861976
 20
5.0861279746
 30
0.0
 10
3.2569442764
 20
5.0854605896
 30
0.0
 10
3.2560063061
 20
5.0849096685
 30
0.0
 10
3.2550519018
 20
5.0844774901
 30
0.0
 10
3.2540847023
 20
5.0841663135
 30
0.0
 10
3.2531087527
 20
5.0839778553
 30
0.0
 10
3.2521283172
 20
5.083912925
 30
0.0
 10
3.2511477807
 20
5.0839723235
 30
0.0
 10
3.2501715432
 20
5.0841552949
 30
0.0
 10
3.2492038559
 20
5.0844610288
 30
0.0
 10
3.2482488302
 20
5.0848878525
 30
0.0
 10
3.247474719
 20
5.0853378048
 30
0.0
 10
3.2468659757
 20
5.0857536555
 30
0.0
 10
3.246250628
 20
5.0862177275
 30
0.0
 10
3.2454958697
 20
5.086871667
 30
0.0
 10
3.2446272362
 20
5.087757965
 30
0.0
 10
3.2437885657
 20
5.0887512358
 30
0.0
 10
3.2429829253
 20
5.0898474185
 30
0.0
 10
3.2422136054
 20
5.0910423814
 30
0.0
 10
3.2414833186
 20
5.0923312989
 30
0.0
 10
3.2407950329
 20
5.0937092147
 30
0.0
 10
3.2401514195
 20
5.0951707134
 30
0.0
 10
3.2395548493
 20
5.0967100187
 30
0.0
 10
3.2390078825
 20
5.0983211632
 30
0.0
 10
3.2385124466
 20
5.0999977598
 30
0.0
 10
3.2380706282
 20
5.1017332768
 30
0.0
 10
3.2375509944
 20
5.1041368596
 30
0.0
 10
3.2370491778
 20
5.1072422426
 30
0.0
 10
3.2367485019
 20
5.110411106
 30
0.0
 10
3.2366268835
 20
5.1129872669
 30
0.0
 10
3.2366064503
 20
5.1142843246
 30
0.0
 10
3.2366064503
 20
5.114933535
 30
0.0
  0
SPLINE
  5
2DC
100
AcDbEntity
  8
ALL_ASSEMBLY_MEMBERS
100
AcDbSpline
 62
7
  6
CONTINUOUS
 70
0
 71
3
 72
11
 73
7
 74
0
 42
0.0000001
 43
0.0000001
 44
0.0000000001
 40
0.0
 40
0.0
 40
0.0
 40
0.0
 40
0.2390829693
 40
0.4844255123
 40
0.7376273762
 40
1.0
 40
1.0
 40
1.0
 40
1.0
 10
3.2430130006
 20
5.0826968425
 30
0.0
 10
3.2426172469
 20
5.0827936548
 30
0.0
 10
3.2418256132
 20
5.0830341903
 30
0.0
 10
3.240665534
 20
5.0835234857
 30
0.0
 10
3.2395242555
 20
5.0841430036
 30
0.0
 10
3.2387924187
 20
5.0846315296
 30
0.0
 10
3.2384311691
 20
5.084894982
 30
0.0
  0
SPLINE
  5
2DD
100
AcDbEntity
  8
ALL_ASSEMBLY_MEMBERS
100
AcDbSpline
 62
7
  6
CONTINUOUS
 70
0
 71
3
 72
21
 73
17
 74
0
 42
0.0000001
 43
0.0000001
 44
0.0000000001
 40
0.0
 40
0.0
 40
0.0
 40
0.0
 40
0.0697308383
 40
0.1393243434
 40
0.2771865865
 40
0.4120853488
 40
0.4780180745
 40
0.5427142836
 40
0.6060179606
 40
0.6677893778
 40
0.7278972869
 40
0.7862254717
 40
0.8426740382
 40
0.8971565679
 40
0.9496121506
 40
1.0
 40
1.0
 40
1.0
 40
1.0
 10
6.9137988292
 20
5.114933535
 30
0.0
 10
6.9137988292
 20
5.1155499285
 30
0.0
 10
6.9138172542
 20
5.1167815911
 30
0.0
 10
6.9139269719
 20
5.1192296385
 30
0.0
 10
6.9141985049
 20
5.1222457031
 30
0.0
 10
6.9146516258
 20
5.1252073534
 30
0.0
 10
6.9151211001
 20
5.1275074702
 30
0.0
 10
6.9155208805
 20
5.1291748577
 30
0.0
 10
6.9159697345
 20
5.1307915747
 30
0.0
 10
6.9164658716
 20
5.1323519373
 30
0.0
 10
6.9170076485
 20
5.1338503966
 30
0.0
 10
6.9175931683
 20
5.1352816407
 30
0.0
 10
6.9182202107
 20
5.1366406579
 30
0.0
 10
6.9188867935
 20
5.1379225682
 30
0.0
 10
6.9195903905
 20
5.1391228464
 30
0.0
 10
6.9200927368
 20
5.1398812556
 30
0.0
 10
6.9203499013
 20
5.1402449253
 30
0.0
  0
SPLINE
  5
2DE
100
AcDbEntity
  8
ALL_ASSEMBLY_MEMBERS
100
AcDbSpline
 62
7
  6
CONTINUOUS
 70
0
 71
3
 72
21
 73
17
 74
0
 42
0.0000001
 43
0.0000001
 44
0.0000000001
 40
0.0
 40
0.0
 40
0.0
 40
0.0
 40
0.0503878494
 40
0.1028434321
 40
0.1573259618
 40
0.2137745283
 40
0.2721027131
 40
0.3322106222
 40
0.3939820394
 40
0.4572857164
 40
0.5219819255
 40
0.5879146512
 40
0.7228134135
 40
0.8606756566
 40
0.9302691617
 40
1.0
 40
1.0
 40
1.0
 40
1.0
 10
6.9203499013
 20
5.0896221447
 30
0.0
 10
6.9200927368
 20
5.0899858143
 30
0.0
 10
6.9195903905
 20
5.0907442236
 30
0.0
 10
6.9188867935
 20
5.0919445018
 30
0.0
 10
6.9182202107
 20
5.0932264121
 30
0.0
 10
6.9175931683
 20
5.0945854293
 30
0.0
 10
6.9170076485
 20
5.0960166734
 30
0.0
 10
6.9164658716
 20
5.0975151327
 30
0.0
 10
6.9159697345
 20
5.0990754953
 30
0.0
 10
6.9155208805
 20
5.1006922122
 30
0.0
 10
6.9151211001
 20
5.1023595997
 30
0.0
 10
6.9146516258
 20
5.1046597165
 30
0.0
 10
6.9141985049
 20
5.1076213669
 30
0.0
 10
6.9139269719
 20
5.1106374314
 30
0.0
 10
6.9138172542
 20
5.1130854789
 30
0.0
 10
6.9137988292
 20
5.1143171415
 30
0.0
 10
6.9137988292
 20
5.114933535
 30
0.0
  0
LINE
  5
2DF
100
AcDbEntity
  8
ALL_ASSEMBLY_MEMBERS
100
AcDbLine
 62
7
  6
CONTINUOUS
 10
6.9225808582
 20
5.0864671154
 11
6.9238166196
 21
5.0848924431
  0
SPLINE
  5
2E0
100
AcDbEntity
  8
ALL_ASSEMBLY_MEMBERS
100
AcDbSpline
 62
7
  6
CONTINUOUS
 70
0
 71
3
 72
23
 73
19
 74
0
 42
0.0000001
 43
0.0000001
 44
0.0000000001
 40
0.0
 40
0.0
 40
0.0
 40
0.0
 40
0.074727561
 40
0.1465271027
 40
0.2155311032
 40
0.2819211613
 40
0.345923314
 40
0.4078142146
 40
0.4679254708
 40
0.5266350981
 40
0.5843650919
 40
0.6415723157
 40
0.698732868
 40
0.7563291612
 40
0.8148299629
 40
0.8746788638
 40
0.9362835231
 40
1.0
 40
1.0
 40
1.0
 40
1.0
 10
6.9238166196
 20
5.0848924431
 30
0.0
 10
6.9240325163
 20
5.0846458779
 30
0.0
 10
6.92446972
 20
5.0841742913
 30
0.0
 10
6.9251550949
 20
5.0835223925
 30
0.0
 10
6.9258552709
 20
5.0829420101
 30
0.0
 10
6.9265685065
 20
5.0824345626
 30
0.0
 10
6.9272931809
 20
5.0820014338
 30
0.0
 10
6.9280276456
 20
5.081644013
 30
0.0
 10
6.9287700373
 20
5.0813632647
 30
0.0
 10
6.9295185269
 20
5.0811601724
 30
0.0
 10
6.930271191
 20
5.0810356895
 30
0.0
 10
6.9310259554
 20
5.080990207
 30
0.0
 10
6.9317807585
 20
5.0810240909
 30
0.0
 10
6.932533463
 20
5.0811375673
 30
0.0
 10
6.9332819954
 20
5.0813302527
 30
0.0
 10
6.9340243416
 20
5.0816017991
 30
0.0
 10
6.9347584049
 20
5.0819516559
 30
0.0
 10
6.9352324244
 20
5.0822313727
 30
0.0
 10
6.9354671388
 20
5.0823830122
 30
0.0
  0
SPLINE
  5
2E1
100
AcDbEntity
  8
ALL_ASSEMBLY_MEMBERS
100
AcDbSpline
 62
7
  6
CONTINUOUS
 70
0
 71
3
 72
15
 73
11
 74
0
 42
0.0000001
 43
0.0000001
 44
0.0000000001
 40
0.0
 40
0.0
 40
0.0
 40
0.0
 40
0.1006428617
 40
0.2076929173
 40
0.3216744901
 40
0.442878316
 40
0.5714189859
 40
0.7072720442
 40
0.850274985
 40
1.0
 40
1.0
 40
1.0
 40
1.0
 10
6.9357371009
 20
5.0825634083
 30
0.0
 10
6.936106123
 20
5.0828182363
 30
0.0
 10
6.9368353061
 20
5.0833920617
 30
0.0
 10
6.9378614572
 20
5.0843960934
 30
0.0
 10
6.938845934
 20
5.0855634825
 30
0.0
 10
6.9397830328
 20
5.0868879466
 30
0.0
 10
6.940667053
 20
5.0883629997
 30
0.0
 10
6.9414927057
 20
5.0899811393
 30
0.0
 10
6.9422542809
 20
5.091733604
 30
0.0
 10
6.9427061985
 20
5.0929579903
 30
0.0
 10
6.9429211087
 20
5.0935895935
 30
0.0
  0
SPLINE
  5
2E2
100
AcDbEntity
  8
ALL_ASSEMBLY_MEMBERS
100
AcDbSpline
 62
7
  6
CONTINUOUS
 70
0
 71
3
 72
38
 73
34
 74
0
 42
0.0000001
 43
0.0000001
 44
0.0000000001
 40
0.0
 40
0.0
 40
0.0
 40
0.0
 40
0.0432674032
 40
0.0864385822
 40
0.1718770178
 40
0.2553094381
 40
0.2959981939
 40
0.3358496956
 40
0.3747619144
 40
0.4126424478
 40
0.4494056532
 40
0.4849786932
 40
0.519297932
 40
0.5523143106
 40
0.5839955934
 40
0.6143244353
 40
0.6433074194
 40
0.6709716922
 40
0.6973714329
 40
0.7101257797
 40
0.7225981343
 40
0.7467525685
 40
0.7699919655
 40
0.7924982398
 40
0.8144840944
 40
0.8361861417
 40
0.857854267
 40
0.879740329
 40
0.9020852877
 40
0.9251094947
 40
0.9490029735
 40
0.9739252797
 40
1.0
 40
1.0
 40
1.0
 40
1.0
 10
6.9447988292
 20
5.114933535
 30
0.0
 10
6.9447988292
 20
5.114288353
 30
0.0
 10
6.9447786481
 20
5.1129993212
 30
0.0
 10
6.9446585229
 20
5.1104388687
 30
0.0
 10
6.9443615
 20
5.1072886996
 30
0.0
 10
6.9438657873
 20
5.1042008484
 30
0.0
 10
6.9433524391
 20
5.1018098128
 30
0.0
 10
6.9429158817
 20
5.1000824936
 30
0.0
 10
6.9424262647
 20
5.0984130408
 30
0.0
 10
6.9418856484
 20
5.0968078755
 30
0.0
 10
6.9412959063
 20
5.0952732829
 30
0.0
 10
6.9406595254
 20
5.0938151455
 30
0.0
 10
6.9399788579
 20
5.0924391406
 30
0.0
 10
6.9392564671
 20
5.0911506307
 30
0.0
 10
6.9384952931
 20
5.089954495
 30
0.0
 10
6.9376979779
 20
5.0888555036
 30
0.0
 10
6.9368677192
 20
5.08785777
 30
0.0
 10
6.9360075719
 20
5.0869652729
 30
0.0
 10
6.9352599452
 20
5.086304686
 30
0.0
 10
6.9346501955
 20
5.0858343489
 30
0.0
 10
6.9340468995
 20
5.0854117917
 30
0.0
 10
6.9332795928
 20
5.0849524282
 30
0.0
 10
6.9323324842
 20
5.0845124206
 30
0.0
 10
6.9313723871
 20
5.0841916732
 30
0.0
 10
6.9304032528
 20
5.0839920231
 30
0.0
 10
6.9294292568
 20
5.0839142529
 30
0.0
 10
6.9284546704
 20
5.083959234
 30
0.0
 10
6.9274838305
 20
5.0841263649
 30
0.0
 10
6.9265209082
 20
5.0844148191
 30
0.0
 10
6.9255699634
 20
5.0848231699
 30
0.0
 10
6.9246345677
 20
5.0853491534
 30
0.0
 10
6.9237185211
 20
5.085990644
 30
0.0
 10
6.9231365518
 20
5.0864818157
 30
0.0
 10
6.9228497052
 20
5.0867442939
 30
0.0
  0
LINE
  5
2E3
100
AcDbEntity
  8
ALL_ASSEMBLY_MEMBERS
100
AcDbLine
 62
7
  6
CONTINUOUS
 10
6.9226741054
 20
5.0869076364
 11
6.9203499013
 21
5.0896221447
  0
SPLINE
  5
2E4
100
AcDbEntity
  8
ALL_ASSEMBLY_MEMBERS
100
AcDbSpline
 62
7
  6
CONTINUOUS
 70
0
 71
3
 72
15
 73
11
 74
0
 42
0.0000001
 43
0.0000001
 44
0.0000000001
 40
0.0
 40
0.0
 40
0.0
 40
0.0
 40
0.1121665338
 40
0.2292643196
 40
0.3507151327
 40
0.4759214496
 40
0.6041974547
 40
0.7348077954
 40
0.8670170328
 40
1.0
 40
1.0
 40
1.0
 40
1.0
 10
6.9429211087
 20
5.0935895935
 30
0.0
 10
6.9432466823
 20
5.0943391149
 30
0.0
 10
6.9438606742
 20
5.0958938682
 30
0.0
 10
6.9446555835
 20
5.098323555
 30
0.0
 10
6.9453391892
 20
5.1008853036
 30
0.0
 10
6.9459061044
 20
5.1035585378
 30
0.0
 10
6.9463517526
 20
5.1063221798
 30
0.0
 10
6.946672692
 20
5.1091543722
 30
0.0
 10
6.9468662266
 20
5.1120323884
 30
0.0
 10
6.9469093384
 20
5.1139647005
 30
0.0
 10
6.9469093384
 20
5.114933535
 30
0.0
  0
SPLINE
  5
2E5
100
AcDbEntity
  8
ALL_ASSEMBLY_MEMBERS
100
AcDbSpline
 62
7
  6
CONTINUOUS
 70
0
 71
3
 72
12
 73
8
 74
0
 42
0.0000001
 43
0.0000001
 44
0.0000000001
 40
0.0
 40
0.0
 40
0.0
 40
0.0
 40
0.2651583944
 40
0.3941333112
 40
0.5205828766
 40
0.7656434023
 40
1.0
 40
1.0
 40
1.0
 40
1.0
 10
6.9478686151
 20
5.1311433648
 30
0.0
 10
6.9474049461
 20
5.131963584
 30
0.0
 10
6.9466752854
 20
5.1331608005
 30
0.0
 10
6.945625108
 20
5.1346840586
 30
0.0
 10
6.9445587542
 20
5.1361078118
 30
0.0
 10
6.9431627191
 20
5.137750264
 30
0.0
 10
6.9419413001
 20
5.1389425139
 30
0.0
 10
6.9413149852
 20
5.1394913391
 30
0.0
  0
SPLINE
  5
2E6
100
AcDbEntity
  8
ALL_ASSEMBLY_MEMBERS
100
AcDbSpline
 62
7
  6
CONTINUOUS
 70
0
 71
3
 72
18
 73
14
 74
0
 42
0.0000001
 43
0.0000001
 44
0.0000000001
 40
0.0
 40
0.0
 40
0.0
 40
0.0
 40
0.136454386
 40
0.2717543332
 40
0.4047383481
 40
0.5343241107
 40
0.6594861088
 40
0.7201250916
 40
0.7793211774
 40
0.8369835643
 40
0.8930359242
 40
0.9474020501
 40
1.0
 40
1.0
 40
1.0
 40
1.0
 10
6.9469093384
 20
5.114933535
 30
0.0
 10
6.9469093384
 20
5.1160911435
 30
0.0
 10
6.9468479236
 20
5.1183970487
 30
0.0
 10
6.9465723021
 20
5.1218211662
 30
0.0
 10
6.9461163367
 20
5.1251673808
 30
0.0
 10
6.9454853631
 20
5.1283974855
 30
0.0
 10
6.9448126161
 20
5.1309891729
 30
0.0
 10
6.9441902157
 20
5.1329725835
 30
0.0
 10
6.9436897042
 20
5.1343931111
 30
0.0
 10
6.9431519869
 20
5.1357582512
 30
0.0
 10
6.9425785533
 20
5.1370641937
 30
0.0
 10
6.9419710863
 20
5.1383070078
 30
0.0
 10
6.9415373968
 20
5.1391045059
 30
0.0
 10
6.9413149852
 20
5.1394913391
 30
0.0
  0
SPLINE
  5
2E7
100
AcDbEntity
  8
ALL_ASSEMBLY_MEMBERS
100
AcDbSpline
 62
7
  6
CONTINUOUS
 70
0
 71
3
 72
41
 73
37
 74
0
 42
0.0000001
 43
0.0000001
 44
0.0000000001
 40
0.0
 40
0.0
 40
0.0
 40
0.0
 40
0.0300946741
 40
0.0587163514
 40
0.0859100308
 40
0.0990001432
 40
0.111768357
 40
0.1363989401
 40
0.1599776261
 40
0.1827161092
 40
0.2048663743
 40
0.226712658
 40
0.2485563091
 40
0.2706988519
 40
0.2934249288
 40
0.3169872071
 40
0.341598068
 40
0.3543554505
 40
0.3674342045
 40
0.3946038685
 40
0.4232004219
 40
0.4532694596
 40
0.4848279254
 40
0.5178620231
 40
0.5523354606
 40
0.5881908435
 40
0.6253515206
 40
0.6637278982
 40
0.7032148418
 40
0.7436983711
 40
0.7850505203
 40
0.8271362901
 40
0.8698205342
 40
0.912967591
 40
0.9564227488
 40
1.0
 40
1.0
 40
1.0
 40
1.0
 10
6.9203499013
 20
5.1402449253
 30
0.0
 10
6.9206311112
 20
5.1406425987
 30
0.0
 10
6.9212058486
 20
5.1414005674
 30
0.0
 10
6.9221275454
 20
5.142443328
 30
0.0
 10
6.9229342961
 20
5.1432155577
 30
0.0
 10
6.9235948311
 20
5.1437645642
 30
0.0
 10
6.9242480385
 20
5.1442559171
 30
0.0
 10
6.9250810194
 20
5.1447888637
 30
0.0
 10
6.9261137091
 20
5.1452966984
 30
0.0
 10
6.9271628532
 20
5.1456623407
 30
0.0
 10
6.9282233414
 20
5.1458831332
 30
0.0
 10
6.9292896195
 20
5.1459579261
 30
0.0
 10
6.9303559485
 20
5.1458856661
 30
0.0
 10
6.9314165834
 20
5.1456673833
 30
0.0
 10
6.9324659694
 20
5.1453042243
 30
0.0
 10
6.9334989812
 20
5.1447988172
 30
0.0
 10
6.9343323122
 20
5.144267822
 30
0.0
 10
6.9349858214
 20
5.1437779998
 30
0.0
 10
6.9356466788
 20
5.1432305495
 30
0.0
 10
6.9364538876
 20
5.1424602273
 30
0.0
 10
6.9373762359
 20
5.1414195829
 30
0.0
 10
6.9382607058
 20
5.1402561521
 30
0.0
 10
6.9391030151
 20
5.1389751837
 30
0.0
 10
6.9398996215
 20
5.1375827084
 30
0.0
 10
6.9406467818
 20
5.1360850736
 30
0.0
 10
6.9413410882
 20
5.1344892101
 30
0.0
 10
6.9419794627
 20
5.1328025244
 30
0.0
 10
6.9425587555
 20
5.1310327597
 30
0.0
 10
6.9430765395
 20
5.1291881634
 30
0.0
 10
6.9435301257
 20
5.1272772467
 30
0.0
 10
6.943917662
 20
5.1253089977
 30
0.0
 10
6.9442372045
 20
5.1232925267
 30
0.0
 10
6.944487313
 20
5.1212370272
 30
0.0
 10
6.9446667965
 20
5.1191519207
 30
0.0
 10
6.9447747246
 20
5.1170474536
 30
0.0
 10
6.9447988292
 20
5.1156387941
 30
0.0
 10
6.9447988292
 20
5.114933535
 30
0.0
  0
SPLINE
  5
2E8
100
AcDbEntity
  8
ALL_ASSEMBLY_MEMBERS
100
AcDbSpline
 62
7
  6
CONTINUOUS
 70
0
 71
3
 72
44
 73
40
 74
0
 42
0.0000001
 43
0.0000001
 44
0.0000000001
 40
0.0
 40
0.0
 40
0.0
 40
0.0
 40
0.0312532697
 40
0.0637710178
 40
0.0974612966
 40
0.1322367854
 40
0.1679986199
 40
0.2046243525
 40
0.2419800386
 40
0.2799219822
 40
0.318299551
 40
0.3569543762
 40
0.3957241632
 40
0.434443459
 40
0.472945862
 40
0.5110654511
 40
0.5486382945
 40
0.5855047071
 40
0.6215101222
 40
0.6565080439
 40
0.6903606752
 40
0.7229425251
 40
0.7541412575
 40
0.7838620266
 40
0.8120292361
 40
0.8385919421
 40
0.8512654836
 40
0.8635326084
 40
0.8868538494
 40
0.8979277641
 40
0.9086231698
 40
0.9289316911
 40
0.947953048
 40
0.9570575937
 40
0.9659334632
 40
0.9746207306
 40
0.9831629226
 40
0.991606431
 40
1.0
 40
1.0
 40
1.0
 40
1.0
 10
6.9413149852
 20
5.1394913391
 30
0.0
 10
6.9416871439
 20
5.1389406435
 30
0.0
 10
6.9424085595
 20
5.1377909466
 30
0.0
 10
6.9434024677
 20
5.1359708627
 30
0.0
 10
6.9443249877
 20
5.1340303283
 30
0.0
 10
6.9451719073
 20
5.1319809227
 30
0.0
 10
6.9459392794
 20
5.1298340933
 30
0.0
 10
6.9466239433
 20
5.1276020886
 30
0.0
 10
6.9472226134
 20
5.1252976196
 30
0.0
 10
6.9477330625
 20
5.1229339356
 30
0.0
 10
6.9481530812
 20
5.1205245036
 30
0.0
 10
6.9484814297
 20
5.1180831376
 30
0.0
 10
6.9487169384
 20
5.1156237901
 30
0.0
 10
6.9488594108
 20
5.1131605602
 30
0.0
 10
6.9489087678
 20
5.1107075394
 30
0.0
 10
6.9488658618
 20
5.1082787769
 30
0.0
 10
6.9487316948
 20
5.1058881761
 30
0.0
 10
6.9485081572
 20
5.1035494112
 30
0.0
 10
6.9481973048
 20
5.1012758682
 30
0.0
 10
6.9478020228
 20
5.0990805243
 30
0.0
 10
6.9473253644
 20
5.0969759314
 30
0.0
 10
6.9467711373
 20
5.0949740579
 30
0.0
 10
6.9461433054
 20
5.0930863254
 30
0.0
 10
6.9454464828
 20
5.0913233833
 30
0.0
 10
6.9446854314
 20
5.0896953137
 30
0.0
 10
6.9439915695
 20
5.0884394323
 30
0.0
 10
6.9434071814
 20
5.0875127103
 30
0.0
 10
6.942824992
 20
5.0866672068
 30
0.0
 10
6.9422105598
 20
5.0858858191
 30
0.0
 10
6.9415628866
 20
5.085178146
 30
0.0
 10
6.9409246913
 20
5.0845503812
 30
0.0
 10
6.9401052402
 20
5.0838678516
 30
0.0
 10
6.9392329594
 20
5.0833134016
 30
0.0
 10
6.9385258983
 20
5.0829665285
 30
0.0
 10
6.9379985754
 20
5.0827561769
 30
0.0
 10
6.9374675365
 20
5.0825921774
 30
0.0
 10
6.9369336547
 20
5.0824747724
 30
0.0
 10
6.9363979052
 20
5.0824042179
 30
0.0
 10
6.9360396374
 20
5.0823885511
 30
0.0
 10
6.9358611333
 20
5.0823885614
 30
0.0
  0
SPLINE
  5
2E9
100
AcDbEntity
  8
ALL_ASSEMBLY_MEMBERS
100
AcDbSpline
 62
7
  6
CONTINUOUS
 70
0
 71
3
 72
35
 73
31
 74
0
 42
0.0000001
 43
0.0000001
 44
0.0000000001
 40
0.0
 40
0.0
 40
0.0
 40
0.0
 40
0.0034406999
 40
0.0118400422
 40
0.0250483776
 40
0.042844492
 40
0.0910715288
 40
0.1540326093
 40
0.1902264867
 40
0.2291293202
 40
0.2704148678
 40
0.3137465995
 40
0.3587685843
 40
0.4050978784
 40
0.4523214755
 40
0.4999999916
 40
0.5476785079
 40
0.5949021053
 40
0.6412313998
 40
0.6862533851
 40
0.7295851175
 40
0.7708706658
 40
0.8097735003
 40
0.8459673786
 40
0.9089284615
 40
0.9571555012
 40
0.9749516172
 40
0.9881599543
 40
0.9965592984
 40
1.0
 40
1.0
 40
1.0
 40
1.0
 10
7.3041963912
 20
4.7846994371
 30
0.0
 10
7.3041135142
 20
4.7849103966
 30
0.0
 10
7.3038290659
 20
4.7856366377
 30
0.0
 10
7.3032322574
 20
4.7871749863
 30
0.0
 10
7.3023081085
 20
4.7896006428
 30
0.0
 10
7.3004931177
 20
4.79449433
 30
0.0
 10
7.297692928
 20
4.8025176976
 30
0.0
 10
7.2948154342
 20
4.8117934706
 30
0.0
 10
7.2924171743
 20
4.8205669538
 30
0.0
 10
7.2905950822
 20
4.8280150258
 30
0.0
 10
7.2888995191
 20
4.8359746289
 30
0.0
 10
7.2873971337
 20
4.8443831118
 30
0.0
 10
7.286150679
 20
4.853169387
 30
0.0
 10
7.2852154856
 20
4.8622523102
 30
0.0
 10
7.2846354019
 20
4.8715403959
 30
0.0
 10
7.2844387662
 20
4.8809335333
 30
0.0
 10
7.2846354018
 20
4.8903266707
 30
0.0
 10
7.2852154853
 20
4.8996147565
 30
0.0
 10
7.2861506786
 20
4.9086976798
 30
0.0
 10
7.2873971332
 20
4.9174839551
 30
0.0
 10
7.2888995185
 20
4.9258924382
 30
0.0
 10
7.2905950815
 20
4.9338520414
 30
0.0
 10
7.2924171737
 20
4.9413001136
 30
0.0
 10
7.2948154335
 20
4.9500735971
 30
0.0
 10
7.2976929274
 20
4.9593493705
 30
0.0
 10
7.3004931172
 20
4.9673727385
 30
0.0
 10
7.3023081081
 20
4.9722664262
 30
0.0
 10
7.3032322571
 20
4.9746920829
 30
0.0
 10
7.3038290658
 20
4.9762304319
 30
0.0
 10
7.3041135141
 20
4.9769566732
 30
0.0
 10
7.3041963911
 20
4.9771676328
 30
0.0
  0
SPLINE
  5
2EA
100
AcDbEntity
  8
ALL_ASSEMBLY_MEMBERS
100
AcDbSpline
 62
7
  6
CONTINUOUS
 70
0
 71
3
 72
18
 73
14
 74
0
 42
0.0000001
 43
0.0000001
 44
0.0000000001
 40
0.0
 40
0.0
 40
0.0
 40
0.0
 40
0.1313540398
 40
0.2621352075
 40
0.3917643492
 40
0.5196365035
 40
0.6451121167
 40
0.7067476863
 40
0.7675210456
 40
0.8273359149
 40
0.8860915779
 40
0.9436828169
 40
1.0
 40
1.0
 40
1.0
 40
1.0
 10
6.949721069
 20
5.114933535
 30
0.0
 10
6.949721069
 20
5.1165423154
 30
0.0
 10
6.9496136281
 20
5.1197539035
 30
0.0
 10
6.9491324498
 20
5.1245313421
 30
0.0
 10
6.9483391676
 20
5.1292239792
 30
0.0
 10
6.947246429
 20
5.1337890758
 30
0.0
 10
6.9460934417
 20
5.1374740918
 30
0.0
 10
6.9450352368
 20
5.1403202717
 30
0.0
 10
6.9441833877
 20
5.1423836646
 30
0.0
 10
6.9432718493
 20
5.1443826751
 30
0.0
 10
6.9423039616
 20
5.1463115517
 30
0.0
 10
6.9412833483
 20
5.1481642771
 30
0.0
 10
6.9405617369
 20
5.1493588076
 30
0.0
 10
6.9401926899
 20
5.1499415296
 30
0.0
  0
SPLINE
  5
2EB
100
AcDbEntity
  8
ALL_ASSEMBLY_MEMBERS
100
AcDbSpline
 62
7
  6
CONTINUOUS
 70
0
 71
3
 72
24
 73
20
 74
0
 42
0.0000001
 43
0.0000001
 44
0.0000000001
 40
0.0
 40
0.0
 40
0.0
 40
0.0
 40
0.0618541405
 40
0.1220142421
 40
0.1808077311
 40
0.2386143094
 40
0.295842883
 40
0.3529259211
 40
0.410303482
 40
0.4684079856
 40
0.5276499576
 40
0.5884059441
 40
0.6510096089
 40
0.7157464086
 40
0.7489962457
 40
0.782863314
 40
0.8525217994
 40
0.9248703188
 40
1.0
 40
1.0
 40
1.0
 40
1.0
 10
6.9214222494
 20
5.1551288848
 30
0.0
 10
6.9218070091
 20
5.1553445624
 30
0.0
 10
6.9225839875
 20
5.1557389901
 30
0.0
 10
6.9237826631
 20
5.1562186532
 30
0.0
 10
6.9249936399
 20
5.1565754821
 30
0.0
 10
6.9262133317
 20
5.1568079148
 30
0.0
 10
6.9274382012
 20
5.1569148157
 30
0.0
 10
6.9286645398
 20
5.15689551
 30
0.0
 10
6.9298886103
 20
5.1567498104
 30
0.0
 10
6.9311066875
 20
5.1564780127
 30
0.0
 10
6.9323151121
 20
5.1560808776
 30
0.0
 10
6.9335103352
 20
5.1555595763
 30
0.0
 10
6.9346888729
 20
5.154915699
 30
0.0
 10
6.9356457825
 20
5.1542841921
 30
0.0
 10
6.9363994834
 20
5.1537217324
 30
0.0
 10
6.9371589102
 20
5.1531093726
 30
0.0
 10
6.9380915664
 20
5.1522691814
 30
0.0
 10
6.939170722
 20
5.1511573824
 30
0.0
 10
6.9398554262
 20
5.1503581516
 30
0.0
 10
6.9401923405
 20
5.149941592
 30
0.0
  0
SPLINE
  5
2EC
100
AcDbEntity
  8
ALL_ASSEMBLY_MEMBERS
100
AcDbSpline
 62
7
  6
CONTINUOUS
 70
0
 71
3
 72
30
 73
26
 74
0
 42
0.0000001
 43
0.0000001
 44
0.0000000001
 40
0.0
 40
0.0
 40
0.0
 40
0.0
 40
0.0789985184
 40
0.1537417973
 40
0.2243421265
 40
0.2910123618
 40
0.3540791085
 40
0.4139937643
 40
0.4429605372
 40
0.4713681142
 40
0.4993080785
 40
0.5268786894
 40
0.5541831535
 40
0.581328646
 40
0.6084243443
 40
0.6355798561
 40
0.6629033056
 40
0.6904996951
 40
0.7184692823
 40
0.7469064497
 40
0.7758984688
 40
0.8055251837
 40
0.8669368945
 40
0.9316451341
 40
1.0
 40
1.0
 40
1.0
 40
1.0
 10
6.9238169176
 20
5.084894507
 30
0.0
 10
6.9241127494
 20
5.0844185864
 30
0.0
 10
6.9247191063
 20
5.0835108547
 30
0.0
 10
6.9257001798
 20
5.0822558845
 30
0.0
 10
6.9267227884
 20
5.0811505234
 30
0.0
 10
6.927781949
 20
5.0801996468
 30
0.0
 10
6.9288724635
 20
5.0794075168
 30
0.0
 10
6.929813885
 20
5.0788767523
 30
0.0
 10
6.9305747387
 20
5.0785389153
 30
0.0
 10
6.9311431467
 20
5.0783298572
 30
0.0
 10
6.9317149134
 20
5.0781625744
 30
0.0
 10
6.9322893192
 20
5.0780371847
 30
0.0
 10
6.9328656307
 20
5.0779538255
 30
0.0
 10
6.9334431032
 20
5.0779125235
 30
0.0
 10
6.9340209952
 20
5.0779132922
 30
0.0
 10
6.9345985639
 20
5.0779560581
 30
0.0
 10
6.9351750738
 20
5.0780407055
 30
0.0
 10
6.9357497961
 20
5.0781670656
 30
0.0
 10
6.9363220208
 20
5.0783349012
 30
0.0
 10
6.9368910365
 20
5.0785439542
 30
0.0
 10
6.9374561815
 20
5.0787938938
 30
0.0
 10
6.9382125545
 20
5.0791858175
 30
0.0
 10
6.9391463913
 20
5.0797809895
 30
0.0
 10
6.9402261271
 20
5.0806430315
 30
0.0
 10
6.9409055123
 20
5.0813004437
 30
0.0
 10
6.9412397044
 20
5.0816517503
 30
0.0
  0
SPLINE
  5
2ED
100
AcDbEntity
  8
ALL_ASSEMBLY_MEMBERS
100
AcDbSpline
 62
7
  6
CONTINUOUS
 70
0
 71
3
 72
19
 73
15
 74
0
 42
0.0000001
 43
0.0000001
 44
0.0000000001
 40
0.0
 40
0.0
 40
0.0
 40
0.0
 40
0.0551874821
 40
0.1118904969
 40
0.169977399
 40
0.2293207675
 40
0.2897985319
 40
0.3512943877
 40
0.4136976225
 40
0.4769028012
 40
0.6052994888
 40
0.7357489733
 40
0.8675414063
 40
1.0
 40
1.0
 40
1.0
 40
1.0
 10
6.9388707476
 20
5.0779495473
 30
0.0
 10
6.9392862374
 20
5.0785371375
 30
0.0
 10
6.9400998754
 20
5.079749024
 30
0.0
 10
6.941251607
 20
5.0816436034
 30
0.0
 10
6.9423471595
 20
5.0836333206
 30
0.0
 10
6.9433817393
 20
5.0857104961
 30
0.0
 10
6.9443509267
 20
5.0878677832
 30
0.0
 10
6.9452505929
 20
5.0900980303
 30
0.0
 10
6.9460769275
 20
5.0923943291
 30
0.0
 10
6.9470813635
 20
5.0955512715
 30
0.0
 10
6.948131223
 20
5.0996217278
 30
0.0
 10
6.9490431557
 20
5.1046378362
 30
0.0
 10
6.9495972556
 20
5.1097591322
 30
0.0
 10
6.949721069
 20
5.1132062659
 30
0.0
 10
6.949721069
 20
5.114933535
 30
0.0
  0
SPLINE
  5
2EE
100
AcDbEntity
  8
ALL_ASSEMBLY_MEMBERS
100
AcDbSpline
 62
7
  6
CONTINUOUS
 70
0
 71
3
 72
14
 73
10
 74
0
 42
0.0000001
 43
0.0000001
 44
0.0000000001
 40
0.0
 40
0.0
 40
0.0
 40
0.0
 40
0.255830067
 40
0.3829630392
 40
0.5092049003
 40
0.6342837037
 40
0.7579376897
 40
0.8799253329
 40
1.0
 40
1.0
 40
1.0
 40
1.0
 10
6.9077497811
 20
5.1152620275
 30
0.0
 10
6.9077524032
 20
5.1165883538
 30
0.0
 10
6.9077799864
 20
5.1185738578
 30
0.0
 10
6.9078652654
 20
5.1212124557
 30
0.0
 10
6.9079534186
 20
5.1231725928
 30
0.0
 10
6.908066213
 20
5.1251133983
 30
0.0
 10
6.9082040637
 20
5.1270304815
 30
0.0
 10
6.9083674622
 20
5.1289195184
 30
0.0
 10
6.9084948735
 20
5.1301680488
 30
0.0
 10
6.9085632245
 20
5.1307868017
 30
0.0
  0
SPLINE
  5
2EF
100
AcDbEntity
  8
ALL_ASSEMBLY_MEMBERS
100
AcDbSpline
 62
7
  6
CONTINUOUS
 70
0
 71
3
 72
22
 73
18
 74
0
 42
0.0000001
 43
0.0000001
 44
0.0000000001
 40
0.0
 40
0.0
 40
0.0
 40
0.0
 40
0.1289121265
 40
0.1938615418
 40
0.2589512502
 40
0.3240377364
 40
0.3889778706
 40
0.4536279227
 40
0.5178448131
 40
0.5814872305
 40
0.6444167206
 40
0.7064990222
 40
0.7676055285
 40
0.8276149758
 40
0.8864153375
 40
0.9439059617
 40
1.0
 40
1.0
 40
1.0
 40
1.0
 10
6.9082419547
 20
5.1035359729
 30
0.0
 10
6.9083210001
 20
5.1050311198
 30
0.0
 10
6.9085016644
 20
5.1072769467
 30
0.0
 10
6.9088667778
 20
5.1102625263
 30
0.0
 10
6.9092050549
 20
5.1125037347
 30
0.0
 10
6.9096073685
 20
5.1147342083
 30
0.0
 10
6.910073851
 20
5.1169469561
 30
0.0
 10
6.9106044359
 20
5.11913484
 30
0.0
 10
6.9111988595
 20
5.1212906423
 30
0.0
 10
6.911856651
 20
5.123407072
 30
0.0
 10
6.9125771276
 20
5.1254767913
 30
0.0
 10
6.9133593882
 20
5.1274924361
 30
0.0
 10
6.9142023071
 20
5.129446644
 30
0.0
 10
6.9151045264
 20
5.131332073
 30
0.0
 10
6.9160644706
 20
5.1331414546
 30
0.0
 10
6.9170802809
 20
5.1348675273
 30
0.0
 10
6.9178026336
 20
5.1359721527
 30
0.0
 10
6.918173076
 20
5.1365080834
 30
0.0
  0
SPLINE
  5
2F0
100
AcDbEntity
  8
ALL_ASSEMBLY_MEMBERS
100
AcDbSpline
 62
7
  6
CONTINUOUS
 70
0
 71
3
 72
32
 73
28
 74
0
 42
0.0000001
 43
0.0000001
 44
0.0000000001
 40
0.0
 40
0.0
 40
0.0
 40
0.0
 40
0.0761316766
 40
0.1519546614
 40
0.2270409314
 40
0.3009737347
 40
0.3733582786
 40
0.443827082
 40
0.512047575
 40
0.5452261659
 40
0.5777382163
 40
0.6095557281
 40
0.640654744
 40
0.6710154476
 40
0.7006227473
 40
0.729466683
 40
0.7575426962
 40
0.7848523942
 40
0.8114038077
 40
0.8372119551
 40
0.8622994884
 40
0.8866969021
 40
0.9104431653
 40
0.9335859196
 40
0.9561815141
 40
0.9782950918
 40
1.0
 40
1.0
 40
1.0
 40
1.0
 10
6.9077497811
 20
5.1152620275
 30
0.0
 10
6.9078177158
 20
5.1165063047
 30
0.0
 10
6.9080077422
 20
5.1189871945
 30
0.0
 10
6.9084554033
 20
5.1226775478
 30
0.0
 10
6.9090636747
 20
5.1263084995
 30
0.0
 10
6.9098293433
 20
5.1298520497
 30
0.0
 10
6.9107479888
 20
5.1332810138
 30
0.0
 10
6.9118139977
 20
5.1365689823
 30
0.0
 10
6.9128288388
 20
5.1391945501
 30
0.0
 10
6.9137109359
 20
5.1412014128
 30
0.0
 10
6.9143986402
 20
5.1426419843
 30
0.0
 10
6.9151174293
 20
5.1440290818
 30
0.0
 10
6.9158661037
 20
5.1453600499
 30
0.0
 10
6.9166434174
 20
5.1466323174
 30
0.0
 10
6.9174480643
 20
5.147843435
 30
0.0
 10
6.9182786818
 20
5.148991074
 30
0.0
 10
6.9191338803
 20
5.150073014
 30
0.0
 10
6.9200122033
 20
5.1510871748
 30
0.0
 10
6.9209121671
 20
5.1520315944
 30
0.0
 10
6.9218322525
 20
5.1529044359
 30
0.0
 10
6.9227708873
 20
5.1537040112
 30
0.0
 10
6.9237264859
 20
5.1544287425
 30
0.0
 10
6.9246974161
 20
5.1550772018
 30
0.0
 10
6.9256820054
 20
5.1556480972
 30
0.0
 10
6.9266785869
 20
5.1561402598
 30
0.0
 10
6.9276853374
 20
5.156552669
 30
0.0
 10
6.9283678242
 20
5.1567757082
 30
0.0
 10
6.9287094679
 20
5.1568731498
 30
0.0
  0
LINE
  5
2F1
100
AcDbEntity
  8
ALL_ASSEMBLY_MEMBERS
100
AcDbLine
 62
7
  6
CONTINUOUS
 10
6.9285858763
 20
5.0796306679
 11
6.9271237654
 21
5.0821124565
  0
SPLINE
  5
2F2
100
AcDbEntity
  8
ALL_ASSEMBLY_MEMBERS
100
AcDbSpline
 62
7
  6
CONTINUOUS
 70
0
 71
3
 72
46
 73
42
 74
0
 42
0.0000001
 43
0.0000001
 44
0.0000000001
 40
0.0
 40
0.0
 40
0.0
 40
0.0
 40
0.0369386283
 40
0.0726425409
 40
0.1070228913
 40
0.1399991947
 40
0.17150562
 40
0.20149917
 40
0.2299697794
 40
0.2569520261
 40
0.282537475
 40
0.2948591102
 40
0.3068975619
 40
0.3186843761
 40
0.3302556269
 40
0.3416515303
 40
0.3529158338
 40
0.364095012
 40
0.3752372562
 40
0.3863913831
 40
0.3976056721
 40
0.4089267926
 40
0.4203988199
 40
0.4320624845
 40
0.4439545827
 40
0.4685398668
 40
0.494374698
 40
0.5216005366
 40
0.5503010661
 40
0.5805130346
 40
0.6122367821
 40
0.6454453047
 40
0.6800915508
 40
0.7161139673
 40
0.7534405571
 40
0.7919916843
 40
0.8316821766
 40
0.8724227121
 40
0.9141195777
 40
0.9566794769
 40
1.0
 40
1.0
 40
1.0
 40
1.0
 10
6.9388707475
 20
5.1519175226
 30
0.0
 10
6.9384662955
 20
5.1524895037
 30
0.0
 10
6.9376442288
 20
5.1535958191
 30
0.0
 10
6.9363512679
 20
5.1551615447
 30
0.0
 10
6.9350245371
 20
5.1565982764
 30
0.0
 10
6.933670783
 20
5.1578972502
 30
0.0
 10
6.9322970757
 20
5.1590498389
 30
0.0
 10
6.9309108286
 20
5.1600476433
 30
0.0
 10
6.9295196151
 20
5.160882725
 30
0.0
 10
6.928131368
 20
5.1615477332
 30
0.0
 10
6.9269687658
 20
5.1619599162
 30
0.0
 10
6.9260505999
 20
5.162194772
 30
0.0
 10
6.9253766544
 20
5.1623228092
 30
0.0
 10
6.92470986
 20
5.1624045617
 30
0.0
 10
6.9240511644
 20
5.1624397814
 30
0.0
 10
6.9234015129
 20
5.1624283498
 30
0.0
 10
6.9227618093
 20
5.1623702567
 30
0.0
 10
6.9221329143
 20
5.1622656442
 30
0.0
 10
6.9215156387
 20
5.1621147609
 30
0.0
 10
6.9209107241
 20
5.1619180118
 30
0.0
 10
6.9203188496
 20
5.1616758929
 30
0.0
 10
6.9197406008
 20
5.1613890448
 30
0.0
 10
6.9191765035
 20
5.1610581729
 30
0.0
 10
6.91862696
 20
5.1606840904
 30
0.0
 10
6.9179062725
 20
5.1601227448
 30
0.0
 10
6.9170425662
 20
5.1593119923
 30
0.0
 10
6.9160814514
 20
5.1581932726
 30
0.0
 10
6.915183791
 20
5.1569265429
 30
0.0
 10
6.9143489516
 20
5.1555206258
 30
0.0
 10
6.9135756272
 20
5.153984182
 30
0.0
 10
6.9128622041
 20
5.1523258098
 30
0.0
 10
6.9122067763
 20
5.1505539335
 30
0.0
 10
6.9116072429
 20
5.148676765
 30
0.0
 10
6.9110613751
 20
5.1467022668
 30
0.0
 10
6.9105668836
 20
5.1446381446
 30
0.0
 10
6.9101214721
 20
5.1424918544
 30
0.0
 10
6.9097228863
 20
5.1402706234
 30
0.0
 10
6.9093689597
 20
5.1379814988
 30
0.0
 10
6.9090576312
 20
5.1356313208
 30
0.0
 10
6.9087870171
 20
5.1332268969
 30
0.0
 10
6.9086338212
 20
5.131605325
 30
0.0
 10
6.9085632245
 20
5.1307868017
 30
0.0
  0
SPLINE
  5
2F3
100
AcDbEntity
  8
ALL_ASSEMBLY_MEMBERS
100
AcDbSpline
 62
7
  6
CONTINUOUS
 70
0
 71
3
 72
22
 73
18
 74
0
 42
0.0000001
 43
0.0000001
 44
0.0000000001
 40
0.0
 40
0.0
 40
0.0
 40
0.0
 40
0.0761137383
 40
0.1508841938
 40
0.2241648541
 40
0.2958268095
 40
0.3657465114
 40
0.4338137086
 40
0.4999308113
 40
0.5640149574
 40
0.625999777
 40
0.6858374268
 40
0.7435009409
 40
0.7989868295
 40
0.8523181171
 40
0.9035461465
 40
1.0
 40
1.0
 40
1.0
 40
1.0
 10
6.9085632245
 20
5.1307868017
 30
0.0
 10
6.9087041442
 20
5.1314869688
 30
0.0
 10
6.9090041734
 20
5.1328708885
 30
0.0
 10
6.9095134372
 20
5.1349120869
 30
0.0
 10
6.9100767741
 20
5.136895681
 30
0.0
 10
6.9106925326
 20
5.1388159091
 30
0.0
 10
6.9113589585
 20
5.1406672681
 30
0.0
 10
6.91207413
 20
5.1424444212
 30
0.0
 10
6.9128359977
 20
5.1441422621
 30
0.0
 10
6.9136423795
 20
5.1457559125
 30
0.0
 10
6.9144909748
 20
5.1472807408
 30
0.0
 10
6.9153793654
 20
5.1487123662
 30
0.0
 10
6.9163050529
 20
5.1500466939
 30
0.0
 10
6.9172653692
 20
5.1512798435
 30
0.0
 10
6.9182578329
 20
5.1524084383
 30
0.0
 10
6.9195926512
 20
5.1537420211
 30
0.0
 10
6.9206738174
 20
5.1546199677
 30
0.0
 10
6.9214222494
 20
5.1551288848
 30
0.0
  0
LINE
  5
2F4
100
AcDbEntity
  8
ALL_ASSEMBLY_MEMBERS
100
AcDbLine
 62
7
  6
CONTINUOUS
 10
6.9082419547
 20
5.1035359729
 11
6.9077497811
 21
5.1152620275
  0
SPLINE
  5
2F5
100
AcDbEntity
  8
ALL_ASSEMBLY_MEMBERS
100
AcDbSpline
 62
7
  6
CONTINUOUS
 70
0
 71
3
 72
56
 73
52
 74
0
 42
0.0000001
 43
0.0000001
 44
0.0000000001
 40
0.0
 40
0.0
 40
0.0
 40
0.0
 40
0.0434609913
 40
0.0863164521
 40
0.128451433
 40
0.1697592096
 40
0.2101327906
 40
0.2494693759
 40
0.2876695586
 40
0.3246383695
 40
0.3602866499
 40
0.3945331055
 40
0.4111093645
 40
0.4273100189
 40
0.4431288622
 40
0.4585608506
 40
0.4736027529
 40
0.4882530342
 40
0.5025125265
 40
0.5163845185
 40
0.5298753259
 40
0.542994607
 40
0.5557558199
 40
0.5681766532
 40
0.5920798054
 40
0.6036326951
 40
0.6149639761
 40
0.6261155991
 40
0.6371337931
 40
0.6480682133
 40
0.6589708908
 40
0.6698949865
 40
0.6808933352
 40
0.692017223
 40
0.7033149155
 40
0.7148309223
 40
0.7266048494
 40
0.7386713537
 40
0.7510594405
 40
0.7768804974
 40
0.7903556522
 40
0.8042176767
 40
0.8184719217
 40
0.8331200959
 40
0.8481609672
 40
0.8635906769
 40
0.8794031993
 40
0.8955907884
 40
0.9290490351
 40
0.9638841975
 40
1.0
 40
1.0
 40
1.0
 40
1.0
 10
6.9082419547
 20
5.1035359729
 30
0.0
 10
6.9082940188
 20
5.1026485152
 30
0.0
 10
6.9084108412
 20
5.1008867165
 30
0.0
 10
6.9086277233
 20
5.0982681186
 30
0.0
 10
6.908886843
 20
5.095697597
 30
0.0
 10
6.9091900817
 20
5.0931830059
 30
0.0
 10
6.9095395726
 20
5.0907321939
 30
0.0
 10
6.9099376323
 20
5.0883531771
 30
0.0
 10
6.9103867505
 20
5.0860541297
 30
0.0
 10
6.9108895394
 20
5.0838434347
 30
0.0
 10
6.9114486825
 20
5.0817297921
 30
0.0
 10
6.9119693549
 20
5.0800387782
 30
0.0
 10
6.9124185342
 20
5.0787433807
 30
0.0
 10
6.9127675613
 20
5.0778125372
 30
0.0
 10
6.9131326741
 20
5.0769130843
 30
0.0
 10
6.913514151
 20
5.0760462639
 30
0.0
 10
6.9139122592
 20
5.0752133504
 30
0.0
 10
6.9143272163
 20
5.074415616
 30
0.0
 10
6.9147592377
 20
5.0736543614
 30
0.0
 10
6.9152084695
 20
5.0729308749
 30
0.0
 10
6.9156750527
 20
5.0722464607
 30
0.0
 10
6.9161590337
 20
5.071602415
 30
0.0
 10
6.9166604995
 20
5.0709999797
 30
0.0
 10
6.9173433777
 20
5.0702635251
 30
0.0
 10
6.9180700585
 20
5.0696026283
 30
0.0
 10
6.9188387608
 20
5.0690315273
 30
0.0
 10
6.9194253812
 20
5.0686554975
 30
0.0
 10
6.9200280417
 20
5.0683280502
 30
0.0
 10
6.9206462093
 20
5.0680500614
 30
0.0
 10
6.9212792256
 20
5.0678223459
 30
0.0
 10
6.9219263267
 20
5.0676455462
 30
0.0
 10
6.9225866635
 20
5.0675202014
 30
0.0
 10
6.9232592948
 20
5.0674466356
 30
0.0
 10
6.9239432174
 20
5.0674250754
 30
0.0
 10
6.9246373703
 20
5.0674555045
 30
0.0
 10
6.9253406472
 20
5.0675378357
 30
0.0
 10
6.9260519108
 20
5.0676717355
 30
0.0
 10
6.926770014
 20
5.0678568347
 30
0.0
 10
6.9277483542
 20
5.0681754411
 30
0.0
 10
6.928722654
 20
5.0685924773
 30
0.0
 10
6.9296866907
 20
5.0690960019
 30
0.0
 10
6.9304209595
 20
5.0695263713
 30
0.0
 10
6.9311547801
 20
5.0700029783
 30
0.0
 10
6.9318870379
 20
5.0705247086
 30
0.0
 10
6.932616528
 20
5.0710904059
 30
0.0
 10
6.9333421199
 20
5.0716988329
 30
0.0
 10
6.9340626841
 20
5.0723487607
 30
0.0
 10
6.9350258429
 20
5.0732791625
 30
0.0
 10
6.9362090309
 20
5.0745402958
 30
0.0
 10
6.9375766833
 20
5.0761819537
 30
0.0
 10
6.9384442356
 20
5.0773463693
 30
0.0
 10
6.9388707476
 20
5.0779495473
 30
0.0
  0
SPLINE
  5
2F6
100
AcDbEntity
  8
ALL_ASSEMBLY_MEMBERS
100
AcDbSpline
 62
7
  6
CONTINUOUS
 70
0
 71
3
 72
35
 73
31
 74
0
 42
0.0000001
 43
0.0000001
 44
0.0000000001
 40
0.0
 40
0.0
 40
0.0
 40
0.0
 40
0.0034406993
 40
0.0118400412
 40
0.0250483762
 40
0.0428444902
 40
0.0910715263
 40
0.1540326064
 40
0.1902264837
 40
0.2291293171
 40
0.2704148647
 40
0.3137465964
 40
0.3587685811
 40
0.4050978753
 40
0.4523214726
 40
0.4999999888
 40
0.5476785052
 40
0.5949021028
 40
0.6412313974
 40
0.6862533829
 40
0.7295851155
 40
0.7708706641
 40
0.8097734988
 40
0.8459673773
 40
0.9089284607
 40
0.9571555007
 40
0.9749516168
 40
0.9881599541
 40
0.9965592983
 40
1.0
 40
1.0
 40
1.0
 40
1.0
 10
2.8772088883
 20
4.9771676329
 30
0.0
 10
2.8772917653
 20
4.9769566734
 30
0.0
 10
2.8775762135
 20
4.9762304324
 30
0.0
 10
2.878173022
 20
4.9746920838
 30
0.0
 10
2.8790971709
 20
4.9722664275
 30
0.0
 10
2.8809121617
 20
4.9673727403
 30
0.0
 10
2.8837123513
 20
4.9593493728
 30
0.0
 10
2.8865898452
 20
4.9500735999
 30
0.0
 10
2.888988105
 20
4.9413001167
 30
0.0
 10
2.8908101972
 20
4.9338520447
 30
0.0
 10
2.8925057603
 20
4.9258924417
 30
0.0
 10
2.8940081457
 20
4.9174839588
 30
0.0
 10
2.8952546004
 20
4.9086976836
 30
0.0
 10
2.8961897939
 20
4.8996147604
 30
0.0
 10
2.8967698775
 20
4.8903266747
 30
0.0
 10
2.8969665133
 20
4.8809335372
 30
0.0
 10
2.8967698777
 20
4.8715403998
 30
0.0
 10
2.8961897943
 20
4.862252314
 30
0.0
 10
2.8952546009
 20
4.8531693906
 30
0.0
 10
2.8940081463
 20
4.8443831153
 30
0.0
 10
2.8925057611
 20
4.8359746322
 30
0.0
 10
2.8908101981
 20
4.8280150289
 30
0.0
 10
2.8889881059
 20
4.8205669567
 30
0.0
 10
2.8865898461
 20
4.8117934731
 30
0.0
 10
2.8837123522
 20
4.8025176997
 30
0.0
 10
2.8809121624
 20
4.7944943315
 30
0.0
 10
2.8790971715
 20
4.7896006439
 30
0.0
 10
2.8781730224
 20
4.7871749871
 30
0.0
 10
2.8775762137
 20
4.7856366381
 30
0.0
 10
2.8772917654
 20
4.7849103968
 30
0.0
 10
2.8772088884
 20
4.7846994372
 30
0.0
  0
SPLINE
  5
2F7
100
AcDbEntity
  8
ALL_ASSEMBLY_MEMBERS
100
AcDbSpline
 62
7
  6
CONTINUOUS
 70
0
 71
3
 72
13
 73
9
 74
0
 42
0.0000001
 43
0.0000001
 44
0.0000000001
 40
0.0
 40
0.0
 40
0.0
 40
0.0
 40
0.2552283207
 40
0.5083961584
 40
0.6335792675
 40
0.757437876
 40
0.8796804682
 40
1.0
 40
1.0
 40
1.0
 40
1.0
 10
3.2316842105
 20
5.114933535
 30
0.0
 10
3.2316842105
 20
5.1127485148
 30
0.0
 10
3.2318820483
 20
5.1083936875
 30
0.0
 10
3.2326204392
 20
5.1030121494
 30
0.0
 10
3.2334969168
 20
5.0988016793
 30
0.0
 10
3.2342876824
 20
5.0957218003
 30
0.0
 10
3.2352085985
 20
5.0927219544
 30
0.0
 10
3.2359113375
 20
5.0907668966
 30
0.0
 10
3.2362832338
 20
5.0898063146
 30
0.0
  0
SPLINE
  5
2F8
100
AcDbEntity
  8
ALL_ASSEMBLY_MEMBERS
100
AcDbSpline
 62
7
  6
CONTINUOUS
 70
0
 71
3
 72
14
 73
10
 74
0
 42
0.0000001
 43
0.0000001
 44
0.0000000001
 40
0.0
 40
0.0
 40
0.0
 40
0.0
 40
0.2613494654
 40
0.3895463717
 40
0.515901113
 40
0.6402723247
 40
0.7625129562
 40
0.8824733742
 40
1.0
 40
1.0
 40
1.0
 40
1.0
 10
3.2362832338
 20
5.0898063146
 30
0.0
 10
3.2367058426
 20
5.0887147458
 30
0.0
 10
3.2373809219
 20
5.087104603
 30
0.0
 10
3.2383665819
 20
5.0850145302
 30
0.0
 10
3.239135676
 20
5.0835013926
 30
0.0
 10
3.239937518
 20
5.0820357054
 30
0.0
 10
3.2407702492
 20
5.0806204471
 30
0.0
 10
3.2416318866
 20
5.0792587506
 30
0.0
 10
3.2422306296
 20
5.0783793292
 30
0.0
 10
3.2425345319
 20
5.0779495473
 30
0.0
  0
SPLINE
  5
2F9
100
AcDbEntity
  8
ALL_ASSEMBLY_MEMBERS
100
AcDbSpline
 62
7
  6
CONTINUOUS
 70
0
 71
3
 72
23
 73
19
 74
0
 42
0.0000001
 43
0.0000001
 44
0.0000000001
 40
0.0
 40
0.0
 40
0.0
 40
0.0
 40
0.0731561749
 40
0.1434740347
 40
0.2111169869
 40
0.2762957544
 40
0.3392709774
 40
0.400354176
 40
0.4599069587
 40
0.5183361431
 40
0.5760853812
 40
0.6336231864
 40
0.6914280019
 40
0.7499722709
 40
0.8097069082
 40
0.8710488419
 40
0.9343717363
 40
1.0
 40
1.0
 40
1.0
 40
1.0
 10
3.2401655751
 20
5.0816517503
 30
0.0
 10
3.240407196
 20
5.0813977556
 30
0.0
 10
3.2408961674
 20
5.0809136654
 30
0.0
 10
3.241661224
 20
5.0802505551
 30
0.0
 10
3.2424413481
 20
5.0796668072
 30
0.0
 10
3.2432346968
 20
5.0791640032
 30
0.0
 10
3.2440394168
 20
5.078743539
 30
0.0
 10
3.244853587
 20
5.0784066981
 30
0.0
 10
3.2456751928
 20
5.0781545796
 30
0.0
 10
3.2465021305
 20
5.0779881026
 30
0.0
 10
3.2473322043
 20
5.0779079857
 30
0.0
 10
3.2481631394
 20
5.0779146609
 30
0.0
 10
3.2489926286
 20
5.078008292
 30
0.0
 10
3.2498183692
 20
5.0781887717
 30
0.0
 10
3.2506381062
 20
5.0784556932
 30
0.0
 10
3.2514496709
 20
5.0788084454
 30
0.0
 10
3.2522508856
 20
5.0792461684
 30
0.0
 10
3.2527669672
 20
5.0795874672
 30
0.0
 10
3.2530224171
 20
5.0797709025
 30
0.0
  0
SPLINE
  5
2FA
100
AcDbEntity
  8
ALL_ASSEMBLY_MEMBERS
100
AcDbSpline
 62
7
  6
CONTINUOUS
 70
0
 71
3
 72
14
 73
10
 74
0
 42
0.0000001
 43
0.0000001
 44
0.0000000001
 40
0.0
 40
0.0
 40
0.0
 40
0.0
 40
0.2235566914
 40
0.3416150684
 40
0.4640796522
 40
0.5910823551
 40
0.7227114763
 40
0.8590142335
 40
1.0
 40
1.0
 40
1.0
 40
1.0
 10
3.2530224171
 20
5.0797709025
 30
0.0
 10
3.2535020481
 20
5.0801153194
 30
0.0
 10
3.2541977784
 20
5.0806951345
 30
0.0
 10
3.255065712
 20
5.0815611983
 30
0.0
 10
3.2557132806
 20
5.0822851454
 30
0.0
 10
3.2563440139
 20
5.0830701552
 30
0.0
 10
3.2569566754
 20
5.0839149283
 30
0.0
 10
3.2575499162
 20
5.0848179085
 30
0.0
 10
3.2579253304
 20
5.0854470749
 30
0.0
 10
3.2581097039
 20
5.0857706151
 30
0.0
  0
SPLINE
  5
2FB
100
AcDbEntity
  8
ALL_ASSEMBLY_MEMBERS
100
AcDbSpline
 62
7
  6
CONTINUOUS
 70
0
 71
3
 72
24
 73
20
 74
0
 42
0.0000001
 43
0.0000001
 44
0.0000000001
 40
0.0
 40
0.0
 40
0.0
 40
0.0
 40
0.0751296812
 40
0.1474782006
 40
0.217136686
 40
0.2510037544
 40
0.2842535914
 40
0.3489903911
 40
0.4115940559
 40
0.4723500424
 40
0.5315920144
 40
0.589696518
 40
0.6470740789
 40
0.704157117
 40
0.7613856906
 40
0.8191922689
 40
0.8779857579
 40
0.9381458595
 40
1.0
 40
1.0
 40
1.0
 40
1.0
 10
3.241212939
 20
5.149941592
 30
0.0
 10
3.2415498533
 20
5.1503581516
 30
0.0
 10
3.2422345575
 20
5.1511573824
 30
0.0
 10
3.2433137131
 20
5.1522691814
 30
0.0
 10
3.2442463693
 20
5.1531093726
 30
0.0
 10
3.2450057961
 20
5.1537217324
 30
0.0
 10
3.245759497
 20
5.1542841921
 30
0.0
 10
3.2467164066
 20
5.154915699
 30
0.0
 10
3.2478949443
 20
5.1555595763
 30
0.0
 10
3.2490901674
 20
5.1560808776
 30
0.0
 10
3.2502985921
 20
5.1564780127
 30
0.0
 10
3.2515166692
 20
5.1567498104
 30
0.0
 10
3.2527407397
 20
5.15689551
 30
0.0
 10
3.2539670783
 20
5.1569148157
 30
0.0
 10
3.2551919478
 20
5.1568079148
 30
0.0
 10
3.2564116396
 20
5.1565754821
 30
0.0
 10
3.2576226164
 20
5.1562186532
 30
0.0
 10
3.258821292
 20
5.1557389901
 30
0.0
 10
3.2595982704
 20
5.1553445624
 30
0.0
 10
3.2599830301
 20
5.1551288848
 30
0.0
  0
SPLINE
  5
2FC
100
AcDbEntity
  8
ALL_ASSEMBLY_MEMBERS
100
AcDbSpline
 62
7
  6
CONTINUOUS
 70
0
 71
3
 72
18
 73
14
 74
0
 42
0.0000001
 43
0.0000001
 44
0.0000000001
 40
0.0
 40
0.0
 40
0.0
 40
0.0
 40
0.0563171831
 40
0.1139084221
 40
0.1726640851
 40
0.2324789544
 40
0.2932523137
 40
0.3548878833
 40
0.4803634965
 40
0.6082356508
 40
0.7378647925
 40
0.8686459602
 40
1.0
 40
1.0
 40
1.0
 40
1.0
 10
3.2412125896
 20
5.1499415296
 30
0.0
 10
3.2408435426
 20
5.1493588076
 30
0.0
 10
3.2401219312
 20
5.1481642771
 30
0.0
 10
3.2391013179
 20
5.1463115517
 30
0.0
 10
3.2381334302
 20
5.1443826751
 30
0.0
 10
3.2372218918
 20
5.1423836646
 30
0.0
 10
3.2363700427
 20
5.1403202717
 30
0.0
 10
3.2353118378
 20
5.1374740918
 30
0.0
 10
3.2341588505
 20
5.1337890758
 30
0.0
 10
3.2330661119
 20
5.1292239792
 30
0.0
 10
3.2322728297
 20
5.1245313421
 30
0.0
 10
3.2317916514
 20
5.1197539035
 30
0.0
 10
3.2316842105
 20
5.1165423154
 30
0.0
 10
3.2316842105
 20
5.114933535
 30
0.0
  0
LINE
  5
2FD
100
AcDbEntity
  8
ALL_ASSEMBLY_MEMBERS
100
AcDbLine
 62
7
  6
CONTINUOUS
 10
3.2736554984
 20
5.1152620275
 11
3.2731633248
 21
5.1035359729
  0
SPLINE
  5
2FE
100
AcDbEntity
  8
ALL_ASSEMBLY_MEMBERS
100
AcDbSpline
 62
7
  6
CONTINUOUS
 70
0
 71
3
 72
22
 73
18
 74
0
 42
0.0000001
 43
0.0000001
 44
0.0000000001
 40
0.0
 40
0.0
 40
0.0
 40
0.0
 40
0.0964538535
 40
0.1476818829
 40
0.2010131705
 40
0.2564990591
 40
0.3141625732
 40
0.374000223
 40
0.4359850426
 40
0.5000691887
 40
0.5661862914
 40
0.6342534886
 40
0.7041731905
 40
0.7758351459
 40
0.8491158062
 40
0.9238862617
 40
1.0
 40
1.0
 40
1.0
 40
1.0
 10
3.2599830301
 20
5.1551288848
 30
0.0
 10
3.2607314621
 20
5.1546199677
 30
0.0
 10
3.2618126283
 20
5.1537420211
 30
0.0
 10
3.2631474466
 20
5.1524084383
 30
0.0
 10
3.2641399103
 20
5.1512798435
 30
0.0
 10
3.2651002266
 20
5.1500466939
 30
0.0
 10
3.2660259141
 20
5.1487123662
 30
0.0
 10
3.2669143047
 20
5.1472807408
 30
0.0
 10
3.2677629
 20
5.1457559125
 30
0.0
 10
3.2685692818
 20
5.1441422621
 30
0.0
 10
3.2693311495
 20
5.1424444212
 30
0.0
 10
3.270046321
 20
5.1406672681
 30
0.0
 10
3.2707127469
 20
5.1388159091
 30
0.0
 10
3.2713285054
 20
5.136895681
 30
0.0
 10
3.2718918423
 20
5.1349120869
 30
0.0
 10
3.2724011061
 20
5.1328708885
 30
0.0
 10
3.2727011353
 20
5.1314869688
 30
0.0
 10
3.272842055
 20
5.1307868017
 30
0.0
  0
SPLINE
  5
2FF
100
AcDbEntity
  8
ALL_ASSEMBLY_MEMBERS
100
AcDbSpline
 62
7
  6
CONTINUOUS
 70
0
 71
3
 72
14
 73
10
 74
0
 42
0.0000001
 43
0.0000001
 44
0.0000000001
 40
0.0
 40
0.0
 40
0.0
 40
0.0
 40
0.1200746671
 40
0.2420623103
 40
0.3657162963
 40
0.4907950997
 40
0.6170369608
 40
0.744169933
 40
1.0
 40
1.0
 40
1.0
 40
1.0
 10
3.272842055
 20
5.1307868017
 30
0.0
 10
3.272910406
 20
5.1301680488
 30
0.0
 10
3.2730378173
 20
5.1289195184
 30
0.0
 10
3.2732012158
 20
5.1270304815
 30
0.0
 10
3.2733390665
 20
5.1251133983
 30
0.0
 10
3.2734518609
 20
5.1231725928
 30
0.0
 10
3.2735400141
 20
5.1212124557
 30
0.0
 10
3.2736252931
 20
5.1185738578
 30
0.0
 10
3.2736528763
 20
5.1165883538
 30
0.0
 10
3.2736554984
 20
5.1152620275
 30
0.0
  0
SPLINE
  5
300
100
AcDbEntity
  8
ALL_ASSEMBLY_MEMBERS
100
AcDbSpline
 62
7
  6
CONTINUOUS
 70
0
 71
3
 72
22
 73
18
 74
0
 42
0.0000001
 43
0.0000001
 44
0.0000000001
 40
0.0
 40
0.0
 40
0.0
 40
0.0
 40
0.0560940383
 40
0.1135846625
 40
0.1723850242
 40
0.2323944715
 40
0.2935009778
 40
0.3555832794
 40
0.4185127695
 40
0.4821551869
 40
0.5463720773
 40
0.6110221294
 40
0.6759622636
 40
0.7410487498
 40
0.8061384582
 40
0.8710878735
 40
1.0
 40
1.0
 40
1.0
 40
1.0
 10
3.2632322035
 20
5.1365080834
 30
0.0
 10
3.2636026459
 20
5.1359721527
 30
0.0
 10
3.2643249986
 20
5.1348675273
 30
0.0
 10
3.2653408089
 20
5.1331414546
 30
0.0
 10
3.2663007531
 20
5.131332073
 30
0.0
 10
3.2672029724
 20
5.129446644
 30
0.0
 10
3.2680458913
 20
5.1274924361
 30
0.0
 10
3.2688281519
 20
5.1254767913
 30
0.0
 10
3.2695486285
 20
5.123407072
 30
0.0
 10
3.27020642
 20
5.1212906423
 30
0.0
 10
3.2708008436
 20
5.11913484
 30
0.0
 10
3.2713314285
 20
5.1169469561
 30
0.0
 10
3.271797911
 20
5.1147342083
 30
0.0
 10
3.2722002246
 20
5.1125037347
 30
0.0
 10
3.2725385017
 20
5.1102625263
 30
0.0
 10
3.2729036151
 20
5.1072769467
 30
0.0
 10
3.2730842794
 20
5.1050311198
 30
0.0
 10
3.2731633248
 20
5.1035359729
 30
0.0
  0
SPLINE
  5
301
100
AcDbEntity
  8
ALL_ASSEMBLY_MEMBERS
100
AcDbSpline
 62
7
  6
CONTINUOUS
 70
0
 71
3
 72
32
 73
28
 74
0
 42
0.0000001
 43
0.0000001
 44
0.0000000001
 40
0.0
 40
0.0
 40
0.0
 40
0.0
 40
0.0761316766
 40
0.1519546614
 40
0.2270409314
 40
0.3009737347
 40
0.3733582786
 40
0.443827082
 40
0.512047575
 40
0.5452261659
 40
0.5777382163
 40
0.6095557281
 40
0.640654744
 40
0.6710154476
 40
0.7006227473
 40
0.729466683
 40
0.7575426962
 40
0.7848523942
 40
0.8114038077
 40
0.8372119551
 40
0.8622994884
 40
0.8866969021
 40
0.9104431653
 40
0.9335859196
 40
0.9561815141
 40
0.9782950918
 40
1.0
 40
1.0
 40
1.0
 40
1.0
 10
3.2736554984
 20
5.1152620275
 30
0.0
 10
3.2735875637
 20
5.1165063047
 30
0.0
 10
3.2733975373
 20
5.1189871945
 30
0.0
 10
3.2729498762
 20
5.1226775478
 30
0.0
 10
3.2723416048
 20
5.1263084995
 30
0.0
 10
3.2715759362
 20
5.1298520497
 30
0.0
 10
3.2706572907
 20
5.1332810138
 30
0.0
 10
3.2695912818
 20
5.1365689823
 30
0.0
 10
3.2685764407
 20
5.1391945501
 30
0.0
 10
3.2676943436
 20
5.1412014128
 30
0.0
 10
3.2670066393
 20
5.1426419843
 30
0.0
 10
3.2662878502
 20
5.1440290818
 30
0.0
 10
3.2655391758
 20
5.1453600499
 30
0.0
 10
3.2647618621
 20
5.1466323174
 30
0.0
 10
3.2639572152
 20
5.147843435
 30
0.0
 10
3.2631265977
 20
5.148991074
 30
0.0
 10
3.2622713992
 20
5.150073014
 30
0.0
 10
3.2613930762
 20
5.1510871748
 30
0.0
 10
3.2604931124
 20
5.1520315944
 30
0.0
 10
3.259573027
 20
5.1529044359
 30
0.0
 10
3.2586343922
 20
5.1537040112
 30
0.0
 10
3.2576787936
 20
5.1544287425
 30
0.0
 10
3.2567078634
 20
5.1550772018
 30
0.0
 10
3.2557232741
 20
5.1556480972
 30
0.0
 10
3.2547266926
 20
5.1561402598
 30
0.0
 10
3.2537199421
 20
5.156552669
 30
0.0
 10
3.2530374554
 20
5.1567757082
 30
0.0
 10
3.2526958116
 20
5.1568731498
 30
0.0
  0
SPLINE
  5
302
100
AcDbEntity
  8
ALL_ASSEMBLY_MEMBERS
100
AcDbSpline
 62
7
  6
CONTINUOUS
 70
0
 71
3
 72
46
 73
42
 74
0
 42
0.0000001
 43
0.0000001
 44
0.0000000001
 40
0.0
 40
0.0
 40
0.0
 40
0.0
 40
0.0433205231
 40
0.0858804223
 40
0.1275772879
 40
0.1683178234
 40
0.2080083157
 40
0.2465594429
 40
0.2838860327
 40
0.3199084492
 40
0.3545546953
 40
0.3877632179
 40
0.4194869654
 40
0.4496989339
 40
0.4783994634
 40
0.505625302
 40
0.5314601332
 40
0.5560454173
 40
0.5679375155
 40
0.5796011801
 40
0.5910732074
 40
0.6023943279
 40
0.6136086169
 40
0.6247627438
 40
0.635904988
 40
0.6470841662
 40
0.6583484697
 40
0.6697443731
 40
0.6813156239
 40
0.6931024381
 40
0.7051408898
 40
0.717462525
 40
0.7430479739
 40
0.7700302206
 40
0.79850083
 40
0.82849438
 40
0.8600008053
 40
0.8929771087
 40
0.9273574591
 40
0.9630613717
 40
1.0
 40
1.0
 40
1.0
 40
1.0
 10
3.272842055
 20
5.1307868017
 30
0.0
 10
3.2727714583
 20
5.131605325
 30
0.0
 10
3.2726182624
 20
5.1332268969
 30
0.0
 10
3.2723476483
 20
5.1356313208
 30
0.0
 10
3.2720363198
 20
5.1379814988
 30
0.0
 10
3.2716823933
 20
5.1402706234
 30
0.0
 10
3.2712838074
 20
5.1424918544
 30
0.0
 10
3.2708383959
 20
5.1446381446
 30
0.0
 10
3.2703439044
 20
5.1467022668
 30
0.0
 10
3.2697980366
 20
5.148676765
 30
0.0
 10
3.2691985032
 20
5.1505539335
 30
0.0
 10
3.2685430754
 20
5.1523258098
 30
0.0
 10
3.2678296523
 20
5.153984182
 30
0.0
 10
3.2670563279
 20
5.1555206258
 30
0.0
 10
3.2662214885
 20
5.1569265429
 30
0.0
 10
3.2653238281
 20
5.1581932726
 30
0.0
 10
3.2643627133
 20
5.1593119923
 30
0.0
 10
3.263499007
 20
5.1601227448
 30
0.0
 10
3.2627783195
 20
5.1606840904
 30
0.0
 10
3.262228776
 20
5.1610581729
 30
0.0
 10
3.2616646787
 20
5.1613890448
 30
0.0
 10
3.2610864299
 20
5.1616758929
 30
0.0
 10
3.2604945554
 20
5.1619180118
 30
0.0
 10
3.2598896408
 20
5.1621147609
 30
0.0
 10
3.2592723652
 20
5.1622656442
 30
0.0
 10
3.2586434702
 20
5.1623702567
 30
0.0
 10
3.2580037666
 20
5.1624283498
 30
0.0
 10
3.2573541151
 20
5.1624397814
 30
0.0
 10
3.2566954196
 20
5.1624045617
 30
0.0
 10
3.2560286251
 20
5.1623228092
 30
0.0
 10
3.2553546796
 20
5.162194772
 30
0.0
 10
3.2544365137
 20
5.1619599162
 30
0.0
 10
3.2532739115
 20
5.1615477332
 30
0.0
 10
3.2518856644
 20
5.160882725
 30
0.0
 10
3.2504944509
 20
5.1600476433
 30
0.0
 10
3.2491082038
 20
5.1590498389
 30
0.0
 10
3.2477344965
 20
5.1578972502
 30
0.0
 10
3.2463807424
 20
5.1565982764
 30
0.0
 10
3.2450540116
 20
5.1551615447
 30
0.0
 10
3.2437610507
 20
5.1535958191
 30
0.0
 10
3.242938984
 20
5.1524895037
 30
0.0
 10
3.242534532
 20
5.1519175226
 30
0.0
  0
SPLINE
  5
303
100
AcDbEntity
  8
ALL_ASSEMBLY_MEMBERS
100
AcDbSpline
 62
7
  6
CONTINUOUS
 70
0
 71
3
 72
56
 73
52
 74
0
 42
0.0000001
 43
0.0000001
 44
0.0000000001
 40
0.0
 40
0.0
 40
0.0
 40
0.0
 40
0.0361158025
 40
0.0709509649
 40
0.1044092116
 40
0.1205968007
 40
0.1364093231
 40
0.1518390328
 40
0.1668799041
 40
0.1815280783
 40
0.1957823233
 40
0.2096443478
 40
0.2231195026
 40
0.2489405595
 40
0.2613286463
 40
0.2733951506
 40
0.2851690777
 40
0.2966850845
 40
0.307982777
 40
0.3191066648
 40
0.3301050135
 40
0.3410291092
 40
0.3519317867
 40
0.3628662069
 40
0.3738844009
 40
0.3850360239
 40
0.3963673049
 40
0.4079201946
 40
0.4318233468
 40
0.4442441801
 40
0.457005393
 40
0.4701246741
 40
0.4836154815
 40
0.4974874735
 40
0.5117469658
 40
0.5263972471
 40
0.5414391494
 40
0.5568711378
 40
0.5726899811
 40
0.5888906355
 40
0.6054668945
 40
0.6397133501
 40
0.6753616305
 40
0.7123304414
 40
0.7505306241
 40
0.7898672094
 40
0.8302407904
 40
0.871548567
 40
0.9136835479
 40
0.9565390087
 40
1.0
 40
1.0
 40
1.0
 40
1.0
 10
3.2425345319
 20
5.0779495473
 30
0.0
 10
3.2429610439
 20
5.0773463693
 30
0.0
 10
3.2438285962
 20
5.0761819537
 30
0.0
 10
3.2451962486
 20
5.0745402958
 30
0.0
 10
3.2463794366
 20
5.0732791625
 30
0.0
 10
3.2473425954
 20
5.0723487607
 30
0.0
 10
3.2480631596
 20
5.0716988329
 30
0.0
 10
3.2487887515
 20
5.0710904059
 30
0.0
 10
3.2495182417
 20
5.0705247086
 30
0.0
 10
3.2502504994
 20
5.0700029783
 30
0.0
 10
3.25098432
 20
5.0695263713
 30
0.0
 10
3.2517185888
 20
5.0690960019
 30
0.0
 10
3.2526826255
 20
5.0685924773
 30
0.0
 10
3.2536569253
 20
5.0681754411
 30
0.0
 10
3.2546352655
 20
5.0678568347
 30
0.0
 10
3.2553533687
 20
5.0676717355
 30
0.0
 10
3.2560646323
 20
5.0675378357
 30
0.0
 10
3.2567679092
 20
5.0674555045
 30
0.0
 10
3.2574620621
 20
5.0674250754
 30
0.0
 10
3.2581459847
 20
5.0674466356
 30
0.0
 10
3.258818616
 20
5.0675202014
 30
0.0
 10
3.2594789528
 20
5.0676455462
 30
0.0
 10
3.2601260539
 20
5.0678223459
 30
0.0
 10
3.2607590702
 20
5.0680500614
 30
0.0
 10
3.2613772378
 20
5.0683280502
 30
0.0
 10
3.2619798983
 20
5.0686554975
 30
0.0
 10
3.2625665187
 20
5.0690315273
 30
0.0
 10
3.263335221
 20
5.0696026283
 30
0.0
 10
3.2640619018
 20
5.0702635251
 30
0.0
 10
3.26474478
 20
5.0709999797
 30
0.0
 10
3.2652462458
 20
5.071602415
 30
0.0
 10
3.2657302268
 20
5.0722464607
 30
0.0
 10
3.26619681
 20
5.0729308749
 30
0.0
 10
3.2666460418
 20
5.0736543614
 30
0.0
 10
3.2670780632
 20
5.074415616
 30
0.0
 10
3.2674930203
 20
5.0752133504
 30
0.0
 10
3.2678911286
 20
5.0760462639
 30
0.0
 10
3.2682726054
 20
5.0769130843
 30
0.0
 10
3.2686377182
 20
5.0778125372
 30
0.0
 10
3.2689867453
 20
5.0787433807
 30
0.0
 10
3.2694359246
 20
5.0800387782
 30
0.0
 10
3.269956597
 20
5.0817297921
 30
0.0
 10
3.2705157401
 20
5.0838434347
 30
0.0
 10
3.271018529
 20
5.0860541297
 30
0.0
 10
3.2714676472
 20
5.0883531771
 30
0.0
 10
3.2718657069
 20
5.0907321939
 30
0.0
 10
3.2722151978
 20
5.0931830059
 30
0.0
 10
3.2725184365
 20
5.095697597
 30
0.0
 10
3.2727775562
 20
5.0982681186
 30
0.0
 10
3.2729944384
 20
5.1008867165
 30
0.0
 10
3.2731112607
 20
5.1026485152
 30
0.0
 10
3.2731633248
 20
5.1035359729
 30
0.0
  0
SPLINE
  5
304
100
AcDbEntity
  8
ALL_FEATURES
100
AcDbSpline
 62
7
  6
CONTINUOUS
 70
0
 71
3
 72
18
 73
14
 74
0
 42
0.0000001
 43
0.0000001
 44
0.0000000001
 40
0.0
 40
0.0
 40
0.0
 40
0.0
 40
0.1249864211
 40
0.1874992904
 40
0.250006938
 40
0.3749947586
 40
0.4999848898
 40
0.5624932629
 40
0.625001107
 40
0.6875087646
 40
0.750014252
 40
0.8750101518
 40
1.0
 40
1.0
 40
1.0
 40
1.0
 10
2.7899317977
 20
5.4513376101
 30
0.0
 10
2.7855367166
 20
5.4711379965
 30
0.0
 10
2.7776049792
 20
5.5005673005
 30
0.0
 10
2.7644798861
 20
5.5389651935
 30
0.0
 10
2.7496933065
 20
5.576757705
 30
0.0
 10
2.7281759275
 20
5.6227471143
 30
0.0
 10
2.7028746612
 20
5.6667641105
 30
0.0
 10
2.6805371942
 20
5.700641953
 30
0.0
 10
2.662772918
 20
5.725359682
 30
0.0
 10
2.6440450399
 20
5.7493544478
 30
0.0
 10
2.617849875
 20
5.7803462067
 30
0.0
 10
2.582907189
 20
5.8171651822
 30
0.0
 10
2.5528437013
 20
5.8444635563
 30
0.0
 10
2.5373468171
 20
5.8575494716
 30
0.0
  0
SPLINE
  5
305
100
AcDbEntity
  8
ALL_FEATURES
100
AcDbSpline
 62
7
  6
CONTINUOUS
 70
0
 71
3
 72
18
 73
14
 74
0
 42
0.0000001
 43
0.0000001
 44
0.0000000001
 40
0.0
 40
0.0
 40
0.0
 40
0.0
 40
0.1249864211
 40
0.1874992904
 40
0.250006938
 40
0.3749947586
 40
0.4999848898
 40
0.5624932629
 40
0.625001107
 40
0.6875087646
 40
0.750014252
 40
0.8750101518
 40
1.0
 40
1.0
 40
1.0
 40
1.0
 10
3.4544734818
 20
5.4513376101
 30
0.0
 10
3.4588685629
 20
5.4711379965
 30
0.0
 10
3.4668003003
 20
5.5005673005
 30
0.0
 10
3.4799253934
 20
5.5389651935
 30
0.0
 10
3.494711973
 20
5.576757705
 30
0.0
 10
3.516229352
 20
5.6227471143
 30
0.0
 10
3.5415306183
 20
5.6667641105
 30
0.0
 10
3.5638680853
 20
5.700641953
 30
0.0
 10
3.5816323615
 20
5.725359682
 30
0.0
 10
3.6003602396
 20
5.7493544478
 30
0.0
 10
3.6265554045
 20
5.7803462067
 30
0.0
 10
3.6614980905
 20
5.8171651822
 30
0.0
 10
3.6915615782
 20
5.8444635563
 30
0.0
 10
3.7070584624
 20
5.8575494716
 30
0.0
  0
SPLINE
  5
306
100
AcDbEntity
  8
ALL_FEATURES
100
AcDbSpline
 62
7
  6
CONTINUOUS
 70
0
 71
3
 72
15
 73
11
 74
0
 42
0.0000001
 43
0.0000001
 44
0.0000000001
 40
0.0
 40
0.0
 40
0.0
 40
0.0
 40
0.1383734478
 40
0.2739530449
 40
0.4060795075
 40
0.5342169768
 40
0.6579363348
 40
0.7769230932
 40
0.890981171
 40
1.0
 40
1.0
 40
1.0
 40
1.0
 10
2.9560672188
 20
5.4513376101
 30
0.0
 10
2.9538873741
 20
5.4709785521
 30
0.0
 10
2.9486761612
 20
5.5097710191
 30
0.0
 10
2.9382478409
 20
5.5668405585
 30
0.0
 10
2.9254032301
 20
5.6219172205
 30
0.0
 10
2.9102941764
 20
5.6746570464
 30
0.0
 10
2.8930837948
 20
5.7247699929
 30
0.0
 10
2.8739431805
 20
5.7720172782
 30
0.0
 10
2.8530457131
 20
5.8162019354
 30
0.0
 10
2.8377073229
 20
5.8441525517
 30
0.0
 10
2.8297747284
 20
5.8575494716
 30
0.0
  0
SPLINE
  5
307
100
AcDbEntity
  8
ALL_FEATURES
100
AcDbSpline
 62
7
  6
CONTINUOUS
 70
0
 71
3
 72
15
 73
11
 74
0
 42
0.0000001
 43
0.0000001
 44
0.0000000001
 40
0.0
 40
0.0
 40
0.0
 40
0.0
 40
0.1383734478
 40
0.2739530449
 40
0.4060795075
 40
0.5342169768
 40
0.6579363348
 40
0.7769230932
 40
0.890981171
 40
1.0
 40
1.0
 40
1.0
 40
1.0
 10
3.2883380608
 20
5.4513376101
 30
0.0
 10
3.2905179054
 20
5.4709785521
 30
0.0
 10
3.2957291183
 20
5.5097710191
 30
0.0
 10
3.3061574386
 20
5.5668405585
 30
0.0
 10
3.3190020494
 20
5.6219172205
 30
0.0
 10
3.3341111031
 20
5.6746570464
 30
0.0
 10
3.3513214847
 20
5.7247699929
 30
0.0
 10
3.370462099
 20
5.7720172782
 30
0.0
 10
3.3913595664
 20
5.8162019354
 30
0.0
 10
3.4066979566
 20
5.8441525517
 30
0.0
 10
3.4146305511
 20
5.8575494716
 30
0.0
  0
SPLINE
  5
308
100
AcDbEntity
  8
ALL_FEATURES
100
AcDbSpline
 62
7
  6
CONTINUOUS
 70
0
 71
3
 72
18
 73
14
 74
0
 42
0.0000001
 43
0.0000001
 44
0.0000000001
 40
0.0
 40
0.0
 40
0.0
 40
0.0
 40
0.1249864211
 40
0.1874992904
 40
0.250006938
 40
0.3749947586
 40
0.4999848898
 40
0.5624932629
 40
0.625001107
 40
0.6875087646
 40
0.750014252
 40
0.8750101518
 40
1.0
 40
1.0
 40
1.0
 40
1.0
 10
7.3914734818
 20
5.4513376101
 30
0.0
 10
7.3958685629
 20
5.4711379965
 30
0.0
 10
7.4038003003
 20
5.5005673005
 30
0.0
 10
7.4169253934
 20
5.5389651935
 30
0.0
 10
7.431711973
 20
5.576757705
 30
0.0
 10
7.453229352
 20
5.6227471143
 30
0.0
 10
7.4785306183
 20
5.6667641105
 30
0.0
 10
7.5008680853
 20
5.700641953
 30
0.0
 10
7.5186323615
 20
5.725359682
 30
0.0
 10
7.5373602396
 20
5.7493544478
 30
0.0
 10
7.5635554045
 20
5.7803462067
 30
0.0
 10
7.5984980905
 20
5.8171651822
 30
0.0
 10
7.6285615782
 20
5.8444635563
 30
0.0
 10
7.6440584624
 20
5.8575494716
 30
0.0
  0
SPLINE
  5
309
100
AcDbEntity
  8
ALL_FEATURES
100
AcDbSpline
 62
7
  6
CONTINUOUS
 70
0
 71
3
 72
18
 73
14
 74
0
 42
0.0000001
 43
0.0000001
 44
0.0000000001
 40
0.0
 40
0.0
 40
0.0
 40
0.0
 40
0.1249864211
 40
0.1874992904
 40
0.250006938
 40
0.3749947586
 40
0.4999848898
 40
0.5624932629
 40
0.625001107
 40
0.6875087646
 40
0.750014252
 40
0.8750101518
 40
1.0
 40
1.0
 40
1.0
 40
1.0
 10
6.7269317977
 20
5.4513376101
 30
0.0
 10
6.7225367166
 20
5.4711379965
 30
0.0
 10
6.7146049792
 20
5.5005673005
 30
0.0
 10
6.7014798861
 20
5.5389651935
 30
0.0
 10
6.6866933065
 20
5.576757705
 30
0.0
 10
6.6651759275
 20
5.6227471143
 30
0.0
 10
6.6398746612
 20
5.6667641105
 30
0.0
 10
6.6175371942
 20
5.700641953
 30
0.0
 10
6.599772918
 20
5.725359682
 30
0.0
 10
6.5810450399
 20
5.7493544478
 30
0.0
 10
6.554849875
 20
5.7803462067
 30
0.0
 10
6.519907189
 20
5.8171651822
 30
0.0
 10
6.4898437013
 20
5.8444635563
 30
0.0
 10
6.4743468171
 20
5.8575494716
 30
0.0
  0
SPLINE
  5
30A
100
AcDbEntity
  8
ALL_FEATURES
100
AcDbSpline
 62
7
  6
CONTINUOUS
 70
0
 71
3
 72
15
 73
11
 74
0
 42
0.0000001
 43
0.0000001
 44
0.0000000001
 40
0.0
 40
0.0
 40
0.0
 40
0.0
 40
0.1383734478
 40
0.2739530449
 40
0.4060795075
 40
0.5342169768
 40
0.6579363348
 40
0.7769230932
 40
0.890981171
 40
1.0
 40
1.0
 40
1.0
 40
1.0
 10
7.2253380608
 20
5.4513376101
 30
0.0
 10
7.2275179054
 20
5.4709785521
 30
0.0
 10
7.2327291183
 20
5.5097710191
 30
0.0
 10
7.2431574386
 20
5.5668405585
 30
0.0
 10
7.2560020494
 20
5.6219172205
 30
0.0
 10
7.2711111031
 20
5.6746570464
 30
0.0
 10
7.2883214847
 20
5.7247699929
 30
0.0
 10
7.307462099
 20
5.7720172782
 30
0.0
 10
7.3283595664
 20
5.8162019354
 30
0.0
 10
7.3436979566
 20
5.8441525517
 30
0.0
 10
7.3516305511
 20
5.8575494716
 30
0.0
  0
SPLINE
  5
30B
100
AcDbEntity
  8
ALL_FEATURES
100
AcDbSpline
 62
7
  6
CONTINUOUS
 70
0
 71
3
 72
15
 73
11
 74
0
 42
0.0000001
 43
0.0000001
 44
0.0000000001
 40
0.0
 40
0.0
 40
0.0
 40
0.0
 40
0.1383734478
 40
0.2739530449
 40
0.4060795075
 40
0.5342169768
 40
0.6579363348
 40
0.7769230932
 40
0.890981171
 40
1.0
 40
1.0
 40
1.0
 40
1.0
 10
6.8930672188
 20
5.4513376101
 30
0.0
 10
6.8908873741
 20
5.4709785521
 30
0.0
 10
6.8856761612
 20
5.5097710191
 30
0.0
 10
6.8752478409
 20
5.5668405585
 30
0.0
 10
6.8624032301
 20
5.6219172205
 30
0.0
 10
6.8472941764
 20
5.6746570464
 30
0.0
 10
6.8300837948
 20
5.7247699929
 30
0.0
 10
6.8109431805
 20
5.7720172782
 30
0.0
 10
6.7900457131
 20
5.8162019354
 30
0.0
 10
6.7747073229
 20
5.8441525517
 30
0.0
 10
6.7667747284
 20
5.8575494716
 30
0.0
  0
SPLINE
  5
30C
100
AcDbEntity
  8
ALL_ASSEMBLY_MEMBERS
100
AcDbSpline
 62
7
  6
CONTINUOUS
 70
0
 71
3
 72
15
 73
11
 74
0
 42
0.0000001
 43
0.0000001
 44
0.0000000001
 40
0.0
 40
0.0
 40
0.0
 40
0.0
 40
0.1246082417
 40
0.2503936291
 40
0.3768527553
 40
0.5033663471
 40
0.6293140225
 40
0.7541887495
 40
0.8777185728
 40
1.0
 40
1.0
 40
1.0
 40
1.0
 10
5.6844526398
 20
5.393433535
 30
0.0
 10
5.6796361409
 20
5.3777090829
 30
0.0
 10
5.6691024453
 20
5.3463720282
 30
0.0
 10
5.6516091268
 20
5.2998093299
 30
0.0
 10
5.633219201
 20
5.2533265559
 30
0.0
 10
5.6148140978
 20
5.2068271722
 30
0.0
 10
5.597274595
 20
5.1602127675
 30
0.0
 10
5.5814842354
 20
5.1133805359
 30
0.0
 10
5.5683340355
 20
5.0662291773
 30
0.0
 10
5.561906613
 20
5.0343843613
 30
0.0
 10
5.5594526398
 20
5.018433535
 30
0.0
  0
SPLINE
  5
30D
100
AcDbEntity
  8
ALL_ASSEMBLY_MEMBERS
100
AcDbSpline
 62
7
  6
CONTINUOUS
 70
0
 71
3
 72
15
 73
11
 74
0
 42
0.0000001
 43
0.0000001
 44
0.0000000001
 40
0.0
 40
0.0
 40
0.0
 40
0.0
 40
0.1246082417
 40
0.2503936291
 40
0.3768527553
 40
0.5033663471
 40
0.6293140225
 40
0.7541887495
 40
0.8777185728
 40
1.0
 40
1.0
 40
1.0
 40
1.0
 10
4.4969526398
 20
5.393433535
 30
0.0
 10
4.5017691386
 20
5.3777090829
 30
0.0
 10
4.5123028342
 20
5.3463720282
 30
0.0
 10
4.5297961527
 20
5.2998093299
 30
0.0
 10
4.5481860785
 20
5.2533265559
 30
0.0
 10
4.5665911817
 20
5.2068271722
 30
0.0
 10
4.5841306845
 20
5.1602127675
 30
0.0
 10
4.5999210441
 20
5.1133805359
 30
0.0
 10
4.613071244
 20
5.0662291773
 30
0.0
 10
4.6194986665
 20
5.0343843613
 30
0.0
 10
4.6219526398
 20
5.018433535
 30
0.0
  0
SPLINE
  5
30E
100
AcDbEntity
  8
ALL_ASSEMBLY_MEMBERS
100
AcDbSpline
 62
7
  6
CONTINUOUS
 70
0
 71
3
 72
11
 73
7
 74
0
 42
0.0000001
 43
0.0000001
 44
0.0000000001
 40
0.0
 40
0.0
 40
0.0
 40
0.0
 40
0.2533945098
 40
0.5031580534
 40
0.7513745212
 40
1.0
 40
1.0
 40
1.0
 40
1.0
 10
5.5594526398
 20
5.018433535
 30
0.0
 10
5.5513829739
 20
4.9659807069
 30
0.0
 10
5.5372056954
 20
4.8615362476
 30
0.0
 10
5.5206461527
 20
4.7050291784
 30
0.0
 10
5.5076286464
 20
4.5491972542
 30
0.0
 10
5.5004163601
 20
4.4453893401
 30
0.0
 10
5.4969526398
 20
4.393433535
 30
0.0
  0
SPLINE
  5
30F
100
AcDbEntity
  8
ALL_ASSEMBLY_MEMBERS
100
AcDbSpline
 62
7
  6
CONTINUOUS
 70
0
 71
3
 72
11
 73
7
 74
0
 42
0.0000001
 43
0.0000001
 44
0.0000000001
 40
0.0
 40
0.0
 40
0.0
 40
0.0
 40
0.2533945098
 40
0.5031580534
 40
0.7513745212
 40
1.0
 40
1.0
 40
1.0
 40
1.0
 10
4.6219526398
 20
5.018433535
 30
0.0
 10
4.6300223056
 20
4.9659807069
 30
0.0
 10
4.6441995841
 20
4.8615362476
 30
0.0
 10
4.6607591268
 20
4.7050291784
 30
0.0
 10
4.6737766331
 20
4.5491972542
 30
0.0
 10
4.6809889194
 20
4.4453893401
 30
0.0
 10
4.6844526398
 20
4.393433535
 30
0.0
  0
SPLINE
  5
310
100
AcDbEntity
  8
ALL_ASSEMBLY_MEMBERS
100
AcDbSpline
 62
7
  6
CONTINUOUS
 70
0
 71
3
 72
11
 73
7
 74
0
 42
0.0000001
 43
0.0000001
 44
0.0000000001
 40
0.0
 40
0.0
 40
0.0
 40
0.0
 40
0.2503260878
 40
0.5004235954
 40
0.7502703597
 40
1.0
 40
1.0
 40
1.0
 40
1.0
 10
5.4969526398
 20
4.393433535
 30
0.0
 10
5.4934785868
 20
4.34132274
 30
0.0
 10
5.4861008391
 20
4.2371786189
 30
0.0
 10
5.4756851323
 20
4.0809912275
 30
0.0
 10
5.4678722273
 20
3.9247684566
 30
0.0
 10
5.4657026398
 20
3.8205355643
 30
0.0
 10
5.4657026398
 20
3.768433535
 30
0.0
  0
SPLINE
  5
311
100
AcDbEntity
  8
ALL_ASSEMBLY_MEMBERS
100
AcDbSpline
 62
7
  6
CONTINUOUS
 70
0
 71
3
 72
11
 73
7
 74
0
 42
0.0000001
 43
0.0000001
 44
0.0000000001
 40
0.0
 40
0.0
 40
0.0
 40
0.0
 40
0.2503260878
 40
0.5004235954
 40
0.7502703597
 40
1.0
 40
1.0
 40
1.0
 40
1.0
 10
4.6844526398
 20
4.393433535
 30
0.0
 10
4.6879266928
 20
4.34132274
 30
0.0
 10
4.6953044404
 20
4.2371786189
 30
0.0
 10
4.7057201472
 20
4.0809912275
 30
0.0
 10
4.7135330522
 20
3.9247684566
 30
0.0
 10
4.7157026398
 20
3.8205355643
 30
0.0
 10
4.7157026398
 20
3.768433535
 30
0.0
  0
SPLINE
  5
312
100
AcDbEntity
  8
ALL_ASSEMBLY_MEMBERS
100
AcDbSpline
 62
7
  6
CONTINUOUS
 70
0
 71
3
 72
15
 73
11
 74
0
 42
0.0000001
 43
0.0000001
 44
0.0000000001
 40
0.0
 40
0.0
 40
0.0
 40
0.0
 40
0.170661003
 40
0.3366004574
 40
0.4932071603
 40
0.6361542659
 40
0.7614787828
 40
0.8657110063
 40
0.9459607323
 40
1.0
 40
1.0
 40
1.0
 40
1.0
 10
5.4657026398
 20
3.104933535
 30
0.0
 10
5.4657026398
 20
3.0772852195
 30
0.0
 10
5.4655389681
 20
3.0227534273
 30
0.0
 10
5.4649035692
 20
2.9428525791
 30
0.0
 10
5.4639837946
 20
2.8674447109
 30
0.0
 10
5.462885119
 20
2.7986199734
 30
0.0
 10
5.4617129683
 20
2.7382829299
 30
0.0
 10
5.4605733514
 20
2.688104892
 30
0.0
 10
5.4595717201
 20
2.6494756546
 30
0.0
 10
5.4589388473
 20
2.6277290259
 30
0.0
 10
5.4586654135
 20
2.6189785451
 30
0.0
  0
SPLINE
  5
313
100
AcDbEntity
  8
ALL_ASSEMBLY_MEMBERS
100
AcDbSpline
 62
7
  6
CONTINUOUS
 70
0
 71
3
 72
15
 73
11
 74
0
 42
0.0000001
 43
0.0000001
 44
0.0000000001
 40
0.0
 40
0.0
 40
0.0
 40
0.0
 40
0.1706630148
 40
0.3366042559
 40
0.4932123148
 40
0.6361601514
 40
0.7614846165
 40
0.8657158838
 40
0.9459636735
 40
1.0
 40
1.0
 40
1.0
 40
1.0
 10
4.7157026398
 20
3.104933535
 30
0.0
 10
4.7157026398
 20
3.077284736
 30
0.0
 10
4.715866317
 20
3.0227520176
 30
0.0
 10
4.7165017359
 20
2.9428498792
 30
0.0
 10
4.7174215365
 20
2.8674409539
 30
0.0
 10
4.7185202388
 20
2.7986154948
 30
0.0
 10
4.7196924111
 20
2.7382781526
 30
0.0
 10
4.7208320391
 20
2.688100306
 30
0.0
 10
4.7218336655
 20
2.6494717935
 30
0.0
 10
4.7224665278
 20
2.627725831
 30
0.0
 10
4.7227399525
 20
2.6189757768
 30
0.0
  0
SPLINE
  5
314
100
AcDbEntity
  8
ALL_ASSEMBLY_MEMBERS
100
AcDbSpline
 62
7
  6
CONTINUOUS
 70
0
 71
3
 72
9
 73
5
 74
0
 42
0.0000001
 43
0.0000001
 44
0.0000000001
 40
0.0
 40
0.0
 40
0.0
 40
0.0
 40
0.4999922199
 40
1.0
 40
1.0
 40
1.0
 40
1.0
 10
4.4969526398
 20
5.393433535
 30
0.0
 10
4.484401771
 20
5.434003477
 30
0.0
 10
4.4538218137
 20
5.513544015
 30
0.0
 10
4.4132199136
 20
5.5884352587
 30
0.0
 10
4.3907029749
 20
5.6244428166
 30
0.0
  0
SPLINE
  5
315
100
AcDbEntity
  8
ALL_ASSEMBLY_MEMBERS
100
AcDbSpline
 62
7
  6
CONTINUOUS
 70
0
 71
3
 72
9
 73
5
 74
0
 42
0.0000001
 43
0.0000001
 44
0.0000000001
 40
0.0
 40
0.0
 40
0.0
 40
0.0
 40
0.4999922197
 40
1.0
 40
1.0
 40
1.0
 40
1.0
 10
5.6844526398
 20
5.393433535
 30
0.0
 10
5.6970035085
 20
5.434003477
 30
0.0
 10
5.7275834658
 20
5.513544015
 30
0.0
 10
5.7681853659
 20
5.5884352587
 30
0.0
 10
5.7907023046
 20
5.6244428166
 30
0.0
  0
SPLINE
  5
316
100
AcDbEntity
  8
ALL_ASSEMBLY_MEMBERS
100
AcDbSpline
 62
7
  6
CONTINUOUS
 70
0
 71
3
 72
11
 73
7
 74
0
 42
0.0000001
 43
0.0000001
 44
0.0000000001
 40
0.0
 40
0.0
 40
0.0
 40
0.0
 40
0.2526417621
 40
0.5023277779
 40
0.7508580524
 40
1.0
 40
1.0
 40
1.0
 40
1.0
 10
5.3250776398
 20
5.018433535
 30
0.0
 10
5.3210354644
 20
4.9658852552
 30
0.0
 10
5.3139421505
 20
4.8613293111
 30
0.0
 10
5.3056688933
 20
4.704907709
 30
0.0
 10
5.2991633852
 20
4.54913516
 30
0.0
 10
5.2955591255
 20
4.4453781085
 30
0.0
 10
5.2938276398
 20
4.393433535
 30
0.0
  0
SPLINE
  5
317
100
AcDbEntity
  8
ALL_ASSEMBLY_MEMBERS
100
AcDbSpline
 62
7
  6
CONTINUOUS
 70
0
 71
3
 72
11
 73
7
 74
0
 42
0.0000001
 43
0.0000001
 44
0.0000000001
 40
0.0
 40
0.0
 40
0.0
 40
0.0
 40
0.2526417621
 40
0.5023277779
 40
0.7508580524
 40
1.0
 40
1.0
 40
1.0
 40
1.0
 10
4.8563276398
 20
5.018433535
 30
0.0
 10
4.8603698151
 20
4.9658852552
 30
0.0
 10
4.867463129
 20
4.8613293111
 30
0.0
 10
4.8757363862
 20
4.704907709
 30
0.0
 10
4.8822418943
 20
4.54913516
 30
0.0
 10
4.885846154
 20
4.4453781085
 30
0.0
 10
4.8875776398
 20
4.393433535
 30
0.0
  0
SPLINE
  5
318
100
AcDbEntity
  8
ALL_ASSEMBLY_MEMBERS
100
AcDbSpline
 62
7
  6
CONTINUOUS
 70
0
 71
3
 72
9
 73
5
 74
0
 42
0.0000001
 43
0.0000001
 44
0.0000000001
 40
0.0
 40
0.0
 40
0.0
 40
0.0
 40
0.5001379753
 40
1.0
 40
1.0
 40
1.0
 40
1.0
 10
5.2938276398
 20
4.393433535
 30
0.0
 10
5.2903551821
 20
4.2892598063
 30
0.0
 10
5.2825417276
 20
4.0810060721
 30
0.0
 10
5.2782026398
 20
3.8726076123
 30
0.0
 10
5.2782026398
 20
3.768433535
 30
0.0
  0
SPLINE
  5
319
100
AcDbEntity
  8
ALL_ASSEMBLY_MEMBERS
100
AcDbSpline
 62
7
  6
CONTINUOUS
 70
0
 71
3
 72
9
 73
5
 74
0
 42
0.0000001
 43
0.0000001
 44
0.0000000001
 40
0.0
 40
0.0
 40
0.0
 40
0.0
 40
0.5001379753
 40
1.0
 40
1.0
 40
1.0
 40
1.0
 10
4.8875776398
 20
4.393433535
 30
0.0
 10
4.8910500974
 20
4.2892598063
 30
0.0
 10
4.8988635519
 20
4.0810060721
 30
0.0
 10
4.9032026398
 20
3.8726076123
 30
0.0
 10
4.9032026398
 20
3.768433535
 30
0.0
  0
SPLINE
  5
31A
100
AcDbEntity
  8
ALL_ASSEMBLY_MEMBERS
100
AcDbSpline
 62
7
  6
CONTINUOUS
 70
0
 71
3
 72
17
 73
13
 74
0
 42
0.0000001
 43
0.0000001
 44
0.0000000001
 40
0.0
 40
0.0
 40
0.0
 40
0.0
 40
0.1249996347
 40
0.2499996566
 40
0.312499721
 40
0.3749998036
 40
0.4999999912
 40
0.6250001777
 40
0.6875002648
 40
0.7500003324
 40
0.8750003639
 40
1.0
 40
1.0
 40
1.0
 40
1.0
 10
5.3847072358
 20
5.3934335349
 30
0.0
 10
5.3602085551
 20
5.3931201472
 30
0.0
 10
5.3112087905
 20
5.392673466
 30
0.0
 10
5.2499575173
 20
5.392391975
 30
0.0
 10
5.2009561382
 20
5.3922613334
 30
0.0
 10
5.151954634
 20
5.3921728576
 30
0.0
 10
5.0907026446
 20
5.3921332178
 30
0.0
 10
5.029450655
 20
5.392173162
 30
0.0
 10
4.9804491483
 20
5.392260973
 30
0.0
 10
4.9314477649
 20
5.3923913743
 30
0.0
 10
4.8701964931
 20
5.3926738885
 30
0.0
 10
4.821196728
 20
5.3931204528
 30
0.0
 10
4.7966980431
 20
5.3934335349
 30
0.0
  0
SPLINE
  5
31B
100
AcDbEntity
  8
ALL_ASSEMBLY_MEMBERS
100
AcDbSpline
 62
7
  6
CONTINUOUS
 70
0
 71
3
 72
15
 73
11
 74
0
 42
0.0000001
 43
0.0000001
 44
0.0000000001
 40
0.0
 40
0.0
 40
0.0
 40
0.0
 40
0.1249997138
 40
0.2499998158
 40
0.3749998716
 40
0.4999999928
 40
0.62500011
 40
0.7500001682
 40
0.8750002868
 40
1.0
 40
1.0
 40
1.0
 40
1.0
 10
5.3847072214
 20
5.3934335351
 30
0.0
 10
5.3602085382
 20
5.3937480243
 30
0.0
 10
5.3112086745
 20
5.3941881189
 30
0.0
 10
5.2377071722
 20
5.3945341205
 30
0.0
 10
5.1642049793
 20
5.3947008757
 30
0.0
 10
5.0907026442
 20
5.3947512564
 30
0.0
 10
5.017200309
 20
5.3947007973
 30
0.0
 10
4.9436981118
 20
5.3945343974
 30
0.0
 10
4.8701966086
 20
5.3941880394
 30
0.0
 10
4.8211967371
 20
5.3937483151
 30
0.0
 10
4.7966980578
 20
5.3934335351
 30
0.0
  0
SPLINE
  5
31C
100
AcDbEntity
  8
ALL_ASSEMBLY_MEMBERS
100
AcDbSpline
 62
7
  6
CONTINUOUS
 70
0
 71
3
 72
9
 73
5
 74
0
 42
0.0000001
 43
0.0000001
 44
0.0000000001
 40
0.0
 40
0.0
 40
0.0
 40
0.0
 40
0.5005059225
 40
1.0
 40
1.0
 40
1.0
 40
1.0
 10
5.6830174378
 20
5.3934335349
 30
0.0
 10
5.6703057851
 20
5.3931102383
 30
0.0
 10
5.6449032813
 20
5.3926552342
 30
0.0
 10
5.6194983062
 20
5.3924315497
 30
0.0
 10
5.6068085004
 20
5.3923517925
 30
0.0
  0
SPLINE
  5
31D
100
AcDbEntity
  8
ALL_ASSEMBLY_MEMBERS
100
AcDbSpline
 62
7
  6
CONTINUOUS
 70
0
 71
3
 72
13
 73
9
 74
0
 42
0.0000001
 43
0.0000001
 44
0.0000000001
 40
0.0
 40
0.0
 40
0.0
 40
0.0
 40
0.1254112253
 40
0.2507083334
 40
0.5009939877
 40
0.625975445
 40
0.7508182922
 40
1.0
 40
1.0
 40
1.0
 40
1.0
 10
5.6049102854
 20
5.392340102
 30
0.0
 10
5.5958847504
 20
5.3922856443
 30
0.0
 10
5.5778417116
 20
5.3922062402
 30
0.0
 10
5.5417858236
 20
5.3921292711
 30
0.0
 10
5.5057607192
 20
5.3921600398
 30
0.0
 10
5.4697685985
 20
5.3923054665
 30
0.0
 10
5.4338568052
 20
5.39256875
 30
0.0
 10
5.4069402328
 20
5.3929725938
 30
0.0
 10
5.3890128414
 20
5.3934335349
 30
0.0
  0
SPLINE
  5
31E
100
AcDbEntity
  8
ALL_ASSEMBLY_MEMBERS
100
AcDbSpline
 62
7
  6
CONTINUOUS
 70
0
 71
3
 72
9
 73
5
 74
0
 42
0.0000001
 43
0.0000001
 44
0.0000000001
 40
0.0
 40
0.0
 40
0.0
 40
0.0
 40
0.4994883933
 40
1.0
 40
1.0
 40
1.0
 40
1.0
 10
5.6830174306
 20
5.3934335351
 30
0.0
 10
5.6704287932
 20
5.3937586724
 30
0.0
 10
5.6452205178
 20
5.3942066935
 30
0.0
 10
5.6200100045
 20
5.3944365556
 30
0.0
 10
5.607391651
 20
5.3945204157
 30
0.0
  0
SPLINE
  5
31F
100
AcDbEntity
  8
ALL_ASSEMBLY_MEMBERS
100
AcDbSpline
 62
7
  6
CONTINUOUS
 70
0
 71
3
 72
12
 73
8
 74
0
 42
0.0000001
 43
0.0000001
 44
0.0000000001
 40
0.0
 40
0.0
 40
0.0
 40
0.0
 40
0.2494912617
 40
0.4992429288
 40
0.7493037276
 40
0.8745342877
 40
1.0
 40
1.0
 40
1.0
 40
1.0
 10
5.6049119218
 20
5.3945364833
 30
0.0
 10
5.5869565238
 20
5.3946498803
 30
0.0
 10
5.5510262447
 20
5.3947622832
 30
0.0
 10
5.4970992192
 20
5.3947147917
 30
0.0
 10
5.4521154476
 20
5.3944704315
 30
0.0
 10
5.4160788233
 20
5.3940239768
 30
0.0
 10
5.3980396059
 20
5.393664127
 30
0.0
 10
5.3890128488
 20
5.3934335351
 30
0.0
  0
SPLINE
  5
320
100
AcDbEntity
  8
ALL_ASSEMBLY_MEMBERS
100
AcDbSpline
 62
7
  6
CONTINUOUS
 70
0
 71
3
 72
13
 73
9
 74
0
 42
0.0000001
 43
0.0000001
 44
0.0000000001
 40
0.0
 40
0.0
 40
0.0
 40
0.0
 40
0.2491819847
 40
0.3740253321
 40
0.4990063101
 40
0.7492920159
 40
0.8745892365
 40
1.0
 40
1.0
 40
1.0
 40
1.0
 10
4.7923924378
 20
5.3934335349
 30
0.0
 10
4.7744652094
 20
5.3929721453
 30
0.0
 10
4.7475488252
 20
5.3925685463
 30
0.0
 10
4.7116373495
 20
5.3923062349
 30
0.0
 10
4.6756455732
 20
5.3921595332
 30
0.0
 10
4.6396208325
 20
5.3921291596
 30
0.0
 10
4.6035653129
 20
5.3922064927
 30
0.0
 10
4.5855224679
 20
5.3922851228
 30
0.0
 10
4.5764970526
 20
5.392339608
 30
0.0
  0
SPLINE
  5
321
100
AcDbEntity
  8
ALL_ASSEMBLY_MEMBERS
100
AcDbSpline
 62
7
  6
CONTINUOUS
 70
0
 71
3
 72
9
 73
5
 74
0
 42
0.0000001
 43
0.0000001
 44
0.0000000001
 40
0.0
 40
0.0
 40
0.0
 40
0.0
 40
0.4994829261
 40
1.0
 40
1.0
 40
1.0
 40
1.0
 10
4.5764970526
 20
5.392339608
 30
0.0
 10
4.5634911281
 20
5.3924181231
 30
0.0
 10
4.5374526911
 20
5.3926410197
 30
0.0
 10
4.5114167264
 20
5.3931024914
 30
0.0
 10
4.4983878414
 20
5.3934335349
 30
0.0
  0
SPLINE
  5
322
100
AcDbEntity
  8
ALL_ASSEMBLY_MEMBERS
100
AcDbSpline
 62
7
  6
CONTINUOUS
 70
0
 71
3
 72
12
 73
8
 74
0
 42
0.0000001
 43
0.0000001
 44
0.0000000001
 40
0.0
 40
0.0
 40
0.0
 40
0.0
 40
0.1254655181
 40
0.2506962183
 40
0.5007569688
 40
0.7505087244
 40
1.0
 40
1.0
 40
1.0
 40
1.0
 10
4.7923924306
 20
5.3934335351
 30
0.0
 10
4.7833656963
 20
5.3936639147
 30
0.0
 10
4.7653265137
 20
5.3940237911
 30
0.0
 10
4.7292899566
 20
5.3944705512
 30
0.0
 10
4.6843062415
 20
5.3947147412
 30
0.0
 10
4.6303792982
 20
5.3947624132
 30
0.0
 10
4.5944490673
 20
5.3946501413
 30
0.0
 10
4.5764936971
 20
5.3945366733
 30
0.0
  0
SPLINE
  5
323
100
AcDbEntity
  8
ALL_ASSEMBLY_MEMBERS
100
AcDbSpline
 62
7
  6
CONTINUOUS
 70
0
 71
3
 72
9
 73
5
 74
0
 42
0.0000001
 43
0.0000001
 44
0.0000000001
 40
0.0
 40
0.0
 40
0.0
 40
0.0
 40
0.5005175995
 40
1.0
 40
1.0
 40
1.0
 40
1.0
 10
4.5759065551
 20
5.3945329401
 30
0.0
 10
4.562972218
 20
5.3944501987
 30
0.0
 10
4.5371306969
 20
5.3942208761
 30
0.0
 10
4.5112913873
 20
5.3937671156
 30
0.0
 10
4.4983878487
 20
5.3934335351
 30
0.0
  0
SPLINE
  5
324
100
AcDbEntity
  8
ALL_ASSEMBLY_MEMBERS
100
AcDbSpline
 62
7
  6
CONTINUOUS
 70
0
 71
3
 72
12
 73
8
 74
0
 42
0.0000001
 43
0.0000001
 44
0.0000000001
 40
0.0
 40
0.0
 40
0.0
 40
0.0
 40
0.2495869832
 40
0.4994048298
 40
0.7493735101
 40
0.8745247246
 40
1.0
 40
1.0
 40
1.0
 40
1.0
 10
5.3875776398
 20
5.393433535
 30
0.0
 10
5.3827872728
 20
5.3621552564
 30
0.0
 10
5.3713980622
 20
5.2998514429
 30
0.0
 10
5.3525135287
 20
5.2067503198
 30
0.0
 10
5.338233934
 20
5.1287919962
 30
0.0
 10
5.3294811389
 20
5.065921195
 30
0.0
 10
5.3262977222
 20
5.0342946066
 30
0.0
 10
5.3250776398
 20
5.018433535
 30
0.0
  0
LINE
  5
325
100
AcDbEntity
  8
ALL_ASSEMBLY_MEMBERS
100
AcDbLine
 62
7
  6
CONTINUOUS
 10
5.2782026398
 20
3.104933535
 11
5.2779985187
 21
2.9231366011
  0
SPLINE
  5
326
100
AcDbEntity
  8
ALL_ASSEMBLY_MEMBERS
100
AcDbSpline
 62
7
  6
CONTINUOUS
 70
0
 71
3
 72
15
 73
11
 74
0
 42
0.0000001
 43
0.0000001
 44
0.0000000001
 40
0.0
 40
0.0
 40
0.0
 40
0.0
 40
0.2067378982
 40
0.3993070031
 40
0.5722291762
 40
0.7206515784
 40
0.8404502992
 40
0.9283456573
 40
0.9819847703
 40
1.0
 40
1.0
 40
1.0
 40
1.0
 10
5.2779985187
 20
2.9231366011
 30
0.0
 10
5.2779035012
 20
2.879275281
 30
0.0
 10
5.2776603181
 20
2.7945587982
 30
0.0
 10
5.2771597341
 20
2.6731559096
 30
0.0
 10
5.2765862445
 20
2.564125691
 30
0.0
 10
5.2759937141
 20
2.4705347798
 30
0.0
 10
5.2754377864
 20
2.3949832909
 30
0.0
 10
5.2749712003
 20
2.3395409109
 30
0.0
 10
5.2746544219
 20
2.3056923871
 30
0.0
 10
5.2744942633
 20
2.2904910763
 30
0.0
 10
5.2744526398
 20
2.2866691991
 30
0.0
  0
LINE
  5
327
100
AcDbEntity
  8
ALL_ASSEMBLY_MEMBERS
100
AcDbLine
 62
7
  6
CONTINUOUS
 10
4.9032026398
 20
3.104933535
 11
4.9034067608
 21
2.9231366011
  0
SPLINE
  5
328
100
AcDbEntity
  8
ALL_ASSEMBLY_MEMBERS
100
AcDbSpline
 62
7
  6
CONTINUOUS
 70
0
 71
3
 72
15
 73
11
 74
0
 42
0.0000001
 43
0.0000001
 44
0.0000000001
 40
0.0
 40
0.0
 40
0.0
 40
0.0
 40
0.2067378982
 40
0.3993070031
 40
0.5722291762
 40
0.7206515784
 40
0.8404502992
 40
0.9283456573
 40
0.9819847703
 40
1.0
 40
1.0
 40
1.0
 40
1.0
 10
4.9034067608
 20
2.9231366011
 30
0.0
 10
4.9035017783
 20
2.879275281
 30
0.0
 10
4.9037449614
 20
2.7945587982
 30
0.0
 10
4.9042455454
 20
2.6731559096
 30
0.0
 10
4.904819035
 20
2.564125691
 30
0.0
 10
4.9054115654
 20
2.4705347798
 30
0.0
 10
4.9059674931
 20
2.3949832909
 30
0.0
 10
4.9064340792
 20
2.3395409109
 30
0.0
 10
4.9067508576
 20
2.3056923871
 30
0.0
 10
4.9069110162
 20
2.2904910763
 30
0.0
 10
4.9069526398
 20
2.2866691991
 30
0.0
  0
SPLINE
  5
329
100
AcDbEntity
  8
ALL_ASSEMBLY_MEMBERS
100
AcDbSpline
 62
7
  6
CONTINUOUS
 70
0
 71
3
 72
11
 73
7
 74
0
 42
0.0000001
 43
0.0000001
 44
0.0000000001
 40
0.0
 40
0.0
 40
0.0
 40
0.0
 40
0.2575626437
 40
0.5105934824
 40
0.7582902576
 40
1.0
 40
1.0
 40
1.0
 40
1.0
 10
5.3875776398
 20
5.393433535
 30
0.0
 10
5.3906912507
 20
5.4135626619
 30
0.0
 10
5.3975750303
 20
5.4533606592
 30
0.0
 10
5.4099406528
 20
5.5120522611
 30
0.0
 10
5.4241838655
 20
5.5690254609
 30
0.0
 10
5.4349981751
 20
5.6061989682
 30
0.0
 10
5.4407024722
 20
5.6244428166
 30
0.0
  0
SPLINE
  5
32A
100
AcDbEntity
  8
ALL_ASSEMBLY_MEMBERS
100
AcDbSpline
 62
7
  6
CONTINUOUS
 70
0
 71
3
 72
11
 73
7
 74
0
 42
0.0000001
 43
0.0000001
 44
0.0000000001
 40
0.0
 40
0.0
 40
0.0
 40
0.0
 40
0.2417097421
 40
0.4894065172
 40
0.7424373561
 40
1.0
 40
1.0
 40
1.0
 40
1.0
 10
4.7407028073
 20
5.6244428166
 30
0.0
 10
4.7464071044
 20
5.6061989682
 30
0.0
 10
4.757221414
 20
5.5690254609
 30
0.0
 10
4.7714646267
 20
5.5120522612
 30
0.0
 10
4.7838302492
 20
5.4533606593
 30
0.0
 10
4.7907140288
 20
5.4135626619
 30
0.0
 10
4.7938276398
 20
5.393433535
 30
0.0
  0
SPLINE
  5
32B
100
AcDbEntity
  8
ALL_ASSEMBLY_MEMBERS
100
AcDbSpline
 62
7
  6
CONTINUOUS
 70
0
 71
3
 72
12
 73
8
 74
0
 42
0.0000001
 43
0.0000001
 44
0.0000000001
 40
0.0
 40
0.0
 40
0.0
 40
0.0
 40
0.2495869832
 40
0.4994048298
 40
0.7493735101
 40
0.8745247246
 40
1.0
 40
1.0
 40
1.0
 40
1.0
 10
4.7938276398
 20
5.393433535
 30
0.0
 10
4.7986180067
 20
5.3621552564
 30
0.0
 10
4.8100072173
 20
5.2998514429
 30
0.0
 10
4.8288917508
 20
5.2067503198
 30
0.0
 10
4.8431713455
 20
5.1287919962
 30
0.0
 10
4.8519241406
 20
5.065921195
 30
0.0
 10
4.8551075573
 20
5.0342946066
 30
0.0
 10
4.8563276398
 20
5.018433535
 30
0.0
  0
SPLINE
  5
32C
100
AcDbEntity
  8
ALL_ASSEMBLY_MEMBERS
100
AcDbSpline
 62
7
  6
CONTINUOUS
 70
0
 71
3
 72
23
 73
19
 74
0
 42
0.0000001
 43
0.0000001
 44
0.0000000001
 40
0.0
 40
0.0
 40
0.0
 40
0.0
 40
0.0622073012
 40
0.1208766345
 40
0.1765322075
 40
0.2298974282
 40
0.2818830221
 40
0.3334848398
 40
0.3857438771
 40
0.439641505
 40
0.4960409954
 40
0.5556455161
 40
0.6189863535
 40
0.6864333188
 40
0.7582139266
 40
0.8344379586
 40
0.9150733331
 40
1.0
 40
1.0
 40
1.0
 40
1.0
 10
5.6969201266
 20
5.768433535
 30
0.0
 10
5.7009891615
 20
5.7684335351
 30
0.0
 10
5.7089027591
 20
5.7680766858
 30
0.0
 10
5.7203428515
 20
5.7663466409
 30
0.0
 10
5.7309468255
 20
5.7634313333
 30
0.0
 10
5.7406798866
 20
5.7593245994
 30
0.0
 10
5.7495180768
 20
5.7540319544
 30
0.0
 10
5.7574401865
 20
5.7475596962
 30
0.0
 10
5.7644417323
 20
5.7399337293
 30
0.0
 10
5.7705295879
 20
5.7311799683
 30
0.0
 10
5.7757232326
 20
5.7213273095
 30
0.0
 10
5.7800645213
 20
5.7104085043
 30
0.0
 10
5.7835898014
 20
5.6984488066
 30
0.0
 10
5.7863481337
 20
5.6854778576
 30
0.0
 10
5.7883932582
 20
5.6715261499
 30
0.0
 10
5.7897744775
 20
5.6566287581
 30
0.0
 10
5.7905515585
 20
5.6408285454
 30
0.0
 10
5.7907023046
 20
5.6299979454
 30
0.0
 10
5.7907023046
 20
5.6244428166
 30
0.0
  0
SPLINE
  5
32D
100
AcDbEntity
  8
ALL_ASSEMBLY_MEMBERS
100
AcDbSpline
 62
7
  6
CONTINUOUS
 70
0
 71
3
 72
15
 73
11
 74
0
 42
0.0000001
 43
0.0000001
 44
0.0000000001
 40
0.0
 40
0.0
 40
0.0
 40
0.0
 40
0.1293344228
 40
0.2580291702
 40
0.3855100424
 40
0.5114088397
 40
0.6355793551
 40
0.7581362359
 40
0.8794477088
 40
1.0
 40
1.0
 40
1.0
 40
1.0
 10
5.0907026455
 20
5.768433535
 30
0.0
 10
5.1074803275
 20
5.7684335348
 30
0.0
 10
5.1409738613
 20
5.7668779266
 30
0.0
 10
5.1905639937
 20
5.7598830173
 30
0.0
 10
5.2388277156
 20
5.7482574279
 30
0.0
 10
5.2851421649
 20
5.7320701761
 30
0.0
 10
5.3289541712
 20
5.7114350657
 30
0.0
 10
5.369800346
 20
5.6865338553
 30
0.0
 10
5.4073169008
 20
5.6576233388
 30
0.0
 10
5.4300036145
 20
5.6358487405
 30
0.0
 10
5.4407024722
 20
5.6244428166
 30
0.0
  0
SPLINE
  5
32E
100
AcDbEntity
  8
ALL_ASSEMBLY_MEMBERS
100
AcDbSpline
 62
7
  6
CONTINUOUS
 70
0
 71
3
 72
20
 73
16
 74
0
 42
0.0000001
 43
0.0000001
 44
0.0000000001
 40
0.0
 40
0.0
 40
0.0
 40
0.0
 40
0.1534126034
 40
0.3013802289
 40
0.3728487345
 40
0.4423981419
 40
0.5750224991
 40
0.6377928616
 40
0.6979755678
 40
0.755443546
 40
0.8101103686
 40
0.8619071431
 40
0.9107996134
 40
0.9568089061
 40
1.0
 40
1.0
 40
1.0
 40
1.0
 10
5.4407024722
 20
5.6244428166
 30
0.0
 10
5.4512249168
 20
5.6356606688
 30
0.0
 10
5.4727111745
 20
5.6569502094
 30
0.0
 10
5.5011955374
 20
5.6812156895
 30
0.0
 10
5.5243346722
 20
5.6986633595
 30
0.0
 10
5.5468861881
 20
5.7142950477
 30
0.0
 10
5.5696280326
 20
5.728094883
 30
0.0
 10
5.5923890125
 20
5.739878925
 30
0.0
 10
5.6088317608
 20
5.7474347722
 30
0.0
 10
5.6248785641
 20
5.7538552723
 30
0.0
 10
5.6404533264
 20
5.7591305173
 30
0.0
 10
5.6554838763
 20
5.7632515651
 30
0.0
 10
5.6699026893
 20
5.7662105133
 30
0.0
 10
5.6836434038
 20
5.7680040014
 30
0.0
 10
5.6925896807
 20
5.7684335262
 30
0.0
 10
5.6969198582
 20
5.768433535
 30
0.0
  0
SPLINE
  5
32F
100
AcDbEntity
  8
ALL_ASSEMBLY_MEMBERS
100
AcDbSpline
 62
7
  6
CONTINUOUS
 70
0
 71
3
 72
23
 73
19
 74
0
 42
0.0000001
 43
0.0000001
 44
0.0000000001
 40
0.0
 40
0.0
 40
0.0
 40
0.0
 40
0.084900419
 40
0.1655284185
 40
0.241766455
 40
0.3135667412
 40
0.3810186824
 40
0.4443593111
 40
0.5039608051
 40
0.5603590415
 40
0.614255389
 40
0.6665109236
 40
0.71811608
 40
0.7700990563
 40
0.8234719033
 40
0.8791476285
 40
0.9378133706
 40
1.0
 40
1.0
 40
1.0
 40
1.0
 10
4.3907029749
 20
5.6244428166
 30
0.0
 10
4.3907029749
 20
5.6299961989
 30
0.0
 10
4.3908539196
 20
5.6408245437
 30
0.0
 10
4.3916314502
 20
5.6566233573
 30
0.0
 10
4.3930118326
 20
5.6715224393
 30
0.0
 10
4.3950561165
 20
5.6854768168
 30
0.0
 10
4.3978174183
 20
5.6984487185
 30
0.0
 10
4.4013413665
 20
5.7104086598
 30
0.0
 10
4.4056799267
 20
5.7213284448
 30
0.0
 10
4.4108792688
 20
5.7311776556
 30
0.0
 10
4.4169647636
 20
5.7399319887
 30
0.0
 10
4.4239630361
 20
5.7475611447
 30
0.0
 10
4.4318872012
 20
5.7540306236
 30
0.0
 10
4.4407247369
 20
5.7593249825
 30
0.0
 10
4.4504596851
 20
5.7634318414
 30
0.0
 10
4.4610656327
 20
5.7663454737
 30
0.0
 10
4.4725051702
 20
5.7680764554
 30
0.0
 10
4.4804171631
 20
5.7684335253
 30
0.0
 10
4.4844848242
 20
5.768433535
 30
0.0
  0
SPLINE
  5
330
100
AcDbEntity
  8
ALL_ASSEMBLY_MEMBERS
100
AcDbSpline
 62
7
  6
CONTINUOUS
 70
0
 71
3
 72
20
 73
16
 74
0
 42
0.0000001
 43
0.0000001
 44
0.0000000001
 40
0.0
 40
0.0
 40
0.0
 40
0.0
 40
0.0431889091
 40
0.0891921363
 40
0.1380760145
 40
0.1898615158
 40
0.2445158408
 40
0.3019762744
 40
0.3621582478
 40
0.4249264955
 40
0.5575529567
 40
0.6271096422
 40
0.6985883467
 40
0.8465783225
 40
1.0
 40
1.0
 40
1.0
 40
1.0
 10
4.4844851424
 20
5.768433535
 30
0.0
 10
4.4888151045
 20
5.7684335351
 30
0.0
 10
4.4977605635
 20
5.7680041936
 30
0.0
 10
4.5114996517
 20
5.7662111968
 30
0.0
 10
4.525915967
 20
5.7632529615
 30
0.0
 10
4.5409434949
 20
5.7591331422
 30
0.0
 10
4.5565154846
 20
5.753859459
 30
0.0
 10
4.5725605062
 20
5.7474400638
 30
0.0
 10
4.589002534
 20
5.7398851449
 30
0.0
 10
4.6117644181
 20
5.7281029474
 30
0.0
 10
4.6345068231
 20
5.7143025138
 30
0.0
 10
4.6570605278
 20
5.6986705368
 30
0.0
 10
4.6802035207
 20
5.6812212731
 30
0.0
 10
4.7086904458
 20
5.6569523107
 30
0.0
 10
4.7301797316
 20
5.6356613416
 30
0.0
 10
4.7407028073
 20
5.6244428166
 30
0.0
  0
SPLINE
  5
331
100
AcDbEntity
  8
ALL_ASSEMBLY_MEMBERS
100
AcDbSpline
 62
7
  6
CONTINUOUS
 70
0
 71
3
 72
17
 73
13
 74
0
 42
0.0000001
 43
0.0000001
 44
0.0000000001
 40
0.0
 40
0.0
 40
0.0
 40
0.0
 40
0.1205309259
 40
0.1810869786
 40
0.2418913206
 40
0.3030031613
 40
0.3644822992
 40
0.4886456298
 40
0.6145354785
 40
0.7419966404
 40
0.8706879
 40
1.0
 40
1.0
 40
1.0
 40
1.0
 10
4.7407028073
 20
5.6244428166
 30
0.0
 10
4.7514006583
 20
5.6358476673
 30
0.0
 10
4.7683946149
 20
5.6521538718
 30
0.0
 10
4.7927266905
 20
5.6719887372
 30
0.0
 10
4.8118741068
 20
5.6859306053
 30
0.0
 10
4.8318500418
 20
5.6988773146
 30
0.0
 10
4.8596283315
 20
5.7148147214
 30
0.0
 10
4.8962664059
 20
5.7320723734
 30
0.0
 10
4.9425786601
 20
5.748256872
 30
0.0
 10
4.9908426662
 20
5.7598837126
 30
0.0
 10
5.0404310908
 20
5.7668771642
 30
0.0
 10
5.0739240245
 20
5.7684334595
 30
0.0
 10
5.0907002055
 20
5.768433535
 30
0.0
  0
ELLIPSE
  5
332
100
AcDbEntity
  8
ALL_FEATURES
100
AcDbEllipse
 62
7
  6
CONTINUOUS
 10
3.1222026398
 20
5.3636841498
 30
0.0
 11
0.59375
 21
-0.0
 31
0.0
 40
0.9750549296
 41
1.0471975512
 42
2.0943951024
  0
ELLIPSE
  5
333
100
AcDbEntity
  8
ALL_FEATURES
100
AcDbEllipse
 62
7
  6
CONTINUOUS
 10
3.1222026398
 20
5.3636841498
 30
0.0
 11
-0.5746235355
 21
0.5581047699
 31
0.0
 40
0.2678505055
 41
-0.7926884546
 42
0.2545090966
  0
ELLIPSE
  5
334
100
AcDbEntity
  8
ALL_FEATURES
100
AcDbEllipse
 62
7
  6
CONTINUOUS
 10
3.1222026398
 20
5.3636841498
 30
0.0
 11
0.5746235355
 21
0.5581047699
 31
0.0
 40
0.2678505055
 41
-0.2545090966
 42
0.7926884546
  0
ELLIPSE
  5
335
100
AcDbEntity
  8
ALL_FEATURES
100
AcDbEllipse
 62
7
  6
CONTINUOUS
 10
7.0592026398
 20
5.3636841498
 30
0.0
 11
0.5746235355
 21
0.5581047699
 31
0.0
 40
0.2678505055
 41
-0.2545090966
 42
0.7926884546
  0
ELLIPSE
  5
336
100
AcDbEntity
  8
ALL_FEATURES
100
AcDbEllipse
 62
7
  6
CONTINUOUS
 10
7.0592026398
 20
5.3636841498
 30
0.0
 11
0.59375
 21
-0.0
 31
0.0
 40
0.9750549296
 41
1.0471975512
 42
2.0943951024
  0
ELLIPSE
  5
337
100
AcDbEntity
  8
ALL_FEATURES
100
AcDbEllipse
 62
7
  6
CONTINUOUS
 10
7.0592026398
 20
5.3636841498
 30
0.0
 11
-0.5746235355
 21
0.5581047699
 31
0.0
 40
0.2678505055
 41
-0.7926884546
 42
0.2545090966
  0
ENDSEC
  0
SECTION
  2
OBJECTS
  0
DICTIONARY
  5
C
100
AcDbDictionary
280
0
281
1
  3
ACAD_GROUP
350
D
  3
ACAD_MLINESTYLE
350
17
  3
ACAD_LAYOUT
350
1A
  3
ACAD_PLOTSETTINGS
350
19
  3
ACAD_PLOTSTYLENAME
350
E
  0
DICTIONARY
  5
D
102
{ACAD_REACTORS
330
C
102
}
100
AcDbDictionary
280
0
281
1
  0
ACDBDICTIONARYWDFLT
  5
E
102
{ACAD_REACTORS
330
C
102
}
100
AcDbDictionary
281
1
  3
Normal
350
F
100
AcDbDictionaryWithDefault
340
F
  0
DICTIONARY
  5
17
102
{ACAD_REACTORS
330
C
102
}
100
AcDbDictionary
280
0
281
1
  3
Standard
350
18
  0
DICTIONARY
  5
19
102
{ACAD_REACTORS
330
C
102
}
100
AcDbDictionary
281
1
  0
DICTIONARY
  5
1A
102
{ACAD_REACTORS
330
C
102
}
100
AcDbDictionary
281
1
  3
Model
350
338
  3
Layout1
350
339
  0
ACDBPLACEHOLDER
  5
F
102
{ACAD_REACTORS
330
E
102
}
  0
MLINESTYLE
  5
18
102
{ACAD_REACTORS
330
17
102
}
100
AcDbMlineStyle
  2
STANDARD
 70
0
  3

 62
256
 51
90.0
 52
90.0
 71
2
 49
0.5
 62
256
  6
BYLAYER
 49
-0.5
 62
256
  6
BYLAYER
  0
LAYOUT
  5
338
102
{ACAD_REACTORS
330
1A
102
}
100
AcDbPlotSettings
  1

  2
none_device
  4
ANSI_A_(11.00_x_8.50_Inches)
  6

 40
0.0
 41
0.0
 42
0.0
 43
0.0
 44
279.4
 45
215.9
 46
0.0
 47
0.0
 48
0.0
 49
0.0
140
0.0
141
0.0
142
1.0
143
1.0
 70
1024
 72
0
 73
0
 74
0
  7

 75
0
147
1.0
148
0.0
149
0.0
100
AcDbLayout
  1
Model
 70
0
 71
0
 10
0.0
 20
0.0
 11
11.0
 21
8.5
 12
0.0
 22
0.0
 32
0.0
 14
0.0
 24
0.0
 34
0.0
 15
0.0
 25
0.0
 35
0.0
146
0.0
 13
0.0
 23
0.0
 33
0.0
 16
1.0
 26
0.0
 36
0.0
 17
0.0
 27
1.0
 37
0.0
 76
0
330
21F
345
0
346
0
  0
LAYOUT
  5
339
102
{ACAD_REACTORS
330
1A
102
}
100
AcDbPlotSettings
  1

  2
none_device
  4
ANSI_A_(11.00_x_8.50_Inches)
  6

 40
0.0
 41
0.0
 42
0.0
 43
0.0
 44
279.4
 45
215.9
 46
0.0
 47
0.0
 48
0.0
 49
0.0
140
0.0
141
0.0
142
1.0
143
1.0
 70
0
 72
0
 73
0
 74
0
  7

 75
0
147
1.0
148
0.0
149
0.0
100
AcDbLayout
  1
Layout1
 70
0
 71
1
 10
0.0
 20
0.0
 11
11.0
 21
8.5
 12
0.0
 22
0.0
 32
0.0
 14
0.0
 24
0.0
 34
0.0
 15
0.0
 25
0.0
 35
0.0
146
0.0
 13
0.0
 23
0.0
 33
0.0
 16
1.0
 26
0.0
 36
0.0
 17
0.0
 27
1.0
 37
0.0
 76
0
330
220
345
0
346
0
  0
ENDSEC
  0
EOF
