999
DXF file: E:\BT Custom\CADOUTPUT\_RIGHT.dxf
999
Pro/ENGINEER 2018400 by Parametric Technology Corporation
  0
SECTION
  2
HEADER
  9
$ACADVER
  1
AC1018
  9
$DWGCODEPAGE
  3
ANSI_1252
  9
$EXTMAX
 10
22.0
 20
17.0
 30
0.0
  9
$EXTMIN
 10
0.0
 20
0.0
 30
0.0
  9
$LIMMIN
 10
0.0
 20
0.0
  9
$LIMMAX
 10
22.0
 20
17.0
  9
$VIEWCTR
 10
11.0
 20
8.5
  9
$VIEWSIZE
 40
17.0
  9
$CLAYER
  8
0
  9
$LTSCALE
 40
1.21
  9
$CELTYPE
  6
BYLAYER
  9
$DIMSCALE
 40
1.0
  9
$DIMASZ
 40
0.1
  9
$DIMEXO
 40
0.0625
  9
$DIMDLI
 40
0.836
  9
$DIMEXE
 40
0.125
  9
$DIMCEN
 40
0.198
  9
$DIMLFAC
 40
1.0
  9
$DIMBLK
  1
_FILLED
  9
$DIMALT
 70
1
  9
$DIMALTD
 70
2
  9
$DIMALTTD
 70
2
  9
$DIMALTF
 40
25.4
  9
$DIMTXT
 40
0.08
  9
$DIMTOL
 70
1
  9
$DIMLIM
 70
0
  9
$DIMTFAC
 40
1.0
  9
$DIMTP
 40
0.001
  9
$DIMTM
 40
0.001
  9
$DIMGAP
 40
0.09
  9
$DIMDSEP
 70
46
  9
$AUNITS
 70
0
  9
$PDMODE
 70
3
  9
$PDSIZE
 40
0.06
  9
$HANDSEED
  5
283
  9
$TILEMODE
 70
1
  9
$MEASUREMENT
 70
0
  9
$INSUNITS
 70
1
  0
ENDSEC
  0
SECTION
  2
CLASSES
  0
CLASS
  1
ACDBDICTIONARYWDFLT
  2
AcDbDictionaryWithDefault
  3
AutoCAD 2000
 90
0
 91
1
280
0
281
0
  0
CLASS
  1
ACDBPLACEHOLDER
  2
AcDbPlaceHolder
  3
AutoCAD 2000
 90
0
 91
1
280
0
281
0
  0
CLASS
  1
LAYOUT
  2
AcDbLayout
  3
AutoCAD 2000
 90
0
 91
0
280
0
281
0
  0
ENDSEC
  0
SECTION
  2
TABLES
  0
TABLE
  2
VPORT
  5
8
100
AcDbSymbolTable
 70
2
  0
VPORT
  5
1F4
100
AcDbSymbolTableRecord
100
AcDbViewportTableRecord
  2
*ACTIVE
 70
0
 10
0.0
 20
0.0
 11
1.0
 21
1.0
 12
11.0
 22
8.5
 13
0.0
 23
0.0
 14
1.0
 24
1.0
 15
0.0
 25
0.0
 16
0.0
 26
0.0
 36
1.0
 17
0.0
 27
0.0
 37
0.0
 40
17.0
 41
1.2941176471
 42
50.0
 43
0.0
 44
0.0
 50
0.0
 51
0.0
 71
0
 72
100
 73
1
 74
1
 75
0
 76
0
 77
0
 78
0
  0
ENDTAB
  0
TABLE
  2
LTYPE
  5
5
100
AcDbSymbolTable
 70
6
  0
LTYPE
  5
14
100
AcDbSymbolTableRecord
100
AcDbLinetypeTableRecord
  2
BYBLOCK
 70
0
  3

 72
65
 73
0
 40
0.0
  0
LTYPE
  5
15
100
AcDbSymbolTableRecord
100
AcDbLinetypeTableRecord
  2
BYLAYER
 70
0
  3

 72
65
 73
0
 40
0.0
  0
LTYPE
  5
16
100
AcDbSymbolTableRecord
100
AcDbLinetypeTableRecord
  2
CONTINUOUS
 70
64
  3
Solid line
 72
65
 73
0
 40
0.0
  0
LTYPE
  5
1F5
100
AcDbSymbolTableRecord
100
AcDbLinetypeTableRecord
  2
CENTER
 70
64
  3
____ _ ____ _ ____ _ ____ _ ____ _ ____ _ ____
 72
65
 73
4
 40
0.6
 49
0.375
 74
0
 49
-0.075
 74
0
 49
0.075
 74
0
 49
-0.075
 74
0
  0
LTYPE
  5
1F6
100
AcDbSymbolTableRecord
100
AcDbLinetypeTableRecord
  2
HIDDEN
 70
64
  3
- - - - - - - - - - - - - - - - - - - -
 72
65
 73
2
 40
0.2
 49
0.1
 74
0
 49
-0.1
 74
0
  0
LTYPE
  5
1F7
100
AcDbSymbolTableRecord
100
AcDbLinetypeTableRecord
  2
PHANTOM
 70
64
  3
_____ _ _ _____ _ _ _____ _ _ _____
 72
65
 73
6
 40
0.8
 49
0.45
 74
0
 49
-0.05
 74
0
 49
0.1
 74
0
 49
-0.05
 74
0
 49
0.1
 74
0
 49
-0.05
 74
0
  0
LTYPE
  5
1F8
100
AcDbSymbolTableRecord
100
AcDbLinetypeTableRecord
  2
DOT
 70
64
  3
. . . . . . . . . . . . . . . . . . . .
 72
65
 73
2
 40
0.2
 49
0.1
 74
0
 49
-0.1
 74
0
  0
LTYPE
  5
1F9
100
AcDbSymbolTableRecord
100
AcDbLinetypeTableRecord
  2
DASHED
 70
64
  3
- - - - - - - - - - - - - - - - - - - -
 72
65
 73
2
 40
0.2
 49
0.1
 74
0
 49
-0.1
 74
0
  0
ENDTAB
  0
TABLE
  2
LAYER
  5
2
100
AcDbSymbolTable
 70
36
  0
LAYER
  5
10
100
AcDbSymbolTableRecord
100
AcDbLayerTableRecord
  2
0
 70
0
 62
7
  6
CONTINUOUS
370
-3
390
F
  0
LAYER
  5
1FA
100
AcDbSymbolTableRecord
100
AcDbLayerTableRecord
  2
DEFAULT_1
 70
0
 62
7
  6
CENTER
370
-3
390
F
  0
LAYER
  5
1FB
100
AcDbSymbolTableRecord
100
AcDbLayerTableRecord
  2
DEFAULT_2
 70
0
 62
8
  6
HIDDEN
370
-3
390
F
  0
LAYER
  5
1FC
100
AcDbSymbolTableRecord
100
AcDbLayerTableRecord
  2
DEFAULT_3
 70
0
 62
7
  6
PHANTOM
370
-3
390
F
  0
LAYER
  5
1FD
100
AcDbSymbolTableRecord
100
AcDbLayerTableRecord
  2
ALL_FEATURES
 70
0
 62
7
  6
CONTINUOUS
370
-3
390
F
  0
LAYER
  5
1FE
100
AcDbSymbolTableRecord
100
AcDbLayerTableRecord
  2
AXES_FEATURES
 70
0
 62
7
  6
CONTINUOUS
370
-3
390
F
  0
LAYER
  5
1FF
100
AcDbSymbolTableRecord
100
AcDbLayerTableRecord
  2
DIMENSIONS
 70
0
 62
7
  6
CONTINUOUS
370
-3
390
F
  0
ENDTAB
  0
TABLE
  2
STYLE
  5
3
100
AcDbSymbolTable
 70
1
  0
STYLE
  5
11
100
AcDbSymbolTableRecord
100
AcDbTextStyleTableRecord
  2
STANDARD
 70
0
 40
0.0
 41
0.8
 50
0.0
 71
0
 42
0.2
  3
txt
  4

  0
STYLE
  5
200
100
AcDbSymbolTableRecord
100
AcDbTextStyleTableRecord
  2
TEXTSTYLE_1
 70
0
 40
0.0
 41
0.8
 50
0.0
 71
0
 42
0.2
  3
gdt
  4

  0
ENDTAB
  0
TABLE
  2
VIEW
  5
6
100
AcDbSymbolTable
 70
0
  0
ENDTAB
  0
TABLE
  2
UCS
  5
7
100
AcDbSymbolTable
 70
0
  0
ENDTAB
  0
TABLE
  2
APPID
  5
9
100
AcDbSymbolTable
 70
1
  0
APPID
  5
201
100
AcDbSymbolTableRecord
100
AcDbRegAppTableRecord
  2
ACAD
 70
0
  0
ENDTAB
  0
TABLE
  2
BLOCK_RECORD
  5
1
100
AcDbSymbolTable
 70
0
  0
BLOCK_RECORD
  5
202
100
AcDbSymbolTableRecord
100
AcDbBlockTableRecord
  2
*Model_Space
  0
BLOCK_RECORD
  5
203
100
AcDbSymbolTableRecord
100
AcDbBlockTableRecord
  2
*Paper_Space
  0
BLOCK_RECORD
  5
204
100
AcDbSymbolTableRecord
100
AcDbBlockTableRecord
  2
_FILLED
  0
ENDTAB
  0
TABLE
  2
DIMSTYLE
  5
A
100
AcDbSymbolTable
 70
1
100
AcDbDimStyleTable
 71
0
  0
DIMSTYLE
105
205
100
AcDbSymbolTableRecord
100
AcDbDimStyleTableRecord
  2
STANDARD
 70
0
  3

  4

 40
1.0
 41
0.1
 42
0.0625
 43
0.38
 44
0.125
 45
0.0
 46
0.0
 47
0.001
 48
0.001
140
0.08
141
0.09
142
0.0
143
25.4
144
1.0
145
0.0
146
1.0
147
0.09
 71
1.0
 72
0.0
 73
1
 74
1
 75
0
 76
0
 77
0
 78
4
 79
1
170
1
171
2
172
0
173
0
174
0
175
0
176
0
177
0
178
0
270
2
179
3
271
3
272
3
273
2
274
2
275
0
280
0
281
0
282
0
283
1
284
4
285
0
286
0
287
3
288
0
340
11
278
46
341
204
342
204
343
204
344
204
  0
ENDTAB
  0
ENDSEC
  0
SECTION
  2
BLOCKS
  0
BLOCK
  5
20
100
AcDbEntity
  8
0
100
AcDbBlockBegin
  2
*Model_Space
 70
0
 10
0.0
 20
0.0
 30
0.0
  3
*Model_Space
  1

  0
ENDBLK
  5
21
100
AcDbEntity
  8
0
100
AcDbBlockEnd
  0
BLOCK
  5
1C
100
AcDbEntity
  8
0
100
AcDbBlockBegin
  2
*Paper_Space
 70
0
 10
0.0
 20
0.0
 30
0.0
  3
*Paper_Space
  1

  0
ENDBLK
  5
1D
100
AcDbEntity
  8
0
100
AcDbBlockEnd
  0
BLOCK
  5
206
100
AcDbEntity
  8
0
100
AcDbBlockBegin
  2
_FILLED
 70
64
 10
0.0
 20
0.0
  3
_FILLED
  1

  0
SOLID
  5
207
100
AcDbEntity
  8
0
  6
BYBLOCK
 62
0
100
AcDbTrace
 10
0.0
 20
0.0
 11
-1.0
 21
0.2
 12
-1.0
 22
-0.2
 13
-1.0
 23
-0.2
  0
ENDBLK
  5
208
100
AcDbEntity
  8
0
  6
BYBLOCK
 62
0
100
AcDbBlockEnd
  0
ENDSEC
  0
SECTION
  2
ENTITIES
  0
LINE
  5
209
100
AcDbEntity
  8
0
100
AcDbLine
 62
7
  6
CONTINUOUS
 10
4.9679976496
 20
10.6224533431
 11
5.0446006923
 21
11.0568907867
  0
LINE
  5
20A
100
AcDbEntity
  8
0
100
AcDbLine
 62
9
  6
CONTINUOUS
 10
5.0760262059
 20
10.6034049939
 11
5.1383809299
 21
10.9322466259
  0
LINE
  5
20B
100
AcDbEntity
  8
0
100
AcDbLine
 62
7
  6
CONTINUOUS
 10
6.4107410078
 20
10.3680587629
 11
6.4272729588
 21
10.4618161164
  0
LINE
  5
20C
100
AcDbEntity
  8
0
100
AcDbLine
 62
9
  6
CONTINUOUS
 10
7.1640421459
 20
10.8130699717
 11
7.647252657
 21
11.9793290975
  0
LINE
  5
20D
100
AcDbEntity
  8
0
100
AcDbLine
 62
7
  6
CONTINUOUS
 10
13.4619693287
 20
5.7234560529
 11
16.4519693287
 21
5.7234560529
  0
LINE
  5
20E
100
AcDbEntity
  8
0
100
AcDbLine
 62
9
  6
CONTINUOUS
 10
16.126680974
 20
6.0452241797
 11
13.7872576833
 21
6.0452241797
  0
LINE
  5
20F
100
AcDbEntity
  8
0
100
AcDbLine
 62
7
  6
CONTINUOUS
 10
14.0743532872
 20
6.3633995397
 11
13.66226135
 21
6.3633995397
  0
LINE
  5
210
100
AcDbEntity
  8
0
100
AcDbLine
 62
9
  6
CONTINUOUS
 10
14.2924276447
 20
6.8576479027
 11
15.6215110127
 21
6.8576479027
  0
LINE
  5
211
100
AcDbEntity
  8
0
100
AcDbLine
 62
7
  6
CONTINUOUS
 10
14.3796190595
 20
7.2504560529
 11
15.5343195979
 21
7.2504560529
  0
LINE
  5
212
100
AcDbEntity
  8
0
100
AcDbLine
 62
7
  6
CONTINUOUS
 10
15.3869693287
 20
7.3704560529
 11
14.5269693287
 21
7.3704560529
  0
LINE
  5
213
100
AcDbEntity
  8
0
100
AcDbLine
 62
7
  6
CONTINUOUS
 10
14.6444824698
 20
7.3804560529
 11
15.2694561876
 21
7.3804560529
  0
LINE
  5
214
100
AcDbEntity
  8
0
100
AcDbLine
 62
7
  6
CONTINUOUS
 10
14.4669702783
 20
7.6904560529
 11
14.7171482529
 21
7.6904560529
  0
LINE
  5
215
100
AcDbEntity
  8
0
100
AcDbLine
 62
7
  6
CONTINUOUS
 10
15.1967904044
 20
7.6904560529
 11
15.446968379
 21
7.6904560529
  0
LINE
  5
216
100
AcDbEntity
  8
0
100
AcDbLine
 62
7
  6
CONTINUOUS
 10
15.4469693287
 20
8.3154560529
 11
15.1980089079
 21
8.3154560529
  0
LINE
  5
217
100
AcDbEntity
  8
0
100
AcDbLine
 62
7
  6
CONTINUOUS
 10
14.7159297494
 20
8.3154560529
 11
14.4669693287
 21
8.3154560529
  0
LINE
  5
218
100
AcDbEntity
  8
0
100
AcDbLine
 62
9
  6
CONTINUOUS
 10
6.9918842169
 20
10.8697506496
 11
6.9604652146
 21
10.8886081177
  0
LINE
  5
219
100
AcDbEntity
  8
0
100
AcDbLine
 62
7
  6
CONTINUOUS
 10
15.6569693287
 20
9.7684560529
 11
14.2569693723
 21
9.7684560529
  0
LINE
  5
21A
100
AcDbEntity
  8
0
100
AcDbLine
 62
7
  6
CONTINUOUS
 10
15.4819693287
 20
9.8384560529
 11
14.4319693287
 21
9.8384560529
  0
LINE
  5
21B
100
AcDbEntity
  8
0
100
AcDbLine
 62
7
  6
CONTINUOUS
 10
15.2504693287
 20
9.8484560529
 11
14.6634693287
 21
9.8484560529
  0
LINE
  5
21C
100
AcDbEntity
  8
0
100
AcDbLine
 62
9
  6
CONTINUOUS
 10
14.6178017485
 20
9.884344252
 11
15.2961369089
 21
9.884344252
  0
LINE
  5
21D
100
AcDbEntity
  8
0
100
AcDbLine
 62
7
  6
CONTINUOUS
 10
4.9679976541
 20
10.6224533422
 11
6.4107410039
 21
10.3680587634
  0
LINE
  5
21E
100
AcDbEntity
  8
0
100
AcDbLine
 62
9
  6
CONTINUOUS
 10
5.1383850696
 20
10.9322458791
 11
5.0265649585
 21
10.9546050572
  0
LINE
  5
21F
100
AcDbEntity
  8
0
100
AcDbLine
 62
9
  6
CONTINUOUS
 10
5.1575421526
 20
11.0331901141
 11
5.0446006923
 21
11.0568907867
  0
LINE
  5
220
100
AcDbEntity
  8
0
100
AcDbLine
 62
9
  6
CONTINUOUS
 10
6.4272729588
 20
10.4618161164
 11
6.3181402416
 21
10.4850674121
  0
LINE
  5
221
100
AcDbEntity
  8
0
100
AcDbLine
 62
9
  6
CONTINUOUS
 10
6.4332072737
 20
10.490522827
 11
6.3228237487
 21
10.5154981272
  0
LINE
  5
222
100
AcDbEntity
  8
0
100
AcDbLine
 62
7
  6
CONTINUOUS
 10
14.3769693287
 20
10.3184560529
 11
15.5369693287
 21
10.3184560529
  0
LINE
  5
223
100
AcDbEntity
  8
0
100
AcDbLine
 62
7
  6
CONTINUOUS
 10
7.3239790382
 20
11.4385877302
 11
7.4087033874
 21
11.4035753613
  0
LINE
  5
224
100
AcDbEntity
  8
0
100
AcDbLine
 62
7
  6
CONTINUOUS
 10
12.9762241802
 20
9.0968313186
 11
7.4087129464
 21
11.403597288
  0
LINE
  5
225
100
AcDbEntity
  8
0
100
AcDbLine
 62
9
  6
CONTINUOUS
 10
7.073969156
 20
12.1865745261
 11
7.0424466455
 21
12.203166508
  0
LINE
  5
226
100
AcDbEntity
  8
0
100
AcDbLine
 62
7
  6
CONTINUOUS
 10
16.1444693287
 20
6.0302032956
 11
16.126680974
 21
6.0452241797
  0
LINE
  5
227
100
AcDbEntity
  8
0
100
AcDbLine
 62
7
  6
CONTINUOUS
 10
15.5369693287
 20
10.5284560529
 11
14.3769693287
 21
10.5284560529
  0
LINE
  5
228
100
AcDbEntity
  8
0
100
AcDbLine
 62
7
  6
CONTINUOUS
 10
14.964564487
 20
10.7084848965
 11
14.9494895578
 21
10.7084848965
  0
LINE
  5
229
100
AcDbEntity
  8
0
100
AcDbLine
 62
7
  6
CONTINUOUS
 10
7.5205564327
 20
12.0261122431
 11
7.6472367193
 21
11.9792859807
  0
LINE
  5
22A
100
AcDbEntity
  8
0
100
AcDbLine
 62
7
  6
CONTINUOUS
 10
7.0424466455
 20
12.203166508
 11
7.5132664175
 21
12.0289171501
  0
LINE
  5
22B
100
AcDbEntity
  8
0
100
AcDbLine
 62
9
  6
CONTINUOUS
 10
13.294673136
 20
9.9278289325
 11
12.6625374904
 21
8.2782592408
  0
LINE
  5
22C
100
AcDbEntity
  8
0
100
AcDbLine
 62
7
  6
CONTINUOUS
 10
15.5507193287
 20
6.0302032956
 11
15.5418251514
 21
6.0452241797
  0
LINE
  5
22D
100
AcDbEntity
  8
0
100
AcDbLine
 62
7
  6
CONTINUOUS
 10
13.4619693287
 20
5.7234560529
 11
13.4619693287
 21
5.7786953457
  0
LINE
  5
22E
100
AcDbEntity
  8
0
100
AcDbLine
 62
7
  6
CONTINUOUS
 10
13.7694693287
 20
5.7234560529
 11
13.7694693287
 21
6.0302032956
  0
LINE
  5
22F
100
AcDbEntity
  8
0
100
AcDbLine
 62
7
  6
CONTINUOUS
 10
14.4319693287
 20
9.8384560529
 11
14.3944693287
 21
9.7684560529
  0
LINE
  5
230
100
AcDbEntity
  8
0
100
AcDbLine
 62
7
  6
CONTINUOUS
 10
14.3769693287
 20
10.5284560529
 11
14.3769693287
 21
10.3184560529
  0
LINE
  5
231
100
AcDbEntity
  8
0
100
AcDbLine
 62
7
  6
CONTINUOUS
 10
14.4669693287
 20
7.6904560529
 11
14.4669693287
 21
8.3154560529
  0
LINE
  5
232
100
AcDbEntity
  8
0
100
AcDbLine
 62
7
  6
CONTINUOUS
 10
14.5269693287
 20
7.3704560529
 11
14.5269693287
 21
7.2504560529
  0
LINE
  5
233
100
AcDbEntity
  8
0
100
AcDbLine
 62
7
  6
CONTINUOUS
 10
14.6444693287
 20
7.3804560529
 11
14.6444693287
 21
7.6904560529
  0
LINE
  5
234
100
AcDbEntity
  8
0
100
AcDbLine
 62
7
  6
CONTINUOUS
 10
14.2924276447
 20
6.8576479027
 11
14.3796190595
 21
7.2504560529
  0
LINE
  5
235
100
AcDbEntity
  8
0
100
AcDbLine
 62
7
  6
CONTINUOUS
 10
14.7569693287
 20
7.3704560529
 11
14.7569693287
 21
7.3804560529
  0
LINE
  5
236
100
AcDbEntity
  8
0
100
AcDbLine
 62
7
  6
CONTINUOUS
 10
14.9569587896
 20
8.3994560526
 11
14.9569693287
 21
9.7684560529
  0
LINE
  5
237
100
AcDbEntity
  8
0
100
AcDbLine
 62
7
  6
CONTINUOUS
 10
15.1569693287
 20
7.3704560529
 11
15.1569693287
 21
7.3804560529
  0
LINE
  5
238
100
AcDbEntity
  8
0
100
AcDbLine
 62
7
  6
CONTINUOUS
 10
14.6246984867
 20
6.8576479027
 11
14.6682941941
 21
7.2504560529
  0
LINE
  5
239
100
AcDbEntity
  8
0
100
AcDbLine
 62
7
  6
CONTINUOUS
 10
13.7694693287
 20
6.0302032956
 11
13.7872576833
 21
6.0452241797
  0
LINE
  5
23A
100
AcDbEntity
  8
0
100
AcDbLine
 62
7
  6
CONTINUOUS
 10
15.6215110127
 20
6.8576479027
 11
15.5343195979
 21
7.2504560529
  0
LINE
  5
23B
100
AcDbEntity
  8
0
100
AcDbLine
 62
7
  6
CONTINUOUS
 10
15.2892401707
 20
6.8576479027
 11
15.2456444633
 21
7.2504560529
  0
LINE
  5
23C
100
AcDbEntity
  8
0
100
AcDbLine
 62
7
  6
CONTINUOUS
 10
15.2694693287
 20
7.3804560529
 11
15.2694693287
 21
7.6904560529
  0
LINE
  5
23D
100
AcDbEntity
  8
0
100
AcDbLine
 62
7
  6
CONTINUOUS
 10
15.3869693287
 20
7.3704560529
 11
15.3869693287
 21
7.2504560529
  0
LINE
  5
23E
100
AcDbEntity
  8
0
100
AcDbLine
 62
7
  6
CONTINUOUS
 10
15.4469693287
 20
7.6904560529
 11
15.4469693287
 21
8.3154560529
  0
LINE
  5
23F
100
AcDbEntity
  8
0
100
AcDbLine
 62
7
  6
CONTINUOUS
 10
15.5369693287
 20
10.5284560529
 11
15.5369693287
 21
10.3184560529
  0
LINE
  5
240
100
AcDbEntity
  8
0
100
AcDbLine
 62
7
  6
CONTINUOUS
 10
14.3632193287
 20
6.0302032956
 11
14.372113506
 21
6.0452241797
  0
LINE
  5
241
100
AcDbEntity
  8
0
100
AcDbLine
 62
7
  6
CONTINUOUS
 10
15.4819693287
 20
9.8384560529
 11
15.5194693287
 21
9.7684560529
  0
LINE
  5
242
100
AcDbEntity
  8
0
100
AcDbLine
 62
7
  6
CONTINUOUS
 10
16.1444693287
 20
5.7234560529
 11
16.1444693287
 21
6.0302032956
  0
LINE
  5
243
100
AcDbEntity
  8
0
100
AcDbLine
 62
7
  6
CONTINUOUS
 10
16.4519693287
 20
5.7234560529
 11
16.4519693287
 21
5.7786953457
  0
ARC
  5
244
100
AcDbEntity
  8
0
100
AcDbCircle
 62
7
  6
CONTINUOUS
 10
-339.8450164912
 20
-749.1479327348
 40
835.437617091
100
AcDbArc
 50
65.0426441052
 51
65.4578831504
  0
ARC
  5
245
100
AcDbEntity
  8
0
100
AcDbCircle
 62
7
  6
CONTINUOUS
 10
180.75333508
 20
479.7111275474
 40
498.7371564417
100
AcDbArc
 50
249.6906436929
 51
250.3809140679
  0
ARC
  5
246
100
AcDbEntity
  8
0
100
AcDbCircle
 62
9
  6
CONTINUOUS
 10
-149.4977278768
 20
0.0086415844
 40
164.2381123248
100
AcDbArc
 50
2.9052124814
 51
3.4067963999
  0
ARC
  5
247
100
AcDbEntity
  8
0
100
AcDbCircle
 62
7
  6
CONTINUOUS
 10
-3.7751221758
 20
-18.7001495868
 40
32.7367149873
100
AcDbArc
 50
69.8154149127
 51
70.6459610759
  0
ARC
  5
248
100
AcDbEntity
  8
0
100
AcDbCircle
 62
9
  6
CONTINUOUS
 10
27.8960657981
 20
7.7422559325
 40
21.7515490584
100
AcDbArc
 50
172.7558724571
 51
173.0173784439
  0
ARC
  5
249
100
AcDbEntity
  8
0
100
AcDbCircle
 62
7
  6
CONTINUOUS
 10
1.2671452566
 20
10.2827230823
 40
13.0
100
AcDbArc
 50
339.7287820666
 51
342.4530967739
  0
ARC
  5
24A
100
AcDbEntity
  8
0
100
AcDbCircle
 62
7
  6
CONTINUOUS
 10
28.6467934007
 20
10.2827230823
 40
13.0
100
AcDbArc
 50
182.2671554514
 51
200.27116938
  0
ARC
  5
24B
100
AcDbEntity
  8
0
100
AcDbCircle
 62
7
  6
CONTINUOUS
 10
11.1344255667
 20
19.508354299
 40
9.5588660926
100
AcDbArc
 50
245.1679644962
 51
245.4579252527
  0
ARC
  5
24C
100
AcDbEntity
  8
0
100
AcDbCircle
 62
7
  6
CONTINUOUS
 10
11.1883820178
 20
9.7349231497
 40
5.5467962324
100
AcDbArc
 50
169.1332598324
 51
169.8370938194
  0
ARC
  5
24D
100
AcDbEntity
  8
0
100
AcDbCircle
 62
7
  6
CONTINUOUS
 10
5.5259430122
 20
7.0752820981
 40
4.7192705905
100
AcDbArc
 50
67.6043788037
 51
71.5114247032
  0
ARC
  5
24E
100
AcDbEntity
  8
0
100
AcDbCircle
 62
7
  6
CONTINUOUS
 10
11.0404725001
 20
5.8514125524
 40
3.9253188814
100
AcDbArc
 50
23.1872707972
 51
26.0403519421
  0
ARC
  5
24F
100
AcDbEntity
  8
0
100
AcDbCircle
 62
7
  6
CONTINUOUS
 10
11.2314967732
 20
5.9449571251
 40
3.71261998
100
AcDbArc
 50
26.0374509482
 51
28.0461196216
  0
ARC
  5
250
100
AcDbEntity
  8
0
100
AcDbCircle
 62
7
  6
CONTINUOUS
 10
11.4902831829
 20
6.0890655186
 40
3.4163847391
100
AcDbArc
 50
29.3698280387
 51
32.764830773
  0
ARC
  5
251
100
AcDbEntity
  8
0
100
AcDbCircle
 62
7
  6
CONTINUOUS
 10
14.2180258588
 20
12.5181802947
 40
2.75
100
AcDbArc
 50
250.3809604242
 51
270.8114085621
  0
ARC
  5
252
100
AcDbEntity
  8
0
100
AcDbCircle
 62
7
  6
CONTINUOUS
 10
14.9569693287
 20
6.8977466327
 40
1.5
100
AcDbArc
 50
91.5225981433
 51
109.0665801007
  0
ARC
  5
253
100
AcDbEntity
  8
0
100
AcDbCircle
 62
7
  6
CONTINUOUS
 10
14.9569693287
 20
6.8977466327
 40
1.5
100
AcDbArc
 50
70.9334198993
 51
88.4774018567
  0
ARC
  5
254
100
AcDbEntity
  8
0
100
AcDbCircle
 62
7
  6
CONTINUOUS
 10
14.9493741703
 20
9.7084848965
 40
1.0
100
AcDbArc
 50
90.0
 51
124.9180935011
  0
ARC
  5
255
100
AcDbEntity
  8
0
100
AcDbCircle
 62
7
  6
CONTINUOUS
 10
14.964564487
 20
9.7084848965
 40
1.0
100
AcDbArc
 50
55.0819064989
 51
90.0
  0
ARC
  5
256
100
AcDbEntity
  8
0
100
AcDbCircle
 62
7
  6
CONTINUOUS
 10
16.2075452112
 20
9.6625810757
 40
0.938
100
AcDbArc
 50
135.6349766689
 51
166.3245818389
  0
ARC
  5
257
100
AcDbEntity
  8
0
100
AcDbCircle
 62
7
  6
CONTINUOUS
 10
13.7063934461
 20
9.6625810757
 40
0.938
100
AcDbArc
 50
13.6754181611
 51
44.3650233311
  0
ARC
  5
258
100
AcDbEntity
  8
0
100
AcDbCircle
 62
7
  6
CONTINUOUS
 10
6.7647703175
 20
10.0661831423
 40
0.8453870906
100
AcDbArc
 50
65.1463447049
 51
76.6154518304
  0
ARC
  5
259
100
AcDbEntity
  8
0
100
AcDbCircle
 62
7
  6
CONTINUOUS
 10
6.8993155594
 20
10.411196087
 40
0.5858512803
100
AcDbArc
 50
169.744674286
 51
172.7561619263
  0
ARC
  5
25A
100
AcDbEntity
  8
0
100
AcDbCircle
 62
7
  6
CONTINUOUS
 10
6.9194239213
 20
10.3741130535
 40
0.5009062997
100
AcDbArc
 50
66.3917409343
 51
81.6825025609
  0
ARC
  5
25B
100
AcDbEntity
  8
0
100
AcDbCircle
 62
7
  6
CONTINUOUS
 10
6.9197820682
 20
10.3749702736
 40
0.5001074117
100
AcDbArc
 50
166.6407803317
 51
169.9996391165
  0
ARC
  5
25C
100
AcDbEntity
  8
0
100
AcDbCircle
 62
7
  6
CONTINUOUS
 10
6.9196959784
 20
10.3749638262
 40
0.5000190726
100
AcDbArc
 50
81.6992463028
 51
166.6377822475
  0
CIRCLE
  5
25D
100
AcDbEntity
  8
0
100
AcDbCircle
 62
7
  6
CONTINUOUS
 10
14.9569693287
 20
8.0034560529
 40
0.396
  0
CIRCLE
  5
25E
100
AcDbEntity
  8
0
100
AcDbCircle
 62
9
  6
CONTINUOUS
 10
14.9569693287
 20
8.0034560529
 40
0.333
  0
CIRCLE
  5
25F
100
AcDbEntity
  8
0
100
AcDbCircle
 62
9
  6
CONTINUOUS
 10
14.9569693287
 20
8.0034560529
 40
0.2457641145
  0
CIRCLE
  5
260
100
AcDbEntity
  8
0
100
AcDbCircle
 62
9
  6
CONTINUOUS
 10
14.9569693287
 20
8.0034560529
 40
0.1840783009
  0
ARC
  5
261
100
AcDbEntity
  8
0
100
AcDbCircle
 62
7
  6
CONTINUOUS
 10
14.6634693287
 20
9.8954560529
 40
0.047
100
AcDbArc
 50
193.6754181615
 51
270.0
  0
ARC
  5
262
100
AcDbEntity
  8
0
100
AcDbCircle
 62
7
  6
CONTINUOUS
 10
15.2504693287
 20
9.8954560529
 40
0.047
100
AcDbArc
 50
270.0
 51
346.3245818385
  0
SPLINE
  5
263
100
AcDbEntity
  8
0
100
AcDbSpline
 62
7
  6
CONTINUOUS
 70
0
 71
3
 72
17
 73
13
 74
0
 42
0.0000001
 43
0.0000001
 44
0.0000000001
 40
0.0
 40
0.0
 40
0.0
 40
0.0
 40
0.1249770441
 40
0.2499919481
 40
0.3125003986
 40
0.3750034937
 40
0.4999932409
 40
0.6249856071
 40
0.7499782333
 40
0.8124967268
 40
0.8750250089
 40
1.0
 40
1.0
 40
1.0
 40
1.0
 10
13.7872576833
 20
6.0452241797
 30
0.0
 10
13.8182474817
 20
6.0713926577
 30
0.0
 10
13.8783722234
 20
6.1259917976
 30
0.0
 10
13.9482611482
 20
6.1996261984
 30
0.0
 10
14.000653698
 20
6.2616138082
 30
0.0
 10
14.0505875741
 20
6.3255867478
 30
0.0
 10
14.1081945805
 20
6.4091968158
 30
0.0
 10
14.1689116074
 20
6.514817353
 30
0.0
 10
14.211947725
 20
6.6068029358
 30
0.0
 10
14.2415257345
 20
6.6823942366
 30
0.0
 10
14.2677699429
 20
6.7591950438
 30
0.0
 10
14.2836385117
 20
6.8180517673
 30
0.0
 10
14.2924276447
 20
6.8576479027
 30
0.0
  0
SPLINE
  5
264
100
AcDbEntity
  8
0
100
AcDbSpline
 62
7
  6
CONTINUOUS
 70
0
 71
3
 72
17
 73
13
 74
0
 42
0.0000001
 43
0.0000001
 44
0.0000000001
 40
0.0
 40
0.0
 40
0.0
 40
0.0
 40
0.1249770441
 40
0.2499919481
 40
0.3125003986
 40
0.3750034937
 40
0.4999932409
 40
0.6249856071
 40
0.7499782333
 40
0.8124967268
 40
0.8750250089
 40
1.0
 40
1.0
 40
1.0
 40
1.0
 10
16.126680974
 20
6.0452241797
 30
0.0
 10
16.0956911757
 20
6.0713926577
 30
0.0
 10
16.0355664339
 20
6.1259917976
 30
0.0
 10
15.9656775091
 20
6.1996261984
 30
0.0
 10
15.9132849593
 20
6.2616138082
 30
0.0
 10
15.8633510833
 20
6.3255867478
 30
0.0
 10
15.8057440768
 20
6.4091968158
 30
0.0
 10
15.74502705
 20
6.514817353
 30
0.0
 10
15.7019909323
 20
6.6068029358
 30
0.0
 10
15.6724129229
 20
6.6823942366
 30
0.0
 10
15.6461687144
 20
6.7591950438
 30
0.0
 10
15.6303001456
 20
6.8180517673
 30
0.0
 10
15.6215110127
 20
6.8576479027
 30
0.0
  0
SPLINE
  5
265
100
AcDbEntity
  8
0
100
AcDbSpline
 62
7
  6
CONTINUOUS
 70
0
 71
3
 72
15
 73
11
 74
0
 42
0.0000001
 43
0.0000001
 44
0.0000000001
 40
0.0
 40
0.0
 40
0.0
 40
0.0
 40
0.109005595
 40
0.2230766538
 40
0.3420584987
 40
0.4657745495
 40
0.5939097207
 40
0.7260378051
 40
0.8616432253
 40
1.0
 40
1.0
 40
1.0
 40
1.0
 10
14.372113506
 20
6.0452241797
 30
0.0
 10
14.3879767662
 20
6.0720147623
 30
0.0
 10
14.4186518326
 20
6.1279168065
 30
0.0
 10
14.4604488419
 20
6.2162834201
 30
0.0
 10
14.4987311766
 20
6.3107791046
 30
0.0
 10
14.5331482572
 20
6.4110030149
 30
0.0
 10
14.5633692644
 20
6.5164805775
 30
0.0
 10
14.5890600705
 20
6.6266409958
 30
0.0
 10
14.6099141866
 20
6.7407835923
 30
0.0
 10
14.6203393234
 20
6.8183707588
 30
0.0
 10
14.6246984867
 20
6.8576479027
 30
0.0
  0
SPLINE
  5
266
100
AcDbEntity
  8
0
100
AcDbSpline
 62
7
  6
CONTINUOUS
 70
0
 71
3
 72
15
 73
11
 74
0
 42
0.0000001
 43
0.0000001
 44
0.0000000001
 40
0.0
 40
0.0
 40
0.0
 40
0.0
 40
0.1090055949
 40
0.2230766537
 40
0.342058499
 40
0.4657745504
 40
0.593909722
 40
0.726037806
 40
0.8616432256
 40
1.0
 40
1.0
 40
1.0
 40
1.0
 10
15.5418251514
 20
6.0452241797
 30
0.0
 10
15.5259618911
 20
6.0720147622
 30
0.0
 10
15.4952868248
 20
6.1279168066
 30
0.0
 10
15.4534898154
 20
6.2162834203
 30
0.0
 10
15.4152074798
 20
6.3107791047
 30
0.0
 10
15.3807903968
 20
6.4110030148
 30
0.0
 10
15.3505693878
 20
6.5164805771
 30
0.0
 10
15.3248785832
 20
6.6266409957
 30
0.0
 10
15.3040244696
 20
6.7407835924
 30
0.0
 10
15.293599334
 20
6.8183707588
 30
0.0
 10
15.2892401707
 20
6.8576479027
 30
0.0
  0
SPLINE
  5
267
100
AcDbEntity
  8
0
100
AcDbSpline
 62
7
  6
CONTINUOUS
 70
0
 71
3
 72
23
 73
19
 74
0
 42
0.0000001
 43
0.0000001
 44
0.0000000001
 40
0.0
 40
0.0
 40
0.0
 40
0.0
 40
0.0625018746
 40
0.1250081971
 40
0.1875105346
 40
0.2500003164
 40
0.3124922374
 40
0.3749981149
 40
0.4375049562
 40
0.5
 40
0.5624950438
 40
0.6250018851
 40
0.6875077626
 40
0.7499996836
 40
0.8124894654
 40
0.8749918029
 40
0.9374981254
 40
1.0
 40
1.0
 40
1.0
 40
1.0
 10
5.0446006923
 20
11.0568907867
 30
0.0
 10
5.054096081
 20
11.1107418121
 30
0.0
 10
5.0790947155
 20
11.2174825588
 30
0.0
 10
5.133780014
 20
11.3724740059
 30
0.0
 10
5.2049146608
 20
11.5206483751
 30
0.0
 10
5.2917589529
 20
11.6601903979
 30
0.0
 10
5.3935401291
 20
11.7892482114
 30
0.0
 10
5.5087674821
 20
11.9064608718
 30
0.0
 10
5.6359998286
 20
12.0105234667
 30
0.0
 10
5.7738083447
 20
12.1001159562
 30
0.0
 10
5.9207024098
 20
12.1738732265
 30
0.0
 10
6.0747512333
 20
12.2311973369
 30
0.0
 10
6.2340941244
 20
12.271520949
 30
0.0
 10
6.3968772146
 20
12.2942584202
 30
0.0
 10
6.5611732696
 20
12.2988096305
 30
0.0
 10
6.7249935636
 20
12.2854420235
 30
0.0
 10
6.886397647
 20
12.2544331145
 30
0.0
 10
6.9911643377
 20
12.2221459769
 30
0.0
 10
7.0424466455
 20
12.203166508
 30
0.0
  0
SPLINE
  5
268
100
AcDbEntity
  8
0
100
AcDbSpline
 62
7
  6
CONTINUOUS
 70
0
 71
3
 72
8
 73
4
 74
0
 42
0.0000001
 43
0.0000001
 44
0.0000000001
 40
0.0
 40
0.0
 40
0.0
 40
0.0
 40
1.0
 40
1.0
 40
1.0
 40
1.0
 10
12.6625374781
 20
8.2782592144
 30
0.0
 10
13.3249777516
 20
7.9699578465
 30
0.0
 10
13.8792849061
 20
7.0497506774
 30
0.0
 10
13.66226135
 20
6.3633995397
 30
0.0
  0
LINE
  5
269
100
AcDbEntity
  8
0
100
AcDbLine
 62
7
  6
CONTINUOUS
 10
5.1383852144
 20
10.9322446356
 11
5.1575466516
 21
11.0331875988
  0
SPLINE
  5
26A
100
AcDbEntity
  8
0
100
AcDbSpline
 62
9
  6
CONTINUOUS
 70
0
 71
3
 72
15
 73
11
 74
0
 42
0.0000001
 43
0.0000001
 44
0.0000000001
 40
0.0
 40
0.0
 40
0.0
 40
0.0
 40
0.2946734517
 40
0.4362882524
 40
0.5709674084
 40
0.6964748371
 40
0.8109683294
 40
0.9127134412
 40
0.9582698806
 40
1.0
 40
1.0
 40
1.0
 40
1.0
 10
5.7286147519
 20
10.7136416215
 30
0.0
 10
5.6699588372
 20
10.7332538658
 30
0.0
 10
5.5832310198
 20
10.762647091
 30
0.0
 10
5.470131853
 20
10.8022703035
 30
0.0
 10
5.3907877213
 20
10.8308485535
 30
0.0
 10
5.3171079972
 20
10.8583425346
 30
0.0
 10
5.2502649402
 20
10.8843662688
 30
0.0
 10
5.1994255448
 20
10.9052253692
 30
0.0
 10
5.1630224271
 20
10.9210056421
 30
0.0
 10
5.1463285266
 20
10.9285546024
 30
0.0
 10
5.1383852144
 20
10.9322446356
 30
0.0
  0
SPLINE
  5
26B
100
AcDbEntity
  8
0
100
AcDbSpline
 62
7
  6
CONTINUOUS
 70
0
 71
3
 72
17
 73
13
 74
0
 42
0.0000001
 43
0.0000001
 44
0.0000000001
 40
0.0
 40
0.0
 40
0.0
 40
0.0
 40
0.0590612255
 40
0.1183573375
 40
0.1779776191
 40
0.2379975428
 40
0.3593629775
 40
0.4829939485
 40
0.6090324358
 40
0.7373992918
 40
0.8678501214
 40
1.0
 40
1.0
 40
1.0
 40
1.0
 10
6.3228237487
 20
10.5154981272
 30
0.0
 10
6.3257150568
 20
10.5314828836
 30
0.0
 10
6.333344174
 20
10.5632132835
 30
0.0
 10
6.3500386702
 20
10.6093285646
 30
0.0
 10
6.3717969009
 20
10.6535860657
 30
0.0
 10
6.4073812316
 20
10.7096436621
 30
0.0
 10
6.4637268785
 20
10.7727193225
 30
0.0
 10
6.5464463486
 20
10.8336696253
 30
0.0
 10
6.6415345963
 20
10.87741036
 30
0.0
 10
6.7450728485
 20
10.9024223387
 30
0.0
 10
6.8531127041
 20
10.9072128087
 30
0.0
 10
6.9251027581
 20
10.8970079099
 30
0.0
 10
6.9604652001
 20
10.8886081263
 30
0.0
  0
SPLINE
  5
26C
100
AcDbEntity
  8
0
100
AcDbSpline
 62
7
  6
CONTINUOUS
 70
0
 71
3
 72
23
 73
19
 74
0
 42
0.0000001
 43
0.0000001
 44
0.0000000001
 40
0.0
 40
0.0
 40
0.0
 40
0.0
 40
0.0634763453
 40
0.126833728
 40
0.1900492377
 40
0.2531042274
 40
0.3160048671
 40
0.3787599002
 40
0.4413605075
 40
0.5038018016
 40
0.5661045893
 40
0.6282946114
 40
0.6903789394
 40
0.7523667736
 40
0.8142917786
 40
0.8761928477
 40
0.9380890931
 40
1.0
 40
1.0
 40
1.0
 40
1.0
 10
5.7410491823
 20
10.7806350753
 30
0.0
 10
5.747801362
 20
10.8158075593
 30
0.0
 10
5.7649876814
 20
10.8854331333
 30
0.0
 10
5.8013602923
 20
10.9864980184
 30
0.0
 10
5.8478560393
 20
11.0830739829
 30
0.0
 10
5.9040241526
 20
11.1740674956
 30
0.0
 10
5.9693966284
 20
11.2583648967
 30
0.0
 10
6.0430823419
 20
11.3351384167
 30
0.0
 10
6.1242173645
 20
11.403593033
 30
0.0
 10
6.2119450874
 20
11.462925921
 30
0.0
 10
6.3053752399
 20
11.5123077495
 30
0.0
 10
6.403351091
 20
11.5513549103
 30
0.0
 10
6.5047561318
 20
11.5797036788
 30
0.0
 10
6.6084785454
 20
11.5969802983
 30
0.0
 10
6.7133648688
 20
11.6028014039
 30
0.0
 10
6.8182127896
 20
11.5972920174
 30
0.0
 10
6.9218472111
 20
11.5805849847
 30
0.0
 10
6.9893684191
 20
11.5620537691
 30
0.0
 10
7.0224971391
 20
11.5509769217
 30
0.0
  0
SPLINE
  5
26D
100
AcDbEntity
  8
0
100
AcDbSpline
 62
9
  6
CONTINUOUS
 70
0
 71
3
 72
15
 73
11
 74
0
 42
0.0000001
 43
0.0000001
 44
0.0000000001
 40
0.0
 40
0.0
 40
0.0
 40
0.0
 40
0.0414202363
 40
0.0867756023
 40
0.1883664402
 40
0.3029035647
 40
0.4284921569
 40
0.7047767373
 40
0.851113629
 40
1.0
 40
1.0
 40
1.0
 40
1.0
 10
6.3228237487
 20
10.5154981272
 30
0.0
 10
6.3151429134
 20
10.5198598559
 30
0.0
 10
6.2989543936
 20
10.5288270636
 30
0.0
 10
6.2635063966
 20
10.54772426
 30
0.0
 10
6.2137789194
 20
10.572965227
 30
0.0
 10
6.1482074768
 20
10.6047616153
 30
0.0
 10
6.0484493798
 20
10.651410921
 30
0.0
 10
5.9416764473
 20
10.6990627039
 30
0.0
 10
5.8292365453
 20
10.7460931341
 30
0.0
 10
5.7706985619
 20
10.769278002
 30
0.0
 10
5.7410491823
 20
10.7806350753
 30
0.0
  0
SPLINE
  5
26E
100
AcDbEntity
  8
0
100
AcDbSpline
 62
7
  6
CONTINUOUS
 70
0
 71
3
 72
25
 73
21
 74
0
 42
0.0000001
 43
0.0000001
 44
0.0000000001
 40
0.0
 40
0.0
 40
0.0
 40
0.0
 40
0.0638686913
 40
0.1276358562
 40
0.1912601859
 40
0.254705203
 40
0.3179611694
 40
0.3810218469
 40
0.443862873
 40
0.4752052607
 40
0.5064873425
 40
0.56885821
 40
0.6310146506
 40
0.6620231837
 40
0.6929768889
 40
0.7546998266
 40
0.8162342669
 40
0.8776173629
 40
0.9388664251
 40
1.0
 40
1.0
 40
1.0
 40
1.0
 10
5.1575421526
 20
11.0331901141
 30
0.0
 10
5.1676470277
 20
11.0862576166
 30
0.0
 10
5.1934271348
 20
11.1913286604
 30
0.0
 10
5.2480985823
 20
11.3438708883
 30
0.0
 10
5.3180595864
 20
11.489657799
 30
0.0
 10
5.4026180601
 20
11.6269934856
 30
0.0
 10
5.5010582514
 20
11.754151241
 30
0.0
 10
5.6119808514
 20
11.8698484652
 30
0.0
 10
5.7138298593
 20
11.9558016165
 30
0.0
 10
5.8001856445
 20
12.0175559145
 30
0.0
 10
5.8894124864
 20
12.0743502172
 30
0.0
 10
6.0062495307
 20
12.1359084942
 30
0.0
 10
6.1288209408
 20
12.1844260114
 30
0.0
 10
6.2292811832
 20
12.2150580643
 30
0.0
 10
6.3308938656
 20
12.2401201427
 30
0.0
 10
6.4599442301
 20
12.2609619213
 30
0.0
 10
6.6162435878
 20
12.2685709931
 30
0.0
 10
6.7720382152
 20
12.2590101109
 30
0.0
 10
6.925498695
 20
12.2325308411
 30
0.0
 10
7.0251836678
 20
12.2037108062
 30
0.0
 10
7.0739691561
 20
12.1865745261
 30
0.0
  0
SPLINE
  5
26F
100
AcDbEntity
  8
0
100
AcDbSpline
 62
9
  6
CONTINUOUS
 70
0
 71
3
 72
15
 73
11
 74
0
 42
0.0000001
 43
0.0000001
 44
0.0000000001
 40
0.0
 40
0.0
 40
0.0
 40
0.0
 40
0.2939821872
 40
0.4353395561
 40
0.5698656483
 40
0.6953604636
 40
0.8100098317
 40
0.912110997
 40
0.9579343648
 40
1.0
 40
1.0
 40
1.0
 40
1.0
 10
5.7410491823
 20
10.7806350753
 30
0.0
 10
5.6828704395
 20
10.8030460129
 30
0.0
 10
5.5968861813
 20
10.8366794797
 30
0.0
 10
5.4849166742
 20
10.8821639728
 30
0.0
 10
5.4064126607
 20
10.9150765506
 30
0.0
 10
5.3335860823
 20
10.9468634634
 30
0.0
 10
5.2675934264
 20
10.9770895361
 30
0.0
 10
5.2175042497
 20
11.0014374346
 30
0.0
 10
5.1817142105
 20
11.0199485489
 30
0.0
 10
5.1653288204
 20
11.0288366744
 30
0.0
 10
5.1575421526
 20
11.0331901141
 30
0.0
  0
SPLINE
  5
270
100
AcDbEntity
  8
0
100
AcDbSpline
 62
9
  6
CONTINUOUS
 70
0
 71
3
 72
9
 73
5
 74
0
 42
0.0000001
 43
0.0000001
 44
0.0000000001
 40
0.0
 40
0.0
 40
0.0
 40
0.0
 40
0.5006978939
 40
1.0
 40
1.0
 40
1.0
 40
1.0
 10
13.968542466
 20
8.433644962
 30
0.0
 10
13.9629750175
 20
8.6590392822
 30
0.0
 10
13.9519250267
 20
9.1092068687
 30
0.0
 10
13.9349052251
 20
9.5591987734
 30
0.0
 10
13.9251424508
 20
9.7838212639
 30
0.0
  0
SPLINE
  5
271
100
AcDbEntity
  8
0
100
AcDbSpline
 62
9
  6
CONTINUOUS
 70
0
 71
3
 72
11
 73
7
 74
0
 42
0.0000001
 43
0.0000001
 44
0.0000000001
 40
0.0
 40
0.0
 40
0.0
 40
0.0
 40
0.2480029778
 40
0.4981671073
 40
0.7493185292
 40
1.0
 40
1.0
 40
1.0
 40
1.0
 10
14.3631175323
 20
7.937986146
 30
0.0
 10
14.3551318518
 20
8.0893519645
 30
0.0
 10
14.3391949823
 20
8.3934080354
 30
0.0
 10
14.3142221265
 20
8.8507019603
 30
0.0
 10
14.2868638355
 20
9.309500154
 30
0.0
 10
14.2671603897
 20
9.615581856
 30
0.0
 10
14.256969414
 20
9.7684559401
 30
0.0
  0
SPLINE
  5
272
100
AcDbEntity
  8
0
100
AcDbSpline
 62
9
  6
CONTINUOUS
 70
0
 71
3
 72
9
 73
5
 74
0
 42
0.0000001
 43
0.0000001
 44
0.0000000001
 40
0.0
 40
0.0
 40
0.0
 40
0.0
 40
0.5001183926
 40
1.0
 40
1.0
 40
1.0
 40
1.0
 10
7.3239793547
 20
11.4385886296
 30
0.0
 10
7.3554694668
 20
11.536948321
 30
0.0
 10
7.4185465946
 20
11.7335863437
 30
0.0
 10
7.4854713264
 20
11.9289798931
 30
0.0
 10
7.5205403526
 20
12.0260691396
 30
0.0
  0
SPLINE
  5
273
100
AcDbEntity
  8
0
100
AcDbSpline
 62
9
  6
CONTINUOUS
 70
0
 71
3
 72
12
 73
8
 74
0
 42
0.0000001
 43
0.0000001
 44
0.0000000001
 40
0.0
 40
0.0
 40
0.0
 40
0.0
 40
0.253492469
 40
0.5071781629
 40
0.7572492011
 40
0.8797616058
 40
1.0
 40
1.0
 40
1.0
 40
1.0
 10
7.0224971295
 20
11.5509765396
 30
0.0
 10
7.0238497256
 20
11.604894908
 30
0.0
 10
7.026932466
 20
11.7127665831
 30
0.0
 10
7.0352181809
 20
11.8736956139
 30
0.0
 10
7.0473566498
 20
12.0064486572
 30
0.0
 10
7.0610765316
 20
12.1104165617
 30
0.0
 10
7.0693998145
 20
12.1614028803
 30
0.0
 10
7.0739691533
 20
12.1865745109
 30
0.0
  0
SPLINE
  5
274
100
AcDbEntity
  8
0
100
AcDbSpline
 62
9
  6
CONTINUOUS
 70
0
 71
3
 72
14
 73
10
 74
0
 42
0.0000001
 43
0.0000001
 44
0.0000000001
 40
0.0
 40
0.0
 40
0.0
 40
0.0
 40
0.1181296221
 40
0.239720624
 40
0.3642220735
 40
0.4910303799
 40
0.619374559
 40
0.7479471871
 40
1.0
 40
1.0
 40
1.0
 40
1.0
 10
6.9604652001
 20
10.8886081263
 30
0.0
 10
6.9654928798
 20
10.9143420327
 30
0.0
 10
6.9746357605
 20
10.9667741678
 30
0.0
 10
6.9859336112
 20
11.0468350663
 30
0.0
 10
6.9953620564
 20
11.1290743298
 30
0.0
 10
7.0032468309
 20
11.2129780257
 30
0.0
 10
7.0099064791
 20
11.2978934024
 30
0.0
 10
7.01712569
 20
11.4106374945
 30
0.0
 10
7.020825216
 20
11.495055048
 30
0.0
 10
7.0224971275
 20
11.5509765343
 30
0.0
  0
SPLINE
  5
275
100
AcDbEntity
  8
0
100
AcDbSpline
 62
9
  6
CONTINUOUS
 70
0
 71
3
 72
10
 73
6
 74
0
 42
0.0000001
 43
0.0000001
 44
0.0000000001
 40
0.0
 40
0.0
 40
0.0
 40
0.0
 40
0.2486596612
 40
0.4992823073
 40
1.0
 40
1.0
 40
1.0
 40
1.0
 10
7.1200881967
 20
10.8332741002
 30
0.0
 10
7.1382449765
 20
10.8830084413
 30
0.0
 10
7.1737093689
 20
10.9832331346
 30
0.0
 10
7.2419343109
 20
11.1849319163
 30
0.0
 10
7.2912971061
 20
11.3371069469
 30
0.0
 10
7.3239790382
 20
11.4385877302
 30
0.0
  0
LINE
  5
276
100
AcDbEntity
  8
0
100
AcDbLine
 62
7
  6
CONTINUOUS
 10
14.6550344062
 20
7.3821436532
 11
14.6592762273
 21
7.3721078388
  0
SPLINE
  5
277
100
AcDbEntity
  8
0
100
AcDbSpline
 62
7
  6
CONTINUOUS
 70
0
 71
3
 72
15
 73
11
 74
0
 42
0.0000001
 43
0.0000001
 44
0.0000000001
 40
0.0
 40
0.0
 40
0.0
 40
0.0
 40
0.1283784566
 40
0.2551714648
 40
0.3806795902
 40
0.5052127021
 40
0.6290879868
 40
0.7526276975
 40
0.876156714
 40
1.0
 40
1.0
 40
1.0
 40
1.0
 10
12.9762025503
 20
9.0968375966
 30
0.0
 10
13.0237059688
 20
9.0771561171
 30
0.0
 10
13.1172319751
 20
9.035831908
 30
0.0
 10
13.2536206587
 20
8.9675404868
 30
0.0
 10
13.3851436903
 20
8.8933690083
 30
0.0
 10
13.5117942423
 20
8.8133190138
 30
0.0
 10
13.6335701766
 20
8.7273908378
 30
0.0
 10
13.750469325
 20
8.6355847685
 30
0.0
 10
13.8624856651
 20
8.5379060411
 30
0.0
 10
13.933762847
 20
8.4690117535
 30
0.0
 10
13.9685424714
 20
8.4336449564
 30
0.0
  0
LINE
  5
278
100
AcDbEntity
  8
0
100
AcDbLine
 62
7
  6
CONTINUOUS
 10
5.689348761
 20
10.4952596811
 11
5.7285947687
 21
10.7136482675
  0
SPLINE
  5
279
100
AcDbEntity
  8
0
100
AcDbSpline
 62
7
  6
CONTINUOUS
 70
0
 71
3
 72
11
 73
7
 74
0
 42
0.0000001
 43
0.0000001
 44
0.0000000001
 40
0.0
 40
0.0
 40
0.0
 40
0.0
 40
0.2463324253
 40
0.4946671557
 40
0.745673582
 40
1.0
 40
1.0
 40
1.0
 40
1.0
 10
13.9685424714
 20
8.4336449564
 30
0.0
 10
14.0050772511
 20
8.3964933725
 30
0.0
 10
14.0764689515
 20
8.319917733
 30
0.0
 10
14.1778749307
 20
8.1990163823
 30
0.0
 10
14.273945738
 20
8.0717107222
 30
0.0
 10
14.3339963773
 20
7.9832195682
 30
0.0
 10
14.3631175427
 20
7.9379861299
 30
0.0
  0
SPLINE
  5
27A
100
AcDbEntity
  8
0
100
AcDbSpline
 62
7
  6
CONTINUOUS
 70
0
 71
3
 72
11
 73
7
 74
0
 42
0.0000001
 43
0.0000001
 44
0.0000000001
 40
0.0
 40
0.0
 40
0.0
 40
0.0
 40
0.2451198789
 40
0.493604935
 40
0.7453183351
 40
1.0
 40
1.0
 40
1.0
 40
1.0
 10
13.7968220212
 20
6.0544699986
 30
0.0
 10
13.7824831652
 20
6.0780447271
 30
0.0
 10
13.7556451019
 20
6.1267752036
 30
0.0
 10
13.7203812093
 20
6.2029605915
 30
0.0
 10
13.6892056939
 20
6.2820544605
 30
0.0
 10
13.6709047571
 20
6.3360642017
 30
0.0
 10
13.66226135
 20
6.3633995397
 30
0.0
  0
LINE
  5
27B
100
AcDbEntity
  8
0
100
AcDbLine
 62
9
  6
CONTINUOUS
 10
14.5673129881
 20
7.5746433822
 11
14.5616064569
 21
7.6889213976
  0
SPLINE
  5
27C
100
AcDbEntity
  8
0
100
AcDbSpline
 62
7
  6
CONTINUOUS
 70
0
 71
3
 72
11
 73
7
 74
0
 42
0.0000001
 43
0.0000001
 44
0.0000000001
 40
0.0
 40
0.0
 40
0.0
 40
0.0
 40
0.254682289
 40
0.5063957516
 40
0.7548805867
 40
1.0
 40
1.0
 40
1.0
 40
1.0
 10
16.2516773073
 20
6.3633995397
 30
0.0
 10
16.2430337876
 20
6.3360638452
 30
0.0
 10
16.2247324875
 20
6.2820535103
 30
0.0
 10
16.1935567653
 20
6.2029586959
 30
0.0
 10
16.1582922032
 20
6.1267727118
 30
0.0
 10
16.1314537835
 20
6.0780418454
 30
0.0
 10
16.1171146686
 20
6.0544669937
 30
0.0
  0
SPLINE
  5
27D
100
AcDbEntity
  8
0
100
AcDbSpline
 62
9
  6
CONTINUOUS
 70
0
 71
3
 72
14
 73
10
 74
0
 42
0.0000001
 43
0.0000001
 44
0.0000000001
 40
0.0
 40
0.0
 40
0.0
 40
0.0
 40
0.0862538507
 40
0.1874504489
 40
0.3017292319
 40
0.4272160339
 40
0.7038258604
 40
0.8505700466
 40
1.0
 40
1.0
 40
1.0
 40
1.0
 10
6.3181402414
 20
10.485067412
 30
0.0
 10
6.301683322
 20
10.4928074991
 30
0.0
 10
6.2656372965
 20
10.5090300858
 30
0.0
 10
6.2071197038
 20
10.5339947146
 30
0.0
 10
6.14059512
 20
10.5612531701
 30
0.0
 10
6.0393981839
 20
10.6014180052
 30
0.0
 10
5.9312420905
 20
10.6426014878
 30
0.0
 10
5.8175915524
 20
10.6834602838
 30
0.0
 10
5.7585112948
 20
10.7036985569
 30
0.0
 10
5.728614752
 20
10.7136416215
 30
0.0
  0
ELLIPSE
  5
27E
100
AcDbEntity
  8
0
100
AcDbEllipse
 62
7
  6
CONTINUOUS
 10
14.9569693287
 20
7.0329548233
 30
0.0
 11
1.1492470711
 21
1.1162095399
 31
0.0
 40
0.2678505055
 41
-3.3961017501
 42
-2.3489041989
  0
ELLIPSE
  5
27F
100
AcDbEntity
  8
0
100
AcDbEllipse
 62
7
  6
CONTINUOUS
 10
14.9569693287
 20
7.0329548233
 30
0.0
 11
-1.1492470711
 21
1.1162095399
 31
0.0
 40
0.2678505055
 41
-3.9342811082
 42
-2.887083557
  0
ELLIPSE
  5
280
100
AcDbEntity
  8
0
100
AcDbEllipse
 62
7
  6
CONTINUOUS
 10
14.9569693287
 20
7.0329548233
 30
0.0
 11
1.1875
 21
-0.0
 31
0.0
 40
0.9750549296
 41
-2.0943951024
 42
-1.0471975512
  0
ENDSEC
  0
SECTION
  2
OBJECTS
  0
DICTIONARY
  5
C
100
AcDbDictionary
280
0
281
1
  3
ACAD_GROUP
350
D
  3
ACAD_MLINESTYLE
350
17
  3
ACAD_LAYOUT
350
1A
  3
ACAD_PLOTSETTINGS
350
19
  3
ACAD_PLOTSTYLENAME
350
E
  0
DICTIONARY
  5
D
102
{ACAD_REACTORS
330
C
102
}
100
AcDbDictionary
280
0
281
1
  0
ACDBDICTIONARYWDFLT
  5
E
102
{ACAD_REACTORS
330
C
102
}
100
AcDbDictionary
281
1
  3
Normal
350
F
100
AcDbDictionaryWithDefault
340
F
  0
DICTIONARY
  5
17
102
{ACAD_REACTORS
330
C
102
}
100
AcDbDictionary
280
0
281
1
  3
Standard
350
18
  0
DICTIONARY
  5
19
102
{ACAD_REACTORS
330
C
102
}
100
AcDbDictionary
281
1
  0
DICTIONARY
  5
1A
102
{ACAD_REACTORS
330
C
102
}
100
AcDbDictionary
281
1
  3
Model
350
281
  3
Layout1
350
282
  0
ACDBPLACEHOLDER
  5
F
102
{ACAD_REACTORS
330
E
102
}
  0
MLINESTYLE
  5
18
102
{ACAD_REACTORS
330
17
102
}
100
AcDbMlineStyle
  2
STANDARD
 70
0
  3

 62
256
 51
90.0
 52
90.0
 71
2
 49
0.5
 62
256
  6
BYLAYER
 49
-0.5
 62
256
  6
BYLAYER
  0
LAYOUT
  5
281
102
{ACAD_REACTORS
330
1A
102
}
100
AcDbPlotSettings
  1

  2
none_device
  4
ANSI_C_(22.00_x_17.00_Inches)
  6

 40
0.0
 41
0.0
 42
0.0
 43
0.0
 44
558.8
 45
431.8
 46
0.0
 47
0.0
 48
0.0
 49
0.0
140
0.0
141
0.0
142
1.0
143
1.0
 70
1024
 72
0
 73
0
 74
0
  7

 75
0
147
1.0
148
0.0
149
0.0
100
AcDbLayout
  1
Model
 70
0
 71
0
 10
0.0
 20
0.0
 11
22.0
 21
17.0
 12
0.0
 22
0.0
 32
0.0
 14
0.0
 24
0.0
 34
0.0
 15
0.0
 25
0.0
 35
0.0
146
0.0
 13
0.0
 23
0.0
 33
0.0
 16
1.0
 26
0.0
 36
0.0
 17
0.0
 27
1.0
 37
0.0
 76
0
330
202
345
0
346
0
  0
LAYOUT
  5
282
102
{ACAD_REACTORS
330
1A
102
}
100
AcDbPlotSettings
  1

  2
none_device
  4
ANSI_C_(22.00_x_17.00_Inches)
  6

 40
0.0
 41
0.0
 42
0.0
 43
0.0
 44
558.8
 45
431.8
 46
0.0
 47
0.0
 48
0.0
 49
0.0
140
0.0
141
0.0
142
1.0
143
1.0
 70
0
 72
0
 73
0
 74
0
  7

 75
0
147
1.0
148
0.0
149
0.0
100
AcDbLayout
  1
Layout1
 70
0
 71
1
 10
0.0
 20
0.0
 11
22.0
 21
17.0
 12
0.0
 22
0.0
 32
0.0
 14
0.0
 24
0.0
 34
0.0
 15
0.0
 25
0.0
 35
0.0
146
0.0
 13
0.0
 23
0.0
 33
0.0
 16
1.0
 26
0.0
 36
0.0
 17
0.0
 27
1.0
 37
0.0
 76
0
330
203
345
0
346
0
  0
ENDSEC
  0
EOF
